  0
SECTION
  2
HEADER
  9
$ACADVER
  1
AC1018
  9
$ACADMAINTVER
 70
     0
  9
$DWGCODEPAGE
  3
ANSI_1252
  9
$INSBASE
 10
0.0
 20
0.0
 30
0.0
  9
$EXTMIN
 10
1.251710227878643
 20
1.947088667375105
 30
0.0
  9
$EXTMAX
 10
7.556745596870641
 20
8.919134085147581
 30
0.0
  9
$LIMMIN
 10
0.0
 20
0.0
  9
$LIMMAX
 10
8.5
 20
11.0
  9
$ORTHOMODE
 70
     0
  9
$REGENMODE
 70
     1
  9
$FILLMODE
 70
     1
  9
$QTEXTMODE
 70
     0
  9
$MIRRTEXT
 70
     1
  9
$LTSCALE
 40
1.0
  9
$ATTMODE
 70
     1
  9
$TEXTSIZE
 40
0.25
  9
$TRACEWID
 40
0.05
  9
$TEXTSTYLE
  7
Standard
  9
$CLAYER
  8
0
  9
$CELTYPE
  6
ByLayer
  9
$CECOLOR
 62
   256
  9
$CELTSCALE
 40
1.0
  9
$DISPSILH
 70
     0
  9
$DIMSCALE
 40
1.0
  9
$DIMASZ
 40
0.156
  9
$DIMEXO
 40
0.05
  9
$DIMDLI
 40
0.38
  9
$DIMRND
 40
0.0
  9
$DIMDLE
 40
0.0
  9
$DIMEXE
 40
0.125
  9
$DIMTP
 40
0.0
  9
$DIMTM
 40
0.0
  9
$DIMTXT
 40
0.125
  9
$DIMCEN
 40
0.09
  9
$DIMTSZ
 40
0.0
  9
$DIMTOL
 70
     0
  9
$DIMLIM
 70
     0
  9
$DIMTIH
 70
     1
  9
$DIMTOH
 70
     1
  9
$DIMSE1
 70
     0
  9
$DIMSE2
 70
     0
  9
$DIMTAD
 70
     0
  9
$DIMZIN
 70
     0
  9
$DIMBLK
  1

  9
$DIMASO
 70
     1
  9
$DIMSHO
 70
     1
  9
$DIMPOST
  1

  9
$DIMAPOST
  1

  9
$DIMALT
 70
     0
  9
$DIMALTD
 70
     2
  9
$DIMALTF
 40
25.4
  9
$DIMLFAC
 40
24.0
  9
$DIMTOFL
 70
     0
  9
$DIMTVP
 40
0.0
  9
$DIMTIX
 70
     0
  9
$DIMSOXD
 70
     0
  9
$DIMSAH
 70
     0
  9
$DIMBLK1
  1

  9
$DIMBLK2
  1

  9
$DIMSTYLE
  2
Standard
  9
$DIMCLRD
 70
     0
  9
$DIMCLRE
 70
     0
  9
$DIMCLRT
 70
     0
  9
$DIMTFAC
 40
1.0
  9
$DIMGAP
 40
0.06
  9
$DIMJUST
 70
     0
  9
$DIMSD1
 70
     0
  9
$DIMSD2
 70
     0
  9
$DIMTOLJ
 70
     1
  9
$DIMTZIN
 70
     0
  9
$DIMALTZ
 70
     0
  9
$DIMALTTZ
 70
     0
  9
$DIMUPT
 70
     0
  9
$DIMDEC
 70
     3
  9
$DIMTDEC
 70
     3
  9
$DIMALTU
 70
     2
  9
$DIMALTTD
 70
     2
  9
$DIMTXSTY
  7
Standard
  9
$DIMAUNIT
 70
     0
  9
$DIMADEC
 70
     0
  9
$DIMALTRND
 40
0.0
  9
$DIMAZIN
 70
     0
  9
$DIMDSEP
 70
    46
  9
$DIMATFIT
 70
     3
  9
$DIMFRAC
 70
     0
  9
$DIMLDRBLK
  1

  9
$DIMLUNIT
 70
     2
  9
$DIMLWD
 70
    -2
  9
$DIMLWE
 70
    -2
  9
$DIMTMOVE
 70
     0
  9
$LUNITS
 70
     2
  9
$LUPREC
 70
     3
  9
$SKETCHINC
 40
0.1
  9
$FILLETRAD
 40
0.5
  9
$AUNITS
 70
     0
  9
$AUPREC
 70
     0
  9
$MENU
  1
.
  9
$ELEVATION
 40
0.0
  9
$PELEVATION
 40
0.0
  9
$THICKNESS
 40
0.0
  9
$LIMCHECK
 70
     0
  9
$CHAMFERA
 40
0.5
  9
$CHAMFERB
 40
0.5
  9
$CHAMFERC
 40
1.0
  9
$CHAMFERD
 40
0.0
  9
$SKPOLY
 70
     0
  9
$TDCREATE
 40
2456575.586248715
  9
$TDUCREATE
 40
2456575.794582048
  9
$TDUPDATE
 40
2456575.588537153
  9
$TDUUPDATE
 40
2456575.796870486
  9
$TDINDWG
 40
0.0020376157
  9
$TDUSRTIMER
 40
0.0020376157
  9
$USRTIMER
 70
     1
  9
$ANGBASE
 50
0.0
  9
$ANGDIR
 70
     0
  9
$PDMODE
 70
     0
  9
$PDSIZE
 40
-1.0
  9
$PLINEWID
 40
0.0
  9
$SPLFRAME
 70
     0
  9
$SPLINETYPE
 70
     6
  9
$SPLINESEGS
 70
     8
  9
$HANDSEED
  5
342
  9
$SURFTAB1
 70
     6
  9
$SURFTAB2
 70
     6
  9
$SURFTYPE
 70
     6
  9
$SURFU
 70
     6
  9
$SURFV
 70
     6
  9
$UCSBASE
  2

  9
$UCSNAME
  2

  9
$UCSORG
 10
0.0
 20
0.0
 30
0.0
  9
$UCSXDIR
 10
1.0
 20
0.0
 30
0.0
  9
$UCSYDIR
 10
0.0
 20
1.0
 30
0.0
  9
$UCSORTHOREF
  2

  9
$UCSORTHOVIEW
 70
     0
  9
$UCSORGTOP
 10
0.0
 20
0.0
 30
0.0
  9
$UCSORGBOTTOM
 10
0.0
 20
0.0
 30
0.0
  9
$UCSORGLEFT
 10
0.0
 20
0.0
 30
0.0
  9
$UCSORGRIGHT
 10
0.0
 20
0.0
 30
0.0
  9
$UCSORGFRONT
 10
0.0
 20
0.0
 30
0.0
  9
$UCSORGBACK
 10
0.0
 20
0.0
 30
0.0
  9
$PUCSBASE
  2

  9
$PUCSNAME
  2

  9
$PUCSORG
 10
0.0
 20
0.0
 30
0.0
  9
$PUCSXDIR
 10
1.0
 20
0.0
 30
0.0
  9
$PUCSYDIR
 10
0.0
 20
1.0
 30
0.0
  9
$PUCSORTHOREF
  2

  9
$PUCSORTHOVIEW
 70
     0
  9
$PUCSORGTOP
 10
0.0
 20
0.0
 30
0.0
  9
$PUCSORGBOTTOM
 10
0.0
 20
0.0
 30
0.0
  9
$PUCSORGLEFT
 10
0.0
 20
0.0
 30
0.0
  9
$PUCSORGRIGHT
 10
0.0
 20
0.0
 30
0.0
  9
$PUCSORGFRONT
 10
0.0
 20
0.0
 30
0.0
  9
$PUCSORGBACK
 10
0.0
 20
0.0
 30
0.0
  9
$USERI1
 70
     0
  9
$USERI2
 70
     0
  9
$USERI3
 70
     0
  9
$USERI4
 70
     0
  9
$USERI5
 70
     0
  9
$USERR1
 40
0.0
  9
$USERR2
 40
0.0
  9
$USERR3
 40
0.0
  9
$USERR4
 40
0.0
  9
$USERR5
 40
0.0
  9
$WORLDVIEW
 70
     1
  9
$SHADEDGE
 70
     3
  9
$SHADEDIF
 70
    70
  9
$TILEMODE
 70
     1
  9
$MAXACTVP
 70
    64
  9
$PINSBASE
 10
0.0
 20
0.0
 30
0.0
  9
$PLIMCHECK
 70
     0
  9
$PEXTMIN
 10
1.000000000000000E+20
 20
1.000000000000000E+20
 30
1.000000000000000E+20
  9
$PEXTMAX
 10
-1.000000000000000E+20
 20
-1.000000000000000E+20
 30
-1.000000000000000E+20
  9
$PLIMMIN
 10
0.0
 20
0.0
  9
$PLIMMAX
 10
12.0
 20
9.0
  9
$UNITMODE
 70
     0
  9
$VISRETAIN
 70
     1
  9
$PLINEGEN
 70
     0
  9
$PSLTSCALE
 70
     1
  9
$TREEDEPTH
 70
  3020
  9
$CMLSTYLE
  2
Standard
  9
$CMLJUST
 70
     0
  9
$CMLSCALE
 40
1.0
  9
$PROXYGRAPHICS
 70
     1
  9
$MEASUREMENT
 70
     0
  9
$CELWEIGHT
370
    -1
  9
$ENDCAPS
280
     0
  9
$JOINSTYLE
280
     0
  9
$LWDISPLAY
290
     1
  9
$INSUNITS
 70
     1
  9
$HYPERLINKBASE
  1

  9
$STYLESHEET
  1

  9
$XEDIT
290
     1
  9
$CEPSNTYPE
380
     0
  9
$PSTYLEMODE
290
     1
  9
$FINGERPRINTGUID
  2
{4DC0F36D-F0AC-4350-88AF-32C9A6D225F0}
  9
$VERSIONGUID
  2
{1AA05FF1-9DF8-4309-93D9-7E15BF038F22}
  9
$EXTNAMES
290
     1
  9
$PSVPSCALE
 40
0.0
  9
$OLESTARTUP
290
     0
  9
$SORTENTS
280
   127
  9
$INDEXCTL
280
     0
  9
$HIDETEXT
280
     0
  9
$XCLIPFRAME
290
     0
  9
$HALOGAP
280
     0
  9
$OBSCOLOR
 70
   257
  9
$OBSLTYPE
280
     0
  9
$INTERSECTIONDISPLAY
280
     0
  9
$INTERSECTIONCOLOR
 70
   257
  9
$DIMASSOC
280
     1
  9
$PROJECTNAME
  1

  0
ENDSEC
  0
SECTION
  2
CLASSES
  0
CLASS
  1
ACDBDICTIONARYWDFLT
  2
AcDbDictionaryWithDefault
  3
ObjectDBX Classes
 90
        0
 91
        1
280
     0
281
     0
  0
CLASS
  1
VISUALSTYLE
  2
AcDbVisualStyle
  3
ObjectDBX Classes
 90
     4095
 91
        0
280
     0
281
     0
  0
CLASS
  1
MATERIAL
  2
AcDbMaterial
  3
ObjectDBX Classes
 90
        0
 91
        0
280
     0
281
     0
  0
ENDSEC
  0
SECTION
  2
TABLES
  0
TABLE
  2
VPORT
  5
8
330
0
100
AcDbSymbolTable
 70
     4
  0
VPORT
  5
341
330
8
100
AcDbSymbolTableRecord
100
AcDbViewportTableRecord
  2
*Active
 70
     0
 10
0.0
 20
0.0
 11
1.0
 21
1.0
 12
5.463886583223885
 22
5.491928576484255
 13
0.0
 23
0.0
 14
0.5
 24
0.5
 15
0.5
 25
0.5
 16
0.0
 26
0.0
 36
1.0
 17
0.0
 27
0.0
 37
0.0
 40
8.532954786003557
 41
2.144329896907216
 42
50.0
 43
0.0
 44
0.0
 50
0.0
 51
0.0
 71
     0
 72
  2000
 73
     1
 74
     3
 75
     0
 76
     0
 77
     0
 78
     0
281
     0
 65
     1
110
0.0
120
0.0
130
0.0
111
1.0
121
0.0
131
0.0
112
0.0
122
1.0
132
0.0
 79
     0
146
0.0
  0
ENDTAB
  0
TABLE
  2
LTYPE
  5
5
330
0
100
AcDbSymbolTable
 70
     6
  0
LTYPE
  5
14
330
5
100
AcDbSymbolTableRecord
100
AcDbLinetypeTableRecord
  2
ByBlock
 70
     0
  3

 72
    65
 73
     0
 40
0.0
  0
LTYPE
  5
15
330
5
100
AcDbSymbolTableRecord
100
AcDbLinetypeTableRecord
  2
ByLayer
 70
     0
  3

 72
    65
 73
     0
 40
0.0
  0
LTYPE
  5
16
330
5
100
AcDbSymbolTableRecord
100
AcDbLinetypeTableRecord
  2
Continuous
 70
     0
  3
Solid line
 72
    65
 73
     0
 40
0.0
  0
LTYPE
  5
3F
330
5
100
AcDbSymbolTableRecord
100
AcDbLinetypeTableRecord
  2
HIDDEN
 70
     0
  3
Hidden __ __ __ __ __ __ __ __ __ __ __ __ __ __
 72
    65
 73
     2
 40
0.075
 49
0.05
 74
     0
 49
-0.025
 74
     0
  0
LTYPE
  5
40
330
5
100
AcDbSymbolTableRecord
100
AcDbLinetypeTableRecord
  2
PHANTOM
 70
     0
  3
Phantom ______  __  __  ______  __  __  ______
 72
    65
 73
     6
 40
0.5
 49
0.25
 74
     0
 49
-0.05
 74
     0
 49
0.05
 74
     0
 49
-0.05
 74
     0
 49
0.05
 74
     0
 49
-0.05
 74
     0
  0
LTYPE
  5
41
330
5
100
AcDbSymbolTableRecord
100
AcDbLinetypeTableRecord
  2
CENTER
 70
     0
  3
Center ____ _ ____ _ ____ _ ____ _ ____ _ ____
 72
    65
 73
     4
 40
0.4
 49
0.25
 74
     0
 49
-0.05
 74
     0
 49
0.05
 74
     0
 49
-0.05
 74
     0
  0
LTYPE
  5
42
330
5
100
AcDbSymbolTableRecord
100
AcDbLinetypeTableRecord
  2
CENTERX2
 70
     0
  3
Center (2x) ________  __  ________  __  _____
 72
    65
 73
     4
 40
0.8
 49
0.5
 74
     0
 49
-0.1
 74
     0
 49
0.1
 74
     0
 49
-0.1
 74
     0
  0
LTYPE
  5
43
330
5
100
AcDbSymbolTableRecord
100
AcDbLinetypeTableRecord
  2
DOT2
 70
     0
  3
Dot (.5x) ........................................
 72
    65
 73
     2
 40
0.025
 49
0.0
 74
     0
 49
-0.025
 74
     0
  0
ENDTAB
  0
TABLE
  2
LAYER
  5
2
330
0
100
AcDbSymbolTable
 70
     8
  0
LAYER
  5
10
330
2
100
AcDbSymbolTableRecord
100
AcDbLayerTableRecord
  2
0
 70
     0
 62
     7
  6
Continuous
370
    -3
390
F
  0
LAYER
  5
44
330
2
100
AcDbSymbolTableRecord
100
AcDbLayerTableRecord
  2
SLD-0
 70
     0
 62
   179
  6
Continuous
370
    -3
390
F
  0
LAYER
  5
45
330
2
100
AcDbSymbolTableRecord
100
AcDbLayerTableRecord
  2
SLD-DEFPOINTS
 70
     0
 62
   179
  6
Continuous
370
    -3
390
F
  0
LAYER
  5
46
330
2
100
AcDbSymbolTableRecord
100
AcDbLayerTableRecord
  2
OBJ
 70
     0
 62
   179
  6
Continuous
370
    -3
390
F
  0
LAYER
  5
47
330
2
100
AcDbSymbolTableRecord
100
AcDbLayerTableRecord
  2
FORMAT
 70
     0
 62
     7
  6
Continuous
370
    -3
390
F
  0
LAYER
  5
48
330
2
100
AcDbSymbolTableRecord
100
AcDbLayerTableRecord
  2
BLANK-SIZE-1
 70
     0
 62
     7
  6
Continuous
370
    -3
390
F
  0
LAYER
  5
49
330
2
100
AcDbSymbolTableRecord
100
AcDbLayerTableRecord
  2
TOLERANCES
 70
     0
 62
     7
  6
Continuous
370
    -3
390
F
  0
LAYER
  5
4A
330
2
100
AcDbSymbolTableRecord
100
AcDbLayerTableRecord
  2
QTY-BLANK-SIZE-1
 70
     0
 62
     7
  6
Continuous
370
    -3
390
F
  0
ENDTAB
  0
TABLE
  2
STYLE
  5
3
330
0
100
AcDbSymbolTable
 70
     2
  0
STYLE
  5
11
330
3
100
AcDbSymbolTableRecord
100
AcDbTextStyleTableRecord
  2
Standard
 70
     0
 40
0.0
 41
1.0
 50
0.0
 71
     0
 42
0.25
  3
txt
  4

  0
STYLE
  5
333
330
3
100
AcDbSymbolTableRecord
100
AcDbTextStyleTableRecord
  2
SLDTEXTSTYLE0
 70
     0
 40
0.0
 41
0.7
 50
0.0
 71
     0
 42
0.2
  3
TXT
  4

  0
ENDTAB
  0
TABLE
  2
VIEW
  5
6
330
0
100
AcDbSymbolTable
 70
     0
  0
ENDTAB
  0
TABLE
  2
UCS
  5
7
330
0
100
AcDbSymbolTable
 70
     0
  0
ENDTAB
  0
TABLE
  2
APPID
  5
9
330
0
100
AcDbSymbolTable
 70
     1
  0
APPID
  5
12
330
9
100
AcDbSymbolTableRecord
100
AcDbRegAppTableRecord
  2
ACAD
 70
     0
  0
ENDTAB
  0
TABLE
  2
DIMSTYLE
  5
A
330
0
100
AcDbSymbolTable
 70
     1
100
AcDbDimStyleTable
 71
     0
  0
DIMSTYLE
105
27
330
A
100
AcDbSymbolTableRecord
100
AcDbDimStyleTableRecord
  2
Standard
 70
     0
340
11
  0
ENDTAB
  0
TABLE
  2
BLOCK_RECORD
  5
1
330
0
100
AcDbSymbolTable
 70
     1
  0
BLOCK_RECORD
  5
1F
330
1
100
AcDbSymbolTableRecord
100
AcDbBlockTableRecord
  2
*Model_Space
340
22
  0
BLOCK_RECORD
  5
1B
330
1
100
AcDbSymbolTableRecord
100
AcDbBlockTableRecord
  2
*Paper_Space
340
1E
  0
BLOCK_RECORD
  5
23
330
1
100
AcDbSymbolTableRecord
100
AcDbBlockTableRecord
  2
*Paper_Space0
340
26
  0
ENDTAB
  0
ENDSEC
  0
SECTION
  2
BLOCKS
  0
BLOCK
  5
20
330
1F
100
AcDbEntity
  8
0
100
AcDbBlockBegin
  2
*Model_Space
 70
     0
 10
0.0
 20
0.0
 30
0.0
  3
*Model_Space
  1

  0
ENDBLK
  5
21
330
1F
100
AcDbEntity
  8
0
100
AcDbBlockEnd
  0
BLOCK
  5
1C
330
1B
100
AcDbEntity
 67
     1
  8
0
100
AcDbBlockBegin
  2
*Paper_Space
 70
     0
 10
0.0
 20
0.0
 30
0.0
  3
*Paper_Space
  1

  0
ENDBLK
  5
1D
330
1B
100
AcDbEntity
 67
     1
  8
0
100
AcDbBlockEnd
  0
BLOCK
  5
24
330
23
100
AcDbEntity
  8
0
100
AcDbBlockBegin
  2
*Paper_Space0
 70
     0
 10
0.0
 20
0.0
 30
0.0
  3
*Paper_Space0
  1

  0
ENDBLK
  5
25
330
23
100
AcDbEntity
  8
0
100
AcDbBlockEnd
  0
ENDSEC
  0
SECTION
  2
ENTITIES
  0
LINE
  5
4B
330
1F
100
AcDbEntity
  8
0
  6
Continuous
 62
     7
370
    15
100
AcDbLine
 10
6.779926528608167
 20
6.243726509262678
 30
0.0
 11
6.779926528608167
 21
6.251262689982107
 31
0.0
  0
LINE
  5
4C
330
1F
100
AcDbEntity
  8
0
  6
Continuous
 62
     7
370
    15
100
AcDbLine
 10
6.727843142272717
 20
6.251262716331135
 30
0.0
 11
6.727843142272717
 21
6.243726535611707
 31
0.0
  0
LINE
  5
4D
330
1F
100
AcDbEntity
  8
0
  6
Continuous
 62
     7
370
    15
100
AcDbLine
 10
6.603149822484435
 20
6.153899234496526
 30
0.0
 11
6.603149822484435
 21
6.161435415215954
 31
0.0
  0
LINE
  5
4E
330
1F
100
AcDbEntity
  8
0
  6
Continuous
 62
     7
370
    15
100
AcDbLine
 10
6.551066436148985
 20
6.161435441564982
 30
0.0
 11
6.551066436148985
 21
6.153899260845554
 31
0.0
  0
LINE
  5
4F
330
1F
100
AcDbEntity
  8
0
  6
Continuous
 62
     7
370
    15
100
AcDbLine
 10
6.205402214260829
 20
6.311096973022427
 30
0.0
 11
6.205402214260829
 21
6.318633153741855
 31
0.0
  0
LINE
  5
50
330
1F
100
AcDbEntity
  8
0
  6
Continuous
 62
     7
370
    15
100
AcDbLine
 10
6.153318983487074
 20
6.318633118609818
 30
0.0
 11
6.153318983487074
 21
6.31109693789039
 31
0.0
  0
LINE
  5
51
330
1F
100
AcDbEntity
  8
0
  6
Continuous
 62
     7
370
    15
100
AcDbLine
 10
6.382178920384562
 20
6.40092424778858
 30
0.0
 11
6.382178920384562
 21
6.408460428508008
 31
0.0
  0
LINE
  5
52
330
1F
100
AcDbEntity
  8
0
  6
Continuous
 62
     7
370
    15
100
AcDbLine
 10
6.330095680968489
 20
6.408460388984466
 30
0.0
 11
6.330095680968489
 21
6.400924208265037
 31
0.0
  0
LINE
  5
53
330
1F
100
AcDbEntity
  8
0
  6
Continuous
 62
     7
370
    15
100
AcDbLine
 10
6.072819807821041
 20
6.603035555629234
 30
0.0
 11
6.072819807821041
 21
6.610571736348662
 31
0.0
  0
LINE
  5
54
330
1F
100
AcDbEntity
  8
0
  6
Continuous
 62
     7
370
    15
100
AcDbLine
 10
6.020736421485591
 20
6.61057176269769
 30
0.0
 11
6.020736421485591
 21
6.603035581978262
 31
0.0
  0
LINE
  5
55
330
1F
100
AcDbEntity
  8
0
  6
Continuous
 62
     7
370
    15
100
AcDbLine
 10
5.89604310169731
 20
6.513208280863081
 30
0.0
 11
5.89604310169731
 21
6.520744461582509
 31
0.0
  0
LINE
  5
56
330
1F
100
AcDbEntity
  8
0
  6
Continuous
 62
     7
370
    15
100
AcDbLine
 10
5.84395971536186
 20
6.520744487931538
 30
0.0
 11
5.84395971536186
 21
6.513208307212109
 31
0.0
  0
LINE
  5
57
330
1F
100
AcDbEntity
  8
0
  6
Continuous
 62
     7
370
    15
100
AcDbLine
 10
5.675072199597435
 20
6.760233294155134
 30
0.0
 11
5.675072199597435
 21
6.767769474874563
 31
0.0
  0
LINE
  5
58
330
1F
100
AcDbEntity
  8
0
  6
Continuous
 62
     7
370
    15
100
AcDbLine
 10
5.622988821904302
 20
6.767769505615095
 30
0.0
 11
5.622988821904302
 21
6.760233324895667
 31
0.0
  0
LINE
  5
59
330
1F
100
AcDbEntity
  8
0
  6
Continuous
 62
     7
370
    15
100
AcDbLine
 10
3.200198469426903
 20
8.017815061834189
 30
0.0
 11
3.200198469426903
 21
8.025351242553618
 31
0.0
  0
LINE
  5
5A
330
1F
100
AcDbEntity
  8
0
  6
Continuous
 62
     7
370
    15
100
AcDbLine
 10
3.14811509173377
 20
8.02535127329415
 30
0.0
 11
3.14811509173377
 21
8.017815092574723
 31
0.0
  0
LINE
  5
5B
330
1F
100
AcDbEntity
  8
0
  6
Continuous
 62
     7
370
    15
100
AcDbLine
 10
4.967965409671779
 20
7.119542375653726
 30
0.0
 11
4.967965409671779
 21
7.127078556373155
 31
0.0
  0
LINE
  5
5C
330
1F
100
AcDbEntity
  8
0
  6
Continuous
 62
     7
370
    15
100
AcDbLine
 10
4.915882066547911
 20
7.127078569547669
 30
0.0
 11
4.915882066547911
 21
7.119542388828241
 31
0.0
  0
LINE
  5
5D
330
1F
100
AcDbEntity
  8
0
  6
Continuous
 62
     7
370
    15
100
AcDbLine
 10
2.493091610362716
 20
8.37712417846482
 30
0.0
 11
2.493091610362716
 21
8.384660359184248
 31
0.0
  0
LINE
  5
5E
330
1F
100
AcDbEntity
  8
0
  6
Continuous
 62
     7
370
    15
100
AcDbLine
 10
2.441008370946644
 20
8.384660319660707
 30
0.0
 11
2.441008370946644
 21
8.377124138941276
 31
0.0
  0
LINE
  5
5F
330
1F
100
AcDbEntity
  8
0
  6
Continuous
 62
     7
370
    15
100
AcDbLine
 10
2.890839218586322
 20
8.219926439938918
 30
0.0
 11
2.890839218586322
 21
8.227462620658348
 31
0.0
  0
LINE
  5
60
330
1F
100
AcDbEntity
  8
0
  6
Continuous
 62
     7
370
    15
100
AcDbLine
 10
2.838755832250872
 20
8.227462647007374
 30
0.0
 11
2.838755832250872
 21
8.219926466287946
 31
0.0
  0
LINE
  5
61
330
1F
100
AcDbEntity
  8
0
  6
Continuous
 62
     7
370
    15
100
AcDbLine
 10
2.714062512462591
 20
8.130099165172767
 30
0.0
 11
2.714062512462591
 21
8.137635345892194
 31
0.0
  0
LINE
  5
62
330
1F
100
AcDbEntity
  8
0
  6
Continuous
 62
     7
370
    15
100
AcDbLine
 10
2.66197912612714
 20
8.137635372241224
 30
0.0
 11
2.66197912612714
 21
8.130099191521795
 31
0.0
  0
LINE
  5
63
330
1F
100
AcDbEntity
  8
0
  6
Continuous
 62
     7
370
    15
100
AcDbLine
 10
4.658606180977133
 20
7.321653742505225
 30
0.0
 11
4.658606180977133
 21
7.329189923224654
 31
0.0
  0
LINE
  5
64
330
1F
100
AcDbEntity
  8
0
  6
Continuous
 62
     7
370
    15
100
AcDbLine
 10
4.606522845955436
 20
7.329189923499123
 30
0.0
 11
4.606522845955436
 21
7.321653742779695
 31
0.0
  0
LINE
  5
65
330
1F
100
AcDbEntity
  8
0
  6
Continuous
 62
     7
370
    15
100
AcDbLine
 10
4.791188703548048
 20
7.029715100887575
 30
0.0
 11
4.791188703548048
 21
7.037251281607002
 31
0.0
  0
LINE
  5
66
330
1F
100
AcDbEntity
  8
0
  6
Continuous
 62
     7
370
    15
100
AcDbLine
 10
4.739105369066495
 20
7.037251299173021
 30
0.0
 11
4.739105369066495
 21
7.029715118453593
 31
0.0
  0
LINE
  5
67
330
1F
100
AcDbEntity
  8
0
  6
Continuous
 62
     7
370
    15
100
AcDbLine
 10
4.481829474853402
 20
7.231826467739073
 30
0.0
 11
4.481829474853402
 21
7.239362648458501
 31
0.0
  0
LINE
  5
68
330
1F
100
AcDbEntity
  8
0
  6
Continuous
 62
     7
370
    15
100
AcDbLine
 10
4.429746139831705
 20
7.23936264873297
 30
0.0
 11
4.429746139831705
 21
7.231826468013542
 31
0.0
  0
LINE
  5
69
330
1F
100
AcDbEntity
  8
0
  6
Continuous
 62
     7
370
    15
100
AcDbLine
 10
3.597946008511978
 20
7.860617358440326
 30
0.0
 11
3.597946008511978
 21
7.868153539159754
 31
0.0
  0
LINE
  5
6A
330
1F
100
AcDbEntity
  8
0
  6
Continuous
 62
     7
370
    15
100
AcDbLine
 10
3.545862691315059
 20
7.868153530376745
 30
0.0
 11
3.545862691315059
 21
7.860617349657317
 31
0.0
  0
LINE
  5
6B
330
1F
100
AcDbEntity
  8
0
  6
Continuous
 62
     7
370
    15
100
AcDbLine
 10
4.260858619746122
 20
7.47885145715232
 30
0.0
 11
4.260858619746122
 21
7.486387637871748
 31
0.0
  0
LINE
  5
6C
330
1F
100
AcDbEntity
  8
0
  6
Continuous
 62
     7
370
    15
100
AcDbLine
 10
4.208775276622255
 20
7.486387651046261
 30
0.0
 11
4.208775276622255
 21
7.478851470326834
 31
0.0
  0
LINE
  5
6D
330
1F
100
AcDbEntity
  8
0
  6
Continuous
 62
     7
370
    15
100
AcDbLine
 10
4.084081913622391
 20
7.389024182386167
 30
0.0
 11
4.084081913622391
 21
7.396560363105595
 31
0.0
  0
LINE
  5
6E
330
1F
100
AcDbEntity
  8
0
  6
Continuous
 62
     7
370
    15
100
AcDbLine
 10
4.031998579140839
 20
7.396560380671614
 30
0.0
 11
4.031998579140839
 21
7.389024199952185
 31
0.0
  0
LINE
  5
6F
330
1F
100
AcDbEntity
  8
0
  6
Continuous
 62
     7
370
    15
100
AcDbLine
 10
5.188936242633122
 20
6.872517397493711
 30
0.0
 11
5.188936242633122
 21
6.880053578213139
 31
0.0
  0
LINE
  5
70
330
1F
100
AcDbEntity
  8
0
  6
Continuous
 62
     7
370
    15
100
AcDbLine
 10
5.136852925436204
 20
6.88005356943013
 30
0.0
 11
5.136852925436204
 21
6.872517388710702
 31
0.0
  0
LINE
  5
71
330
1F
100
AcDbEntity
  8
0
  6
Continuous
 62
     7
370
    15
100
AcDbLine
 10
3.023421763303172
 20
7.927987787068037
 30
0.0
 11
3.023421763303172
 21
7.935523967787466
 31
0.0
  0
LINE
  5
72
330
1F
100
AcDbEntity
  8
0
  6
Continuous
 62
     7
370
    15
100
AcDbLine
 10
2.971338394252355
 20
7.935524002919503
 30
0.0
 11
2.971338394252355
 21
7.927987822200075
 31
0.0
  0
LINE
  5
73
330
1F
100
AcDbEntity
  8
0
  6
Continuous
 62
     7
370
    15
100
AcDbLine
 10
5.498295493473704
 20
6.670406019388981
 30
0.0
 11
5.498295493473704
 21
6.677942200108411
 31
0.0
  0
LINE
  5
74
330
1F
100
AcDbEntity
  8
0
  6
Continuous
 62
     7
370
    15
100
AcDbLine
 10
5.446212124422888
 20
6.677942235240448
 30
0.0
 11
5.446212124422888
 21
6.670406054521019
 31
0.0
  0
LINE
  5
75
330
1F
100
AcDbEntity
  8
0
  6
Continuous
 62
     7
370
    15
100
AcDbLine
 10
2.316314904238984
 20
8.287296903698667
 30
0.0
 11
2.316314904238984
 21
8.294833084418096
 31
0.0
  0
LINE
  5
76
330
1F
100
AcDbEntity
  8
0
  6
Continuous
 62
     7
370
    15
100
AcDbLine
 10
2.264231673465229
 20
8.294833049286058
 30
0.0
 11
2.264231673465229
 21
8.287296868566629
 31
0.0
  0
LINE
  5
77
330
1F
100
AcDbEntity
  8
0
  6
Continuous
 62
     7
370
    15
100
AcDbLine
 10
5.365712948756854
 20
6.962344672259863
 30
0.0
 11
5.365712948756854
 21
6.969880852979291
 31
0.0
  0
LINE
  5
78
330
1F
100
AcDbEntity
  8
0
  6
Continuous
 62
     7
370
    15
100
AcDbLine
 10
5.313629631559935
 20
6.969880844196283
 30
0.0
 11
5.313629631559935
 21
6.962344663476853
 31
0.0
  0
LINE
  5
79
330
1F
100
AcDbEntity
  8
0
  6
Continuous
 62
     7
370
    15
100
AcDbLine
 10
3.421169302388247
 20
7.770790083674174
 30
0.0
 11
3.421169302388247
 21
7.778326264393603
 31
0.0
  0
LINE
  5
7A
330
1F
100
AcDbEntity
  8
0
  6
Continuous
 62
     7
370
    15
100
AcDbLine
 10
3.369085985191328
 20
7.778326255610593
 30
0.0
 11
3.369085985191328
 21
7.770790074891165
 31
0.0
  0
LINE
  5
7B
330
1F
100
AcDbEntity
  8
0
  6
Continuous
 62
     7
370
    15
100
AcDbLine
 10
2.734287053834151
 20
7.818287082344017
 30
0.0
 11
2.741652761805824
 21
7.822029891497592
 31
0.0
  0
LINE
  5
7C
330
1F
100
AcDbEntity
  8
0
  6
Continuous
 62
     7
370
    15
100
AcDbLine
 10
2.708045904646744
 20
7.884604721104203
 30
0.0
 11
2.70068019667507
 21
7.880861911950628
 31
0.0
  0
LINE
  5
7D
330
1F
100
AcDbEntity
  8
0
  6
Continuous
 62
     7
370
    15
100
AcDbLine
 10
5.680565264529434
 20
6.321165950420593
 30
0.0
 11
5.687930972501106
 21
6.324908759574168
 31
0.0
  0
LINE
  5
7E
330
1F
100
AcDbEntity
  8
0
  6
Continuous
 62
     7
370
    15
100
AcDbLine
 10
5.654324253619089
 20
6.387483518916703
 30
0.0
 11
5.646958545647415
 21
6.383740709763128
 31
0.0
  0
LINE
  5
7F
330
1F
100
AcDbEntity
  8
0
  6
Continuous
 62
     7
370
    15
100
AcDbLine
 10
2.096978169100657
 20
6.634898402291448
 30
0.0
 11
2.104343877072331
 21
6.638641211445023
 31
0.0
  0
LINE
  5
80
330
1F
100
AcDbEntity
  8
0
  6
Continuous
 62
     7
370
    15
100
AcDbLine
 10
2.070737019913251
 20
6.701216145001494
 30
0.0
 11
2.063371311941577
 21
6.697473335847919
 31
0.0
  0
LINE
  5
81
330
1F
100
AcDbEntity
  8
0
  6
Continuous
 62
     7
370
    15
100
AcDbLine
 10
6.317874149262928
 20
4.490093290332815
 30
0.0
 11
6.325239857234602
 21
4.49383609948639
 31
0.0
  0
LINE
  5
82
330
1F
100
AcDbEntity
  8
0
  6
Continuous
 62
     7
370
    15
100
AcDbLine
 10
6.291633138352583
 20
4.556410962778787
 30
0.0
 11
6.28426743038091
 21
4.552668153625212
 31
0.0
  0
LINE
  5
83
330
1F
100
AcDbEntity
  8
0
  6
Continuous
 62
     7
370
    15
100
AcDbLine
 10
5.04325637979594
 20
5.137777270368022
 30
0.0
 11
5.050622087767613
 21
5.141520079521597
 31
0.0
  0
LINE
  5
84
330
1F
100
AcDbEntity
  8
0
  6
Continuous
 62
     7
370
    15
100
AcDbLine
 10
5.017015299747065
 20
5.204094977946032
 30
0.0
 11
5.00964959177539
 21
5.200352168792456
 31
0.0
  0
LINE
  5
85
330
1F
100
AcDbEntity
  8
0
  6
Continuous
 62
     7
370
    15
100
AcDbLine
 10
6.198018417920984
 20
7.300988440617718
 30
0.0
 11
6.024681033949883
 21
7.389068059016762
 31
0.0
  0
LINE
  5
86
330
1F
100
AcDbEntity
  8
0
  6
Continuous
 62
     7
370
    15
100
AcDbLine
 10
6.569077723507801
 20
7.111360688285124
 30
0.0
 11
6.20821079423727
 21
7.294731526674392
 31
0.0
  0
LINE
  5
87
330
1F
100
AcDbEntity
  8
0
  6
Continuous
 62
     7
370
    15
100
AcDbLine
 10
7.001116798624666
 20
6.863653414610093
 30
0.0
 11
6.626184499449387
 21
7.054171426825743
 31
0.0
  0
LINE
  5
88
330
1F
100
AcDbEntity
  8
0
  6
Continuous
 62
     7
370
    15
100
AcDbLine
 10
3.075614362590683
 20
3.320862304481097
 30
0.0
 11
3.317247720875295
 21
3.198078785412086
 31
0.0
  0
LINE
  5
89
330
1F
100
AcDbEntity
  8
0
  6
Continuous
 62
     7
370
    15
100
AcDbLine
 10
2.222969072196832
 20
3.492459144565686
 30
0.0
 11
2.694373578648531
 21
3.252919767146802
 31
0.0
  0
LINE
  5
8A
330
1F
100
AcDbEntity
  8
0
  6
Continuous
 62
     7
370
    15
100
AcDbLine
 10
2.208859972171212
 20
4.32744030259352
 30
0.0
 11
2.680264478622911
 21
4.087900925174635
 31
0.0
  0
LWPOLYLINE
  5
8B
330
1F
100
AcDbEntity
  8
0
  6
Continuous
 62
     7
370
    15
100
AcDbPolyline
 90
       15
 70
   128
 43
0.0
 10
6.772299053515729
 20
6.24190570662171
 10
6.768821713813353
 20
6.240423020470985
 10
6.76489050558177
 20
6.239269710343916
 10
6.760624926129533
 20
6.238480780924108
 10
6.756154584275357
 20
6.238080214218487
 10
6.751615224882589
 20
6.238080214218487
 10
6.747144813889883
 20
6.238480763358089
 10
6.742879217153012
 20
6.239269675211878
 10
6.738948000279113
 20
6.240422989730451
 10
6.735470591438207
 20
6.241905693447197
 10
6.732552824436656
 20
6.243672632911246
 10
6.730283144740274
 20
6.245670240548815
 10
6.728730595814596
 20
6.247837759893
 10
6.727942330137784
 20
6.25010935350601
 10
6.727843142272717
 20
6.251262716331135
  0
ARC
  5
8C
330
1F
100
AcDbEntity
  8
0
  6
Continuous
 62
     7
370
    15
100
AcDbCircle
 10
6.768375485406203
 20
6.252891370592237
 30
0.0
 40
0.0116652989495969
100
AcDbArc
 50
289.6543638144637
 51
351.9742831263459
  0
ARC
  5
8D
330
1F
100
AcDbEntity
  8
0
  6
Continuous
 62
     7
370
    15
100
AcDbCircle
 10
6.754169590723368
 20
6.227465678015046
 30
0.0
 40
0.0377778570954821
100
AcDbArc
 50
56.6022337032258
 51
128.1006243884329
  0
ARC
  5
8E
330
1F
100
AcDbEntity
  8
0
  6
Continuous
 62
     7
370
    15
100
AcDbCircle
 10
6.754438950851086
 20
6.275453390152168
 30
0.0
 40
0.0368308972654931
100
AcDbArc
 50
228.3815873658245
 51
297.9644955921634
  0
ARC
  5
8F
330
1F
100
AcDbEntity
  8
0
  6
Continuous
 62
     7
370
    15
100
AcDbCircle
 10
6.768725813320699
 20
6.245069615202099
 30
0.0
 40
0.0112809554788336
100
AcDbArc
 50
288.4664789341747
 51
353.1621680066197
  0
LWPOLYLINE
  5
90
330
1F
100
AcDbEntity
  8
0
  6
Continuous
 62
     7
370
    15
100
AcDbPolyline
 90
       15
 70
   128
 43
0.0
 10
6.727843142272717
 20
6.243726535611707
 10
6.727942330137784
 20
6.242573172786581
 10
6.728730595814596
 20
6.240301579173572
 10
6.730283144740274
 20
6.238134059829387
 10
6.732552824436656
 20
6.236136452191818
 10
6.735470591438207
 20
6.234369512727768
 10
6.738948000279113
 20
6.232886809011024
 10
6.742879217153012
 20
6.231733494492449
 10
6.747144813889883
 20
6.230944582638661
 10
6.751615224882589
 20
6.230544033499058
 10
6.756154584275357
 20
6.230544033499059
 10
6.760624926129533
 20
6.23094460020468
 10
6.76489050558177
 20
6.231733529624486
 10
6.768821713813353
 20
6.232886839751556
 10
6.772299053515729
 20
6.234369525902282
  0
ARC
  5
91
330
1F
100
AcDbEntity
  8
0
  6
Continuous
 62
     7
370
    15
100
AcDbCircle
 10
6.75408753511527
 20
6.271039785681619
 30
0.0
 40
0.041062205975562
100
AcDbArc
 50
239.4287621627954
 51
295.4143615719996
  0
LWPOLYLINE
  5
92
330
1F
100
AcDbEntity
  8
0
  6
Continuous
 62
     7
370
    15
100
AcDbPolyline
 90
       15
 70
   128
 43
0.0
 10
6.595522356034313
 20
6.152078436247063
 10
6.592045016331939
 20
6.150595750096337
 10
6.588113816742671
 20
6.149442444360772
 10
6.583848228648117
 20
6.148653510549461
 10
6.579377886793943
 20
6.148252943843839
 10
6.574838527401174
 20
6.148252943843839
 10
6.570368116408467
 20
6.148653492983442
 10
6.56610251102928
 20
6.149442400445725
 10
6.562171311440014
 20
6.15059572374731
 10
6.558693885314475
 20
6.152078418681044
 10
6.555776135597558
 20
6.153845366928102
 10
6.553506438616541
 20
6.155842965782662
 10
6.551953898333182
 20
6.158010489518352
 10
6.55116563265637
 20
6.160282083131361
 10
6.551066436148985
 20
6.161435441564982
  0
ARC
  5
93
330
1F
100
AcDbEntity
  8
0
  6
Continuous
 62
     7
370
    15
100
AcDbCircle
 10
6.591598864280776
 20
6.163064028070576
 30
0.0
 40
0.011665205324079
100
AcDbArc
 50
289.6541298166003
 51
351.9745543721267
  0
ARC
  5
94
330
1F
100
AcDbEntity
  8
0
  6
Continuous
 62
     7
370
    15
100
AcDbCircle
 10
6.577392892969935
 20
6.137638414264789
 30
0.0
 40
0.0377778517147134
100
AcDbArc
 50
56.60222782850713
 51
128.1006302631547
  0
ARC
  5
95
330
1F
100
AcDbEntity
  8
0
  6
Continuous
 62
     7
370
    15
100
AcDbCircle
 10
6.577662246326912
 20
6.185626127465279
 30
0.0
 40
0.0368309073581375
100
AcDbArc
 50
228.381597985953
 51
297.9644996608864
  0
ARC
  5
96
330
1F
100
AcDbEntity
  8
0
  6
Continuous
 62
     7
370
    15
100
AcDbCircle
 10
6.591949207582319
 20
6.155242260327021
 30
0.0
 40
0.0112808462699778
100
AcDbArc
 50
288.4661729041398
 51
353.1625112845791
  0
LWPOLYLINE
  5
97
330
1F
100
AcDbEntity
  8
0
  6
Continuous
 62
     7
370
    15
100
AcDbPolyline
 90
       15
 70
   128
 43
0.0
 10
6.551066436148985
 20
6.153899260845554
 10
6.55116563265637
 20
6.152745902411933
 10
6.551953898333182
 20
6.150474308798925
 10
6.553506438616541
 20
6.148306785063234
 10
6.555776135597558
 20
6.146309186208674
 10
6.558693885314475
 20
6.144542237961617
 10
6.562171311440014
 20
6.143059543027882
 10
6.56610251102928
 20
6.141906219726298
 10
6.570368116408467
 20
6.141117312264015
 10
6.574838527401174
 20
6.140716763124411
 10
6.579377886793943
 20
6.140716763124411
 10
6.583848228648117
 20
6.141117329830033
 10
6.588113816742671
 20
6.141906263641344
 10
6.592045016331939
 20
6.14305956937691
 10
6.595522356034313
 20
6.144542255527635
  0
ARC
  5
98
330
1F
100
AcDbEntity
  8
0
  6
Continuous
 62
     7
370
    15
100
AcDbCircle
 10
6.577310879076694
 20
6.181212237181362
 30
0.0
 40
0.0410619369792034
100
AcDbArc
 50
239.4277309570496
 51
295.4144758909374
  0
LWPOLYLINE
  5
99
330
1F
100
AcDbEntity
  8
0
  6
Continuous
 62
     7
370
    15
100
AcDbPolyline
 90
       15
 70
   128
 43
0.0
 10
6.19777488608777
 20
6.309276104508889
 10
6.194297425392965
 20
6.307793497405247
 10
6.190366346796127
 20
6.306640112622599
 10
6.186100637709143
 20
6.305851257858371
 10
6.181630278570337
 20
6.305450682369739
 10
6.177090919177568
 20
6.305450682369739
 10
6.172620525469494
 20
6.305851240292352
 10
6.168354920090307
 20
6.306640147754635
 10
6.164423703216408
 20
6.30779346227321
 10
6.160946311660135
 20
6.309276174772963
 10
6.158028527373953
 20
6.311043105454003
 10
6.155758847677569
 20
6.313040713091572
 10
6.154206307394208
 20
6.315208236827262
 10
6.153418024432763
 20
6.317479821657262
 10
6.153318983487074
 20
6.318633118609818
  0
ARC
  5
9A
330
1F
100
AcDbEntity
  8
0
  6
Continuous
 62
     7
370
    15
100
AcDbCircle
 10
6.193851060662069
 20
6.320261785396119
 30
0.0
 40
0.0116654014301877
100
AcDbArc
 50
289.655526069616
 51
351.9745969269644
  0
ARC
  5
9B
330
1F
100
AcDbEntity
  8
0
  6
Continuous
 62
     7
370
    15
100
AcDbCircle
 10
6.179645416677221
 20
6.294836237072929
 30
0.0
 40
0.0377777261820937
100
AcDbArc
 50
56.6020907714606
 51
128.1007673202048
  0
ARC
  5
9C
330
1F
100
AcDbEntity
  8
0
  6
Continuous
 62
     7
370
    15
100
AcDbCircle
 10
6.179914648865803
 20
6.342823533070384
 30
0.0
 40
0.0368306082632314
100
AcDbArc
 50
228.3814859297442
 51
297.9647277338888
  0
ARC
  5
9D
330
1F
100
AcDbEntity
  8
0
  6
Continuous
 62
     7
370
    15
100
AcDbCircle
 10
6.194201150053044
 20
6.312440231947704
 30
0.0
 40
0.0112813201322926
100
AcDbArc
 50
288.4685154649038
 51
353.1616075316776
  0
LWPOLYLINE
  5
9E
330
1F
100
AcDbEntity
  8
0
  6
Continuous
 62
     7
370
    15
100
AcDbPolyline
 90
       15
 70
   128
 43
0.0
 10
6.153318983487074
 20
6.31109693789039
 10
6.153418024432763
 20
6.309943640937834
 10
6.154206307394208
 20
6.307672056107834
 10
6.155758847677569
 20
6.305504532372144
 10
6.158028527373953
 20
6.303506924734575
 10
6.160946311660135
 20
6.301739994053535
 10
6.164423703216408
 20
6.300257281553782
 10
6.168354920090307
 20
6.299103967035208
 10
6.172620525469494
 20
6.298315059572924
 10
6.177090919177568
 20
6.297914501650311
 10
6.181630278570337
 20
6.297914501650311
 10
6.186100637709143
 20
6.298315077138943
 10
6.190366346796127
 20
6.299103931903171
 10
6.194297425392965
 20
6.30025731668582
 10
6.19777488608777
 20
6.301739923789461
  0
ARC
  5
9F
330
1F
100
AcDbEntity
  8
0
  6
Continuous
 62
     7
370
    15
100
AcDbCircle
 10
6.179563281413756
 20
6.3384099773488
 30
0.0
 40
0.0410619339296336
100
AcDbArc
 50
239.4279354251116
 51
295.4144615981307
  0
LWPOLYLINE
  5
A0
330
1F
100
AcDbEntity
  8
0
  6
Continuous
 62
     7
370
    15
100
AcDbPolyline
 90
       15
 70
   128
 43
0.0
 10
6.374551583569185
 20
6.399103374883537
 10
6.371074114232064
 20
6.397620763388391
 10
6.367143044277542
 20
6.396467382997246
 10
6.362877335190558
 20
6.395678528233019
 10
6.35840697605175
 20
6.395277952744388
 10
6.353867616658983
 20
6.395277952744388
 10
6.349397205666277
 20
6.395678501883991
 10
6.345131617571723
 20
6.396467418129284
 10
6.341200400697823
 20
6.397620732647858
 10
6.337722991856917
 20
6.399103436364602
 10
6.334805224855368
 20
6.400870375828651
 10
6.332535545158983
 20
6.40286798346622
 10
6.330982987590991
 20
6.405035498418901
 10
6.330194721914178
 20
6.40730709203191
 10
6.330095680968489
 20
6.408460388984466
  0
ARC
  5
A1
330
1F
100
AcDbEntity
  8
0
  6
Continuous
 62
     7
370
    15
100
AcDbCircle
 10
6.370627737984101
 20
6.410089082108015
 30
0.0
 40
0.0116654330137176
100
AcDbArc
 50
289.6555758034685
 51
351.9745099440204
  0
ARC
  5
A2
330
1F
100
AcDbEntity
  8
0
  6
Continuous
 62
     7
370
    15
100
AcDbCircle
 10
6.35642212496347
 20
6.384663498326332
 30
0.0
 40
0.0377777362730973
100
AcDbArc
 50
56.60210479067625
 51
128.1007428309586
  0
ARC
  5
A3
330
1F
100
AcDbEntity
  8
0
  6
Continuous
 62
     7
370
    15
100
AcDbCircle
 10
6.356691351161653
 20
6.43265084365953
 30
0.0
 40
0.0368306415245264
100
AcDbArc
 50
228.3815218809122
 51
297.9646917827207
  0
ARC
  5
A4
330
1F
100
AcDbEntity
  8
0
  6
Continuous
 62
     7
370
    15
100
AcDbCircle
 10
6.370977827430876
 20
6.402267528424698
 30
0.0
 40
0.0112813512588019
100
AcDbArc
 50
288.4685703130107
 51
353.1615154344885
  0
LWPOLYLINE
  5
A5
330
1F
100
AcDbEntity
  8
0
  6
Continuous
 62
     7
370
    15
100
AcDbPolyline
 90
       15
 70
   128
 43
0.0
 10
6.330095680968489
 20
6.400924208265037
 10
6.330194721914178
 20
6.399770911312482
 10
6.330982987590991
 20
6.397499317699473
 10
6.332535545158983
 20
6.395331802746792
 10
6.334805224855368
 20
6.393334195109223
 10
6.337722991856917
 20
6.391567255645173
 10
6.341200400697823
 20
6.390084551928429
 10
6.345131617571723
 20
6.388931237409855
 10
6.349397205666277
 20
6.388142321164562
 10
6.353867616658983
 20
6.387741772024959
 10
6.35840697605175
 20
6.387741772024959
 10
6.362877335190558
 20
6.38814234751359
 10
6.367143044277542
 20
6.388931202277818
 10
6.371074114232064
 20
6.390084582668961
 10
6.374551583569185
 20
6.391567194164108
  0
ARC
  5
A6
330
1F
100
AcDbEntity
  8
0
  6
Continuous
 62
     7
370
    15
100
AcDbCircle
 10
6.356339969533865
 20
6.428237194231673
 30
0.0
 40
0.0410618896319577
100
AcDbArc
 50
239.4281101667711
 51
295.4145054290328
  0
LWPOLYLINE
  5
A7
330
1F
100
AcDbEntity
  8
0
  6
Continuous
 62
     7
370
    15
100
AcDbPolyline
 90
       15
 70
   128
 43
0.0
 10
6.065192332728602
 20
6.601214752988266
 10
6.061714993026228
 20
6.59973206683754
 10
6.057783784794644
 20
6.598578756710471
 10
6.053518205342406
 20
6.597789827290664
 10
6.049047725211169
 20
6.597389330849116
 10
6.044508365818401
 20
6.597389330849116
 10
6.040037954825695
 20
6.597789879988719
 10
6.035772358088824
 20
6.598578791842507
 10
6.031841141214925
 20
6.599732106361082
 10
6.028363870651081
 20
6.601214739813752
 10
6.025445965372469
 20
6.602981749541876
 10
6.023176285676085
 20
6.604979357179446
 10
6.021623736750409
 20
6.607146876523629
 10
6.020835471073596
 20
6.609418470136639
 10
6.020736421485591
 20
6.61057176269769
  0
ARC
  5
A8
330
1F
100
AcDbEntity
  8
0
  6
Continuous
 62
     7
370
    15
100
AcDbCircle
 10
6.061268188837274
 20
6.612200886315337
 30
0.0
 40
0.011665934628654
100
AcDbArc
 50
289.6562516005387
 51
351.9723953402533
  0
ARC
  5
A9
330
1F
100
AcDbEntity
  8
0
  6
Continuous
 62
     7
370
    15
100
AcDbCircle
 10
6.047062863034085
 20
6.586774892467698
 30
0.0
 40
0.0377777205649644
100
AcDbArc
 50
56.60208463862919
 51
128.1007734530359
  0
ARC
  5
AA
330
1F
100
AcDbEntity
  8
0
  6
Continuous
 62
     7
370
    15
100
AcDbCircle
 10
6.047332093278309
 20
6.634762229451879
 30
0.0
 40
0.0368306516170598
100
AcDbArc
 50
228.3815325009912
 51
297.9646958515204
  0
ARC
  5
AB
330
1F
100
AcDbEntity
  8
0
  6
Continuous
 62
     7
370
    15
100
AcDbCircle
 10
6.061618516751768
 20
6.604379130925199
 30
0.0
 40
0.0112815830535656
100
AcDbArc
 50
288.468497543439
 51
353.1601493973504
  0
LWPOLYLINE
  5
AC
330
1F
100
AcDbEntity
  8
0
  6
Continuous
 62
     7
370
    15
100
AcDbPolyline
 90
       15
 70
   128
 43
0.0
 10
6.020736421485591
 20
6.603035581978262
 10
6.020835471073596
 20
6.60188228941721
 10
6.021623736750409
 20
6.599610695804202
 10
6.023176285676085
 20
6.597443176460017
 10
6.025445965372469
 20
6.595445568822448
 10
6.028363870651081
 20
6.593678559094324
 10
6.031841141214925
 20
6.592195925641654
 10
6.035772358088824
 20
6.591042611123079
 10
6.040037954825695
 20
6.590253699269291
 10
6.044508365818401
 20
6.589853150129688
 10
6.049047725211169
 20
6.589853150129688
 10
6.053518205342406
 20
6.590253646571236
 10
6.057783784794644
 20
6.591042575991043
 10
6.061714993026228
 20
6.592195886118112
 10
6.065192332728602
 20
6.593678572268838
  0
ARC
  5
AD
330
1F
100
AcDbEntity
  8
0
  6
Continuous
 62
     7
370
    15
100
AcDbCircle
 10
6.046980678432846
 20
6.630348219956666
 30
0.0
 40
0.0410615886319332
100
AcDbArc
 50
239.428095376574
 51
295.4147671890786
  0
LWPOLYLINE
  5
AE
330
1F
100
AcDbEntity
  8
0
  6
Continuous
 62
     7
370
    15
100
AcDbPolyline
 90
       15
 70
   128
 43
0.0
 10
5.888415635247188
 20
6.511387482613618
 10
5.884938295544813
 20
6.509904796462892
 10
5.881007095955546
 20
6.508751490727327
 10
5.876741507860992
 20
6.507962556916016
 10
5.872271027729754
 20
6.507562060474469
 10
5.867731668336986
 20
6.507562060474469
 10
5.863261257344279
 20
6.507962609614072
 10
5.858995651965093
 20
6.508751517076355
 10
5.855064452375827
 20
6.509904840377939
 10
5.851587164527349
 20
6.511387465047599
 10
5.84866927653337
 20
6.513154483558732
 10
5.846399579552354
 20
6.515152082413292
 10
5.844847039268994
 20
6.517319606148983
 10
5.844058773592181
 20
6.519591199761991
 10
5.84395971536186
 20
6.520744487931538
  0
ARC
  5
AF
330
1F
100
AcDbEntity
  8
0
  6
Continuous
 62
     7
370
    15
100
AcDbCircle
 10
5.88449156773226
 20
6.522373543776724
 30
0.0
 40
0.0116658409787382
100
AcDbArc
 50
289.6560175641701
 51
351.9726666245453
  0
ARC
  5
B0
330
1F
100
AcDbEntity
  8
0
  6
Continuous
 62
     7
370
    15
100
AcDbCircle
 10
5.870286165280661
 20
6.496947628717224
 30
0.0
 40
0.0377777151843821
100
AcDbArc
 50
56.60207876406022
 51
128.1007793276061
  0
ARC
  5
B1
330
1F
100
AcDbEntity
  8
0
  6
Continuous
 62
     7
370
    15
100
AcDbCircle
 10
5.870555388754133
 20
6.544934966764867
 30
0.0
 40
0.0368306617096053
100
AcDbArc
 50
228.381543121081
 51
297.9646999203069
  0
ARC
  5
B2
330
1F
100
AcDbEntity
  8
0
  6
Continuous
 62
     7
370
    15
100
AcDbCircle
 10
5.884841911033807
 20
6.514551776033168
 30
0.0
 40
0.0112814738200396
100
AcDbArc
 50
288.4681914788885
 51
353.1604927098144
  0
LWPOLYLINE
  5
B3
330
1F
100
AcDbEntity
  8
0
  6
Continuous
 62
     7
370
    15
100
AcDbPolyline
 90
       15
 70
   128
 43
0.0
 10
5.84395971536186
 20
6.513208307212109
 10
5.844058773592181
 20
6.512055019042563
 10
5.844847039268994
 20
6.509783425429554
 10
5.846399579552354
 20
6.507615901693864
 10
5.84866927653337
 20
6.505618302839304
 10
5.851587164527349
 20
6.503851284328171
 10
5.855064452375827
 20
6.502368659658511
 10
5.858995651965093
 20
6.501215336356927
 10
5.863261257344279
 20
6.500426428894644
 10
5.867731668336986
 20
6.50002587975504
 10
5.872271027729754
 20
6.50002587975504
 10
5.876741507860992
 20
6.500426376196588
 10
5.881007095955546
 20
6.501215310007899
 10
5.884938295544813
 20
6.502368615743464
 10
5.888415635247188
 20
6.50385130189419
  0
ARC
  5
B4
330
1F
100
AcDbEntity
  8
0
  6
Continuous
 62
     7
370
    15
100
AcDbCircle
 10
5.870203981415649
 20
6.540520959889957
 30
0.0
 40
0.0410615977430915
100
AcDbArc
 50
239.4281021344899
 51
295.4147604311602
  0
LWPOLYLINE
  5
B5
330
1F
100
AcDbEntity
  8
0
  6
Continuous
 62
     7
370
    15
100
AcDbPolyline
 90
       15
 70
   128
 43
0.0
 10
5.667444724504997
 20
6.758412491514167
 10
5.663967393444938
 20
6.756929809754946
 10
5.660036185213354
 20
6.755776499627875
 10
5.655770614403433
 20
6.754987574599573
 10
5.651300186126094
 20
6.754587034242979
 10
5.646760826733327
 20
6.754587034242979
 10
5.64229041574062
 20
6.754987583382582
 10
5.638024827646066
 20
6.755776499627875
 10
5.634093610772166
 20
6.75692981414645
 10
5.630616271069792
 20
6.758412482731157
 10
5.627698434929711
 20
6.760179457327244
 10
5.625428755233327
 20
6.762177064964813
 10
5.623876197665333
 20
6.764344579917493
 10
5.623087931988521
 20
6.766616173530502
 10
5.622988821904302
 20
6.767769505615095
  0
ARC
  5
B6
330
1F
100
AcDbEntity
  8
0
  6
Continuous
 62
     7
370
    15
100
AcDbCircle
 10
5.663520913009595
 20
6.769398353884074
 30
0.0
 40
0.0116655676527998
100
AcDbArc
 50
289.6551618162776
 51
351.9734851245307
  0
ARC
  5
B7
330
1F
100
AcDbEntity
  8
0
  6
Continuous
 62
     7
370
    15
100
AcDbCircle
 10
5.649315270525842
 20
6.743972502287618
 30
0.0
 40
0.0377778277905046
100
AcDbArc
 50
56.60220470979055
 51
128.1006429118503
  0
ARC
  5
B8
330
1F
100
AcDbEntity
  8
0
  6
Continuous
 62
     7
370
    15
100
AcDbCircle
 10
5.649584561235997
 20
6.791959925158135
 30
0.0
 40
0.0368306415245375
100
AcDbArc
 50
228.3815218809238
 51
297.9646917827123
  0
ARC
  5
B9
330
1F
100
AcDbEntity
  8
0
  6
Continuous
 62
     7
370
    15
100
AcDbCircle
 10
5.663871233351829
 20
6.761576604666569
 30
0.0
 40
0.0112812290095244
100
AcDbArc
 50
288.4673587853908
 51
353.1612881554051
  0
LWPOLYLINE
  5
BA
330
1F
100
AcDbEntity
  8
0
  6
Continuous
 62
     7
370
    15
100
AcDbPolyline
 90
       15
 70
   128
 43
0.0
 10
5.622988821904302
 20
6.760233324895667
 10
5.623087931988521
 20
6.759079992811074
 10
5.623876197665333
 20
6.756808399198065
 10
5.625428755233327
 20
6.754640884245385
 10
5.627698434929711
 20
6.752643276607816
 10
5.630616271069792
 20
6.750876302011729
 10
5.634093610772166
 20
6.749393633427022
 10
5.638024827646066
 20
6.748240318908448
 10
5.64229041574062
 20
6.747451402663155
 10
5.646760826733327
 20
6.747050853523552
 10
5.651300186126094
 20
6.747050853523552
 10
5.655770614403433
 20
6.747451393880146
 10
5.660036185213354
 20
6.748240318908448
 10
5.663967393444938
 20
6.749393629035517
 10
5.667444724504997
 20
6.750876310794738
  0
ARC
  5
BB
330
1F
100
AcDbEntity
  8
0
  6
Continuous
 62
     7
370
    15
100
AcDbCircle
 10
5.649233150714852
 20
6.787546175756422
 30
0.0
 40
0.0410618117329571
100
AcDbArc
 50
239.4282608538059
 51
295.4146017118443
  0
LWPOLYLINE
  5
BC
330
1F
100
AcDbEntity
  8
0
  6
Continuous
 62
     7
370
    15
100
AcDbPolyline
 90
       15
 70
   128
 43
0.0
 10
3.192570994334464
 20
8.015994259193222
 10
3.189093663274406
 20
8.014511577434001
 10
3.185162455042823
 20
8.01335826730693
 10
3.180896884232901
 20
8.012569342278629
 10
3.176426386817031
 20
8.012168837054073
 10
3.171887027424263
 20
8.012168837054073
 10
3.167416754708619
 20
8.012569315929601
 10
3.163151166614065
 20
8.013358232174894
 10
3.159219949740165
 20
8.014511546693467
 10
3.155742540899259
 20
8.015994250410212
 10
3.152824635620647
 20
8.017761260138337
 10
3.150554955924264
 20
8.019758867775905
 10
3.14900239835627
 20
8.021926382728585
 10
3.148214132679458
 20
8.024197976341595
 10
3.14811509173377
 20
8.02535127329415
  0
ARC
  5
BD
330
1F
100
AcDbEntity
  8
0
  6
Continuous
 62
     7
370
    15
100
AcDbCircle
 10
3.188646894921047
 20
8.026980356263505
 30
0.0
 40
0.0116658855233573
100
AcDbArc
 50
289.6561057804394
 51
351.9725411603535
  0
ARC
  5
BE
330
1F
100
AcDbEntity
  8
0
  6
Continuous
 62
     7
370
    15
100
AcDbCircle
 10
3.17444153572875
 20
8.001554382636028
 30
0.0
 40
0.0377777362730874
100
AcDbArc
 50
56.60210479066773
 51
128.1007428309694
  0
ARC
  5
BF
330
1F
100
AcDbEntity
  8
0
  6
Continuous
 62
     7
370
    15
100
AcDbCircle
 10
3.174710898712585
 20
8.049541935035941
 30
0.0
 40
0.036830887172866
100
AcDbArc
 50
228.3815767457085
 51
297.9644915234196
  0
ARC
  5
C0
330
1F
100
AcDbEntity
  8
0
  6
Continuous
 62
     7
370
    15
100
AcDbCircle
 10
3.188997215263284
 20
8.019158607045998
 30
0.0
 40
0.0112815428277417
100
AcDbArc
 50
288.4683681641903
 51
353.1602787765953
  0
LWPOLYLINE
  5
C1
330
1F
100
AcDbEntity
  8
0
  6
Continuous
 62
     7
370
    15
100
AcDbPolyline
 90
       15
 70
   128
 43
0.0
 10
3.14811509173377
 20
8.017815092574723
 10
3.148214132679458
 20
8.016661795622166
 10
3.14900239835627
 20
8.014390202009158
 10
3.150554955924264
 20
8.012222687056478
 10
3.152824635620647
 20
8.010225079418907
 10
3.155742540899259
 20
8.008458069690783
 10
3.159219949740165
 20
8.006975365974041
 10
3.163151166614065
 20
8.005822051455465
 10
3.167416754708619
 20
8.005033135210172
 10
3.171887027424263
 20
8.004632656334644
 10
3.176426386817031
 20
8.004632656334644
 10
3.180896884232901
 20
8.0050331615592
 10
3.185162455042823
 20
8.005822086587503
 10
3.189093663274406
 20
8.006975396714572
 10
3.192570994334464
 20
8.008458078473793
  0
ARC
  5
C2
330
1F
100
AcDbEntity
  8
0
  6
Continuous
 62
     7
370
    15
100
AcDbCircle
 10
3.174359476996201
 20
8.045128322652187
 30
0.0
 40
0.0410621914285045
100
AcDbArc
 50
239.4289585380987
 51
295.4143695755686
  0
LWPOLYLINE
  5
C3
330
1F
100
AcDbEntity
  8
0
  6
Continuous
 62
     7
370
    15
100
AcDbPolyline
 90
       15
 70
   128
 43
0.0
 10
4.960337969148605
 20
7.117721555446741
 10
4.956860603519283
 20
7.116238891253538
 10
4.952929429856964
 20
7.11508556356045
 10
4.948663824477777
 20
7.114296656098167
 10
4.944193396200438
 20
7.113896115741573
 10
4.93965403680767
 20
7.113896115741573
 10
4.93518366038423
 20
7.114296647315157
 10
4.93091803772041
 20
7.115085581126469
 10
4.926986855415775
 20
7.116238878079024
 10
4.923509481144135
 20
7.11772156422975
 10
4.920591645004055
 20
7.119488538825835
 10
4.91832196530767
 20
7.121486146463405
 10
4.916769407739677
 20
7.123653661416086
 10
4.915981142062865
 20
7.125925255029095
 10
4.915882066547911
 20
7.127078569547669
  0
ARC
  5
C4
330
1F
100
AcDbEntity
  8
0
  6
Continuous
 62
     7
370
    15
100
AcDbCircle
 10
4.956414077171587
 20
7.128707437688092
 30
0.0
 40
0.0116656134372838
100
AcDbArc
 50
289.655501242656
 51
351.9735053990658
  0
ARC
  5
C5
330
1F
100
AcDbEntity
  8
0
  6
Continuous
 62
     7
370
    15
100
AcDbCircle
 10
4.942208512856167
 20
7.103281622554952
 30
0.0
 40
0.0377777820317152
100
AcDbArc
 50
56.60215475021601
 51
128.1006928714216
  0
ARC
  5
C6
330
1F
100
AcDbEntity
  8
0
  6
Continuous
 62
     7
370
    15
100
AcDbCircle
 10
4.942477802707674
 20
7.151269107490558
 30
0.0
 40
0.036830747587077
100
AcDbArc
 50
228.3815311964584
 51
297.9646097697956
  0
ARC
  5
C7
330
1F
100
AcDbEntity
  8
0
  6
Continuous
 62
     7
370
    15
100
AcDbCircle
 10
4.956764339789446
 20
7.120885737355464
 30
0.0
 40
0.0112813380044476
100
AcDbArc
 50
288.4679139472472
 51
353.1610926944785
  0
LWPOLYLINE
  5
C8
330
1F
100
AcDbEntity
  8
0
  6
Continuous
 62
     7
370
    15
100
AcDbPolyline
 90
       15
 70
   128
 43
0.0
 10
4.915882066547911
 20
7.119542388828241
 10
4.915981142062865
 20
7.118389074309667
 10
4.916769407739677
 20
7.116117480696658
 10
4.91832196530767
 20
7.113949965743977
 10
4.920591645004055
 20
7.111952358106408
 10
4.923509481144135
 20
7.110185383510322
 10
4.926986855415775
 20
7.108702697359596
 10
4.93091803772041
 20
7.107549400407041
 10
4.93518366038423
 20
7.106760466595729
 10
4.93965403680767
 20
7.106359935022143
 10
4.944193396200438
 20
7.106359935022145
 10
4.948663824477777
 20
7.106760475378738
 10
4.952929429856964
 20
7.107549382841022
 10
4.956860603519283
 20
7.10870271053411
 10
4.960337969148605
 20
7.110185374727312
  0
ARC
  5
C9
330
1F
100
AcDbEntity
  8
0
  6
Continuous
 62
     7
370
    15
100
AcDbCircle
 10
4.94212639741223
 20
7.146855401707188
 30
0.0
 40
0.0410619571906482
100
AcDbArc
 50
239.4282653752379
 51
295.4145021011841
  0
LWPOLYLINE
  5
CA
330
1F
100
AcDbEntity
  8
0
  6
Continuous
 62
     7
370
    15
100
AcDbPolyline
 90
       15
 70
   128
 43
0.0
 10
2.485464273547339
 20
8.375303305559777
 10
2.48198694248728
 20
8.373820623800556
 10
2.478055734255697
 20
8.372667313673487
 10
2.473790025168713
 20
8.371878458909259
 10
2.469319666029905
 20
8.371477883420627
 10
2.464780306637138
 20
8.371477883420627
 10
2.460309895644432
 20
8.371878432560231
 10
2.456044307549877
 20
8.372667348805524
 10
2.452113090675977
 20
8.373820663324098
 10
2.448635820112134
 20
8.375303296776769
 10
2.445717914833522
 20
8.377070306504892
 10
2.443448235137138
 20
8.37906791414246
 10
2.441895677569145
 20
8.38123542909514
 10
2.441107411892332
 20
8.383507022708151
 10
2.441008370946644
 20
8.384660319660707
  0
ARC
  5
CB
330
1F
100
AcDbEntity
  8
0
  6
Continuous
 62
     7
370
    15
100
AcDbCircle
 10
2.481540851597997
 20
8.386288667460542
 30
0.0
 40
0.0116649653185667
100
AcDbArc
 50
289.6541867693742
 51
351.9758989781211
  0
ARC
  5
CC
330
1F
100
AcDbEntity
  8
0
  6
Continuous
 62
     7
370
    15
100
AcDbCircle
 10
2.467334814941624
 20
8.360863429002577
 30
0.0
 40
0.0377777362730931
100
AcDbArc
 50
56.60210479067367
 51
128.1007428309617
  0
ARC
  5
CD
330
1F
100
AcDbEntity
  8
0
  6
Continuous
 62
     7
370
    15
100
AcDbCircle
 10
2.467604041139808
 20
8.40885077433578
 30
0.0
 40
0.0368306415245354
100
AcDbArc
 50
228.3815218809202
 51
297.9646917827123
  0
ARC
  5
CE
330
1F
100
AcDbEntity
  8
0
  6
Continuous
 62
     7
370
    15
100
AcDbCircle
 10
2.481890941044782
 20
8.378467113777221
 30
0.0
 40
0.0112808895226841
100
AcDbArc
 50
288.4670850862583
 51
353.1630006612286
  0
LWPOLYLINE
  5
CF
330
1F
100
AcDbEntity
  8
0
  6
Continuous
 62
     7
370
    15
100
AcDbPolyline
 90
       15
 70
   128
 43
0.0
 10
2.441008370946644
 20
8.377124138941276
 10
2.441107411892332
 20
8.375970841988722
 10
2.441895677569145
 20
8.373699248375713
 10
2.443448235137138
 20
8.371531733423033
 10
2.445717914833522
 20
8.369534125785463
 10
2.448635820112134
 20
8.36776711605734
 10
2.452113090675977
 20
8.366284482604671
 10
2.456044307549877
 20
8.365131168086096
 10
2.460309895644432
 20
8.364342251840803
 10
2.464780306637138
 20
8.3639417027012
 10
2.469319666029905
 20
8.3639417027012
 10
2.473790025168713
 20
8.36434227818983
 10
2.478055734255697
 20
8.365131132954058
 10
2.48198694248728
 20
8.366284443081129
 10
2.485464273547339
 20
8.36776712484035
  0
ARC
  5
D0
330
1F
100
AcDbEntity
  8
0
  6
Continuous
 62
     7
370
    15
100
AcDbCircle
 10
2.467252623530635
 20
8.404437409174557
 30
0.0
 40
0.0410621618311765
100
AcDbArc
 50
239.4287289876644
 51
295.4143805492135
  0
LWPOLYLINE
  5
D1
330
1F
100
AcDbEntity
  8
0
  6
Continuous
 62
     7
370
    15
100
AcDbPolyline
 90
       15
 70
   128
 43
0.0
 10
2.883211743493883
 20
8.218105637297952
 10
2.879734403791507
 20
8.216622951147225
 10
2.875803195559924
 20
8.215469641020156
 10
2.871537616107686
 20
8.214680711600349
 10
2.867067274253511
 20
8.214280144894727
 10
2.862527914860743
 20
8.214280144894727
 10
2.858057503868037
 20
8.214680694034331
 10
2.853791907131166
 20
8.215469605888118
 10
2.849860690257266
 20
8.216622920406694
 10
2.846383281416361
 20
8.218105624123436
 10
2.843465514414811
 20
8.219872563587486
 10
2.841195834718427
 20
8.221870171225056
 10
2.83964328579275
 20
8.224037690569241
 10
2.838855020115938
 20
8.226309284182249
 10
2.838755832250872
 20
8.227462647007374
  0
ARC
  5
D2
330
1F
100
AcDbEntity
  8
0
  6
Continuous
 62
     7
370
    15
100
AcDbCircle
 10
2.879288175384368
 20
8.229091301268473
 30
0.0
 40
0.0116652989495856
100
AcDbArc
 50
289.6543638144206
 51
351.9742831263642
  0
ARC
  5
D3
330
1F
100
AcDbEntity
  8
0
  6
Continuous
 62
     7
370
    15
100
AcDbCircle
 10
2.865082300559835
 20
8.203665489140856
 30
0.0
 40
0.037777963426603
100
AcDbArc
 50
56.60212490727176
 51
128.1005362093563
  0
ARC
  5
D4
330
1F
100
AcDbEntity
  8
0
  6
Continuous
 62
     7
370
    15
100
AcDbCircle
 10
2.86535164232065
 20
8.251653043497491
 30
0.0
 40
0.0368306516170599
100
AcDbArc
 50
228.3815325009932
 51
297.964695851521
  0
ARC
  5
D5
330
1F
100
AcDbEntity
  8
0
  6
Continuous
 62
     7
370
    15
100
AcDbCircle
 10
2.879638503298856
 20
8.221269545878339
 30
0.0
 40
0.0112809554788316
100
AcDbArc
 50
288.4664789341633
 51
353.1621680066138
  0
LWPOLYLINE
  5
D6
330
1F
100
AcDbEntity
  8
0
  6
Continuous
 62
     7
370
    15
100
AcDbPolyline
 90
       15
 70
   128
 43
0.0
 10
2.838755832250872
 20
8.219926466287946
 10
2.838855020115938
 20
8.218773103462822
 10
2.83964328579275
 20
8.216501509849813
 10
2.841195834718427
 20
8.214333990505627
 10
2.843465514414811
 20
8.212336382868057
 10
2.846383281416361
 20
8.210569443404008
 10
2.849860690257266
 20
8.209086739687265
 10
2.853791907131166
 20
8.207933425168691
 10
2.858057503868037
 20
8.207144513314903
 10
2.862527914860743
 20
8.206743964175299
 10
2.867067274253511
 20
8.206743964175299
 10
2.871537616107686
 20
8.20714453088092
 10
2.875803195559924
 20
8.207933460300727
 10
2.879734403791507
 20
8.209086770427797
 10
2.883211743493883
 20
8.210569456578523
  0
ARC
  5
D7
330
1F
100
AcDbEntity
  8
0
  6
Continuous
 62
     7
370
    15
100
AcDbCircle
 10
2.865000248682116
 20
8.247239544120411
 30
0.0
 40
0.041062040282594
100
AcDbArc
 50
239.4282232060215
 51
295.4144349835974
  0
LWPOLYLINE
  5
D8
330
1F
100
AcDbEntity
  8
0
  6
Continuous
 62
     7
370
    15
100
AcDbPolyline
 90
       15
 70
   128
 43
0.0
 10
2.706435046012468
 20
8.128278366923304
 10
2.702957706310093
 20
8.126795680772577
 10
2.699026506720826
 20
8.125642375037013
 10
2.694760918626271
 20
8.124853441225701
 10
2.690290576772097
 20
8.124452874520079
 10
2.685751217379328
 20
8.124452874520079
 10
2.681280806386622
 20
8.124853423659681
 10
2.677015201007435
 20
8.125642331121966
 10
2.673084001418168
 20
8.126795654423549
 10
2.66960657529263
 20
8.128278349357284
 10
2.666688825575712
 20
8.130045297604343
 10
2.664419128594696
 20
8.132042896458903
 10
2.662866588311336
 20
8.134210420194593
 10
2.662078322634524
 20
8.136482013807603
 10
2.66197912612714
 20
8.137635372241224
  0
ARC
  5
D9
330
1F
100
AcDbEntity
  8
0
  6
Continuous
 62
     7
370
    15
100
AcDbCircle
 10
2.70251155425892
 20
8.139263958746827
 30
0.0
 40
0.0116652053240918
100
AcDbArc
 50
289.6541298166279
 51
351.9745543720782
  0
ARC
  5
DA
330
1F
100
AcDbEntity
  8
0
  6
Continuous
 62
     7
370
    15
100
AcDbCircle
 10
2.688305602806413
 20
8.113838225390562
 30
0.0
 40
0.0377779580458664
100
AcDbArc
 50
56.60211903259746
 51
128.1005420840257
  0
ARC
  5
DB
330
1F
100
AcDbEntity
  8
0
  6
Continuous
 62
     7
370
    15
100
AcDbCircle
 10
2.688574937796476
 20
8.161825780810479
 30
0.0
 40
0.0368306617096067
100
AcDbArc
 50
228.3815431210828
 51
297.964699920305
  0
ARC
  5
DC
330
1F
100
AcDbEntity
  8
0
  6
Continuous
 62
     7
370
    15
100
AcDbCircle
 10
2.702861897560467
 20
8.131442191003268
 30
0.0
 40
0.0112808462699863
100
AcDbArc
 50
288.4661729041604
 51
353.1625112845571
  0
LWPOLYLINE
  5
DD
330
1F
100
AcDbEntity
  8
0
  6
Continuous
 62
     7
370
    15
100
AcDbPolyline
 90
       15
 70
   128
 43
0.0
 10
2.66197912612714
 20
8.130099191521795
 10
2.662078322634524
 20
8.128945833088174
 10
2.662866588311336
 20
8.126674239475164
 10
2.664419128594696
 20
8.124506715739475
 10
2.666688825575712
 20
8.122509116884915
 10
2.66960657529263
 20
8.120742168637855
 10
2.673084001418168
 20
8.119259473704122
 10
2.677015201007435
 20
8.118106150402537
 10
2.681280806386622
 20
8.117317242940254
 10
2.685751217379328
 20
8.116916693800652
 10
2.690290576772097
 20
8.116916693800652
 10
2.694760918626271
 20
8.117317260506272
 10
2.699026506720826
 20
8.118106194317585
 10
2.702957706310093
 20
8.119259500053148
 10
2.706435046012468
 20
8.120742186203875
  0
ARC
  5
DE
330
1F
100
AcDbEntity
  8
0
  6
Continuous
 62
     7
370
    15
100
AcDbCircle
 10
2.68822354546856
 20
8.157412340070786
 30
0.0
 40
0.0410621026491857
100
AcDbArc
 50
239.42826989706
 51
295.4144024904898
  0
LWPOLYLINE
  5
DF
330
1F
100
AcDbEntity
  8
0
  6
Continuous
 62
     7
370
    15
100
AcDbPolyline
 90
       15
 70
   128
 43
0.0
 10
4.650978753147362
 20
7.319832915848215
 10
4.647501394269847
 20
7.318350239441142
 10
4.64357019360029
 20
7.317196925471506
 10
4.639304586533151
 20
7.316408010083929
 10
4.634834192149897
 20
7.31600747007042
 10
4.630294831609321
 20
7.316007470653667
 10
4.625824433850162
 20
7.316408013068779
 10
4.621558831171699
 20
7.317196927941727
 10
4.617627620779536
 20
7.318350239166673
 10
4.614150270274267
 20
7.319832913240761
 10
4.611232422251001
 20
7.321599893875166
 10
4.608962749036354
 20
7.323597498219107
 10
4.607410195789519
 20
7.325765019759045
 10
4.606621943076182
 20
7.328036606784797
 10
4.606522845955436
 20
7.329189923499123
  0
ARC
  5
E0
330
1F
100
AcDbEntity
  8
0
  6
Continuous
 62
     7
370
    15
100
AcDbCircle
 10
4.647054951895396
 20
7.330818707341457
 30
0.0
 40
0.0116654974603712
100
AcDbArc
 50
289.6552315278474
 51
351.9739071917085
  0
ARC
  5
E1
330
1F
100
AcDbEntity
  8
0
  6
Continuous
 62
     7
370
    15
100
AcDbCircle
 10
4.632849291204568
 20
7.305392985902248
 30
0.0
 40
0.037777775861248
100
AcDbArc
 50
56.60213095595644
 51
128.1007148247346
  0
ARC
  5
E2
330
1F
100
AcDbEntity
  8
0
  6
Continuous
 62
     7
370
    15
100
AcDbCircle
 10
4.633118593609165
 20
7.353380476013706
 30
0.0
 40
0.0368307624291739
100
AcDbArc
 50
228.381554767144
 51
297.9646062834768
  0
ARC
  5
E3
330
1F
100
AcDbEntity
  8
0
  6
Continuous
 62
     7
370
    15
100
AcDbCircle
 10
4.647405241752228
 20
7.322996985476767
 30
0.0
 40
0.0112811941389466
100
AcDbArc
 50
288.4675263191868
 51
353.1616124003635
  0
LWPOLYLINE
  5
E4
330
1F
100
AcDbEntity
  8
0
  6
Continuous
 62
     7
370
    15
100
AcDbPolyline
 90
       15
 70
   128
 43
0.0
 10
4.606522845955436
 20
7.321653742779695
 10
4.606621943076182
 20
7.320500426065369
 10
4.607410195789519
 20
7.318228839039615
 10
4.608962749036354
 20
7.316061317499679
 10
4.611232422251001
 20
7.314063713155738
 10
4.614150270274267
 20
7.312296732521333
 10
4.617627620779536
 20
7.310814058447244
 10
4.621558831171699
 20
7.309660747222299
 10
4.625824433850162
 20
7.308871832349352
 10
4.630294831609321
 20
7.308471289934239
 10
4.634834192149897
 20
7.308471289350992
 10
4.639304586533151
 20
7.3088718293645
 10
4.64357019360029
 20
7.309660744752076
 10
4.647501394269847
 20
7.310814058721714
 10
4.650978753147362
 20
7.312296735128787
  0
ARC
  5
E5
330
1F
100
AcDbEntity
  8
0
  6
Continuous
 62
     7
370
    15
100
AcDbCircle
 10
4.632767195241332
 20
7.348966792485174
 30
0.0
 40
0.0410619892458466
100
AcDbArc
 50
239.4282952072998
 51
295.4144778407457
  0
LWPOLYLINE
  5
E6
330
1F
100
AcDbEntity
  8
0
  6
Continuous
 62
     7
370
    15
100
AcDbPolyline
 90
       15
 70
   128
 43
0.0
 10
4.783561271667191
 20
7.027894285072092
 10
4.780083914680184
 20
7.026411625270395
 10
4.776152732375549
 20
7.025258293185802
 10
4.771887126996362
 20
7.024469385723518
 10
4.767416698719023
 20
7.024068845366924
 10
4.762877339326255
 20
7.024068845366924
 10
4.758406980187447
 20
7.024469385723518
 10
4.754141340238994
 20
7.02525831075182
 10
4.75021015793436
 20
7.026411607704377
 10
4.746732800947353
 20
7.027894302638111
 10
4.743814947522639
 20
7.029661268451188
 10
4.741545267826255
 20
7.031658876088759
 10
4.739992727542896
 20
7.033826399824447
 10
4.73920444458145
 20
7.036097984654447
 10
4.739105369066495
 20
7.037251299173021
  0
ARC
  5
E7
330
1F
100
AcDbEntity
  8
0
  6
Continuous
 62
     7
370
    15
100
AcDbCircle
 10
4.779637399855693
 20
7.038880140970788
 30
0.0
 40
0.0116655818466118
100
AcDbArc
 50
289.6554514899208
 51
351.9735924000341
  0
ARC
  5
E8
330
1F
100
AcDbEntity
  8
0
  6
Continuous
 62
     7
370
    15
100
AcDbCircle
 10
4.765431804569916
 20
7.013454361301699
 30
0.0
 40
0.0377777719405778
100
AcDbArc
 50
56.60214073090125
 51
128.1007173607629
  0
ARC
  5
E9
330
1F
100
AcDbEntity
  8
0
  6
Continuous
 62
     7
370
    15
100
AcDbCircle
 10
4.765701100411827
 20
7.061441796901635
 30
0.0
 40
0.0368307143259455
100
AcDbArc
 50
228.3814952456316
 51
297.9646457206211
  0
ARC
  5
EA
330
1F
100
AcDbEntity
  8
0
  6
Continuous
 62
     7
370
    15
100
AcDbCircle
 10
4.779987662417872
 20
7.031058440873057
 30
0.0
 40
0.0112813068709472
100
AcDbArc
 50
288.4678590758272
 51
353.1611848141234
  0
LWPOLYLINE
  5
EB
330
1F
100
AcDbEntity
  8
0
  6
Continuous
 62
     7
370
    15
100
AcDbPolyline
 90
       15
 70
   128
 43
0.0
 10
4.739105369066495
 20
7.029715118453593
 10
4.73920444458145
 20
7.028561803935019
 10
4.739992727542896
 20
7.026290219105019
 10
4.741545267826255
 20
7.02412269536933
 10
4.743814947522639
 20
7.02212508773176
 10
4.746732800947353
 20
7.020358121918683
 10
4.75021015793436
 20
7.018875426984949
 10
4.754141340238994
 20
7.017722130032392
 10
4.758406980187447
 20
7.01693320500409
 10
4.762877339326255
 20
7.016532664647496
 10
4.767416698719023
 20
7.016532664647496
 10
4.771887126996362
 20
7.01693320500409
 10
4.776152732375549
 20
7.017722112466374
 10
4.780083914680184
 20
7.018875444550966
 10
4.783561271667191
 20
7.020358104352665
  0
ARC
  5
EC
330
1F
100
AcDbEntity
  8
0
  6
Continuous
 62
     7
370
    15
100
AcDbCircle
 10
4.76534971608808
 20
7.05702810288621
 30
0.0
 40
0.0410619245630512
100
AcDbArc
 50
239.4282403080322
 51
295.4144987725208
  0
LWPOLYLINE
  5
ED
330
1F
100
AcDbEntity
  8
0
  6
Continuous
 62
     7
370
    15
100
AcDbPolyline
 90
       15
 70
   128
 43
0.0
 10
4.474202055665947
 20
7.230005645473569
 10
4.470724696788432
 20
7.228522969066494
 10
4.466793504761192
 20
7.227369659488362
 10
4.462527889051736
 20
7.22658073970928
 10
4.458057494668482
 20
7.226180199695773
 10
4.453518134127906
 20
7.22618020027902
 10
4.449047736368747
 20
7.226580742694132
 10
4.444782125047968
 20
7.227369653175575
 10
4.440850931940437
 20
7.22852297318353
 10
4.437373564150536
 20
7.230005638474608
 10
4.434455733411902
 20
7.231772627892023
 10
4.432186042912623
 20
7.233770223452954
 10
4.430633498308105
 20
7.235937749384396
 10
4.429845245594767
 20
7.238209336410148
 10
4.429746139831705
 20
7.23936264873297
  0
ARC
  5
EE
330
1F
100
AcDbEntity
  8
0
  6
Continuous
 62
     7
370
    15
100
AcDbCircle
 10
4.470278330777669
 20
7.240991364813967
 30
0.0
 40
0.0116654038260533
100
AcDbArc
 50
289.6549975149406
 51
351.9741784529218
  0
ARC
  5
EF
330
1F
100
AcDbEntity
  8
0
  6
Continuous
 62
     7
370
    15
100
AcDbCircle
 10
4.456072593451142
 20
7.215565722151836
 30
0.0
 40
0.0377777704806113
100
AcDbArc
 50
56.60212508134665
 51
128.1007206993448
  0
ARC
  5
F0
330
1F
100
AcDbEntity
  8
0
  6
Continuous
 62
     7
370
    15
100
AcDbCircle
 10
4.456341889084986
 20
7.263553213326731
 30
0.0
 40
0.0368307725217489
100
AcDbArc
 50
228.3815653872403
 51
297.9646103522521
  0
ARC
  5
F1
330
1F
100
AcDbEntity
  8
0
  6
Continuous
 62
     7
370
    15
100
AcDbCircle
 10
4.470628636021855
 20
7.233169630595703
 30
0.0
 40
0.0112810849207746
100
AcDbArc
 50
288.4672202768283
 51
353.161955691029
  0
LWPOLYLINE
  5
F2
330
1F
100
AcDbEntity
  8
0
  6
Continuous
 62
     7
370
    15
100
AcDbPolyline
 90
       15
 70
   128
 43
0.0
 10
4.429746139831705
 20
7.231826468013542
 10
4.429845245594767
 20
7.23067315569072
 10
4.430633498308105
 20
7.228401568664968
 10
4.432186042912623
 20
7.226234042733526
 10
4.434455733411902
 20
7.224236447172595
 10
4.437373564150536
 20
7.22246945775518
 10
4.440850931940437
 20
7.220986792464102
 10
4.444782125047968
 20
7.219833472456146
 10
4.449047736368747
 20
7.219044561974703
 10
4.453518134127906
 20
7.218644019559592
 10
4.458057494668482
 20
7.218644018976345
 10
4.462527889051736
 20
7.219044558989852
 10
4.466793504761192
 20
7.219833478768935
 10
4.470724696788432
 20
7.220986788347065
 10
4.474202055665947
 20
7.222469464754141
  0
ARC
  5
F3
330
1F
100
AcDbEntity
  8
0
  6
Continuous
 62
     7
370
    15
100
AcDbCircle
 10
4.45599049822418
 20
7.259139532419335
 30
0.0
 40
0.0410619983577946
100
AcDbArc
 50
239.4283019656687
 51
295.4144710823801
  0
LWPOLYLINE
  5
F4
330
1F
100
AcDbEntity
  8
0
  6
Continuous
 62
     7
370
    15
100
AcDbPolyline
 90
       15
 70
   128
 43
0.0
 10
3.59031860255807
 20
7.858796520667321
 10
3.586841193717165
 20
7.857313869648633
 10
3.582910054624112
 20
7.856160524389526
 10
3.578644406033343
 20
7.855371630101756
 10
3.574173995040636
 20
7.854971098528172
 10
3.569634635647869
 20
7.854971098528172
 10
3.565164293793694
 20
7.855371612535738
 10
3.560898627918292
 20
7.856160559521564
 10
3.556967480182923
 20
7.8573138389081
 10
3.553490071342018
 20
7.858796542624844
 10
3.550572235201937
 20
7.86056351722093
 10
3.548302555505553
 20
7.8625611248585
 10
3.546750006579876
 20
7.864728644202685
 10
3.545961740903064
 20
7.867000237815694
 10
3.545862691315059
 20
7.868153530376745
  0
ARC
  5
F5
330
1F
100
AcDbEntity
  8
0
  6
Continuous
 62
     7
370
    15
100
AcDbCircle
 10
3.586394585620469
 20
7.869782459036787
 30
0.0
 40
0.0116657083275844
100
AcDbArc
 50
289.6559864954887
 51
351.9733798476624
  0
ARC
  5
F6
330
1F
100
AcDbEntity
  8
0
  6
Continuous
 62
     7
370
    15
100
AcDbCircle
 10
3.572189132863552
 20
7.84435666014676
 30
0.0
 40
0.0377777205649587
100
AcDbArc
 50
56.60208463862083
 51
128.1007734530407
  0
ARC
  5
F7
330
1F
100
AcDbEntity
  8
0
  6
Continuous
 62
     7
370
    15
100
AcDbCircle
 10
3.572458431500578
 20
7.892344100664537
 30
0.0
 40
0.036830774441391
100
AcDbArc
 50
228.3815599337144
 51
297.9645957214091
  0
ARC
  5
F8
330
1F
100
AcDbEntity
  8
0
  6
Continuous
 62
     7
370
    15
100
AcDbCircle
 10
3.586744798086346
 20
7.861960801415765
 30
0.0
 40
0.0112814872258732
100
AcDbArc
 50
288.4685984840104
 51
353.1607678591512
  0
LWPOLYLINE
  5
F9
330
1F
100
AcDbEntity
  8
0
  6
Continuous
 62
     7
370
    15
100
AcDbPolyline
 90
       15
 70
   128
 43
0.0
 10
3.545862691315059
 20
7.860617349657317
 10
3.545961740903064
 20
7.859464057096266
 10
3.546750006579876
 20
7.857192463483257
 10
3.548302555505553
 20
7.855024944139072
 10
3.550572235201937
 20
7.853027336501502
 10
3.553490071342018
 20
7.851260361905416
 10
3.556967480182923
 20
7.849777658188672
 10
3.560898627918292
 20
7.848624378802135
 10
3.565164293793694
 20
7.847835431816309
 10
3.569634635647869
 20
7.847434917808744
 10
3.574173995040636
 20
7.847434917808744
 10
3.578644406033343
 20
7.847835449382328
 10
3.582910054624112
 20
7.848624343670097
 10
3.586841193717165
 20
7.849777688929204
 10
3.59031860255807
 20
7.851260339947893
  0
ARC
  5
FA
330
1F
100
AcDbEntity
  8
0
  6
Continuous
 62
     7
370
    15
100
AcDbCircle
 10
3.572107026813752
 20
7.887930548737196
 30
0.0
 40
0.0410621231259071
100
AcDbArc
 50
239.4284926821861
 51
295.4143982793194
  0
LWPOLYLINE
  5
FB
330
1F
100
AcDbEntity
  8
0
  6
Continuous
 62
     7
370
    15
100
AcDbPolyline
 90
       15
 70
   128
 43
0.0
 10
4.253231179222949
 20
7.477030636945332
 10
4.249753848162891
 20
7.475547955186112
 10
4.245822639931308
 20
7.474394645059042
 10
4.24155703455212
 20
7.473605737596758
 10
4.237086606274781
 20
7.473205197240165
 10
4.232547246882013
 20
7.473205197240164
 10
4.228076870458573
 20
7.473605728813749
 10
4.223811282364018
 20
7.474394645059042
 10
4.219880065490118
 20
7.475547959577617
 10
4.216402725787744
 20
7.477030628162323
 10
4.213484855078398
 20
7.478797620324429
 10
4.211215175382013
 20
7.480795227961998
 10
4.209662617814021
 20
7.482962742914678
 10
4.208874386706474
 20
7.485234318961669
 10
4.208775276622255
 20
7.486387651046261
  0
ARC
  5
FC
330
1F
100
AcDbEntity
  8
0
  6
Continuous
 62
     7
370
    15
100
AcDbCircle
 10
4.249307393149587
 20
7.488016432858398
 30
0.0
 40
0.0116654965172099
100
AcDbArc
 50
289.6551540192545
 51
351.9738526224867
  0
ARC
  5
FD
330
1F
100
AcDbEntity
  8
0
  6
Continuous
 62
     7
370
    15
100
AcDbCircle
 10
4.235101727307384
 20
7.462590688479082
 30
0.0
 40
0.0377777969884189
100
AcDbArc
 50
56.60211485781849
 51
128.1006835199437
  0
ARC
  5
FE
330
1F
100
AcDbEntity
  8
0
  6
Continuous
 62
     7
370
    15
100
AcDbCircle
 10
4.235371015581077
 20
7.510578139922126
 30
0.0
 40
0.0368307029366979
100
AcDbArc
 50
228.3815355973413
 51
297.9646417175721
  0
ARC
  5
FF
330
1F
100
AcDbEntity
  8
0
  6
Continuous
 62
     7
370
    15
100
AcDbCircle
 10
4.249657655767448
 20
7.480194732525769
 30
0.0
 40
0.0112812225747246
100
AcDbArc
 50
288.4675426659898
 51
353.1614639757477
  0
LWPOLYLINE
  5
100
330
1F
100
AcDbEntity
  8
0
  6
Continuous
 62
     7
370
    15
100
AcDbPolyline
 90
       15
 70
   128
 43
0.0
 10
4.208775276622255
 20
7.478851470326834
 10
4.208874386706474
 20
7.47769813824224
 10
4.209662617814021
 20
7.47542656219525
 10
4.211215175382013
 20
7.47325904724257
 10
4.213484855078398
 20
7.471261439605001
 10
4.216402725787744
 20
7.469494447442895
 10
4.219880065490118
 20
7.468011778858188
 10
4.223811282364018
 20
7.466858464339614
 10
4.228076870458573
 20
7.466069548094321
 10
4.232547246882013
 20
7.465669016520736
 10
4.237086606274781
 20
7.465669016520736
 10
4.24155703455212
 20
7.46606955687733
 10
4.245822639931308
 20
7.466858464339614
 10
4.249753848162891
 20
7.468011774466684
 10
4.253231179222949
 20
7.469494456225905
  0
ARC
  5
101
330
1F
100
AcDbEntity
  8
0
  6
Continuous
 62
     7
370
    15
100
AcDbCircle
 10
4.23501960918545
 20
7.506164462722018
 30
0.0
 40
0.0410619379600704
100
AcDbArc
 50
239.4283027945679
 51
295.4145122264268
  0
LWPOLYLINE
  5
102
330
1F
100
AcDbEntity
  8
0
  6
Continuous
 62
     7
370
    15
100
AcDbPolyline
 90
       15
 70
   128
 43
0.0
 10
4.076454481741534
 20
7.387203366570686
 10
4.072977159323793
 20
7.38572068920297
 10
4.069045942449893
 20
7.384567374684395
 10
4.064780337070706
 20
7.383778467222112
 10
4.060309908793366
 20
7.383377926865517
 10
4.055770549400599
 20
7.383377926865517
 10
4.05130019026179
 20
7.383778467222112
 10
4.047034584882603
 20
7.384567374684395
 10
4.043103368008703
 20
7.38572068920297
 10
4.039626045590962
 20
7.387203366570686
 10
4.036708157596983
 20
7.388970349949781
 10
4.034438477900599
 20
7.39096795758735
 10
4.03288593761724
 20
7.39313548132304
 10
4.03209768922506
 20
7.395407048587022
 10
4.031998579140839
 20
7.396560380671614
  0
ARC
  5
103
330
1F
100
AcDbEntity
  8
0
  6
Continuous
 62
     7
370
    15
100
AcDbCircle
 10
4.072530715834465
 20
7.398189136140526
 30
0.0
 40
0.011665464925802
100
AcDbArc
 50
289.6551042624468
 51
351.9739396274939
  0
ARC
  5
104
330
1F
100
AcDbEntity
  8
0
  6
Continuous
 62
     7
370
    15
100
AcDbCircle
 10
4.058325019021144
 20
7.372763427225762
 30
0.0
 40
0.0377777868973385
100
AcDbArc
 50
56.60210083856847
 51
128.1007080092243
  0
ARC
  5
105
330
1F
100
AcDbEntity
  8
0
  6
Continuous
 62
     7
370
    15
100
AcDbCircle
 10
4.058594313285237
 20
7.420750829333154
 30
0.0
 40
0.036830669675535
100
AcDbArc
 50
228.381499646419
 51
297.9646776684951
  0
ARC
  5
106
330
1F
100
AcDbEntity
  8
0
  6
Continuous
 62
     7
370
    15
100
AcDbCircle
 10
4.072880978396642
 20
7.390367436042796
 30
0.0
 40
0.0112811914405118
100
AcDbArc
 50
288.4674877901916
 51
353.1615560997482
  0
LWPOLYLINE
  5
107
330
1F
100
AcDbEntity
  8
0
  6
Continuous
 62
     7
370
    15
100
AcDbPolyline
 90
       15
 70
   128
 43
0.0
 10
4.031998579140839
 20
7.389024199952185
 10
4.03209768922506
 20
7.387870867867592
 10
4.03288593761724
 20
7.385599300603611
 10
4.034438477900599
 20
7.383431776867922
 10
4.036708157596983
 20
7.381434169230352
 10
4.039626045590962
 20
7.379667185851256
 10
4.043103368008703
 20
7.378184508483541
 10
4.047034584882603
 20
7.377031193964967
 10
4.05130019026179
 20
7.376242286502683
 10
4.055770549400599
 20
7.375841746146089
 10
4.060309908793366
 20
7.375841746146089
 10
4.064780337070706
 20
7.376242286502683
 10
4.069045942449893
 20
7.377031193964967
 10
4.072977159323793
 20
7.37818450848354
 10
4.076454481741534
 20
7.379667185851258
  0
ARC
  5
108
330
1F
100
AcDbEntity
  8
0
  6
Continuous
 62
     7
370
    15
100
AcDbCircle
 10
4.058242927861309
 20
7.41633716390099
 30
0.0
 40
0.0410619053324246
100
AcDbArc
 50
239.4282777273337
 51
295.4145088977898
  0
LWPOLYLINE
  5
109
330
1F
100
AcDbEntity
  8
0
  6
Continuous
 62
     7
370
    15
100
AcDbPolyline
 90
       15
 70
   128
 43
0.0
 10
5.181308845321532
 20
6.87069656411221
 10
5.177831505619157
 20
6.869213877961485
 10
5.17390030602989
 20
6.86806057222592
 10
5.169634648796805
 20
6.867271673546646
 10
5.165164306942629
 20
6.866871106841024
 10
5.160624947549861
 20
6.866871106841024
 10
5.156154536557155
 20
6.867271655980627
 10
5.151888931177968
 20
6.86806056344291
 10
5.147957731588701
 20
6.869213886744494
 10
5.144480374601693
 20
6.870696546546192
 10
5.141562486607714
 20
6.872463565057325
 10
5.139292858765229
 20
6.874461128779849
 10
5.137740249343337
 20
6.876628687647575
 10
5.136952052805057
 20
6.878900246128546
 10
5.136852925436204
 20
6.88005356943013
  0
ARC
  5
10A
330
1F
100
AcDbEntity
  8
0
  6
Continuous
 62
     7
370
    15
100
AcDbCircle
 10
5.177385404417503
 20
6.881682023021617
 30
0.0
 40
0.011665063050737
100
AcDbArc
 50
289.6541141849691
 51
351.9752894067075
  0
ARC
  5
10B
330
1F
100
AcDbEntity
  8
0
  6
Continuous
 62
     7
370
    15
100
AcDbCircle
 10
5.163179375355004
 20
6.856256710215809
 30
0.0
 40
0.0377777151843888
100
AcDbArc
 50
56.6020787640639
 51
128.1007793275986
  0
ARC
  5
10C
330
1F
100
AcDbEntity
  8
0
  6
Continuous
 62
     7
370
    15
100
AcDbCircle
 10
5.163448667221278
 20
6.90424415179712
 30
0.0
 40
0.0368307845339824
100
AcDbArc
 50
228.38157055382
 51
297.964599790168
  0
ARC
  5
10D
330
1F
100
AcDbEntity
  8
0
  6
Continuous
 62
     7
370
    15
100
AcDbCircle
 10
5.177735632271279
 20
6.873860353046585
 30
0.0
 40
0.0112808333954016
100
AcDbArc
 50
288.4665406484442
 51
353.1628629432369
  0
LWPOLYLINE
  5
10E
330
1F
100
AcDbEntity
  8
0
  6
Continuous
 62
     7
370
    15
100
AcDbPolyline
 90
       15
 70
   128
 43
0.0
 10
5.136852925436204
 20
6.872517388710702
 10
5.136952052805057
 20
6.871364065409118
 10
5.137740249343337
 20
6.869092506928146
 10
5.139292858765229
 20
6.866924948060419
 10
5.141562486607714
 20
6.864927384337897
 10
5.144480374601693
 20
6.863160365826764
 10
5.147957731588701
 20
6.861677706025066
 10
5.151888931177968
 20
6.860524382723482
 10
5.156154536557155
 20
6.859735475261199
 10
5.160624947549861
 20
6.859334926121596
 10
5.165164306942629
 20
6.859334926121596
 10
5.169634648796805
 20
6.859735492827216
 10
5.17390030602989
 20
6.860524391506491
 10
5.177831505619157
 20
6.861677697242057
 10
5.181308845321532
 20
6.863160383392782
  0
ARC
  5
10F
330
1F
100
AcDbEntity
  8
0
  6
Continuous
 62
     7
370
    15
100
AcDbCircle
 10
5.163097279036807
 20
6.899830531424303
 30
0.0
 40
0.0410620641881137
100
AcDbArc
 50
239.4283447356108
 51
295.4144227408122
  0
LWPOLYLINE
  5
110
330
1F
100
AcDbEntity
  8
0
  6
Continuous
 62
     7
370
    15
100
AcDbPolyline
 90
       15
 70
   128
 43
0.0
 10
3.01579429685305
 20
7.926166988818573
 10
3.012316974435308
 20
7.924684311450858
 10
3.008385757561408
 20
7.923530996932283
 10
3.004120186751487
 20
7.92274207190398
 10
2.999649689335616
 20
7.922341566679424
 10
2.995110329942849
 20
7.922341566679425
 10
2.990640074511837
 20
7.922742054337962
 10
2.98637446913265
 20
7.923530961800246
 10
2.98244325225875
 20
7.92468427631882
 10
2.978965860702477
 20
7.926166988818573
 10
2.976047938139233
 20
7.927933989763689
 10
2.973778258442849
 20
7.929931597401258
 10
2.972225718159489
 20
7.932099121136948
 10
2.971437435198043
 20
7.934370705966948
 10
2.971338394252355
 20
7.935524002919503
  0
ARC
  5
111
330
1F
100
AcDbEntity
  8
0
  6
Continuous
 62
     7
370
    15
100
AcDbCircle
 10
3.011870217610567
 20
7.937153059541551
 30
0.0
 40
0.0116658539263764
100
AcDbArc
 50
289.656056013142
 51
351.972628175589
  0
ARC
  5
112
330
1F
100
AcDbEntity
  8
0
  6
Continuous
 62
     7
370
    15
100
AcDbCircle
 10
2.997664827442502
 20
7.911727121382615
 30
0.0
 40
0.0377777261820927
100
AcDbArc
 50
56.6020907714606
 51
128.1007673202051
  0
ARC
  5
113
330
1F
100
AcDbEntity
  8
0
  6
Continuous
 62
     7
370
    15
100
AcDbCircle
 10
2.997934196416765
 20
7.95971462444747
 30
0.0
 40
0.0368308539120724
100
AcDbArc
 50
228.3815407954942
 51
297.9645274736356
  0
ARC
  5
114
330
1F
100
AcDbEntity
  8
0
  6
Continuous
 62
     7
370
    15
100
AcDbCircle
 10
3.012220537897162
 20
7.929331310558938
 30
0.0
 40
0.0112815116880155
100
AcDbArc
 50
288.4683132762405
 51
353.1603709124833
  0
LWPOLYLINE
  5
115
330
1F
100
AcDbEntity
  8
0
  6
Continuous
 62
     7
370
    15
100
AcDbPolyline
 90
       15
 70
   128
 43
0.0
 10
2.971338394252355
 20
7.927987822200075
 10
2.971437435198043
 20
7.92683452524752
 10
2.972225718159489
 20
7.924562940417518
 10
2.973778258442849
 20
7.92239541668183
 10
2.976047938139233
 20
7.92039780904426
 10
2.978965860702477
 20
7.918630808099146
 10
2.98244325225875
 20
7.917148095599392
 10
2.98637446913265
 20
7.915994781080818
 10
2.990640074511837
 20
7.915205873618534
 10
2.995110329942849
 20
7.914805385959997
 10
2.999649689335616
 20
7.914805385959996
 10
3.004120186751487
 20
7.915205891184553
 10
3.008385757561408
 20
7.915994816212855
 10
3.012316974435308
 20
7.917148130731429
 10
3.01579429685305
 20
7.918630808099146
  0
ARC
  5
116
330
1F
100
AcDbEntity
  8
0
  6
Continuous
 62
     7
370
    15
100
AcDbCircle
 10
2.997582776484523
 20
7.955301217795876
 30
0.0
 40
0.0410623422297799
100
AcDbArc
 50
239.4288636545748
 51
295.4142742781283
  0
LWPOLYLINE
  5
117
330
1F
100
AcDbEntity
  8
0
  6
Continuous
 62
     7
370
    15
100
AcDbPolyline
 90
       15
 70
   128
 43
0.0
 10
5.490668027023582
 20
6.668585221139518
 10
5.48719070460584
 20
6.667102543771802
 10
5.48325948773194
 20
6.665949229253228
 10
5.47899391692202
 20
6.665160304224926
 10
5.47452348864468
 20
6.664759763868333
 10
5.469984129251911
 20
6.664759763868333
 10
5.465513735543838
 20
6.665160321790944
 10
5.461248130164651
 20
6.665949229253228
 10
5.457316913290751
 20
6.667102543771802
 10
5.453839590873009
 20
6.668585221139518
 10
5.450921737448296
 20
6.670352186952595
 10
5.448652057751913
 20
6.672349794590165
 10
5.447099517468553
 20
6.674517318325856
 10
5.446311234507107
 20
6.676788903155856
 10
5.446212124422888
 20
6.677942235240448
  0
ARC
  5
118
330
1F
100
AcDbEntity
  8
0
  6
Continuous
 62
     7
370
    15
100
AcDbCircle
 10
5.486744235694069
 20
6.67957105716639
 30
0.0
 40
0.0116655360617035
100
AcDbArc
 50
289.6551120613511
 51
351.9735721273857
  0
ARC
  5
119
330
1F
100
AcDbEntity
  8
0
  6
Continuous
 62
     7
370
    15
100
AcDbCircle
 10
5.47253856223959
 20
6.654145241034511
 30
0.0
 40
0.0377778176992386
100
AcDbArc
 50
56.60219069038301
 51
128.100667401283
  0
ARC
  5
11A
330
1F
100
AcDbEntity
  8
0
  6
Continuous
 62
     7
370
    15
100
AcDbCircle
 10
5.472807858940146
 20
6.702132614568981
 30
0.0
 40
0.036830608263235
100
AcDbArc
 50
228.3814859297507
 51
297.9647277338855
  0
ARC
  5
11B
330
1F
100
AcDbEntity
  8
0
  6
Continuous
 62
     7
370
    15
100
AcDbCircle
 10
5.487094555980664
 20
6.671749308183779
 30
0.0
 40
0.0112811978756346
100
AcDbArc
 50
288.4673039105534
 51
353.1613802781623
  0
LWPOLYLINE
  5
11C
330
1F
100
AcDbEntity
  8
0
  6
Continuous
 62
     7
370
    15
100
AcDbPolyline
 90
       15
 70
   128
 43
0.0
 10
5.446212124422888
 20
6.670406054521019
 10
5.446311234507107
 20
6.669252722436427
 10
5.447099517468553
 20
6.666981137606426
 10
5.448652057751913
 20
6.664813613870737
 10
5.450921737448296
 20
6.662816006233168
 10
5.453839590873009
 20
6.66104904042009
 10
5.457316913290751
 20
6.659566363052374
 10
5.461248130164651
 20
6.6584130485338
 10
5.465513735543838
 20
6.657624141071516
 10
5.469984129251911
 20
6.657223583148904
 10
5.47452348864468
 20
6.657223583148904
 10
5.47899391692202
 20
6.657624123505497
 10
5.48325948773194
 20
6.6584130485338
 10
5.48719070460584
 20
6.659566363052374
 10
5.490668027023582
 20
6.66104904042009
  0
ARC
  5
11D
330
1F
100
AcDbEntity
  8
0
  6
Continuous
 62
     7
370
    15
100
AcDbCircle
 10
5.472456465992872
 20
6.697718917903924
 30
0.0
 40
0.0410618175673825
100
AcDbArc
 50
239.4281609484234
 51
295.4145781321362
  0
LWPOLYLINE
  5
11E
330
1F
100
AcDbEntity
  8
0
  6
Continuous
 62
     7
370
    15
100
AcDbPolyline
 90
       15
 70
   128
 43
0.0
 10
2.308687576065924
 20
8.285476035185128
 10
2.305210253648182
 20
8.283993357817413
 10
2.301279036774282
 20
8.282840043298838
 10
2.297013327687299
 20
8.282051188534611
 10
2.292542968548491
 20
8.281650613045981
 10
2.288003609155723
 20
8.281650613045981
 10
2.283533215447649
 20
8.282051170968593
 10
2.279267610068463
 20
8.282840078430876
 10
2.275336393194563
 20
8.283993392949451
 10
2.271859139915351
 20
8.28547603518513
 10
2.268941217352107
 20
8.287243036130243
 10
2.266671537655724
 20
8.289240643767813
 10
2.265118997372363
 20
8.291408167503503
 10
2.264330714410918
 20
8.293679752333503
 10
2.264231673465229
 20
8.294833049286058
  0
ARC
  5
11F
330
1F
100
AcDbEntity
  8
0
  6
Continuous
 62
     7
370
    15
100
AcDbCircle
 10
2.304764174279012
 20
8.296461370746392
 30
0.0
 40
0.0116649337321361
100
AcDbArc
 50
289.6541370194016
 51
351.9759859771851
  0
ARC
  5
120
330
1F
100
AcDbEntity
  8
0
  6
Continuous
 62
     7
370
    15
100
AcDbCircle
 10
2.290558106655375
 20
8.271036167749175
 30
0.0
 40
0.0377777261820883
100
AcDbArc
 50
56.60209077145615
 51
128.1007673202096
  0
ARC
  5
121
330
1F
100
AcDbEntity
  8
0
  6
Continuous
 62
     7
370
    15
100
AcDbCircle
 10
2.290827338843957
 20
8.319023463746628
 30
0.0
 40
0.0368306082632347
100
AcDbArc
 50
228.3814859297493
 51
297.9647277338874
  0
ARC
  5
122
330
1F
100
AcDbEntity
  8
0
  6
Continuous
 62
     7
370
    15
100
AcDbCircle
 10
2.305114263669986
 20
8.288639817297978
 30
0.0
 40
0.0112808583933631
100
AcDbArc
 50
288.4670302207923
 51
353.1630927757906
  0
LWPOLYLINE
  5
123
330
1F
100
AcDbEntity
  8
0
  6
Continuous
 62
     7
370
    15
100
AcDbPolyline
 90
       15
 70
   128
 43
0.0
 10
2.264231673465229
 20
8.287296868566629
 10
2.264330714410918
 20
8.286143571614074
 10
2.265118997372363
 20
8.283871986784074
 10
2.266671537655724
 20
8.281704463048386
 10
2.268941217352107
 20
8.279706855410815
 10
2.271859139915351
 20
8.277939854465701
 10
2.275336393194563
 20
8.27645721223002
 10
2.279267610068463
 20
8.275303897711447
 10
2.283533215447649
 20
8.274514990249164
 10
2.288003609155723
 20
8.274114432326552
 10
2.292542968548491
 20
8.274114432326552
 10
2.297013327687299
 20
8.274515007815184
 10
2.301279036774282
 20
8.275303862579411
 10
2.305210253648182
 20
8.276457177097984
 10
2.308687576065924
 20
8.277939854465699
  0
ARC
  5
124
330
1F
100
AcDbEntity
  8
0
  6
Continuous
 62
     7
370
    15
100
AcDbCircle
 10
2.290475877027278
 20
8.314610597081022
 30
0.0
 40
0.0410625968019611
100
AcDbArc
 50
239.4300913235484
 51
295.4141679029479
  0
LWPOLYLINE
  5
125
330
1F
100
AcDbEntity
  8
0
  6
Continuous
 62
     7
370
    15
100
AcDbPolyline
 90
       15
 70
   128
 43
0.0
 10
5.358085542802946
 20
6.960523834486859
 10
5.354608203100571
 20
6.959041148336133
 10
5.350676994868988
 20
6.957887838209064
 10
5.34641134627822
 20
6.957098943921294
 10
5.341941004424043
 20
6.956698377215672
 10
5.337401645031276
 20
6.956698377215672
 10
5.33293123403857
 20
6.957098926355276
 10
5.328665637301699
 20
6.957887838209064
 10
5.324734420427799
 20
6.959041152727638
 10
5.321257080725425
 20
6.960523821312345
 10
5.318339175446812
 20
6.962290831040467
 10
5.31606956488896
 20
6.964288403545999
 10
5.314516946824753
 20
6.966455958022223
 10
5.313728750286471
 20
6.968727516503195
 10
5.313629631559935
 20
6.969880844196283
  0
ARC
  5
126
330
1F
100
AcDbEntity
  8
0
  6
Continuous
 62
     7
370
    15
100
AcDbCircle
 10
5.354162025542016
 20
6.97150936554316
 30
0.0
 40
0.0116651566764349
100
AcDbArc
 50
289.6543481902333
 51
351.9750181529158
  0
ARC
  5
127
330
1F
100
AcDbEntity
  8
0
  6
Continuous
 62
     7
370
    15
100
AcDbCircle
 10
5.339956073108429
 20
6.9460839739663
 30
0.0
 40
0.0377777205649566
100
AcDbArc
 50
56.60208463862104
 51
128.1007734530431
  0
ARC
  5
128
330
1F
100
AcDbEntity
  8
0
  6
Continuous
 62
     7
370
    15
100
AcDbCircle
 10
5.340225371745453
 20
6.994071414484072
 30
0.0
 40
0.0368307744413892
100
AcDbArc
 50
228.3815599337137
 51
297.9645957214129
  0
ARC
  5
129
330
1F
100
AcDbEntity
  8
0
  6
Continuous
 62
     7
370
    15
100
AcDbCircle
 10
5.354512238007893
 20
6.963687707922139
 30
0.0
 40
0.0112809426056535
100
AcDbArc
 50
288.4668466830113
 51
353.1625196601397
  0
LWPOLYLINE
  5
12A
330
1F
100
AcDbEntity
  8
0
  6
Continuous
 62
     7
370
    15
100
AcDbPolyline
 90
       15
 70
   128
 43
0.0
 10
5.313629631559935
 20
6.962344663476853
 10
5.313728750286471
 20
6.961191335783766
 10
5.314516946824753
 20
6.958919777302794
 10
5.31606956488896
 20
6.956752222826572
 10
5.318339175446812
 20
6.95475465032104
 10
5.321257080725425
 20
6.952987640592917
 10
5.324734420427799
 20
6.951504972008209
 10
5.328665637301699
 20
6.950351657489635
 10
5.33293123403857
 20
6.949562745635847
 10
5.337401645031276
 20
6.949162196496243
 10
5.341941004424043
 20
6.949162196496243
 10
5.34641134627822
 20
6.949562763201866
 10
5.350676994868988
 20
6.950351657489635
 10
5.354608203100571
 20
6.951504967616705
 10
5.358085542802946
 20
6.952987653767431
  0
ARC
  5
12B
330
1F
100
AcDbEntity
  8
0
  6
Continuous
 62
     7
370
    15
100
AcDbCircle
 10
5.339873976053947
 20
6.989657791489931
 30
0.0
 40
0.0410620550759746
100
AcDbArc
 50
239.428337977126
 51
295.4144294992961
  0
LWPOLYLINE
  5
12C
330
1F
100
AcDbEntity
  8
0
  6
Continuous
 62
     7
370
    15
100
AcDbPolyline
 90
       15
 70
   128
 43
0.0
 10
3.413541905076655
 20
7.768969250292673
 10
3.41006449623575
 20
7.767486599273984
 10
3.406133365785013
 20
7.766333258406382
 10
3.401867708551928
 20
7.765544359727108
 10
3.397397297559222
 20
7.765143828153525
 10
3.392857938166454
 20
7.765143828153523
 10
3.388387596312278
 20
7.765544342161089
 10
3.384121921794561
 20
7.76633328475541
 10
3.380190791343824
 20
7.767486572924957
 10
3.376713365218286
 20
7.768969267858691
 10
3.373795546362838
 20
7.770736251237788
 10
3.371525849381822
 20
7.772733850092348
 10
3.369973309098461
 20
7.774901373828037
 10
3.369185043421649
 20
7.777172967441047
 10
3.369085985191328
 20
7.778326255610593
  0
ARC
  5
12D
330
1F
100
AcDbEntity
  8
0
  6
Continuous
 62
     7
370
    15
100
AcDbCircle
 10
3.409617964507681
 20
7.779955116505417
 30
0.0
 40
0.0116656146873257
100
AcDbArc
 50
289.6557524764419
 51
351.9736511152342
  0
ARC
  5
12E
330
1F
100
AcDbEntity
  8
0
  6
Continuous
 62
     7
370
    15
100
AcDbCircle
 10
3.395412435110128
 20
7.754529396396279
 30
0.0
 40
0.0377777151843834
100
AcDbArc
 50
56.60207876405928
 51
128.1007793276053
  0
ARC
  5
12F
330
1F
100
AcDbEntity
  8
0
  6
Continuous
 62
     7
370
    15
100
AcDbCircle
 10
3.395681726976403
 20
7.802516837977582
 30
0.0
 40
0.0368307845339815
100
AcDbArc
 50
228.3815705538172
 51
297.9645997901674
  0
ARC
  5
130
330
1F
100
AcDbEntity
  8
0
  6
Continuous
 62
     7
370
    15
100
AcDbCircle
 10
3.409968192361455
 20
7.772133446530388
 30
0.0
 40
0.0112813780007477
100
AcDbArc
 50
288.4682924405073
 51
353.161111151155
  0
LWPOLYLINE
  5
131
330
1F
100
AcDbEntity
  8
0
  6
Continuous
 62
     7
370
    15
100
AcDbPolyline
 90
       15
 70
   128
 43
0.0
 10
3.369085985191328
 20
7.770790074891165
 10
3.369185043421649
 20
7.769636786721618
 10
3.369973309098461
 20
7.767365193108609
 10
3.371525849381822
 20
7.76519766937292
 10
3.373795546362838
 20
7.76320007051836
 10
3.376713365218286
 20
7.761433087139264
 10
3.380190791343824
 20
7.759950392205529
 10
3.384121921794561
 20
7.758797104035982
 10
3.388387596312278
 20
7.758008161441662
 10
3.392857938166454
 20
7.757607647434095
 10
3.397397297559222
 20
7.757607647434095
 10
3.401867708551928
 20
7.75800817900768
 10
3.406133365785013
 20
7.758797077686955
 10
3.41006449623575
 20
7.759950418554557
 10
3.413541905076655
 20
7.761433069573245
  0
ARC
  5
132
330
1F
100
AcDbEntity
  8
0
  6
Continuous
 62
     7
370
    15
100
AcDbCircle
 10
3.395330344389225
 20
7.798103187508647
 30
0.0
 40
0.0410620346023283
100
AcDbArc
 50
239.428115194236
 51
295.4144337089315
  0
LINE
  5
133
330
1F
100
AcDbEntity
  8
0
  6
Continuous
 62
     7
370
    15
100
AcDbLine
 10
3.977453083292539
 20
7.112132115935302
 30
0.0
 11
3.934933923792092
 21
7.277283549909774
 31
0.0
  0
LINE
  5
134
330
1F
100
AcDbEntity
  8
0
  6
Continuous
 62
     7
370
    15
100
AcDbLine
 10
3.934933923792092
 20
7.277283549909774
 30
0.0
 11
4.052785061207913
 21
7.217398700065672
 31
0.0
  0
LINE
  5
135
330
1F
100
AcDbEntity
  8
0
  6
Continuous
 62
     7
370
    15
100
AcDbLine
 10
4.052785061207913
 20
7.217398700065672
 30
0.0
 11
4.095304220708359
 21
7.0522472660912
 31
0.0
  0
LINE
  5
136
330
1F
100
AcDbEntity
  8
0
  6
Continuous
 62
     7
370
    15
100
AcDbLine
 10
4.095304220708359
 20
7.0522472660912
 30
0.0
 11
3.977453083292539
 21
7.112132115935302
 31
0.0
  0
LINE
  5
137
330
1F
100
AcDbEntity
  8
0
  6
Continuous
 62
     7
370
    15
100
AcDbLine
 10
4.067516477151261
 20
7.224884318372822
 30
0.0
 11
4.052785061207913
 21
7.217398700065672
 31
0.0
  0
LINE
  5
138
330
1F
100
AcDbEntity
  8
0
  6
Continuous
 62
     7
370
    15
100
AcDbLine
 10
4.067516477151261
 20
7.224884318372822
 30
0.0
 11
4.110035636651708
 21
7.05973288439835
 31
0.0
  0
LINE
  5
139
330
1F
100
AcDbEntity
  8
0
  6
Continuous
 62
     7
370
    15
100
AcDbLine
 10
4.110035636651708
 20
7.05973288439835
 30
0.0
 11
4.095304220708359
 21
7.0522472660912
 31
0.0
  0
LINE
  5
13A
330
1F
100
AcDbEntity
  8
0
  6
Continuous
 62
     7
370
    15
100
AcDbLine
 10
3.94966533973544
 20
7.284769168216924
 30
0.0
 11
3.934933923792092
 21
7.277283549909774
 31
0.0
  0
LINE
  5
13B
330
1F
100
AcDbEntity
  8
0
  6
Continuous
 62
     7
370
    15
100
AcDbLine
 10
3.94966533973544
 20
7.284769168216924
 30
0.0
 11
4.067516477151261
 21
7.224884318372822
 31
0.0
  0
LINE
  5
13C
330
1F
100
AcDbEntity
  8
0
  6
Continuous
 62
     7
370
    15
100
AcDbLine
 10
3.977453100577172
 20
6.974419257906534
 30
0.0
 11
4.095304220708359
 21
7.034304098967627
 31
0.0
  0
LINE
  5
13D
330
1F
100
AcDbEntity
  8
0
  6
Continuous
 62
     7
370
    15
100
AcDbLine
 10
3.977453100577172
 20
6.974419257906534
 30
0.0
 11
3.977453100577172
 21
6.992362425030107
 31
0.0
  0
LINE
  5
13E
330
1F
100
AcDbEntity
  8
0
  6
Continuous
 62
     7
370
    15
100
AcDbLine
 10
3.977453100577172
 20
6.992362425030107
 30
0.0
 11
4.095304220708359
 21
7.0522472660912
 31
0.0
  0
LINE
  5
13F
330
1F
100
AcDbEntity
  8
0
  6
Continuous
 62
     7
370
    15
100
AcDbLine
 10
4.095304220708359
 20
7.034304098967627
 30
0.0
 11
4.095304220708359
 21
7.0522472660912
 31
0.0
  0
LINE
  5
140
330
1F
100
AcDbEntity
  8
0
  6
Continuous
 62
     7
370
    15
100
AcDbLine
 10
3.859601963161351
 20
7.034304107750636
 30
0.0
 11
3.977453100577172
 21
6.974419257906534
 31
0.0
  0
LINE
  5
141
330
1F
100
AcDbEntity
  8
0
  6
Continuous
 62
     7
370
    15
100
AcDbLine
 10
3.859601963161351
 20
7.052247274874209
 30
0.0
 11
3.859601963161351
 21
7.034304107750636
 31
0.0
  0
LINE
  5
142
330
1F
100
AcDbEntity
  8
0
  6
Continuous
 62
     7
370
    15
100
AcDbLine
 10
3.977453100577172
 20
6.992362425030107
 30
0.0
 11
3.859601963161351
 21
7.052247274874209
 31
0.0
  0
LINE
  5
143
330
1F
100
AcDbEntity
  8
0
  6
Continuous
 62
     7
370
    15
100
AcDbLine
 10
3.961311379593408
 20
7.0382518305943
 30
0.0
 11
3.993583068010661
 21
7.038098777874056
 31
0.0
  0
LINE
  5
144
330
1F
100
AcDbEntity
  8
0
  6
Continuous
 62
     7
370
    15
100
AcDbLine
 10
3.993583068010661
 20
7.038098777874056
 30
0.0
 11
4.0099797546122
 21
7.052223789107314
 31
0.0
  0
LINE
  5
145
330
1F
100
AcDbEntity
  8
0
  6
Continuous
 62
     7
370
    15
100
AcDbLine
 10
3.945436377777695
 20
7.052529894547801
 30
0.0
 11
3.961311379593408
 21
7.0382518305943
 31
0.0
  0
LINE
  5
146
330
1F
100
AcDbEntity
  8
0
  6
Continuous
 62
     7
370
    15
100
AcDbLine
 10
3.859601963161351
 20
7.052247274874209
 30
0.0
 11
3.977453083292539
 21
7.112132115935302
 31
0.0
  0
LINE
  5
147
330
1F
100
AcDbEntity
  8
0
  6
Continuous
 62
     7
370
    15
100
AcDbLine
 10
3.961833064379233
 20
7.084598157117178
 30
0.0
 11
3.945436377777695
 21
7.070473145883921
 31
0.0
  0
LINE
  5
148
330
1F
100
AcDbEntity
  8
0
  6
Continuous
 62
     7
370
    15
100
AcDbLine
 10
3.994104770081118
 20
7.084445095613925
 30
0.0
 11
3.961833064379233
 21
7.084598157117178
 31
0.0
  0
LINE
  5
149
330
1F
100
AcDbEntity
  8
0
  6
Continuous
 62
     7
370
    15
100
AcDbLine
 10
4.0099797546122
 20
7.070167040443432
 30
0.0
 11
3.994104770081118
 21
7.084445095613925
 31
0.0
  0
LINE
  5
14A
330
1F
100
AcDbEntity
  8
0
  6
Continuous
 62
     7
370
    15
100
AcDbLine
 10
3.993583068010661
 20
7.056042029210174
 30
0.0
 11
4.0099797546122
 21
7.070167040443432
 31
0.0
  0
LINE
  5
14B
330
1F
100
AcDbEntity
  8
0
  6
Continuous
 62
     7
370
    15
100
AcDbLine
 10
3.961311379593408
 20
7.056195081930419
 30
0.0
 11
3.993583068010661
 21
7.056042029210174
 31
0.0
  0
LINE
  5
14C
330
1F
100
AcDbEntity
  8
0
  6
Continuous
 62
     7
370
    15
100
AcDbLine
 10
3.945436377777695
 20
7.070473145883921
 30
0.0
 11
3.961311379593408
 21
7.056195081930419
 31
0.0
  0
LINE
  5
14D
330
1F
100
AcDbEntity
  8
0
  6
Continuous
 62
     7
370
    15
100
AcDbLine
 10
3.961311379593408
 20
7.056195081930419
 30
0.0
 11
3.961311379593408
 21
7.0382518305943
 31
0.0
  0
LINE
  5
14E
330
1F
100
AcDbEntity
  8
0
  6
Continuous
 62
     7
370
    15
100
AcDbLine
 10
3.993583068010661
 20
7.056042029210174
 30
0.0
 11
3.993583068010661
 21
7.038098777874056
 31
0.0
  0
LINE
  5
14F
330
1F
100
AcDbEntity
  8
0
  6
Continuous
 62
     7
370
    15
100
AcDbLine
 10
4.0099797546122
 20
7.070167040443432
 30
0.0
 11
4.0099797546122
 21
7.052223789107314
 31
0.0
  0
LINE
  5
150
330
1F
100
AcDbEntity
  8
0
  6
Continuous
 62
     7
370
    15
100
AcDbLine
 10
3.945436377777695
 20
7.070473145883921
 30
0.0
 11
3.945436377777695
 21
7.052529894547801
 31
0.0
  0
LINE
  5
151
330
1F
100
AcDbEntity
  8
0
  6
Continuous
 62
     7
370
    15
100
AcDbLine
 10
4.333332905561666
 20
7.089812419615605
 30
0.0
 11
4.318601489618319
 21
7.082326801308455
 31
0.0
  0
LINE
  5
152
330
1F
100
AcDbEntity
  8
0
  6
Continuous
 62
     7
370
    15
100
AcDbLine
 10
4.333332905561666
 20
7.089812419615605
 30
0.0
 11
4.451184032174592
 21
7.029927575260884
 31
0.0
  0
LINE
  5
153
330
1F
100
AcDbEntity
  8
0
  6
Continuous
 62
     7
370
    15
100
AcDbLine
 10
4.451184032174592
 20
7.029927575260884
 30
0.0
 11
4.436452616231243
 21
7.022441956953733
 31
0.0
  0
LINE
  5
154
330
1F
100
AcDbEntity
  8
0
  6
Continuous
 62
     7
370
    15
100
AcDbLine
 10
4.318601489618319
 20
7.082326801308455
 30
0.0
 11
4.436452616231243
 21
7.022441956953733
 31
0.0
  0
LINE
  5
155
330
1F
100
AcDbEntity
  8
0
  6
Continuous
 62
     7
370
    15
100
AcDbLine
 10
4.271983562495778
 20
6.962469466016493
 30
0.0
 11
4.318601489618319
 21
7.082326801308455
 31
0.0
  0
LINE
  5
156
330
1F
100
AcDbEntity
  8
0
  6
Continuous
 62
     7
370
    15
100
AcDbLine
 10
4.436452616231243
 20
7.022441956953733
 30
0.0
 11
4.389834691269283
 21
6.902584620563895
 31
0.0
  0
LINE
  5
157
330
1F
100
AcDbEntity
  8
0
  6
Continuous
 62
     7
370
    15
100
AcDbLine
 10
4.389834691269283
 20
6.902584620563895
 30
0.0
 11
4.271983562495778
 21
6.962469466016493
 31
0.0
  0
LINE
  5
158
330
1F
100
AcDbEntity
  8
0
  6
Continuous
 62
     7
370
    15
100
AcDbLine
 10
4.451184032174592
 20
7.029927575260884
 30
0.0
 11
4.40456610721263
 21
6.910070238871047
 31
0.0
  0
LINE
  5
159
330
1F
100
AcDbEntity
  8
0
  6
Continuous
 62
     7
370
    15
100
AcDbLine
 10
4.40456610721263
 20
6.910070238871047
 30
0.0
 11
4.389834691269283
 21
6.902584620563895
 31
0.0
  0
LINE
  5
15A
330
1F
100
AcDbEntity
  8
0
  6
Continuous
 62
     7
370
    15
100
AcDbLine
 10
4.255841860957227
 20
6.888589179577615
 30
0.0
 11
4.288113542892743
 21
6.888436130150999
 31
0.0
  0
LINE
  5
15B
330
1F
100
AcDbEntity
  8
0
  6
Continuous
 62
     7
370
    15
100
AcDbLine
 10
4.288113542892743
 20
6.888436130150999
 30
0.0
 11
4.30451023165486
 21
6.902561140286381
 31
0.0
  0
LINE
  5
15C
330
1F
100
AcDbEntity
  8
0
  6
Continuous
 62
     7
370
    15
100
AcDbLine
 10
4.239966869269228
 20
6.902867238384821
 30
0.0
 11
4.255841860957227
 21
6.888589179577615
 31
0.0
  0
LINE
  5
15D
330
1F
100
AcDbEntity
  8
0
  6
Continuous
 62
     7
370
    15
100
AcDbLine
 10
4.271983571138094
 20
6.842699779502804
 30
0.0
 11
4.389834691269283
 21
6.902584620563895
 31
0.0
  0
LINE
  5
15E
330
1F
100
AcDbEntity
  8
0
  6
Continuous
 62
     7
370
    15
100
AcDbLine
 10
4.271983571138094
 20
6.842699779502804
 30
0.0
 11
4.15413244236459
 21
6.902584624955401
 31
0.0
  0
LINE
  5
15F
330
1F
100
AcDbEntity
  8
0
  6
Continuous
 62
     7
370
    15
100
AcDbLine
 10
4.15413244236459
 20
6.902584624955401
 30
0.0
 11
4.271983562495778
 21
6.962469466016493
 31
0.0
  0
LINE
  5
160
330
1F
100
AcDbEntity
  8
0
  6
Continuous
 62
     7
370
    15
100
AcDbLine
 10
4.271983571138094
 20
6.82475661237923
 30
0.0
 11
4.389834691269283
 21
6.884641453440322
 31
0.0
  0
LINE
  5
161
330
1F
100
AcDbEntity
  8
0
  6
Continuous
 62
     7
370
    15
100
AcDbLine
 10
4.271983571138094
 20
6.82475661237923
 30
0.0
 11
4.271983571138094
 21
6.842699779502804
 31
0.0
  0
LINE
  5
162
330
1F
100
AcDbEntity
  8
0
  6
Continuous
 62
     7
370
    15
100
AcDbLine
 10
4.389834691269283
 20
6.884641453440322
 30
0.0
 11
4.389834691269283
 21
6.902584620563895
 31
0.0
  0
LINE
  5
163
330
1F
100
AcDbEntity
  8
0
  6
Continuous
 62
     7
370
    15
100
AcDbLine
 10
4.15413244236459
 20
6.884641457831827
 30
0.0
 11
4.271983571138094
 21
6.82475661237923
 31
0.0
  0
LINE
  5
164
330
1F
100
AcDbEntity
  8
0
  6
Continuous
 62
     7
370
    15
100
AcDbLine
 10
4.15413244236459
 20
6.902584624955401
 30
0.0
 11
4.15413244236459
 21
6.884641457831827
 31
0.0
  0
LINE
  5
165
330
1F
100
AcDbEntity
  8
0
  6
Continuous
 62
     7
370
    15
100
AcDbLine
 10
4.256363558166381
 20
6.934935499787704
 30
0.0
 11
4.239966869269228
 21
6.920810489720941
 31
0.0
  0
LINE
  5
166
330
1F
100
AcDbEntity
  8
0
  6
Continuous
 62
     7
370
    15
100
AcDbLine
 10
4.288635240642042
 20
6.93478245008662
 30
0.0
 11
4.256363558166381
 21
6.934935499787704
 31
0.0
  0
LINE
  5
167
330
1F
100
AcDbEntity
  8
0
  6
Continuous
 62
     7
370
    15
100
AcDbLine
 10
4.30451023165486
 20
6.920504391622499
 30
0.0
 11
4.288635240642042
 21
6.93478245008662
 31
0.0
  0
LINE
  5
168
330
1F
100
AcDbEntity
  8
0
  6
Continuous
 62
     7
370
    15
100
AcDbLine
 10
4.288113542892743
 20
6.906379381487119
 30
0.0
 11
4.30451023165486
 21
6.920504391622499
 31
0.0
  0
LINE
  5
169
330
1F
100
AcDbEntity
  8
0
  6
Continuous
 62
     7
370
    15
100
AcDbLine
 10
4.255841860957227
 20
6.906532430913734
 30
0.0
 11
4.288113542892743
 21
6.906379381487119
 31
0.0
  0
LINE
  5
16A
330
1F
100
AcDbEntity
  8
0
  6
Continuous
 62
     7
370
    15
100
AcDbLine
 10
4.239966869269228
 20
6.920810489720941
 30
0.0
 11
4.255841860957227
 21
6.906532430913734
 31
0.0
  0
LINE
  5
16B
330
1F
100
AcDbEntity
  8
0
  6
Continuous
 62
     7
370
    15
100
AcDbLine
 10
4.255841860957227
 20
6.906532430913734
 30
0.0
 11
4.255841860957227
 21
6.888589179577615
 31
0.0
  0
LINE
  5
16C
330
1F
100
AcDbEntity
  8
0
  6
Continuous
 62
     7
370
    15
100
AcDbLine
 10
4.288113542892743
 20
6.906379381487119
 30
0.0
 11
4.288113542892743
 21
6.888436130150999
 31
0.0
  0
LINE
  5
16D
330
1F
100
AcDbEntity
  8
0
  6
Continuous
 62
     7
370
    15
100
AcDbLine
 10
4.30451023165486
 20
6.920504391622499
 30
0.0
 11
4.30451023165486
 21
6.902561140286381
 31
0.0
  0
LINE
  5
16E
330
1F
100
AcDbEntity
  8
0
  6
Continuous
 62
     7
370
    15
100
AcDbLine
 10
4.239966869269228
 20
6.920810489720941
 30
0.0
 11
4.239966869269228
 21
6.902867238384821
 31
0.0
  0
LINE
  5
16F
330
1F
100
AcDbEntity
  8
0
  6
Continuous
 62
     7
370
    15
100
AcDbLine
 10
4.197988473143191
 20
7.212415978152243
 30
0.0
 11
4.212719854517273
 21
7.219901578893376
 31
0.0
  0
LINE
  5
170
330
1F
100
AcDbEntity
  8
0
  6
Continuous
 62
     7
370
    15
100
AcDbLine
 10
4.603080839283284
 20
7.418259519854324
 30
0.0
 11
4.610467420744624
 21
7.422012935658137
 31
0.0
  0
LINE
  5
171
330
1F
100
AcDbEntity
  8
0
  6
Continuous
 62
     7
370
    15
100
AcDbLine
 10
4.197988473143191
 20
7.212415978152243
 30
0.0
 11
1.251710227878643
 21
8.709537127641688
 31
0.0
  0
LINE
  5
172
330
1F
100
AcDbEntity
  8
0
  6
Continuous
 62
     7
370
    15
100
AcDbLine
 10
1.251710227878643
 20
8.709537127641688
 30
0.0
 11
1.664189175480076
 21
8.919134085147581
 31
0.0
  0
LINE
  5
173
330
1F
100
AcDbEntity
  8
0
  6
Continuous
 62
     7
370
    15
100
AcDbLine
 10
4.610467420744624
 20
7.422012935658137
 30
0.0
 11
1.664189175480076
 21
8.919134085147581
 31
0.0
  0
LINE
  5
174
330
1F
100
AcDbEntity
  8
0
  6
Continuous
 62
     7
370
    15
100
AcDbLine
 10
1.472328514827991
 20
8.462858027595022
 30
0.0
 11
1.472328514827991
 21
8.516687697390832
 31
0.0
  0
LINE
  5
175
330
1F
100
AcDbEntity
  8
0
  6
Continuous
 62
     7
370
    15
100
AcDbLine
 10
1.472328514827991
 20
8.516687697390832
 30
0.0
 11
1.428134336136478
 21
8.539144517180247
 31
0.0
  0
ARC
  5
176
330
1F
100
AcDbEntity
  8
0
  6
Continuous
 62
     7
370
    15
100
AcDbCircle
 10
2.712161770542017
 20
7.875254599351152
 30
0.0
 40
0.0102159252573982
100
AcDbArc
 50
58.6050942629872
 51
113.7587980996675
  0
ARC
  5
177
330
1F
100
AcDbEntity
  8
0
  6
Continuous
 62
     7
370
    15
100
AcDbCircle
 10
2.735587377603454
 20
7.831733226586396
 30
0.0
 40
0.0114430589165649
100
AcDbArc
 50
302.0087790041909
 51
6.947176474367411
  0
LINE
  5
178
330
1F
100
AcDbEntity
  8
0
  6
Continuous
 62
     7
370
    15
100
AcDbLine
 10
2.74694642257204
 20
7.833117312844405
 30
0.0
 11
2.74694642257204
 21
7.851060479967977
 31
0.0
  0
ARC
  5
179
330
1F
100
AcDbEntity
  8
0
  6
Continuous
 62
     7
370
    15
100
AcDbCircle
 10
2.716597983987965
 20
7.850460512868962
 30
0.0
 40
0.0303543684666852
100
AcDbArc
 50
1.132549382981569
 51
59.03646789806376
  0
LINE
  5
17A
330
1F
100
AcDbEntity
  8
0
  6
Continuous
 62
     7
370
    15
100
AcDbLine
 10
2.732215075767224
 20
7.876489230266664
 30
0.0
 11
2.717483590685345
 21
7.883974883705851
 31
0.0
  0
LINE
  5
17B
330
1F
100
AcDbEntity
  8
0
  6
Continuous
 62
     7
370
    15
100
AcDbLine
 10
1.251710227878643
 20
8.494218532670988
 30
0.0
 11
3.974528696276644
 21
7.110646182771265
 31
0.0
  0
LINE
  5
17C
330
1F
100
AcDbEntity
  8
0
  6
Continuous
 62
     7
370
    15
100
AcDbLine
 10
4.095304237992992
 20
7.049275326798919
 30
0.0
 11
4.2690591841222
 21
6.960983528460952
 31
0.0
  0
LINE
  5
17D
330
1F
100
AcDbEntity
  8
0
  6
Continuous
 62
     7
370
    15
100
AcDbLine
 10
1.251710227878643
 20
8.709537127641688
 30
0.0
 11
1.251710227878643
 21
8.494218532670988
 31
0.0
  0
LINE
  5
17E
330
1F
100
AcDbEntity
  8
0
  6
Continuous
 62
     7
370
    15
100
AcDbLine
 10
4.197988473143191
 20
6.997097383181544
 30
0.0
 11
4.197988473143191
 21
7.212415978152243
 31
0.0
  0
LINE
  5
17F
330
1F
100
AcDbEntity
  8
0
  6
Continuous
 62
     7
370
    15
100
AcDbLine
 10
3.977467464106992
 20
7.212298649100611
 30
0.0
 11
3.964709711239458
 21
7.209809702932306
 31
0.0
  0
LINE
  5
180
330
1F
100
AcDbEntity
  8
0
  6
Continuous
 62
     7
370
    15
100
AcDbLine
 10
3.990225216974525
 20
7.196844259720251
 30
0.0
 11
3.977467464106992
 21
7.212298649100611
 31
0.0
  0
LINE
  5
181
330
1F
100
AcDbEntity
  8
0
  6
Continuous
 62
     7
370
    15
100
AcDbLine
 10
3.990225216974525
 20
7.178901092596678
 30
0.0
 11
3.990225216974525
 21
7.196844259720251
 31
0.0
  0
LINE
  5
182
330
1F
100
AcDbEntity
  8
0
  6
Continuous
 62
     7
370
    15
100
AcDbLine
 10
3.977467464106992
 20
7.176412146428372
 30
0.0
 11
3.990225216974525
 21
7.178901092596678
 31
0.0
  0
LINE
  5
183
330
1F
100
AcDbEntity
  8
0
  6
Continuous
 62
     7
370
    15
100
AcDbLine
 10
3.964709711239458
 20
7.191866535808732
 30
0.0
 11
3.977467464106992
 21
7.176412146428372
 31
0.0
  0
LINE
  5
184
330
1F
100
AcDbEntity
  8
0
  6
Continuous
 62
     7
370
    15
100
AcDbLine
 10
3.964709711239458
 20
7.209809702932306
 30
0.0
 11
3.964709711239458
 21
7.191866535808732
 31
0.0
  0
LINE
  5
185
330
1F
100
AcDbEntity
  8
0
  6
Continuous
 62
     7
370
    15
100
AcDbLine
 10
3.990225216974525
 20
7.196844259720251
 30
0.0
 11
3.997590890376933
 21
7.200587051307808
 31
0.0
  0
LINE
  5
186
330
1F
100
AcDbEntity
  8
0
  6
Continuous
 62
     7
370
    15
100
AcDbLine
 10
3.977467464106992
 20
7.212298649100611
 30
0.0
 11
3.9848331375094
 21
7.216041440688167
 31
0.0
  0
LINE
  5
187
330
1F
100
AcDbEntity
  8
0
  6
Continuous
 62
     7
370
    15
100
AcDbLine
 10
3.990225216974525
 20
7.178901092596678
 30
0.0
 11
3.997590890376933
 21
7.182643884184234
 31
0.0
  0
LINE
  5
188
330
1F
100
AcDbEntity
  8
0
  6
Continuous
 62
     7
370
    15
100
AcDbLine
 10
3.964709711239458
 20
7.209809702932306
 30
0.0
 11
3.972075384641866
 21
7.213552494519863
 31
0.0
  0
ARC
  5
189
330
1F
100
AcDbEntity
  8
0
  6
Continuous
 62
     7
370
    15
100
AcDbCircle
 10
2.196543305356007
 20
6.929846674661206
 30
0.0
 40
0.018418373073686
100
AcDbArc
 50
236.0940380267116
 51
324.4230102399208
  0
LINE
  5
18A
330
1F
100
AcDbEntity
  8
0
  6
Continuous
 62
     7
370
    15
100
AcDbLine
 10
2.228192764769661
 20
6.944451488835442
 30
0.0
 11
2.211523603217365
 21
6.919130931912032
 31
0.0
  0
ARC
  5
18B
330
1F
100
AcDbEntity
  8
0
  6
Continuous
 62
     7
370
    15
100
AcDbCircle
 10
2.190333019734241
 20
6.962934368901462
 30
0.0
 40
0.0421304776816248
100
AcDbArc
 50
333.9786721308675
 51
26.02132786913335
  0
LINE
  5
18C
330
1F
100
AcDbEntity
  8
0
  6
Continuous
 62
     7
370
    15
100
AcDbLine
 10
1.726691313751683
 20
8.252861743674717
 30
0.0
 11
2.228192764769661
 21
6.981417248967481
 31
0.0
  0
LINE
  5
18D
330
1F
100
AcDbEntity
  8
0
  6
Continuous
 62
     7
370
    15
100
AcDbLine
 10
1.795436031700791
 20
8.217929818517033
 30
0.0
 11
2.271682836661247
 21
7.010512599393766
 31
0.0
  0
LINE
  5
18E
330
1F
100
AcDbEntity
  8
0
  6
Continuous
 62
     7
370
    15
100
AcDbLine
 10
2.271682836661247
 20
7.010512599393766
 30
0.0
 11
2.747929641621702
 21
7.733929934779609
 31
0.0
  0
LINE
  5
18F
330
1F
100
AcDbEntity
  8
0
  6
Continuous
 62
     7
370
    15
100
AcDbLine
 10
3.070053801167779
 20
7.570245838481826
 30
0.0
 11
3.377832960020388
 21
6.789940677594058
 31
0.0
  0
LINE
  5
190
330
1F
100
AcDbEntity
  8
0
  6
Continuous
 62
     7
370
    15
100
AcDbLine
 10
3.001309221495733
 20
7.605177693375437
 30
0.0
 11
3.332044170249389
 21
6.766673529945728
 31
0.0
  0
LINE
  5
191
330
1F
100
AcDbEntity
  8
0
  6
Continuous
 62
     7
370
    15
100
AcDbLine
 10
2.31517277027577
 20
6.937219248987268
 30
0.0
 11
2.816674221293748
 21
7.698998079885998
 31
0.0
  0
ARC
  5
192
330
1F
100
AcDbEntity
  8
0
  6
Continuous
 62
     7
370
    15
100
AcDbCircle
 10
2.353034210993202
 20
6.918736368921249
 30
0.0
 40
0.0421320014802823
100
AcDbArc
 50
153.9796837760474
 51
206.0203162239534
  0
LINE
  5
193
330
1F
100
AcDbEntity
  8
0
  6
Continuous
 62
     7
370
    15
100
AcDbLine
 10
2.331842070105127
 20
6.857992333837891
 30
0.0
 11
2.31517277027577
 21
6.900253488855229
 31
0.0
  0
ARC
  5
194
330
1F
100
AcDbEntity
  8
0
  6
Continuous
 62
     7
370
    15
100
AcDbCircle
 10
2.386191834096554
 20
6.87772228895374
 30
0.0
 40
0.0578201346833192
100
AcDbArc
 50
199.9518200843059
 51
239.7878743534792
  0
LINE
  5
195
330
1F
100
AcDbEntity
  8
0
  6
Continuous
 62
     7
370
    15
100
AcDbLine
 10
2.357096577885588
 20
6.8277559598829
 30
0.0
 11
2.186268957159843
 21
6.914560267764048
 31
0.0
  0
LINE
  5
196
330
1F
100
AcDbEntity
  8
0
  6
Continuous
 62
     7
370
    15
100
AcDbLine
 10
3.136404096225906
 20
7.536530570319498
 30
0.0
 11
3.422027121427268
 21
6.812397488600463
 31
0.0
  0
LINE
  5
197
330
1F
100
AcDbEntity
  8
0
  6
Continuous
 62
     7
370
    15
100
AcDbLine
 10
2.72484936779555
 20
7.872746421113088
 30
0.0
 11
2.732215075767224
 21
7.876489230266664
 31
0.0
  0
LINE
  5
198
330
1F
100
AcDbEntity
  8
0
  6
Continuous
 62
     7
370
    15
100
AcDbLine
 10
2.74694642257204
 20
7.851060479967977
 30
0.0
 11
2.739580714600367
 21
7.847317670814402
 31
0.0
  0
ARC
  5
199
330
1F
100
AcDbEntity
  8
0
  6
Continuous
 62
     7
370
    15
100
AcDbCircle
 10
2.709232276016292
 20
7.846717703715385
 30
0.0
 40
0.0303543684666846
100
AcDbArc
 50
1.132549382984954
 51
59.03646789806678
  0
LINE
  5
19A
330
1F
100
AcDbEntity
  8
0
  6
Continuous
 62
     7
370
    15
100
AcDbLine
 10
2.730241343552878
 20
7.834120209545528
 30
0.0
 11
2.730241343552878
 21
7.852063376669102
 31
0.0
  0
LINE
  5
19B
330
1F
100
AcDbEntity
  8
0
  6
Continuous
 62
     7
370
    15
100
AcDbLine
 10
2.730241343552878
 20
7.852063376669102
 30
0.0
 11
2.717483625254611
 21
7.867517748483441
 31
0.0
  0
LINE
  5
19C
330
1F
100
AcDbEntity
  8
0
  6
Continuous
 62
     7
370
    15
100
AcDbLine
 10
2.717483625254611
 20
7.867517748483441
 30
0.0
 11
2.704725906956343
 21
7.865028784749118
 31
0.0
  0
LINE
  5
19D
330
1F
100
AcDbEntity
  8
0
  6
Continuous
 62
     7
370
    15
100
AcDbLine
 10
2.739580714600367
 20
7.829374503690829
 30
0.0
 11
2.739580714600367
 21
7.847317670814402
 31
0.0
  0
LWPOLYLINE
  5
19E
330
1F
100
AcDbEntity
  8
0
  6
Continuous
 62
     7
370
    15
100
AcDbPolyline
 90
        9
 70
   128
 43
0.0
 10
2.72484936779555
 20
7.818916751317277
 10
2.727723318253064
 20
7.817801148955522
 10
2.730486785338006
 20
7.817418082756767
 10
2.733033710543787
 20
7.817782033794727
 10
2.735266055433419
 20
7.818879154613624
 10
2.737098088228436
 20
7.820667280568061
 10
2.738459425904254
 20
7.823077584090124
 10
2.739297661454363
 20
7.82601778714944
 10
2.739580714600367
 20
7.829374503690829
  0
LINE
  5
19F
330
1F
100
AcDbEntity
  8
0
  6
Continuous
 62
     7
370
    15
100
AcDbLine
 10
2.711283834900823
 20
7.825809938080419
 30
0.0
 11
2.72484936779555
 21
7.818916751317277
 31
0.0
  0
LINE
  5
1A0
330
1F
100
AcDbEntity
  8
0
  6
Continuous
 62
     7
370
    15
100
AcDbLine
 10
2.695386535908855
 20
7.869774490603816
 30
0.0
 11
2.695386535908855
 21
7.860283062997098
 31
0.0
  0
LWPOLYLINE
  5
1A1
330
1F
100
AcDbEntity
  8
0
  6
Continuous
 62
     7
370
    15
100
AcDbPolyline
 90
        9
 70
   128
 43
0.0
 10
2.710117882713671
 20
7.880232074552276
 10
2.707243932256157
 20
7.881347676914033
 10
2.704480465171215
 20
7.881730911537879
 10
2.701933678242496
 20
7.881366890235844
 10
2.699701333352864
 20
7.880269769416947
 10
2.697869300557847
 20
7.87848164346251
 10
2.696507962882029
 20
7.876071171515355
 10
2.695669589054858
 20
7.873131207145206
 10
2.695386535908855
 20
7.869774490603816
  0
LINE
  5
1A2
330
1F
100
AcDbEntity
  8
0
  6
Continuous
 62
     7
370
    15
100
AcDbLine
 10
2.72484936779555
 20
7.872746421113088
 30
0.0
 11
2.710117882713671
 21
7.880232074552276
 31
0.0
  0
LINE
  5
1A3
330
1F
100
AcDbEntity
  8
0
  6
Continuous
 62
     7
370
    15
100
AcDbLine
 10
2.715509962178797
 20
7.84457777592797
 30
0.0
 11
2.730241343552878
 21
7.852063376669102
 31
0.0
  0
LINE
  5
1A4
330
1F
100
AcDbEntity
  8
0
  6
Continuous
 62
     7
370
    15
100
AcDbLine
 10
2.715509962178797
 20
7.84457777592797
 30
0.0
 11
2.702752243880529
 21
7.86003214774231
 31
0.0
  0
LINE
  5
1A5
330
1F
100
AcDbEntity
  8
0
  6
Continuous
 62
     7
370
    15
100
AcDbLine
 10
2.702752243880529
 20
7.86003214774231
 30
0.0
 11
2.717483625254611
 21
7.867517748483441
 31
0.0
  0
LINE
  5
1A6
330
1F
100
AcDbEntity
  8
0
  6
Continuous
 62
     7
370
    15
100
AcDbLine
 10
2.702752243880529
 20
7.86003214774231
 30
0.0
 11
2.689994525582261
 21
7.857543184007987
 31
0.0
  0
LINE
  5
1A7
330
1F
100
AcDbEntity
  8
0
  6
Continuous
 62
     7
370
    15
100
AcDbLine
 10
2.715509962178797
 20
7.826634608804396
 30
0.0
 11
2.715509962178797
 21
7.84457777592797
 31
0.0
  0
LINE
  5
1A8
330
1F
100
AcDbEntity
  8
0
  6
Continuous
 62
     7
370
    15
100
AcDbLine
 10
2.702752243880529
 20
7.824145645070072
 30
0.0
 11
2.715509962178797
 21
7.826634608804396
 31
0.0
  0
LINE
  5
1A9
330
1F
100
AcDbEntity
  8
0
  6
Continuous
 62
     7
370
    15
100
AcDbLine
 10
2.689994525582261
 20
7.839600016884413
 30
0.0
 11
2.702752243880529
 21
7.824145645070072
 31
0.0
  0
LINE
  5
1AA
330
1F
100
AcDbEntity
  8
0
  6
Continuous
 62
     7
370
    15
100
AcDbLine
 10
2.689994525582261
 20
7.857543184007987
 30
0.0
 11
2.689994525582261
 21
7.839600016884413
 31
0.0
  0
LINE
  5
1AB
330
1F
100
AcDbEntity
  8
0
  6
Continuous
 62
     7
370
    15
100
AcDbLine
 10
2.715509962178797
 20
7.826634608804396
 30
0.0
 11
2.730241343552878
 21
7.834120209545528
 31
0.0
  0
LINE
  5
1AC
330
1F
100
AcDbEntity
  8
0
  6
Continuous
 62
     7
370
    15
100
AcDbLine
 10
2.739580714600367
 20
7.829374503690829
 30
0.0
 11
2.74694642257204
 21
7.833117312844405
 31
0.0
  0
LINE
  5
1AD
330
1F
100
AcDbEntity
  8
0
  6
Continuous
 62
     7
370
    15
100
AcDbLine
 10
2.689994525582261
 20
7.857543184007987
 30
0.0
 11
2.704725906956343
 21
7.865028784749118
 31
0.0
  0
LINE
  5
1AE
330
1F
100
AcDbEntity
  8
0
  6
Continuous
 62
     7
370
    15
100
AcDbLine
 10
2.717483590685345
 20
7.883974883705851
 30
0.0
 11
2.710117882713671
 21
7.880232074552276
 31
0.0
  0
LINE
  5
1AF
330
1F
100
AcDbEntity
  8
0
  6
Continuous
 62
     7
370
    15
100
AcDbLine
 10
2.31517277027577
 20
6.937219248987268
 30
0.0
 11
2.359366931682649
 21
6.959676059993674
 31
0.0
  0
LINE
  5
1B0
330
1F
100
AcDbEntity
  8
0
  6
Continuous
 62
     7
370
    15
100
AcDbLine
 10
2.359366931682649
 20
6.959676059993674
 30
0.0
 11
2.838712249049378
 21
7.687799637032694
 31
0.0
  0
LINE
  5
1B1
330
1F
100
AcDbEntity
  8
0
  6
Continuous
 62
     7
370
    15
100
AcDbLine
 10
1.861786326758919
 20
8.184214550354704
 30
0.0
 11
2.304857975547994
 21
7.060905591718991
 31
0.0
  0
LINE
  5
1B2
330
1F
100
AcDbEntity
  8
0
  6
Continuous
 62
     7
370
    15
100
AcDbLine
 10
1.464962806856317
 20
8.512944888237257
 30
0.0
 11
1.472328514827991
 21
8.516687697390832
 31
0.0
  0
LINE
  5
1B3
330
1F
100
AcDbEntity
  8
0
  6
Continuous
 62
     7
370
    15
100
AcDbLine
 10
1.464962806856317
 20
8.512944888237257
 30
0.0
 11
1.420768628164805
 21
8.535401708026672
 31
0.0
  0
LINE
  5
1B4
330
1F
100
AcDbEntity
  8
0
  6
Continuous
 62
     7
370
    15
100
AcDbLine
 10
1.420768628164805
 20
8.535401708026672
 30
0.0
 11
1.428134336136478
 21
8.539144517180247
 31
0.0
  0
LINE
  5
1B5
330
1F
100
AcDbEntity
  8
0
  6
Continuous
 62
     7
370
    15
100
AcDbLine
 10
1.455324895631876
 20
8.48195595998162
 30
0.0
 11
1.455324895631876
 21
8.499899127105193
 31
0.0
  0
LINE
  5
1B6
330
1F
100
AcDbEntity
  8
0
  6
Continuous
 62
     7
370
    15
100
AcDbLine
 10
1.455324895631876
 20
8.499899127105193
 30
0.0
 11
1.442567177333609
 21
8.515353498919534
 31
0.0
  0
LINE
  5
1B7
330
1F
100
AcDbEntity
  8
0
  6
Continuous
 62
     7
370
    15
100
AcDbLine
 10
1.442567177333609
 20
8.515353498919534
 30
0.0
 11
1.429809182481216
 21
8.512864675713359
 31
0.0
  0
LINE
  5
1B8
330
1F
100
AcDbEntity
  8
0
  6
Continuous
 62
     7
370
    15
100
AcDbLine
 10
1.436367110425697
 20
8.473645829044659
 30
0.0
 11
1.464962806856317
 21
8.459115218441446
 31
0.0
  0
LINE
  5
1B9
330
1F
100
AcDbEntity
  8
0
  6
Continuous
 62
     7
370
    15
100
AcDbLine
 10
1.420768628164805
 20
8.535401708026672
 30
0.0
 11
1.420768628164805
 21
8.508270783736364
 31
0.0
  0
LINE
  5
1BA
330
1F
100
AcDbEntity
  8
0
  6
Continuous
 62
     7
370
    15
100
AcDbLine
 10
1.464962806856317
 20
8.459115218441446
 30
0.0
 11
1.464962806856317
 21
8.512944888237257
 31
0.0
  0
LINE
  5
1BB
330
1F
100
AcDbEntity
  8
0
  6
Continuous
 62
     7
370
    15
100
AcDbLine
 10
1.464962806856317
 20
8.459115218441446
 30
0.0
 11
1.472328514827991
 21
8.462858027595022
 31
0.0
  0
LINE
  5
1BC
330
1F
100
AcDbEntity
  8
0
  6
Continuous
 62
     7
370
    15
100
AcDbLine
 10
1.427835795959527
 20
8.507867898178401
 30
0.0
 11
1.415077801107134
 21
8.505379074972227
 31
0.0
  0
LINE
  5
1BD
330
1F
100
AcDbEntity
  8
0
  6
Continuous
 62
     7
370
    15
100
AcDbLine
 10
1.440593514257794
 20
8.49241352636406
 30
0.0
 11
1.427835795959527
 21
8.507867898178401
 31
0.0
  0
LINE
  5
1BE
330
1F
100
AcDbEntity
  8
0
  6
Continuous
 62
     7
370
    15
100
AcDbLine
 10
1.440593514257794
 20
8.474470359240488
 30
0.0
 11
1.440593514257794
 21
8.49241352636406
 31
0.0
  0
LINE
  5
1BF
330
1F
100
AcDbEntity
  8
0
  6
Continuous
 62
     7
370
    15
100
AcDbLine
 10
1.427835795959527
 20
8.471981395506164
 30
0.0
 11
1.440593514257794
 21
8.474470359240488
 31
0.0
  0
LINE
  5
1C0
330
1F
100
AcDbEntity
  8
0
  6
Continuous
 62
     7
370
    15
100
AcDbLine
 10
1.415077801107134
 20
8.487435907848654
 30
0.0
 11
1.427835795959527
 21
8.471981395506164
 31
0.0
  0
LINE
  5
1C1
330
1F
100
AcDbEntity
  8
0
  6
Continuous
 62
     7
370
    15
100
AcDbLine
 10
1.415077801107134
 20
8.505379074972227
 30
0.0
 11
1.415077801107134
 21
8.487435907848654
 31
0.0
  0
LINE
  5
1C2
330
1F
100
AcDbEntity
  8
0
  6
Continuous
 62
     7
370
    15
100
AcDbLine
 10
1.440593514257794
 20
8.49241352636406
 30
0.0
 11
1.455324895631876
 21
8.499899127105193
 31
0.0
  0
LINE
  5
1C3
330
1F
100
AcDbEntity
  8
0
  6
Continuous
 62
     7
370
    15
100
AcDbLine
 10
1.427835795959527
 20
8.507867898178401
 30
0.0
 11
1.442567177333609
 21
8.515353498919534
 31
0.0
  0
LINE
  5
1C4
330
1F
100
AcDbEntity
  8
0
  6
Continuous
 62
     7
370
    15
100
AcDbLine
 10
1.440593514257794
 20
8.474470359240488
 30
0.0
 11
1.455324895631876
 21
8.48195595998162
 31
0.0
  0
LINE
  5
1C5
330
1F
100
AcDbEntity
  8
0
  6
Continuous
 62
     7
370
    15
100
AcDbLine
 10
1.415077801107134
 20
8.505379074972227
 30
0.0
 11
1.429809182481216
 21
8.512864675713359
 31
0.0
  0
LINE
  5
1C6
330
1F
100
AcDbEntity
  8
0
  6
Continuous
 62
     7
370
    15
100
AcDbLine
 10
1.480046777453978
 20
8.20781572195642
 30
0.0
 11
1.564094341305329
 21
8.335483687331976
 31
0.0
  0
LINE
  5
1C7
330
1F
100
AcDbEntity
  8
0
  6
Continuous
 62
     7
370
    15
100
AcDbLine
 10
1.480046777453978
 20
8.20781572195642
 30
0.0
 11
1.435852616047099
 21
8.185358910950014
 31
0.0
  0
LINE
  5
1C8
330
1F
100
AcDbEntity
  8
0
  6
Continuous
 62
     7
370
    15
100
AcDbLine
 10
1.435852616047099
 20
8.185358910950014
 30
0.0
 11
1.542056313549698
 21
8.346682130185278
 31
0.0
  0
LINE
  5
1C9
330
1F
100
AcDbEntity
  8
0
  6
Continuous
 62
     7
370
    15
100
AcDbLine
 10
1.435852616047099
 20
8.185358910950014
 30
0.0
 11
1.385343600486179
 21
8.247990321151554
 31
0.0
  0
LINE
  5
1CA
330
1F
100
AcDbEntity
  8
0
  6
Continuous
 62
     7
370
    15
100
AcDbLine
 10
1.385343600486179
 20
8.247990321151554
 30
0.0
 11
1.473311872154714
 21
8.381613914814815
 31
0.0
  0
LINE
  5
1CB
330
1F
100
AcDbEntity
  8
0
  6
Continuous
 62
     7
370
    15
100
AcDbLine
 10
2.359366931682649
 20
6.922710299861633
 30
0.0
 11
2.31517277027577
 21
6.900253488855229
 31
0.0
  0
ARC
  5
1CC
330
1F
100
AcDbEntity
  8
0
  6
Continuous
 62
     7
370
    15
100
AcDbCircle
 10
2.397228372400081
 20
6.941193179927653
 30
0.0
 40
0.0421320014802819
100
AcDbArc
 50
153.9796837760458
 51
206.0203162239539
  0
LINE
  5
1CD
330
1F
100
AcDbEntity
  8
0
  6
Continuous
 62
     7
370
    15
100
AcDbLine
 10
2.401290739292467
 20
6.850212770889305
 30
0.0
 11
2.357096577885588
 21
6.8277559598829
 31
0.0
  0
LINE
  5
1CE
330
1F
100
AcDbEntity
  8
0
  6
Continuous
 62
     7
370
    15
100
AcDbLine
 10
2.331842070105127
 20
6.857992333837891
 30
0.0
 11
2.376036231512007
 21
6.880449144844297
 31
0.0
  0
ARC
  5
1CF
330
1F
100
AcDbEntity
  8
0
  6
Continuous
 62
     7
370
    15
100
AcDbCircle
 10
2.430385995503431
 20
6.900179099960142
 30
0.0
 40
0.057820134683316
100
AcDbArc
 50
199.9518200843023
 51
239.7878743534794
  0
LINE
  5
1D0
330
1F
100
AcDbEntity
  8
0
  6
Continuous
 62
     7
370
    15
100
AcDbLine
 10
2.376036231512007
 20
6.880449144844297
 30
0.0
 11
2.359366931682649
 21
6.922710299861633
 31
0.0
  0
LINE
  5
1D1
330
1F
100
AcDbEntity
  8
0
  6
Continuous
 62
     7
370
    15
100
AcDbLine
 10
2.186268957159843
 20
6.914560267764048
 30
0.0
 11
2.219696866516006
 21
6.931546317931159
 31
0.0
  0
LINE
  5
1D2
330
1F
100
AcDbEntity
  8
0
  6
Continuous
 62
     7
370
    15
100
AcDbLine
 10
7.144266649269209
 20
5.715294863794836
 30
0.0
 11
7.556745596870641
 21
5.92489182130073
 31
0.0
  0
LINE
  5
1D3
330
1F
100
AcDbEntity
  8
0
  6
Continuous
 62
     7
370
    15
100
AcDbLine
 10
7.144266649269209
 20
5.715294863794836
 30
0.0
 11
4.197988473143191
 21
7.212415978152243
 31
0.0
  0
LINE
  5
1D4
330
1F
100
AcDbEntity
  8
0
  6
Continuous
 62
     7
370
    15
100
AcDbLine
 10
7.556745596870641
 20
5.92489182130073
 30
0.0
 11
4.610467420744624
 21
7.422012935658137
 31
0.0
  0
ARC
  5
1D5
330
1F
100
AcDbEntity
  8
0
  6
Continuous
 62
     7
370
    15
100
AcDbCircle
 10
5.658440173778416
 20
6.378134210273696
 30
0.0
 40
0.010215202927998
100
AcDbArc
 50
58.60297827729357
 51
113.7609140853569
  0
ARC
  5
1D6
330
1F
100
AcDbEntity
  8
0
  6
Continuous
 62
     7
370
    15
100
AcDbCircle
 10
5.681865588298745
 20
6.334612094662968
 30
0.0
 40
0.011443058916557
100
AcDbArc
 50
302.0087790041608
 51
6.947176474376936
  0
LINE
  5
1D7
330
1F
100
AcDbEntity
  8
0
  6
Continuous
 62
     7
370
    15
100
AcDbLine
 10
5.693224633267323
 20
6.335996180920978
 30
0.0
 11
5.693224633267323
 21
6.353939348044552
 31
0.0
  0
ARC
  5
1D8
330
1F
100
AcDbEntity
  8
0
  6
Continuous
 62
     7
370
    15
100
AcDbCircle
 10
5.662876194683242
 20
6.353339380945532
 30
0.0
 40
0.0303543684666913
100
AcDbArc
 50
1.132549382991411
 51
59.03646789805872
  0
LINE
  5
1D9
330
1F
100
AcDbEntity
  8
0
  6
Continuous
 62
     7
370
    15
100
AcDbLine
 10
5.678493286462507
 20
6.379368098343238
 30
0.0
 11
5.663761939657689
 21
6.386853681518352
 31
0.0
  0
LINE
  5
1DA
330
1F
100
AcDbEntity
  8
0
  6
Continuous
 62
     7
370
    15
100
AcDbLine
 10
4.389834717196231
 20
6.899612676880109
 30
0.0
 11
7.144266649269209
 21
5.499976268824138
 31
0.0
  0
LINE
  5
1DB
330
1F
100
AcDbEntity
  8
0
  6
Continuous
 62
     7
370
    15
100
AcDbLine
 10
7.144266649269209
 20
5.499976268824138
 30
0.0
 11
7.144266649269209
 21
5.715294863794836
 31
0.0
  0
LINE
  5
1DC
330
1F
100
AcDbEntity
  8
0
  6
Continuous
 62
     7
370
    15
100
AcDbLine
 10
6.967842541011372
 20
5.670368795073033
 30
0.0
 11
6.967842541011372
 21
5.724198464868844
 31
0.0
  0
LINE
  5
1DD
330
1F
100
AcDbEntity
  8
0
  6
Continuous
 62
     7
370
    15
100
AcDbLine
 10
6.967842541011372
 20
5.724198464868844
 30
0.0
 11
6.923648362319861
 21
5.746655284658259
 31
0.0
  0
LINE
  5
1DE
330
1F
100
AcDbEntity
  8
0
  6
Continuous
 62
     7
370
    15
100
AcDbLine
 10
7.144266649269209
 20
5.499976268824138
 30
0.0
 11
7.556745596870641
 21
5.70957322633003
 31
0.0
  0
LINE
  5
1DF
330
1F
100
AcDbEntity
  8
0
  6
Continuous
 62
     7
370
    15
100
AcDbLine
 10
7.556745596870641
 20
5.70957322633003
 30
0.0
 11
7.556745596870641
 21
5.92489182130073
 31
0.0
  0
LINE
  5
1E0
330
1F
100
AcDbEntity
  8
0
  6
Continuous
 62
     7
370
    15
100
AcDbLine
 10
6.9604768330397
 20
5.666625985919457
 30
0.0
 11
6.967842541011372
 21
5.670368795073033
 31
0.0
  0
LINE
  5
1E1
330
1F
100
AcDbEntity
  8
0
  6
Continuous
 62
     7
370
    15
100
AcDbLine
 10
6.9604768330397
 20
5.666625985919457
 30
0.0
 11
6.9604768330397
 21
5.720455655715269
 31
0.0
  0
LINE
  5
1E2
330
1F
100
AcDbEntity
  8
0
  6
Continuous
 62
     7
370
    15
100
AcDbLine
 10
6.9604768330397
 20
5.720455655715269
 30
0.0
 11
6.967842541011372
 21
5.724198464868844
 31
0.0
  0
LINE
  5
1E3
330
1F
100
AcDbEntity
  8
0
  6
Continuous
 62
     7
370
    15
100
AcDbLine
 10
6.951234947320952
 20
5.68926549115031
 30
0.0
 11
6.951234947320952
 21
5.707208658273883
 31
0.0
  0
LINE
  5
1E4
330
1F
100
AcDbEntity
  8
0
  6
Continuous
 62
     7
370
    15
100
AcDbLine
 10
6.951234947320952
 20
5.707208658273883
 30
0.0
 11
6.938477229022685
 21
5.722663030088224
 31
0.0
  0
LINE
  5
1E5
330
1F
100
AcDbEntity
  8
0
  6
Continuous
 62
     7
370
    15
100
AcDbLine
 10
6.938477229022685
 20
5.722663030088224
 30
0.0
 11
6.925719234170292
 21
5.72017420688205
 31
0.0
  0
LINE
  5
1E6
330
1F
100
AcDbEntity
  8
0
  6
Continuous
 62
     7
370
    15
100
AcDbLine
 10
6.932277162114773
 20
5.680955360213351
 30
0.0
 11
6.9604768330397
 21
5.666625985919457
 31
0.0
  0
LINE
  5
1E7
330
1F
100
AcDbEntity
  8
0
  6
Continuous
 62
     7
370
    15
100
AcDbLine
 10
6.916282654348188
 20
5.742912475504684
 30
0.0
 11
6.916282654348188
 21
5.715379015245677
 31
0.0
  0
LINE
  5
1E8
330
1F
100
AcDbEntity
  8
0
  6
Continuous
 62
     7
370
    15
100
AcDbLine
 10
6.9604768330397
 20
5.720455655715269
 30
0.0
 11
6.916282654348188
 21
5.742912475504684
 31
0.0
  0
LINE
  5
1E9
330
1F
100
AcDbEntity
  8
0
  6
Continuous
 62
     7
370
    15
100
AcDbLine
 10
6.916282654348188
 20
5.742912475504684
 30
0.0
 11
6.923648362319861
 21
5.746655284658259
 31
0.0
  0
LINE
  5
1EA
330
1F
100
AcDbEntity
  8
0
  6
Continuous
 62
     7
370
    15
100
AcDbLine
 10
6.923745847648603
 20
5.715177429347092
 30
0.0
 11
6.91098785279621
 21
5.712688606140917
 31
0.0
  0
LINE
  5
1EB
330
1F
100
AcDbEntity
  8
0
  6
Continuous
 62
     7
370
    15
100
AcDbLine
 10
6.936503565946869
 20
5.699723057532751
 30
0.0
 11
6.923745847648603
 21
5.715177429347092
 31
0.0
  0
LINE
  5
1EC
330
1F
100
AcDbEntity
  8
0
  6
Continuous
 62
     7
370
    15
100
AcDbLine
 10
6.936503565946869
 20
5.681779890409178
 30
0.0
 11
6.936503565946869
 21
5.699723057532751
 31
0.0
  0
LINE
  5
1ED
330
1F
100
AcDbEntity
  8
0
  6
Continuous
 62
     7
370
    15
100
AcDbLine
 10
6.923745847648603
 20
5.679290926674854
 30
0.0
 11
6.936503565946869
 21
5.681779890409178
 31
0.0
  0
LINE
  5
1EE
330
1F
100
AcDbEntity
  8
0
  6
Continuous
 62
     7
370
    15
100
AcDbLine
 10
6.91098785279621
 20
5.694745439017344
 30
0.0
 11
6.923745847648603
 21
5.679290926674854
 31
0.0
  0
LINE
  5
1EF
330
1F
100
AcDbEntity
  8
0
  6
Continuous
 62
     7
370
    15
100
AcDbLine
 10
6.91098785279621
 20
5.712688606140917
 30
0.0
 11
6.91098785279621
 21
5.694745439017344
 31
0.0
  0
LINE
  5
1F0
330
1F
100
AcDbEntity
  8
0
  6
Continuous
 62
     7
370
    15
100
AcDbLine
 10
6.936503565946869
 20
5.699723057532751
 30
0.0
 11
6.951234947320952
 21
5.707208658273883
 31
0.0
  0
LINE
  5
1F1
330
1F
100
AcDbEntity
  8
0
  6
Continuous
 62
     7
370
    15
100
AcDbLine
 10
6.923745847648603
 20
5.715177429347092
 30
0.0
 11
6.938477229022685
 21
5.722663030088224
 31
0.0
  0
LINE
  5
1F2
330
1F
100
AcDbEntity
  8
0
  6
Continuous
 62
     7
370
    15
100
AcDbLine
 10
6.936503565946869
 20
5.681779890409178
 30
0.0
 11
6.951234947320952
 21
5.68926549115031
 31
0.0
  0
LINE
  5
1F3
330
1F
100
AcDbEntity
  8
0
  6
Continuous
 62
     7
370
    15
100
AcDbLine
 10
6.91098785279621
 20
5.712688606140917
 30
0.0
 11
6.925719234170292
 21
5.72017420688205
 31
0.0
  0
LINE
  5
1F4
330
1F
100
AcDbEntity
  8
0
  6
Continuous
 62
     7
370
    15
100
AcDbLine
 10
7.378918052998584
 20
5.202416778218839
 30
0.0
 11
7.328409037437665
 21
5.191116647103164
 31
0.0
  0
LINE
  5
1F5
330
1F
100
AcDbEntity
  8
0
  6
Continuous
 62
     7
370
    15
100
AcDbLine
 10
7.196179384425464
 20
5.526355230921755
 30
0.0
 11
7.328409037437665
 21
5.191116647103164
 31
0.0
  0
LINE
  5
1F6
330
1F
100
AcDbEntity
  8
0
  6
Continuous
 62
     7
370
    15
100
AcDbLine
 10
7.241968450750587
 20
5.549622238041936
 30
0.0
 11
7.378918052998584
 21
5.202416778218839
 31
0.0
  0
LINE
  5
1F7
330
1F
100
AcDbEntity
  8
0
  6
Continuous
 62
     7
370
    15
100
AcDbLine
 10
7.423112214405464
 20
5.224873589225244
 30
0.0
 11
7.378918052998584
 21
5.202416778218839
 31
0.0
  0
LINE
  5
1F8
330
1F
100
AcDbEntity
  8
0
  6
Continuous
 62
     7
370
    15
100
AcDbLine
 10
7.286162612157466
 20
5.572079049048341
 30
0.0
 11
7.423112214405464
 21
5.224873589225244
 31
0.0
  0
LINE
  5
1F9
330
1F
100
AcDbEntity
  8
0
  6
Continuous
 62
     7
370
    15
100
AcDbLine
 10
6.580263050121982
 20
4.814870877770967
 30
0.0
 11
7.059608367488712
 21
5.542994454809987
 31
0.0
  0
LINE
  5
1FA
330
1F
100
AcDbEntity
  8
0
  6
Continuous
 62
     7
370
    15
100
AcDbLine
 10
6.536068888715103
 20
4.792414066764561
 30
0.0
 11
6.580263050121982
 21
4.814870877770967
 31
0.0
  0
LINE
  5
1FB
330
1F
100
AcDbEntity
  8
0
  6
Continuous
 62
     7
370
    15
100
AcDbLine
 10
6.536068888715103
 20
4.792414066764561
 30
0.0
 11
7.03757033973308
 21
5.554192897663291
 31
0.0
  0
ARC
  5
1FC
330
1F
100
AcDbEntity
  8
0
  6
Continuous
 62
     7
370
    15
100
AcDbCircle
 10
5.142821568593119
 20
5.432725328262694
 30
0.0
 40
0.0184182055593365
100
AcDbArc
 50
236.0940091298989
 51
324.4234577982002
  0
LINE
  5
1FD
330
1F
100
AcDbEntity
  8
0
  6
Continuous
 62
     7
370
    15
100
AcDbLine
 10
5.174471044603475
 20
5.447330321779979
 30
0.0
 11
5.157801813912647
 21
5.422009799988608
 31
0.0
  0
ARC
  5
1FE
330
1F
100
AcDbEntity
  8
0
  6
Continuous
 62
     7
370
    15
100
AcDbCircle
 10
5.136610449069096
 20
5.465813201845999
 30
0.0
 40
0.0421312419678399
100
AcDbArc
 50
333.9791795483414
 51
26.0208204516594
  0
LINE
  5
1FF
330
1F
100
AcDbEntity
  8
0
  6
Continuous
 62
     7
370
    15
100
AcDbLine
 10
4.672969645439395
 20
6.755740550270227
 30
0.0
 11
5.174471044603475
 21
5.484296081912019
 31
0.0
  0
LINE
  5
200
330
1F
100
AcDbEntity
  8
0
  6
Continuous
 62
     7
370
    15
100
AcDbLine
 10
4.741714173257542
 20
6.720808721725646
 30
0.0
 11
5.217961047356529
 21
5.513391467470341
 31
0.0
  0
LINE
  5
201
330
1F
100
AcDbEntity
  8
0
  6
Continuous
 62
     7
370
    15
100
AcDbLine
 10
5.217961047356529
 20
5.513391467470341
 30
0.0
 11
5.694207990594046
 21
6.236808732592108
 31
0.0
  0
LINE
  5
202
330
1F
100
AcDbEntity
  8
0
  6
Continuous
 62
     7
370
    15
100
AcDbLine
 10
6.016332011863061
 20
6.073124706558401
 30
0.0
 11
6.492578955100579
 21
4.865707417171059
 31
0.0
  0
LINE
  5
203
330
1F
100
AcDbEntity
  8
0
  6
Continuous
 62
     7
370
    15
100
AcDbLine
 10
6.492578955100579
 20
4.865707417171059
 30
0.0
 11
6.968825898338097
 21
5.589124682292827
 31
0.0
  0
ARC
  5
204
330
1F
100
AcDbEntity
  8
0
  6
Continuous
 62
     7
370
    15
100
AcDbCircle
 10
6.573930329432534
 20
4.773931186698542
 30
0.0
 40
0.0421320014802811
100
AcDbArc
 50
153.9796837760466
 51
206.0203162239531
  0
LINE
  5
205
330
1F
100
AcDbEntity
  8
0
  6
Continuous
 62
     7
370
    15
100
AcDbLine
 10
6.552738188544461
 20
4.713187151615185
 30
0.0
 11
6.536068888715103
 21
4.755448306632523
 31
0.0
  0
ARC
  5
206
330
1F
100
AcDbEntity
  8
0
  6
Continuous
 62
     7
370
    15
100
AcDbCircle
 10
6.607087952535882
 20
4.732917106731025
 30
0.0
 40
0.0578201346833105
100
AcDbArc
 50
199.9518200842996
 51
239.787874353479
  0
LINE
  5
207
330
1F
100
AcDbEntity
  8
0
  6
Continuous
 62
     7
370
    15
100
AcDbLine
 10
6.407165213876238
 20
4.769755015277268
 30
0.0
 11
6.57799269632492
 21
4.682950777660193
 31
0.0
  0
ARC
  5
208
330
1F
100
AcDbEntity
  8
0
  6
Continuous
 62
     7
370
    15
100
AcDbCircle
 10
6.41743945806937
 20
4.785041378897803
 30
0.0
 40
0.0184182791400111
100
AcDbArc
 50
236.0942314466399
 51
324.4232354814549
  0
LINE
  5
209
330
1F
100
AcDbEntity
  8
0
  6
Continuous
 62
     7
370
    15
100
AcDbLine
 10
6.449088883208993
 20
4.799646306612736
 30
0.0
 11
6.432419721656698
 21
4.774325749689326
 31
0.0
  0
ARC
  5
20A
330
1F
100
AcDbEntity
  8
0
  6
Continuous
 62
     7
370
    15
100
AcDbCircle
 10
6.411227910703242
 20
4.818129186678755
 30
0.0
 40
0.0421315807277165
100
AcDbArc
 50
333.9794044479156
 51
26.02059555208416
  0
LINE
  5
20B
330
1F
100
AcDbEntity
  8
0
  6
Continuous
 62
     7
370
    15
100
AcDbLine
 10
5.947587432191016
 20
6.10805656145201
 30
0.0
 11
6.449088883208993
 21
4.836612066744774
 31
0.0
  0
LINE
  5
20C
330
1F
100
AcDbEntity
  8
0
  6
Continuous
 62
     7
370
    15
100
AcDbLine
 10
5.261451050109584
 20
5.440098081931806
 30
0.0
 11
5.76295243198903
 21
6.201876947962573
 31
0.0
  0
ARC
  5
20D
330
1F
100
AcDbEntity
  8
0
  6
Continuous
 62
     7
370
    15
100
AcDbCircle
 10
5.29931225404304
 20
5.421615201865786
 30
0.0
 40
0.0421317886972015
100
AcDbArc
 50
153.9795425149427
 51
206.0204574850581
  0
LINE
  5
20E
330
1F
100
AcDbEntity
  8
0
  6
Continuous
 62
     7
370
    15
100
AcDbLine
 10
5.278120280800411
 20
5.360871201914466
 30
0.0
 11
5.261451050109584
 21
5.403132321799766
 31
0.0
  0
ARC
  5
20F
330
1F
100
AcDbEntity
  8
0
  6
Continuous
 62
     7
370
    15
100
AcDbCircle
 10
5.332470386242435
 20
5.380601450695198
 30
0.0
 40
0.0578205558474549
100
AcDbArc
 50
199.9519781624108
 51
239.7878051157146
  0
LINE
  5
210
330
1F
100
AcDbEntity
  8
0
  6
Continuous
 62
     7
370
    15
100
AcDbLine
 10
5.303374857719401
 20
5.330634792827438
 30
0.0
 11
5.132547306132188
 21
5.417439065576549
 31
0.0
  0
LINE
  5
211
330
1F
100
AcDbEntity
  8
0
  6
Continuous
 62
     7
370
    15
100
AcDbLine
 10
6.082682445198251
 20
6.039409368131998
 30
0.0
 11
6.525754093987327
 21
4.916100409496285
 31
0.0
  0
LINE
  5
212
330
1F
100
AcDbEntity
  8
0
  6
Continuous
 62
     7
370
    15
100
AcDbLine
 10
5.676519692525223
 20
6.336999007358028
 30
0.0
 11
5.676519692525223
 21
6.354942174481601
 31
0.0
  0
LINE
  5
213
330
1F
100
AcDbEntity
  8
0
  6
Continuous
 62
     7
370
    15
100
AcDbLine
 10
5.676519692525223
 20
6.354942174481601
 30
0.0
 11
5.663761835949894
 21
6.370396616560016
 31
0.0
  0
LINE
  5
214
330
1F
100
AcDbEntity
  8
0
  6
Continuous
 62
     7
370
    15
100
AcDbLine
 10
5.663761835949894
 20
6.370396616560016
 30
0.0
 11
5.651004117651625
 21
6.367907652825693
 31
0.0
  0
ARC
  5
215
330
1F
100
AcDbEntity
  8
0
  6
Continuous
 62
     7
370
    15
100
AcDbCircle
 10
5.655510486711572
 20
6.349596571791959
 30
0.0
 40
0.0303543684666867
100
AcDbArc
 50
1.132549382986548
 51
59.03646789806333
  0
LINE
  5
216
330
1F
100
AcDbEntity
  8
0
  6
Continuous
 62
     7
370
    15
100
AcDbLine
 10
5.685858925295649
 20
6.332253371767403
 30
0.0
 11
5.685858925295649
 21
6.350196538890977
 31
0.0
  0
LWPOLYLINE
  5
217
330
1F
100
AcDbEntity
  8
0
  6
Continuous
 62
     7
370
    15
100
AcDbPolyline
 90
        9
 70
   128
 43
0.0
 10
5.671127578490833
 20
6.321795619393852
 10
5.674001528948347
 20
6.320680017032096
 10
5.676764996033289
 20
6.320296950833341
 10
5.67931192123907
 20
6.320660901871303
 10
5.681544266128701
 20
6.321758022690199
 10
5.683376298923718
 20
6.323546148644635
 10
5.684737636599537
 20
6.325956452166699
 10
5.685575872149645
 20
6.328896655226015
 10
5.685858925295649
 20
6.332253371767403
  0
LINE
  5
218
330
1F
100
AcDbEntity
  8
0
  6
Continuous
 62
     7
370
    15
100
AcDbLine
 10
5.657562045596106
 20
6.328688806156995
 30
0.0
 11
5.671127578490833
 21
6.321795619393852
 31
0.0
  0
LINE
  5
219
330
1F
100
AcDbEntity
  8
0
  6
Continuous
 62
     7
370
    15
100
AcDbLine
 10
5.641664746604138
 20
6.372653358680391
 30
0.0
 11
5.641664746604138
 21
6.363161931073672
 31
0.0
  0
LWPOLYLINE
  5
21A
330
1F
100
AcDbEntity
  8
0
  6
Continuous
 62
     7
370
    15
100
AcDbPolyline
 90
        9
 70
   128
 43
0.0
 10
5.656396231686017
 20
6.383110872364777
 10
5.653522281228501
 20
6.384226474726532
 10
5.650758675866498
 20
6.384609779614453
 10
5.648211888937778
 20
6.384245758312418
 10
5.645979544048147
 20
6.383148637493522
 10
5.64414751125313
 20
6.381360511539085
 10
5.642786173577311
 20
6.378950039591931
 10
5.641947938027203
 20
6.376010004957706
 10
5.641664746604138
 20
6.372653358680391
  0
LINE
  5
21B
330
1F
100
AcDbEntity
  8
0
  6
Continuous
 62
     7
370
    15
100
AcDbLine
 10
5.671127578490833
 20
6.375625289189663
 30
0.0
 11
5.656396231686017
 21
6.383110872364777
 31
0.0
  0
LINE
  5
21C
330
1F
100
AcDbEntity
  8
0
  6
Continuous
 62
     7
370
    15
100
AcDbLine
 10
5.671127578490833
 20
6.375625289189663
 30
0.0
 11
5.678493286462507
 21
6.379368098343238
 31
0.0
  0
LINE
  5
21D
330
1F
100
AcDbEntity
  8
0
  6
Continuous
 62
     7
370
    15
100
AcDbLine
 10
5.693224633267323
 20
6.353939348044552
 30
0.0
 11
5.685858925295649
 21
6.350196538890977
 31
0.0
  0
LINE
  5
21E
330
1F
100
AcDbEntity
  8
0
  6
Continuous
 62
     7
370
    15
100
AcDbLine
 10
5.649030454575812
 20
6.362911015818884
 30
0.0
 11
5.636272736277543
 21
6.360422052084561
 31
0.0
  0
LINE
  5
21F
330
1F
100
AcDbEntity
  8
0
  6
Continuous
 62
     7
370
    15
100
AcDbLine
 10
5.661788311151141
 20
6.347456573740469
 30
0.0
 11
5.649030454575812
 21
6.362911015818884
 31
0.0
  0
LINE
  5
220
330
1F
100
AcDbEntity
  8
0
  6
Continuous
 62
     7
370
    15
100
AcDbLine
 10
5.661788311151141
 20
6.329513406616896
 30
0.0
 11
5.661788311151141
 21
6.347456573740469
 31
0.0
  0
LINE
  5
221
330
1F
100
AcDbEntity
  8
0
  6
Continuous
 62
     7
370
    15
100
AcDbLine
 10
5.649030454575812
 20
6.327024513146646
 30
0.0
 11
5.661788311151141
 21
6.329513406616896
 31
0.0
  0
LINE
  5
222
330
1F
100
AcDbEntity
  8
0
  6
Continuous
 62
     7
370
    15
100
AcDbLine
 10
5.636272736277543
 20
6.342478884960987
 30
0.0
 11
5.649030454575812
 21
6.327024513146646
 31
0.0
  0
LINE
  5
223
330
1F
100
AcDbEntity
  8
0
  6
Continuous
 62
     7
370
    15
100
AcDbLine
 10
5.636272736277543
 20
6.360422052084561
 30
0.0
 11
5.636272736277543
 21
6.342478884960987
 31
0.0
  0
LINE
  5
224
330
1F
100
AcDbEntity
  8
0
  6
Continuous
 62
     7
370
    15
100
AcDbLine
 10
5.661788311151141
 20
6.347456573740469
 30
0.0
 11
5.676519692525223
 21
6.354942174481601
 31
0.0
  0
LINE
  5
225
330
1F
100
AcDbEntity
  8
0
  6
Continuous
 62
     7
370
    15
100
AcDbLine
 10
5.649030454575812
 20
6.362911015818884
 30
0.0
 11
5.663761835949894
 21
6.370396616560016
 31
0.0
  0
LINE
  5
226
330
1F
100
AcDbEntity
  8
0
  6
Continuous
 62
     7
370
    15
100
AcDbLine
 10
5.661788311151141
 20
6.329513406616896
 30
0.0
 11
5.676519692525223
 21
6.336999007358028
 31
0.0
  0
LINE
  5
227
330
1F
100
AcDbEntity
  8
0
  6
Continuous
 62
     7
370
    15
100
AcDbLine
 10
5.685858925295649
 20
6.332253371767403
 30
0.0
 11
5.693224633267323
 21
6.335996180920978
 31
0.0
  0
LINE
  5
228
330
1F
100
AcDbEntity
  8
0
  6
Continuous
 62
     7
370
    15
100
AcDbLine
 10
5.636272736277543
 20
6.360422052084561
 30
0.0
 11
5.651004117651625
 21
6.367907652825693
 31
0.0
  0
LINE
  5
229
330
1F
100
AcDbEntity
  8
0
  6
Continuous
 62
     7
370
    15
100
AcDbLine
 10
5.663761939657689
 20
6.386853681518352
 30
0.0
 11
5.656396231686017
 21
6.383110872364777
 31
0.0
  0
LINE
  5
22A
330
1F
100
AcDbEntity
  8
0
  6
Continuous
 62
     7
370
    15
100
AcDbLine
 10
5.261451050109584
 20
5.440098081931806
 30
0.0
 11
5.305645211516463
 21
5.462554892938211
 31
0.0
  0
LINE
  5
22B
330
1F
100
AcDbEntity
  8
0
  6
Continuous
 62
     7
370
    15
100
AcDbLine
 10
5.305645211516463
 20
5.462554892938211
 30
0.0
 11
5.784990459744661
 21
6.190678505109268
 31
0.0
  0
LINE
  5
22C
330
1F
100
AcDbEntity
  8
0
  6
Continuous
 62
     7
370
    15
100
AcDbLine
 10
6.580263050121982
 20
4.777905117638927
 30
0.0
 11
6.536068888715103
 21
4.755448306632523
 31
0.0
  0
ARC
  5
22D
330
1F
100
AcDbEntity
  8
0
  6
Continuous
 62
     7
370
    15
100
AcDbCircle
 10
6.618124490839415
 20
4.796387997704947
 30
0.0
 40
0.0421320014802827
100
AcDbArc
 50
153.9796837760477
 51
206.0203162239531
  0
LINE
  5
22E
330
1F
100
AcDbEntity
  8
0
  6
Continuous
 62
     7
370
    15
100
AcDbLine
 10
6.6221868577318
 20
4.705407588666599
 30
0.0
 11
6.57799269632492
 21
4.682950777660193
 31
0.0
  0
LINE
  5
22F
330
1F
100
AcDbEntity
  8
0
  6
Continuous
 62
     7
370
    15
100
AcDbLine
 10
6.552738188544461
 20
4.713187151615185
 30
0.0
 11
6.59693234995134
 21
4.73564396262159
 31
0.0
  0
ARC
  5
230
330
1F
100
AcDbEntity
  8
0
  6
Continuous
 62
     7
370
    15
100
AcDbCircle
 10
6.651282113942758
 20
4.755373917737429
 30
0.0
 40
0.0578201346833077
100
AcDbArc
 50
199.9518200842996
 51
239.7878743534816
  0
LINE
  5
231
330
1F
100
AcDbEntity
  8
0
  6
Continuous
 62
     7
370
    15
100
AcDbLine
 10
6.59693234995134
 20
4.73564396262159
 30
0.0
 11
6.580263050121982
 21
4.777905117638927
 31
0.0
  0
LINE
  5
232
330
1F
100
AcDbEntity
  8
0
  6
Continuous
 62
     7
370
    15
100
AcDbLine
 10
6.407165213876238
 20
4.769755015277268
 30
0.0
 11
6.440593123232401
 21
4.786741065444378
 31
0.0
  0
LINE
  5
233
330
1F
100
AcDbEntity
  8
0
  6
Continuous
 62
     7
370
    15
100
AcDbLine
 10
4.808064537454201
 20
6.687093418431279
 30
0.0
 11
5.251136255381807
 21
5.563784424663528
 31
0.0
  0
LINE
  5
234
330
1F
100
AcDbEntity
  8
0
  6
Continuous
 62
     7
370
    15
100
AcDbLine
 10
4.386871690383812
 20
6.995292412006654
 30
0.0
 11
4.39423736378622
 21
6.99903520359421
 31
0.0
  0
LINE
  5
235
330
1F
100
AcDbEntity
  8
0
  6
Continuous
 62
     7
370
    15
100
AcDbLine
 10
4.386871690383812
 20
6.995292412006654
 30
0.0
 11
4.374113928873962
 21
7.010746805778518
 31
0.0
  0
LINE
  5
236
330
1F
100
AcDbEntity
  8
0
  6
Continuous
 62
     7
370
    15
100
AcDbLine
 10
4.374113928873962
 20
7.010746805778518
 30
0.0
 11
4.38147960227637
 21
7.014489597366075
 31
0.0
  0
LINE
  5
237
330
1F
100
AcDbEntity
  8
0
  6
Continuous
 62
     7
370
    15
100
AcDbLine
 10
4.374113928873962
 20
7.010746805778518
 30
0.0
 11
4.36135617168527
 21
7.008257861805965
 31
0.0
  0
LINE
  5
238
330
1F
100
AcDbEntity
  8
0
  6
Continuous
 62
     7
370
    15
100
AcDbLine
 10
4.386871690383812
 20
6.97734924488308
 30
0.0
 11
4.386871690383812
 21
6.995292412006654
 31
0.0
  0
LINE
  5
239
330
1F
100
AcDbEntity
  8
0
  6
Continuous
 62
     7
370
    15
100
AcDbLine
 10
4.374113928873962
 20
6.97486030310628
 30
0.0
 11
4.386871690383812
 21
6.97734924488308
 31
0.0
  0
LINE
  5
23A
330
1F
100
AcDbEntity
  8
0
  6
Continuous
 62
     7
370
    15
100
AcDbLine
 10
4.36135617168527
 20
6.990314694682392
 30
0.0
 11
4.374113928873962
 21
6.97486030310628
 31
0.0
  0
LINE
  5
23B
330
1F
100
AcDbEntity
  8
0
  6
Continuous
 62
     7
370
    15
100
AcDbLine
 10
4.36135617168527
 20
7.008257861805965
 30
0.0
 11
4.36135617168527
 21
6.990314694682392
 31
0.0
  0
LINE
  5
23C
330
1F
100
AcDbEntity
  8
0
  6
Continuous
 62
     7
370
    15
100
AcDbLine
 10
4.386871690383812
 20
6.97734924488308
 30
0.0
 11
4.39423736378622
 21
6.981092036470637
 31
0.0
  0
LINE
  5
23D
330
1F
100
AcDbEntity
  8
0
  6
Continuous
 62
     7
370
    15
100
AcDbLine
 10
4.36135617168527
 20
7.008257861805965
 30
0.0
 11
4.368721845087678
 21
7.012000653393521
 31
0.0
  0
LINE
  5
23E
330
1F
100
AcDbEntity
  8
0
  6
Continuous
 62
     7
370
    15
100
AcDbLine
 10
5.305645211516463
 20
5.425589132806172
 30
0.0
 11
5.261451050109584
 21
5.403132321799766
 31
0.0
  0
ARC
  5
23F
330
1F
100
AcDbEntity
  8
0
  6
Continuous
 62
     7
370
    15
100
AcDbCircle
 10
5.343506415449918
 20
5.444072012872191
 30
0.0
 40
0.0421317886972007
100
AcDbArc
 50
153.9795425149422
 51
206.0204574850576
  0
LINE
  5
240
330
1F
100
AcDbEntity
  8
0
  6
Continuous
 62
     7
370
    15
100
AcDbLine
 10
5.347569019126281
 20
5.353091603833843
 30
0.0
 11
5.303374857719401
 21
5.330634792827438
 31
0.0
  0
LINE
  5
241
330
1F
100
AcDbEntity
  8
0
  6
Continuous
 62
     7
370
    15
100
AcDbLine
 10
5.278120280800411
 20
5.360871201914466
 30
0.0
 11
5.322314442207289
 21
5.383328012920872
 31
0.0
  0
ARC
  5
242
330
1F
100
AcDbEntity
  8
0
  6
Continuous
 62
     7
370
    15
100
AcDbCircle
 10
5.376664547649323
 20
5.403058261701616
 30
0.0
 40
0.0578205558474687
100
AcDbArc
 50
199.9519781624191
 51
239.787805115714
  0
LINE
  5
243
330
1F
100
AcDbEntity
  8
0
  6
Continuous
 62
     7
370
    15
100
AcDbLine
 10
5.322314442207289
 20
5.383328012920872
 30
0.0
 11
5.305645211516463
 21
5.425589132806172
 31
0.0
  0
LINE
  5
244
330
1F
100
AcDbEntity
  8
0
  6
Continuous
 62
     7
370
    15
100
AcDbLine
 10
5.132547306132188
 20
5.417439065576549
 30
0.0
 11
5.165975215488352
 21
5.434425115743659
 31
0.0
  0
LINE
  5
245
330
1F
100
AcDbEntity
  8
0
  6
Continuous
 62
     7
370
    15
100
AcDbLine
 10
2.842700522496003
 20
6.393861141735491
 30
0.0
 11
1.251710227878643
 21
7.202306583890333
 31
0.0
  0
LINE
  5
246
330
1F
100
AcDbEntity
  8
0
  6
Continuous
 62
     7
370
    15
100
AcDbLine
 10
1.251710227878643
 20
7.202306583890333
 30
0.0
 11
1.435852616047099
 21
7.295876654635547
 31
0.0
  0
LINE
  5
247
330
1F
100
AcDbEntity
  8
0
  6
Continuous
 62
     7
370
    15
100
AcDbLine
 10
2.904674296686552
 20
6.549509943871436
 30
0.0
 11
1.435852616047099
 21
7.295876654635547
 31
0.0
  0
ARC
  5
248
330
1F
100
AcDbEntity
  8
0
  6
Continuous
 62
     7
370
    15
100
AcDbCircle
 10
2.079288296180965
 20
6.667071488747133
 30
0.0
 40
0.0303551797488056
100
AcDbArc
 50
1.133317874259895
 51
59.03592332568233
  0
LINE
  5
249
330
1F
100
AcDbEntity
  8
0
  6
Continuous
 62
     7
370
    15
100
AcDbLine
 10
2.094906052756668
 20
6.693100753376092
 30
0.0
 11
2.080174705951851
 21
6.700586336551205
 31
0.0
  0
ARC
  5
24A
330
1F
100
AcDbEntity
  8
0
  6
Continuous
 62
     7
370
    15
100
AcDbCircle
 10
2.07485292251415
 20
6.691866172469086
 30
0.0
 40
0.0102158034719196
100
AcDbArc
 50
58.60491859090964
 51
113.7593236981792
  0
ARC
  5
24B
330
1F
100
AcDbEntity
  8
0
  6
Continuous
 62
     7
370
    15
100
AcDbCircle
 10
2.098277191182198
 20
6.648345171140839
 30
0.0
 40
0.011444278547272
100
AcDbArc
 50
302.012647605169
 51
6.943408338309537
  0
LINE
  5
24C
330
1F
100
AcDbEntity
  8
0
  6
Continuous
 62
     7
370
    15
100
AcDbLine
 10
2.109637537838547
 20
6.649728657792435
 30
0.0
 11
2.109637537838547
 21
6.667671878946908
 31
0.0
  0
LINE
  5
24D
330
1F
100
AcDbEntity
  8
0
  6
Continuous
 62
     7
370
    15
100
AcDbLine
 10
1.251710227878643
 20
6.986987925760224
 30
0.0
 11
2.754312165112979
 21
6.22345612318421
 31
0.0
  0
LINE
  5
24E
330
1F
100
AcDbEntity
  8
0
  6
Continuous
 62
     7
370
    15
100
AcDbLine
 10
1.251710227878643
 20
7.202306583890333
 30
0.0
 11
1.251710227878643
 21
6.986987925760224
 31
0.0
  0
LINE
  5
24F
330
1F
100
AcDbEntity
  8
0
  6
Continuous
 62
     7
370
    15
100
AcDbLine
 10
2.931212689703455
 20
6.56299512794451
 30
0.0
 11
2.38363497090249
 21
6.841241143955975
 31
0.0
  0
LINE
  5
250
330
1F
100
AcDbEntity
  8
0
  6
Continuous
 62
     7
370
    15
100
AcDbLine
 10
2.212807350176745
 20
6.928045451837123
 30
0.0
 11
1.480046777453978
 21
7.300390240622254
 31
0.0
  0
LINE
  5
251
330
1F
100
AcDbEntity
  8
0
  6
Continuous
 62
     7
370
    15
100
AcDbLine
 10
1.480046777453978
 20
7.300390240622254
 30
0.0
 11
1.453508401721709
 21
7.286905036485226
 31
0.0
  0
LINE
  5
252
330
1F
100
AcDbEntity
  8
0
  6
Continuous
 62
     7
370
    15
100
AcDbLine
 10
3.13301085611953
 20
6.665536830632116
 30
0.0
 11
2.40819443888823
 21
7.033844878074086
 31
0.0
  0
LINE
  5
253
330
1F
100
AcDbEntity
  8
0
  6
Continuous
 62
     7
370
    15
100
AcDbLine
 10
2.317411952452983
 20
7.079975069838525
 30
0.0
 11
2.292303880081228
 21
7.092733479955113
 31
0.0
  0
LINE
  5
254
330
1F
100
AcDbEntity
  8
0
  6
Continuous
 62
     7
370
    15
100
AcDbLine
 10
2.157209126343484
 20
7.161380497028575
 30
0.0
 11
1.664189175480076
 21
7.411903541396225
 31
0.0
  0
LINE
  5
255
330
1F
100
AcDbEntity
  8
0
  6
Continuous
 62
     7
370
    15
100
AcDbLine
 10
1.480046777453978
 20
7.318333465641951
 30
0.0
 11
2.225094373355817
 21
6.939745151726356
 31
0.0
  0
LINE
  5
256
330
1F
100
AcDbEntity
  8
0
  6
Continuous
 62
     7
370
    15
100
AcDbLine
 10
2.401290739292467
 20
6.850212770889305
 30
0.0
 11
2.948868458093432
 21
6.571966754877841
 31
0.0
  0
LINE
  5
257
330
1F
100
AcDbEntity
  8
0
  6
Continuous
 62
     7
370
    15
100
AcDbLine
 10
1.480046777453978
 20
7.318333465641951
 30
0.0
 11
1.664189175480076
 21
7.411903541396225
 31
0.0
  0
LINE
  5
258
330
1F
100
AcDbEntity
  8
0
  6
Continuous
 62
     7
370
    15
100
AcDbLine
 10
1.480046777453978
 20
7.300390240622254
 30
0.0
 11
1.480046777453978
 21
7.318333465641951
 31
0.0
  0
LINE
  5
259
330
1F
100
AcDbEntity
  8
0
  6
Continuous
 62
     7
370
    15
100
AcDbLine
 10
2.087540344784994
 20
6.689357944222517
 30
0.0
 11
2.094906052756668
 21
6.693100753376092
 31
0.0
  0
LINE
  5
25A
330
1F
100
AcDbEntity
  8
0
  6
Continuous
 62
     7
370
    15
100
AcDbLine
 10
2.109637537838547
 20
6.667671878946908
 30
0.0
 11
2.102271829866873
 21
6.663929069793333
 31
0.0
  0
ARC
  5
25B
330
1F
100
AcDbEntity
  8
0
  6
Continuous
 62
     7
370
    15
100
AcDbCircle
 10
2.071922588209291
 20
6.663328679593559
 30
0.0
 40
0.0303551797488053
100
AcDbArc
 50
1.133317874258219
 51
59.03592332568146
  0
LINE
  5
25C
330
1F
100
AcDbEntity
  8
0
  6
Continuous
 62
     7
370
    15
100
AcDbLine
 10
2.092721171468582
 20
6.650687993327527
 30
0.0
 11
2.092721171468582
 21
6.668631215139911
 31
0.0
  0
LINE
  5
25D
330
1F
100
AcDbEntity
  8
0
  6
Continuous
 62
     7
370
    15
100
AcDbLine
 10
2.092721171468582
 20
6.668631215139911
 30
0.0
 11
2.079963453170314
 21
6.684085529633798
 31
0.0
  0
LINE
  5
25E
330
1F
100
AcDbEntity
  8
0
  6
Continuous
 62
     7
370
    15
100
AcDbLine
 10
2.079963453170314
 20
6.684085529633798
 30
0.0
 11
2.067205596594984
 21
6.681596693484002
 31
0.0
  0
LINE
  5
25F
330
1F
100
AcDbEntity
  8
0
  6
Continuous
 62
     7
370
    15
100
AcDbLine
 10
2.102271829866873
 20
6.645985848638859
 30
0.0
 11
2.102271829866873
 21
6.663929069793333
 31
0.0
  0
LWPOLYLINE
  5
260
330
1F
100
AcDbEntity
  8
0
  6
Continuous
 62
     7
370
    15
100
AcDbPolyline
 90
        9
 70
   128
 43
0.0
 10
2.087540344784994
 20
6.635528281005811
 10
2.090414295242509
 20
6.634412686538982
 10
2.093177900604512
 20
6.634029460600322
 10
2.095724687533231
 20
6.634393468744147
 10
2.097957032422864
 20
6.635490594826329
 10
2.09978906521788
 20
6.637278720780765
 10
2.101150402893699
 20
6.639689116410299
 10
2.101988776720869
 20
6.642629130781648
 10
2.102271829866873
 20
6.645985848638859
  0
LINE
  5
261
330
1F
100
AcDbEntity
  8
0
  6
Continuous
 62
     7
370
    15
100
AcDbLine
 10
2.073978130539756
 20
6.642419781431166
 30
0.0
 11
2.087540344784994
 21
6.635528281005811
 31
0.0
  0
LINE
  5
262
330
1F
100
AcDbEntity
  8
0
  6
Continuous
 62
     7
370
    15
100
AcDbLine
 10
2.058077651175361
 20
6.686385889582748
 30
0.0
 11
2.058077651175361
 21
6.676958337767653
 31
0.0
  0
LWPOLYLINE
  5
263
330
1F
100
AcDbEntity
  8
0
  6
Continuous
 62
     7
370
    15
100
AcDbPolyline
 90
        9
 70
   128
 43
0.0
 10
2.072808997980177
 20
6.69684352739763
 10
2.069935047522663
 20
6.697959121864459
 10
2.067171580437721
 20
6.698342277539045
 10
2.06462465523194
 20
6.697978339659294
 10
2.062392310342308
 20
6.696881213577113
 10
2.060560277547292
 20
6.695093087622677
 10
2.059198939871473
 20
6.692682691993142
 10
2.058360704321364
 20
6.689742607686674
 10
2.058077651175361
 20
6.686385889582748
  0
LINE
  5
264
330
1F
100
AcDbEntity
  8
0
  6
Continuous
 62
     7
370
    15
100
AcDbLine
 10
2.087540344784994
 20
6.689357944222517
 30
0.0
 11
2.072808997980177
 21
6.69684352739763
 31
0.0
  0
LINE
  5
265
330
1F
100
AcDbEntity
  8
0
  6
Continuous
 62
     7
370
    15
100
AcDbLine
 10
2.065232071796232
 20
6.676599928892667
 30
0.0
 11
2.052474215220902
 21
6.674111092742871
 31
0.0
  0
LINE
  5
266
330
1F
100
AcDbEntity
  8
0
  6
Continuous
 62
     7
370
    15
100
AcDbLine
 10
2.077989790094501
 20
6.66114561439878
 30
0.0
 11
2.065232071796232
 21
6.676599928892667
 31
0.0
  0
LINE
  5
267
330
1F
100
AcDbEntity
  8
0
  6
Continuous
 62
     7
370
    15
100
AcDbLine
 10
2.077989790094501
 20
6.643202392586395
 30
0.0
 11
2.077989790094501
 21
6.66114561439878
 31
0.0
  0
LINE
  5
268
330
1F
100
AcDbEntity
  8
0
  6
Continuous
 62
     7
370
    15
100
AcDbLine
 10
2.065232071796232
 20
6.640713485432375
 30
0.0
 11
2.077989790094501
 21
6.643202392586395
 31
0.0
  0
LINE
  5
269
330
1F
100
AcDbEntity
  8
0
  6
Continuous
 62
     7
370
    15
100
AcDbLine
 10
2.052474215220902
 20
6.656167870930486
 30
0.0
 11
2.065232071796232
 21
6.640713485432375
 31
0.0
  0
LINE
  5
26A
330
1F
100
AcDbEntity
  8
0
  6
Continuous
 62
     7
370
    15
100
AcDbLine
 10
2.052474215220902
 20
6.674111092742871
 30
0.0
 11
2.052474215220902
 21
6.656167870930486
 31
0.0
  0
LINE
  5
26B
330
1F
100
AcDbEntity
  8
0
  6
Continuous
 62
     7
370
    15
100
AcDbLine
 10
2.077989790094501
 20
6.66114561439878
 30
0.0
 11
2.092721171468582
 21
6.668631215139911
 31
0.0
  0
LINE
  5
26C
330
1F
100
AcDbEntity
  8
0
  6
Continuous
 62
     7
370
    15
100
AcDbLine
 10
2.065232071796232
 20
6.676599928892667
 30
0.0
 11
2.079963453170314
 21
6.684085529633798
 31
0.0
  0
LINE
  5
26D
330
1F
100
AcDbEntity
  8
0
  6
Continuous
 62
     7
370
    15
100
AcDbLine
 10
2.077989790094501
 20
6.643202392586395
 30
0.0
 11
2.092721171468582
 21
6.650687993327527
 31
0.0
  0
LINE
  5
26E
330
1F
100
AcDbEntity
  8
0
  6
Continuous
 62
     7
370
    15
100
AcDbLine
 10
2.102271829866873
 20
6.645985848638859
 30
0.0
 11
2.109637537838547
 21
6.649728657792435
 31
0.0
  0
LINE
  5
26F
330
1F
100
AcDbEntity
  8
0
  6
Continuous
 62
     7
370
    15
100
AcDbLine
 10
2.052474215220902
 20
6.674111092742871
 30
0.0
 11
2.067205596594984
 21
6.681596693484002
 31
0.0
  0
LINE
  5
270
330
1F
100
AcDbEntity
  8
0
  6
Continuous
 62
     7
370
    15
100
AcDbLine
 10
2.080174705951851
 20
6.700586336551205
 30
0.0
 11
2.072808997980177
 21
6.69684352739763
 31
0.0
  0
LINE
  5
271
330
1F
100
AcDbEntity
  8
0
  6
Continuous
 62
     7
370
    15
100
AcDbLine
 10
7.144266649269209
 20
4.208064320043482
 30
0.0
 11
4.433690739332515
 21
5.585415739104189
 31
0.0
  0
LINE
  5
272
330
1F
100
AcDbEntity
  8
0
  6
Continuous
 62
     7
370
    15
100
AcDbLine
 10
7.328409037437665
 20
4.301634390788696
 30
0.0
 11
4.617833127500971
 21
5.678985809849403
 31
0.0
  0
LINE
  5
273
330
1F
100
AcDbEntity
  8
0
  6
Continuous
 62
     7
370
    15
100
AcDbLine
 10
7.144266649269209
 20
4.208064320043482
 30
0.0
 11
7.328409037437665
 21
4.301634390788696
 31
0.0
  0
LINE
  5
274
330
1F
100
AcDbEntity
  8
0
  6
Continuous
 62
     7
370
    15
100
AcDbLine
 10
7.556745596870641
 20
4.202342619419265
 30
0.0
 11
7.556745596870641
 21
4.417661277549374
 31
0.0
  0
LINE
  5
275
330
1F
100
AcDbEntity
  8
0
  6
Continuous
 62
     7
370
    15
100
AcDbLine
 10
7.144266649269209
 20
3.992745661913373
 30
0.0
 11
7.556745596870641
 21
4.202342619419265
 31
0.0
  0
LINE
  5
276
330
1F
100
AcDbEntity
  8
0
  6
Continuous
 62
     7
370
    15
100
AcDbLine
 10
7.144266649269209
 20
3.992745661913373
 30
0.0
 11
7.144266649269209
 21
4.208064320043482
 31
0.0
  0
LINE
  5
277
330
1F
100
AcDbEntity
  8
0
  6
Continuous
 62
     7
370
    15
100
AcDbLine
 10
7.328409037437665
 20
4.283691165768997
 30
0.0
 11
7.328409037437665
 21
4.301634390788696
 31
0.0
  0
LINE
  5
278
330
1F
100
AcDbEntity
  8
0
  6
Continuous
 62
     7
370
    15
100
AcDbLine
 10
7.328409037437665
 20
4.283691165768997
 30
0.0
 11
7.372603198844543
 21
4.306147976775402
 31
0.0
  0
LINE
  5
279
330
1F
100
AcDbEntity
  8
0
  6
Continuous
 62
     7
370
    15
100
AcDbLine
 10
7.372603198844543
 20
4.306147976775402
 30
0.0
 11
7.372603198844543
 21
4.324091201795101
 31
0.0
  0
LINE
  5
27A
330
1F
100
AcDbEntity
  8
0
  6
Continuous
 62
     7
370
    15
100
AcDbLine
 10
7.372603198844543
 20
4.324091201795101
 30
0.0
 11
7.556745596870641
 21
4.417661277549374
 31
0.0
  0
ARC
  5
27B
330
1F
100
AcDbEntity
  8
0
  6
Continuous
 62
     7
370
    15
100
AcDbCircle
 10
5.025566739986738
 20
5.169950504872304
 30
0.0
 40
0.0303549437560274
100
AcDbArc
 50
1.133047185918647
 51
59.03586480617433
  0
LINE
  5
27C
330
1F
100
AcDbEntity
  8
0
  6
Continuous
 62
     7
370
    15
100
AcDbLine
 10
5.041184401729013
 20
5.195979551188592
 30
0.0
 11
5.026452985785665
 21
5.203465169495743
 31
0.0
  0
ARC
  5
27D
330
1F
100
AcDbEntity
  8
0
  6
Continuous
 62
     7
370
    15
100
AcDbCircle
 10
5.021131209850487
 20
5.194745117839016
 30
0.0
 40
0.0102157035979032
100
AcDbArc
 50
58.604626033209
 51
113.7596162558782
  0
ARC
  5
27E
330
1F
100
AcDbEntity
  8
0
  6
Continuous
 62
     7
370
    15
100
AcDbCircle
 10
5.044555904227615
 20
5.151223799372176
 30
0.0
 40
0.0114438088798912
100
AcDbArc
 50
302.0111515275267
 51
6.944904415944378
  0
LINE
  5
27F
330
1F
100
AcDbEntity
  8
0
  6
Continuous
 62
     7
370
    15
100
AcDbLine
 10
5.05591574853383
 20
5.152607525869008
 30
0.0
 11
5.05591574853383
 21
5.170550747023482
 31
0.0
  0
LINE
  5
280
330
1F
100
AcDbEntity
  8
0
  6
Continuous
 62
     7
370
    15
100
AcDbLine
 10
4.433690739332515
 20
5.370097080974081
 30
0.0
 11
7.144266649269209
 21
3.992745661913373
 31
0.0
  0
ARC
  5
281
330
1F
100
AcDbEntity
  8
0
  6
Continuous
 62
     7
370
    15
100
AcDbCircle
 10
6.300184414620303
 20
4.522266306524431
 30
0.0
 40
0.0303551797487994
100
AcDbArc
 50
1.133317874250054
 51
59.03592332568663
  0
LINE
  5
282
330
1F
100
AcDbEntity
  8
0
  6
Continuous
 62
     7
370
    15
100
AcDbLine
 10
6.315802171196001
 20
4.548295571153386
 30
0.0
 11
6.301070824391184
 21
4.555781154328498
 31
0.0
  0
ARC
  5
283
330
1F
100
AcDbEntity
  8
0
  6
Continuous
 62
     7
370
    15
100
AcDbCircle
 10
6.295749040953482
 20
4.547060990246382
 30
0.0
 40
0.0102158034719172
100
AcDbArc
 50
58.60491859089289
 51
113.7593236981849
  0
ARC
  5
284
330
1F
100
AcDbEntity
  8
0
  6
Continuous
 62
     7
370
    15
100
AcDbCircle
 10
6.319174268037257
 20
4.503539668468186
 30
0.0
 40
0.0114433659076098
100
AcDbArc
 50
302.0090286189348
 51
6.945581140466883
  0
LINE
  5
285
330
1F
100
AcDbEntity
  8
0
  6
Continuous
 62
     7
370
    15
100
AcDbLine
 10
6.330533656277879
 20
4.504923475569727
 30
0.0
 11
6.330533656277879
 21
4.522866696724201
 31
0.0
  0
LINE
  5
286
330
1F
100
AcDbEntity
  8
0
  6
Continuous
 62
     7
370
    15
100
AcDbLine
 10
7.372603198844543
 20
4.306147976775402
 30
0.0
 11
6.604531089341823
 21
4.696435961733268
 31
0.0
  0
LINE
  5
287
330
1F
100
AcDbEntity
  8
0
  6
Continuous
 62
     7
370
    15
100
AcDbLine
 10
6.433703468616078
 20
4.783240269614416
 30
0.0
 11
5.329913181597773
 21
5.34412001203255
 31
0.0
  0
LINE
  5
288
330
1F
100
AcDbEntity
  8
0
  6
Continuous
 62
     7
370
    15
100
AcDbLine
 10
5.159085630010559
 20
5.43092428478166
 30
0.0
 11
4.66202728890785
 21
5.68349939583611
 31
0.0
  0
LINE
  5
289
330
1F
100
AcDbEntity
  8
0
  6
Continuous
 62
     7
370
    15
100
AcDbLine
 10
7.556745596870641
 20
4.417661277549374
 30
0.0
 11
6.629090557327563
 21
4.88903969585138
 31
0.0
  0
LINE
  5
28A
330
1F
100
AcDbEntity
  8
0
  6
Continuous
 62
     7
370
    15
100
AcDbLine
 10
6.538308070892316
 20
4.935169887615818
 30
0.0
 11
6.513200136797623
 21
4.947928227468332
 31
0.0
  0
LINE
  5
28B
330
1F
100
AcDbEntity
  8
0
  6
Continuous
 62
     7
370
    15
100
AcDbLine
 10
6.378105244782816
 20
5.016575314805868
 30
0.0
 11
5.354472718722044
 21
5.536723711018623
 31
0.0
  0
LINE
  5
28C
330
1F
100
AcDbEntity
  8
0
  6
Continuous
 62
     7
370
    15
100
AcDbLine
 10
5.263690232286798
 20
5.582853902783061
 30
0.0
 11
5.238582263622839
 21
5.595612260201594
 31
0.0
  0
LINE
  5
28D
330
1F
100
AcDbEntity
  8
0
  6
Continuous
 62
     7
370
    15
100
AcDbLine
 10
5.103487371608032
 20
5.66425934753913
 30
0.0
 11
4.846169686933949
 21
5.795012696610083
 31
0.0
  0
LINE
  5
28E
330
1F
100
AcDbEntity
  8
0
  6
Continuous
 62
     7
370
    15
100
AcDbLine
 10
4.66202728890785
 20
5.701442620855809
 30
0.0
 11
5.171372722328162
 21
5.442623949538854
 31
0.0
  0
LINE
  5
28F
330
1F
100
AcDbEntity
  8
0
  6
Continuous
 62
     7
370
    15
100
AcDbLine
 10
5.347569019126281
 20
5.353091603833843
 30
0.0
 11
6.445990630072212
 21
4.794939899239574
 31
0.0
  0
LINE
  5
290
330
1F
100
AcDbEntity
  8
0
  6
Continuous
 62
     7
370
    15
100
AcDbLine
 10
6.6221868577318
 20
4.705407588666599
 30
0.0
 11
7.372603198844543
 21
4.324091201795101
 31
0.0
  0
LINE
  5
291
330
1F
100
AcDbEntity
  8
0
  6
Continuous
 62
     7
370
    15
100
AcDbLine
 10
6.308436463224327
 20
4.544552761999811
 30
0.0
 11
6.315802171196001
 21
4.548295571153386
 31
0.0
  0
LINE
  5
292
330
1F
100
AcDbEntity
  8
0
  6
Continuous
 62
     7
370
    15
100
AcDbLine
 10
6.330533656277879
 20
4.522866696724201
 30
0.0
 11
6.323167948306206
 21
4.519123887570626
 31
0.0
  0
ARC
  5
293
330
1F
100
AcDbEntity
  8
0
  6
Continuous
 62
     7
370
    15
100
AcDbCircle
 10
6.292818706648618
 20
4.518523497370848
 30
0.0
 40
0.030355179748812
100
AcDbArc
 50
1.133317874264675
 51
59.03592332567571
  0
LINE
  5
294
330
1F
100
AcDbEntity
  8
0
  6
Continuous
 62
     7
370
    15
100
AcDbLine
 10
6.31386051926005
 20
4.505910141269644
 30
0.0
 11
6.31386051926005
 21
4.523853362424119
 31
0.0
  0
LINE
  5
295
330
1F
100
AcDbEntity
  8
0
  6
Continuous
 62
     7
370
    15
100
AcDbLine
 10
6.31386051926005
 20
4.523853362424119
 30
0.0
 11
6.301102800961782
 21
4.539307676918006
 31
0.0
  0
LINE
  5
296
330
1F
100
AcDbEntity
  8
0
  6
Continuous
 62
     7
370
    15
100
AcDbLine
 10
6.301102800961782
 20
4.539307676918006
 30
0.0
 11
6.288344944386451
 21
4.53681884076821
 31
0.0
  0
LWPOLYLINE
  5
297
330
1F
100
AcDbEntity
  8
0
  6
Continuous
 62
     7
370
    15
100
AcDbPolyline
 90
        9
 70
   128
 43
0.0
 10
6.308436463224327
 20
4.490723098783104
 10
6.311310413681841
 20
4.489607504316275
 10
6.314074019043845
 20
4.489224278377615
 10
6.316620805972564
 20
4.48958828652144
 10
6.318853150862196
 20
4.490685412603621
 10
6.320685183657213
 20
4.492473538558058
 10
6.322046521333031
 20
4.494883934187593
 10
6.322884895160202
 20
4.497823948558941
 10
6.323167948306206
 20
4.501180666416152
  0
LINE
  5
298
330
1F
100
AcDbEntity
  8
0
  6
Continuous
 62
     7
370
    15
100
AcDbLine
 10
6.294902872330932
 20
4.49760005454504
 30
0.0
 11
6.308436463224327
 21
4.490723098783104
 31
0.0
  0
LINE
  5
299
330
1F
100
AcDbEntity
  8
0
  6
Continuous
 62
     7
370
    15
100
AcDbLine
 10
6.278973769614694
 20
4.54158070736004
 30
0.0
 11
6.278973769614694
 21
4.532056874288731
 31
0.0
  0
LWPOLYLINE
  5
29A
330
1F
100
AcDbEntity
  8
0
  6
Continuous
 62
     7
370
    15
100
AcDbPolyline
 90
        9
 70
   128
 43
0.0
 10
6.29370511641951
 20
4.552038345174923
 10
6.290831165961995
 20
4.553153939641752
 10
6.288067698877054
 20
4.553537095316338
 10
6.285520773671273
 20
4.553173157436587
 10
6.283288428781641
 20
4.552076031354406
 10
6.281456395986624
 20
4.55028790539997
 10
6.280095058310806
 20
4.547877509770435
 10
6.279256822760697
 20
4.544937425463967
 10
6.278973769614694
 20
4.54158070736004
  0
LINE
  5
29B
330
1F
100
AcDbEntity
  8
0
  6
Continuous
 62
     7
370
    15
100
AcDbLine
 10
6.308436463224327
 20
4.544552761999811
 30
0.0
 11
6.29370511641951
 21
4.552038345174923
 31
0.0
  0
LINE
  5
29C
330
1F
100
AcDbEntity
  8
0
  6
Continuous
 62
     7
370
    15
100
AcDbLine
 10
6.323167948306206
 20
4.501180666416152
 30
0.0
 11
6.323167948306206
 21
4.519123887570626
 31
0.0
  0
LINE
  5
29D
330
1F
100
AcDbEntity
  8
0
  6
Continuous
 62
     7
370
    15
100
AcDbLine
 10
6.2863714195877
 20
4.531822076176874
 30
0.0
 11
6.273613563012369
 21
4.529333240027079
 31
0.0
  0
LINE
  5
29E
330
1F
100
AcDbEntity
  8
0
  6
Continuous
 62
     7
370
    15
100
AcDbLine
 10
6.299129137885968
 20
4.516367761682987
 30
0.0
 11
6.2863714195877
 21
4.531822076176874
 31
0.0
  0
LINE
  5
29F
330
1F
100
AcDbEntity
  8
0
  6
Continuous
 62
     7
370
    15
100
AcDbLine
 10
6.299129137885968
 20
4.498424540528513
 30
0.0
 11
6.299129137885968
 21
4.516367761682987
 31
0.0
  0
LINE
  5
2A0
330
1F
100
AcDbEntity
  8
0
  6
Continuous
 62
     7
370
    15
100
AcDbLine
 10
6.2863714195877
 20
4.495935633374492
 30
0.0
 11
6.299129137885968
 21
4.498424540528513
 31
0.0
  0
LINE
  5
2A1
330
1F
100
AcDbEntity
  8
0
  6
Continuous
 62
     7
370
    15
100
AcDbLine
 10
6.273613563012369
 20
4.511390018872605
 30
0.0
 11
6.2863714195877
 21
4.495935633374492
 31
0.0
  0
LINE
  5
2A2
330
1F
100
AcDbEntity
  8
0
  6
Continuous
 62
     7
370
    15
100
AcDbLine
 10
6.273613563012369
 20
4.529333240027079
 30
0.0
 11
6.273613563012369
 21
4.511390018872605
 31
0.0
  0
LINE
  5
2A3
330
1F
100
AcDbEntity
  8
0
  6
Continuous
 62
     7
370
    15
100
AcDbLine
 10
6.299129137885968
 20
4.516367761682987
 30
0.0
 11
6.31386051926005
 21
4.523853362424119
 31
0.0
  0
LINE
  5
2A4
330
1F
100
AcDbEntity
  8
0
  6
Continuous
 62
     7
370
    15
100
AcDbLine
 10
6.2863714195877
 20
4.531822076176874
 30
0.0
 11
6.301102800961782
 21
4.539307676918006
 31
0.0
  0
LINE
  5
2A5
330
1F
100
AcDbEntity
  8
0
  6
Continuous
 62
     7
370
    15
100
AcDbLine
 10
6.299129137885968
 20
4.498424540528513
 30
0.0
 11
6.31386051926005
 21
4.505910141269644
 31
0.0
  0
LINE
  5
2A6
330
1F
100
AcDbEntity
  8
0
  6
Continuous
 62
     7
370
    15
100
AcDbLine
 10
6.323167948306206
 20
4.501180666416152
 30
0.0
 11
6.330533656277879
 21
4.504923475569727
 31
0.0
  0
LINE
  5
2A7
330
1F
100
AcDbEntity
  8
0
  6
Continuous
 62
     7
370
    15
100
AcDbLine
 10
6.273613563012369
 20
4.529333240027079
 30
0.0
 11
6.288344944386451
 21
4.53681884076821
 31
0.0
  0
LINE
  5
2A8
330
1F
100
AcDbEntity
  8
0
  6
Continuous
 62
     7
370
    15
100
AcDbLine
 10
6.301070824391184
 20
4.555781154328498
 30
0.0
 11
6.29370511641951
 21
4.552038345174923
 31
0.0
  0
LINE
  5
2A9
330
1F
100
AcDbEntity
  8
0
  6
Continuous
 62
     7
370
    15
100
AcDbLine
 10
5.038999451302395
 20
5.153566826272063
 30
0.0
 11
5.038999451302395
 21
5.171510048084448
 31
0.0
  0
LINE
  5
2AA
330
1F
100
AcDbEntity
  8
0
  6
Continuous
 62
     7
370
    15
100
AcDbLine
 10
5.038999451302395
 20
5.171510048084448
 30
0.0
 11
5.026241663865596
 21
5.186964397710373
 31
0.0
  0
LINE
  5
2AB
330
1F
100
AcDbEntity
  8
0
  6
Continuous
 62
     7
370
    15
100
AcDbLine
 10
5.026241663865596
 20
5.186964397710373
 30
0.0
 11
5.013483876428798
 21
5.18447552642854
 31
0.0
  0
ARC
  5
2AC
330
1F
100
AcDbEntity
  8
0
  6
Continuous
 62
     7
370
    15
100
AcDbCircle
 10
5.018201032015064
 20
5.166207695718732
 30
0.0
 40
0.0303549437560254
100
AcDbArc
 50
1.133047185913652
 51
59.03586480617175
  0
LINE
  5
2AD
330
1F
100
AcDbEntity
  8
0
  6
Continuous
 62
     7
370
    15
100
AcDbLine
 10
5.048550040562155
 20
5.148864716715433
 30
0.0
 11
5.048550040562155
 21
5.166807937869907
 31
0.0
  0
LWPOLYLINE
  5
2AE
330
1F
100
AcDbEntity
  8
0
  6
Continuous
 62
     7
370
    15
100
AcDbPolyline
 90
        9
 70
   128
 43
0.0
 10
5.033818693757339
 20
5.13840707881831
 10
5.036692644214853
 20
5.137291484351481
 10
5.039456111299794
 20
5.136908328676896
 10
5.042002967367046
 20
5.137272301688684
 10
5.044235312256677
 20
5.138369427770864
 10
5.046067345051693
 20
5.140157553725303
 10
5.047428682727513
 20
5.142567949354837
 10
5.048266987416152
 20
5.145507998858223
 10
5.048550040562155
 20
5.148864716715433
  0
LINE
  5
2AF
330
1F
100
AcDbEntity
  8
0
  6
Continuous
 62
     7
370
    15
100
AcDbLine
 10
5.02025641037357
 20
5.145298614375702
 30
0.0
 11
5.033818693757339
 21
5.13840707881831
 31
0.0
  0
LINE
  5
2B0
330
1F
100
AcDbEntity
  8
0
  6
Continuous
 62
     7
370
    15
100
AcDbLine
 10
5.004355861870644
 20
5.189264757659321
 30
0.0
 11
5.004355861870644
 21
5.179837205844227
 31
0.0
  0
LWPOLYLINE
  5
2B1
330
1F
100
AcDbEntity
  8
0
  6
Continuous
 62
     7
370
    15
100
AcDbPolyline
 90
        9
 70
   128
 43
0.0
 10
5.019087277813992
 20
5.199722360342168
 10
5.016213327356476
 20
5.200837954808997
 10
5.013449791133004
 20
5.201221145615619
 10
5.010902935065754
 20
5.200857172603831
 10
5.008670590176121
 20
5.19976004652165
 10
5.006838557381106
 20
5.197971920567214
 10
5.005477219705286
 20
5.195561524937679
 10
5.004638915016647
 20
5.192621475763248
 10
5.004355861870644
 20
5.189264757659321
  0
LINE
  5
2B2
330
1F
100
AcDbEntity
  8
0
  6
Continuous
 62
     7
370
    15
100
AcDbLine
 10
5.033818693757339
 20
5.192236742035017
 30
0.0
 11
5.019087277813992
 21
5.199722360342168
 31
0.0
  0
LINE
  5
2B3
330
1F
100
AcDbEntity
  8
0
  6
Continuous
 62
     7
370
    15
100
AcDbLine
 10
5.033818693757339
 20
5.192236742035017
 30
0.0
 11
5.041184401729013
 21
5.195979551188592
 31
0.0
  0
LINE
  5
2B4
330
1F
100
AcDbEntity
  8
0
  6
Continuous
 62
     7
370
    15
100
AcDbLine
 10
5.05591574853383
 20
5.170550747023482
 30
0.0
 11
5.048550040562155
 21
5.166807937869907
 31
0.0
  0
LINE
  5
2B5
330
1F
100
AcDbEntity
  8
0
  6
Continuous
 62
     7
370
    15
100
AcDbLine
 10
5.024268069928313
 20
5.164024447343317
 30
0.0
 11
5.038999451302395
 21
5.171510048084448
 31
0.0
  0
LINE
  5
2B6
330
1F
100
AcDbEntity
  8
0
  6
Continuous
 62
     7
370
    15
100
AcDbLine
 10
5.024268069928313
 20
5.164024447343317
 30
0.0
 11
5.011510282491514
 21
5.179478796969241
 31
0.0
  0
LINE
  5
2B7
330
1F
100
AcDbEntity
  8
0
  6
Continuous
 62
     7
370
    15
100
AcDbLine
 10
5.011510282491514
 20
5.179478796969241
 30
0.0
 11
5.026241663865596
 21
5.186964397710373
 31
0.0
  0
LINE
  5
2B8
330
1F
100
AcDbEntity
  8
0
  6
Continuous
 62
     7
370
    15
100
AcDbLine
 10
5.011510282491514
 20
5.179478796969241
 30
0.0
 11
4.998752495054716
 21
5.176989925687408
 31
0.0
  0
LINE
  5
2B9
330
1F
100
AcDbEntity
  8
0
  6
Continuous
 62
     7
370
    15
100
AcDbLine
 10
5.024268069928313
 20
5.146081225530932
 30
0.0
 11
5.024268069928313
 21
5.164024447343317
 31
0.0
  0
LINE
  5
2BA
330
1F
100
AcDbEntity
  8
0
  6
Continuous
 62
     7
370
    15
100
AcDbLine
 10
5.011510282491514
 20
5.143592353508949
 30
0.0
 11
5.024268069928313
 21
5.146081225530932
 31
0.0
  0
LINE
  5
2BB
330
1F
100
AcDbEntity
  8
0
  6
Continuous
 62
     7
370
    15
100
AcDbLine
 10
4.998752495054716
 20
5.159046703875024
 30
0.0
 11
5.011510282491514
 21
5.143592353508949
 31
0.0
  0
LINE
  5
2BC
330
1F
100
AcDbEntity
  8
0
  6
Continuous
 62
     7
370
    15
100
AcDbLine
 10
4.998752495054716
 20
5.176989925687408
 30
0.0
 11
4.998752495054716
 21
5.159046703875024
 31
0.0
  0
LINE
  5
2BD
330
1F
100
AcDbEntity
  8
0
  6
Continuous
 62
     7
370
    15
100
AcDbLine
 10
5.024268069928313
 20
5.146081225530932
 30
0.0
 11
5.038999451302395
 21
5.153566826272063
 31
0.0
  0
LINE
  5
2BE
330
1F
100
AcDbEntity
  8
0
  6
Continuous
 62
     7
370
    15
100
AcDbLine
 10
5.048550040562155
 20
5.148864716715433
 30
0.0
 11
5.05591574853383
 21
5.152607525869008
 31
0.0
  0
LINE
  5
2BF
330
1F
100
AcDbEntity
  8
0
  6
Continuous
 62
     7
370
    15
100
AcDbLine
 10
4.998752495054716
 20
5.176989925687408
 30
0.0
 11
5.013483876428798
 21
5.18447552642854
 31
0.0
  0
LINE
  5
2C0
330
1F
100
AcDbEntity
  8
0
  6
Continuous
 62
     7
370
    15
100
AcDbLine
 10
5.026452985785665
 20
5.203465169495743
 30
0.0
 11
5.019087277813992
 21
5.199722360342168
 31
0.0
  0
LINE
  5
2C1
330
1F
100
AcDbEntity
  8
0
  6
Continuous
 62
     7
370
    15
100
AcDbLine
 10
6.510816835352494
 20
6.059611539568443
 30
0.0
 11
6.510816835352494
 21
6.052147107937996
 31
0.0
  0
LINE
  5
2C2
330
1F
100
AcDbEntity
  8
0
  6
Continuous
 62
     7
370
    15
100
AcDbLine
 10
6.510816835352494
 20
6.059611539568443
 30
0.0
 11
6.89383301034812
 21
6.254237290583012
 31
0.0
  0
LINE
  5
2C3
330
1F
100
AcDbEntity
  8
0
  6
Continuous
 62
     7
370
    15
100
AcDbLine
 10
6.89383301034812
 20
6.254237290583012
 30
0.0
 11
6.89383301034812
 21
6.246772858952565
 31
0.0
  0
LINE
  5
2C4
330
1F
100
AcDbEntity
  8
0
  6
Continuous
 62
     7
370
    15
100
AcDbLine
 10
6.510816835352494
 20
6.052147107937996
 30
0.0
 11
6.89383301034812
 21
6.246772858952565
 31
0.0
  0
LINE
  5
2C5
330
1F
100
AcDbEntity
  8
0
  6
Continuous
 62
     7
370
    15
100
AcDbLine
 10
1.914622804543522
 20
8.395120516611239
 30
0.0
 11
1.914622804543522
 21
8.387656084980791
 31
0.0
  0
LINE
  5
2C6
330
1F
100
AcDbEntity
  8
0
  6
Continuous
 62
     7
370
    15
100
AcDbLine
 10
1.914622804543522
 20
8.395120516611239
 30
0.0
 11
6.510816835352494
 21
6.059611539568443
 31
0.0
  0
LINE
  5
2C7
330
1F
100
AcDbEntity
  8
0
  6
Continuous
 62
     7
370
    15
100
AcDbLine
 10
1.914622804543522
 20
8.387656084980791
 30
0.0
 11
6.510816835352494
 21
6.052147107937996
 31
0.0
  0
LINE
  5
2C8
330
1F
100
AcDbEntity
  8
0
  6
Continuous
 62
     7
370
    15
100
AcDbLine
 10
6.89383301034812
 20
6.254237290583012
 30
0.0
 11
2.297638979539149
 21
8.589746267625807
 31
0.0
  0
LINE
  5
2C9
330
1F
100
AcDbEntity
  8
0
  6
Continuous
 62
     7
370
    15
100
AcDbLine
 10
2.297638979539149
 20
8.589746267625807
 30
0.0
 11
1.914622804543522
 21
8.395120516611239
 31
0.0
  0
LINE
  5
2CA
330
1F
100
AcDbEntity
  8
0
  6
Continuous
 62
     7
370
    15
100
AcDbLine
 10
5.553276492928916
 20
7.895370086928021
 30
0.0
 11
4.616097465175886
 21
7.419152151448875
 31
0.0
  0
LINE
  5
2CB
330
1F
100
AcDbEntity
  8
0
  6
Continuous
 62
     7
370
    15
100
AcDbLine
 10
3.859601963161351
 20
7.034746701155809
 30
0.0
 11
2.842700522495999
 21
6.518018637126788
 31
0.0
  0
LINE
  5
2CC
330
1F
100
AcDbEntity
  8
0
  6
Continuous
 62
     7
370
    15
100
AcDbLine
 10
5.553276492928916
 20
7.895370086928021
 30
0.0
 11
5.730621733835556
 21
7.805253917028125
 31
0.0
  0
LINE
  5
2CD
330
1F
100
AcDbEntity
  8
0
  6
Continuous
 62
     7
370
    15
100
AcDbLine
 10
5.730621733835556
 20
7.805253917028125
 30
0.0
 11
5.818441495939456
 21
7.820514009252629
 31
0.0
  0
LINE
  5
2CE
330
1F
100
AcDbEntity
  8
0
  6
Continuous
 62
     7
370
    15
100
AcDbLine
 10
5.818441495939456
 20
7.820514009252629
 30
0.0
 11
5.740891381102574
 21
7.740150624636199
 31
0.0
  0
LINE
  5
2CF
330
1F
100
AcDbEntity
  8
0
  6
Continuous
 62
     7
370
    15
100
AcDbLine
 10
5.740891381102574
 20
7.740150624636199
 30
0.0
 11
5.784801262154524
 21
7.747780670748451
 31
0.0
  0
LINE
  5
2D0
330
1F
100
AcDbEntity
  8
0
  6
Continuous
 62
     7
370
    15
100
AcDbLine
 10
5.784801262154524
 20
7.747780670748451
 30
0.0
 11
5.936292616070642
 21
7.670801889033879
 31
0.0
  0
LINE
  5
2D1
330
1F
100
AcDbEntity
  8
0
  6
Continuous
 62
     7
370
    15
100
AcDbLine
 10
3.284642171134054
 20
6.323392842197171
 30
0.0
 11
4.271645414582867
 21
6.82492844317338
 31
0.0
  0
LINE
  5
2D2
330
1F
100
AcDbEntity
  8
0
  6
Continuous
 62
     7
370
    15
100
AcDbLine
 10
4.389834691269283
 20
6.884985115028621
 30
0.0
 11
4.404227950657402
 21
6.892298902541623
 31
0.0
  0
LINE
  5
2D3
330
1F
100
AcDbEntity
  8
0
  6
Continuous
 62
     7
370
    15
100
AcDbLine
 10
5.028576420204307
 20
7.209555190169033
 30
0.0
 11
5.936292616070642
 21
7.670801889033879
 31
0.0
  0
LINE
  5
2D4
330
1F
100
AcDbEntity
  8
0
  6
Continuous
 62
     7
370
    15
100
AcDbLine
 10
3.284642171134054
 20
6.323392842197171
 30
0.0
 11
3.133150817217935
 21
6.400371623911743
 31
0.0
  0
LINE
  5
2D5
330
1F
100
AcDbEntity
  8
0
  6
Continuous
 62
     7
370
    15
100
AcDbLine
 10
3.133150817217935
 20
6.400371623911743
 30
0.0
 11
3.148166530800845
 21
6.422684015896057
 31
0.0
  0
LINE
  5
2D6
330
1F
100
AcDbEntity
  8
0
  6
Continuous
 62
     7
370
    15
100
AcDbLine
 10
3.148166530800845
 20
6.422684015896057
 30
0.0
 11
2.99001433623682
 21
6.383277683258263
 31
0.0
  0
LINE
  5
2D7
330
1F
100
AcDbEntity
  8
0
  6
Continuous
 62
     7
370
    15
100
AcDbLine
 10
2.99001433623682
 20
6.383277683258263
 30
0.0
 11
3.020045763402638
 21
6.42790246722689
 31
0.0
  0
LINE
  5
2D8
330
1F
100
AcDbEntity
  8
0
  6
Continuous
 62
     7
370
    15
100
AcDbLine
 10
3.020045763402638
 20
6.42790246722689
 30
0.0
 11
2.842700522495999
 21
6.518018637126788
 31
0.0
  0
LINE
  5
2D9
330
1F
100
AcDbEntity
  8
0
  6
Continuous
 62
     7
370
    15
100
AcDbLine
 10
5.936292616070642
 20
7.455483209850634
 30
0.0
 11
5.936292616070642
 21
7.670801889033879
 31
0.0
  0
LINE
  5
2DA
330
1F
100
AcDbEntity
  8
0
  6
Continuous
 62
     7
370
    15
100
AcDbLine
 10
3.284642171134054
 20
6.108074163013926
 30
0.0
 11
4.616097465175884
 21
6.784639549705945
 31
0.0
  0
LINE
  5
2DB
330
1F
100
AcDbEntity
  8
0
  6
Continuous
 62
     7
370
    15
100
AcDbLine
 10
5.24044593472279
 20
7.101895837333356
 30
0.0
 11
5.936292616070642
 21
7.455483209850634
 31
0.0
  0
LINE
  5
2DC
330
1F
100
AcDbEntity
  8
0
  6
Continuous
 62
     7
370
    15
100
AcDbLine
 10
3.284642171134054
 20
6.108074163013926
 30
0.0
 11
3.284642171134054
 21
6.323392842197171
 31
0.0
  0
LINE
  5
2DD
330
1F
100
AcDbEntity
  8
0
  6
Continuous
 62
     7
370
    15
100
AcDbLine
 10
3.284642171134054
 20
6.108074163013926
 30
0.0
 11
3.133150817217935
 21
6.185052944728497
 31
0.0
  0
LINE
  5
2DE
330
1F
100
AcDbEntity
  8
0
  6
Continuous
 62
     7
370
    15
100
AcDbLine
 10
3.133150817217935
 20
6.185052944728497
 30
0.0
 11
3.133150817217935
 21
6.400371623911743
 31
0.0
  0
LINE
  5
2DF
330
1F
100
AcDbEntity
  8
0
  6
Continuous
 62
     7
370
    15
100
AcDbLine
 10
2.99001433623682
 20
6.167959004075019
 30
0.0
 11
2.99001433623682
 21
6.383277683258263
 31
0.0
  0
LINE
  5
2E0
330
1F
100
AcDbEntity
  8
0
  6
Continuous
 62
     7
370
    15
100
AcDbLine
 10
3.133150799933303
 20
6.203623888925678
 30
0.0
 11
2.99001433623682
 21
6.167959004075019
 31
0.0
  0
LINE
  5
2E1
330
1F
100
AcDbEntity
  8
0
  6
Continuous
 62
     7
370
    15
100
AcDbLine
 10
2.842700522495999
 20
6.302699957943541
 30
0.0
 11
2.842700522495999
 21
6.518018637126788
 31
0.0
  0
LINE
  5
2E2
330
1F
100
AcDbEntity
  8
0
  6
Continuous
 62
     7
370
    15
100
AcDbLine
 10
2.990014439944616
 20
6.227843897834166
 30
0.0
 11
2.842700522495999
 21
6.302699957943541
 31
0.0
  0
LINE
  5
2E3
330
1F
100
AcDbEntity
  8
0
  6
Continuous
 62
     7
370
    15
100
AcDbLine
 10
5.818441495939456
 20
7.730686760436731
 30
0.0
 11
5.818441495939456
 21
7.820514009252629
 31
0.0
  0
LINE
  5
2E4
330
1F
100
AcDbEntity
  8
0
  6
Continuous
 62
     7
370
    15
100
AcDbLine
 10
2.842700522495999
 20
6.302699957943541
 30
0.0
 11
2.754312165112975
 21
6.257786318364713
 31
0.0
  0
LINE
  5
2E5
330
1F
100
AcDbEntity
  8
0
  6
Continuous
 62
     7
370
    15
100
AcDbLine
 10
5.936292630114407
 20
7.545310481872095
 30
0.0
 11
6.024680973453667
 21
7.500396849429462
 31
0.0
  0
LINE
  5
2E6
330
1F
100
AcDbEntity
  8
0
  6
Continuous
 62
     7
370
    15
100
AcDbLine
 10
3.196253813751031
 20
6.063160523435096
 30
0.0
 11
4.616097465175884
 21
6.784639549705945
 31
0.0
  0
LINE
  5
2E7
330
1F
100
AcDbEntity
  8
0
  6
Continuous
 62
     7
370
    15
100
AcDbLine
 10
5.24044593472279
 20
7.101895837333356
 30
0.0
 11
6.024680973453667
 21
7.500396849429462
 31
0.0
  0
LINE
  5
2E8
330
1F
100
AcDbEntity
  8
0
  6
Continuous
 62
     7
370
    15
100
AcDbLine
 10
3.196253813751031
 20
6.063160523435096
 30
0.0
 11
3.044762459834912
 21
6.140139305149669
 31
0.0
  0
LINE
  5
2E9
330
1F
100
AcDbEntity
  8
0
  6
Continuous
 62
     7
370
    15
100
AcDbLine
 10
3.044762459834912
 20
6.140139305149669
 30
0.0
 11
3.059778173417821
 21
6.162451697133982
 31
0.0
  0
LINE
  5
2EA
330
1F
100
AcDbEntity
  8
0
  6
Continuous
 62
     7
370
    15
100
AcDbLine
 10
3.059778173417821
 20
6.162451697133982
 30
0.0
 11
2.901625978853796
 21
6.123045364496189
 31
0.0
  0
LINE
  5
2EB
330
1F
100
AcDbEntity
  8
0
  6
Continuous
 62
     7
370
    15
100
AcDbLine
 10
2.901625978853796
 20
6.123045364496189
 30
0.0
 11
2.931657406019614
 21
6.167670148464815
 31
0.0
  0
LINE
  5
2EC
330
1F
100
AcDbEntity
  8
0
  6
Continuous
 62
     7
370
    15
100
AcDbLine
 10
2.931657406019614
 20
6.167670148464815
 30
0.0
 11
2.754312165112975
 21
6.257786318364713
 31
0.0
  0
LINE
  5
2ED
330
1F
100
AcDbEntity
  8
0
  6
Continuous
 62
     7
370
    15
100
AcDbLine
 10
3.196253813751031
 20
5.847841844251851
 30
0.0
 11
3.196253813751031
 21
6.063160523435096
 31
0.0
  0
LINE
  5
2EE
330
1F
100
AcDbEntity
  8
0
  6
Continuous
 62
     7
370
    15
100
AcDbLine
 10
3.196253813751031
 20
5.847841844251851
 30
0.0
 11
3.044762459834912
 21
5.924820625966424
 31
0.0
  0
LINE
  5
2EF
330
1F
100
AcDbEntity
  8
0
  6
Continuous
 62
     7
370
    15
100
AcDbLine
 10
3.044762459834912
 20
5.924820625966424
 30
0.0
 11
3.044762459834912
 21
6.140139305149669
 31
0.0
  0
LINE
  5
2F0
330
1F
100
AcDbEntity
  8
0
  6
Continuous
 62
     7
370
    15
100
AcDbLine
 10
6.024680973453667
 20
7.285078170246217
 30
0.0
 11
6.024680973453667
 21
7.500396849429462
 31
0.0
  0
LINE
  5
2F1
330
1F
100
AcDbEntity
  8
0
  6
Continuous
 62
     7
370
    15
100
AcDbLine
 10
3.196253813751031
 20
5.847841844251851
 30
0.0
 11
4.724727475716897
 21
6.624520099078796
 31
0.0
  0
LINE
  5
2F2
330
1F
100
AcDbEntity
  8
0
  6
Continuous
 62
     7
370
    15
100
AcDbLine
 10
4.81471050616102
 20
6.670244055459892
 30
0.0
 11
4.827966977533786
 21
6.676980195772392
 31
0.0
  0
LINE
  5
2F3
330
1F
100
AcDbEntity
  8
0
  6
Continuous
 62
     7
370
    15
100
AcDbLine
 10
5.452315431956638
 20
6.994236475714669
 30
0.0
 11
6.024680973453667
 21
7.285078170246217
 31
0.0
  0
LINE
  5
2F4
330
1F
100
AcDbEntity
  8
0
  6
Continuous
 62
     7
370
    15
100
AcDbLine
 10
2.901625978853796
 20
5.907726685312944
 30
0.0
 11
2.901625978853796
 21
6.123045364496189
 31
0.0
  0
LINE
  5
2F5
330
1F
100
AcDbEntity
  8
0
  6
Continuous
 62
     7
370
    15
100
AcDbLine
 10
3.044762442550279
 20
5.943391570163605
 30
0.0
 11
2.901625978853796
 21
5.907726685312944
 31
0.0
  0
LINE
  5
2F6
330
1F
100
AcDbEntity
  8
0
  6
Continuous
 62
     7
370
    15
100
AcDbLine
 10
2.754312165112975
 20
6.042467639181467
 30
0.0
 11
2.754312165112975
 21
6.257786318364713
 31
0.0
  0
LINE
  5
2F7
330
1F
100
AcDbEntity
  8
0
  6
Continuous
 62
     7
370
    15
100
AcDbLine
 10
2.901626082561593
 20
5.967611579072092
 30
0.0
 11
2.754312165112975
 21
6.042467639181467
 31
0.0
  0
LINE
  5
2F8
330
1F
100
AcDbEntity
  8
0
  6
Continuous
 62
     7
370
    15
100
AcDbLine
 10
3.297122324157219
 20
5.86915471660212
 30
0.0
 11
3.267659535482105
 21
5.884125931258899
 31
0.0
  0
SPLINE
  5
2F9
330
1F
100
AcDbEntity
  8
0
  6
Continuous
 62
     7
370
    15
100
AcDbSpline
210
0.0
220
0.0
230
1.0
 70
     8
 71
     3
 72
   329
 73
   325
 74
     0
 42
0.0000000001
 43
0.0000000001
 40
0.0
 40
0.0
 40
0.0
 40
0.0
 40
0.0023129437527915
 40
0.0045683696345323
 40
0.0068039932548866
 40
0.0090417180860902
 40
0.0112901273357227
 40
0.014247958658228
 40
0.0172051311544266
 40
0.0201410600219508
 40
0.0232509811202441
 40
0.0263421801342964
 40
0.0294579479592075
 40
0.0326138397903796
 40
0.0358006834248939
 40
0.0383462499336074
 40
0.0408881080067822
 40
0.0434105330693799
 40
0.0459014428171759
 40
0.0483584372597168
 40
0.0507954699867033
 40
0.0532408234163124
 40
0.0557127121943689
 40
0.0588630252831982
 40
0.0620487532932869
 40
0.0652457663731728
 40
0.0684300431911139
 40
0.0715890720460458
 40
0.0740996109586168
 40
0.0766138512256633
 40
0.0791319135523791
 40
0.0816445291051978
 40
0.084142616715894
 40
0.0865827332737216
 40
0.0890244342080474
 40
0.0914798560627361
 40
0.093952294176568
 40
0.0998812374205551
 40
0.1058047182259535
 40
0.111700816949405
 40
0.1156327964065123
 40
0.1195544380324532
 40
0.1234719141367691
 40
0.1273954402735545
 40
0.1313395833722919
 40
0.1353099671434988
 40
0.1392832901691817
 40
0.1432286598980508
 40
0.146186107655842
 40
0.149117169568126
 40
0.1520375539031737
 40
0.1549723172236568
 40
0.1579393981811323
 40
0.1609487669251386
 40
0.1629968271820212
 40
0.1650649563264806
 40
0.1671469982422221
 40
0.1692135382354842
 40
0.1712365936340976
 40
0.172788423984741
 40
0.1743125673225252
 40
0.1758288252777931
 40
0.1773647947499698
 40
0.1789310724988255
 40
0.1809613965573369
 40
0.1830153874407644
 40
0.1850828320462398
 40
0.1871485450315863
 40
0.1891922403089477
 40
0.1911634511433044
 40
0.1930926833286034
 40
0.1949898582673598
 40
0.1968902807435202
 40
0.1990864894559687
 40
0.2013350926372509
 40
0.2036307025416537
 40
0.205955129038675
 40
0.2082830810244288
 40
0.2105869087454582
 40
0.2128415903195449
 40
0.2150500217908768
 40
0.2169296473532266
 40
0.2188166080381972
 40
0.2207292825380894
 40
0.2226876194469948
 40
0.2247098438587968
 40
0.2267554621973077
 40
0.2287447467858464
 40
0.2300713082235313
 40
0.2313362608236517
 40
0.2325580983339043
 40
0.2337825155132783
 40
0.2350508397330758
 40
0.2367266294770683
 40
0.238507016039183
 40
0.2403712576532265
 40
0.2422835180943139
 40
0.2448588362436162
 40
0.2474502988470978
 40
0.2500349030124073
 40
0.2525796337944111
 40
0.255046549714008
 40
0.2573975810661885
 40
0.2590649944471955
 40
0.2606397117687412
 40
0.2621197430321272
 40
0.263514307338854
 40
0.2648487014768731
 40
0.2661686165345096
 40
0.267535678769379
 40
0.2689920364156293
 40
0.2708681245295831
 40
0.2728879619910281
 40
0.2750267319405943
 40
0.2772477492107045
 40
0.279507319788892
 40
0.2824439525957364
 40
0.2852520823902316
 40
0.2878999896218275
 40
0.291194149969971
 40
0.2945196822253613
 40
0.2978968682486333
 40
0.3012868691223491
 40
0.3046598544267407
 40
0.3072932826674624
 40
0.3099238548424581
 40
0.3125657611467197
 40
0.3152197805479082
 40
0.3178763972501508
 40
0.3212465441267867
 40
0.3246050974969813
 40
0.3279729262119701
 40
0.3313585431269092
 40
0.3347210703385102
 40
0.3380330908322824
 40
0.3413770466969907
 40
0.3452625143220986
 40
0.3493470797387088
 40
0.3535395457992046
 40
0.3577439047971931
 40
0.3603537273013662
 40
0.3629152140078077
 40
0.3654127643142091
 40
0.3678350298412425
 40
0.3701763113957343
 40
0.3722360801591031
 40
0.3742388662766324
 40
0.3762013648662977
 40
0.3781496974597649
 40
0.3801192688827584
 40
0.3821441212987659
 40
0.3842385002327578
 40
0.3872247184791905
 40
0.3902975433265314
 40
0.393399069916184
 40
0.3964744284801441
 40
0.4013110708129068
 40
0.4060798005719682
 40
0.4108020223276335
 40
0.4154955536066569
 40
0.4201747571412385
 40
0.424850835706417
 40
0.4303690385404238
 40
0.4359039124432899
 40
0.4414608828159136
 40
0.4470239711348254
 40
0.4507215153741522
 40
0.4544085201502949
 40
0.4580950628571106
 40
0.461791685653836
 40
0.4654948166949134
 40
0.4691911928066308
 40
0.4735309723377659
 40
0.4778688743003054
 40
0.4822221318718185
 40
0.4866140236399439
 40
0.4891397580869742
 40
0.4916639034624741
 40
0.4941724550317189
 40
0.4966570536208402
 40
0.4991165368186525
 40
0.5015156268615563
 40
0.5039175679217176
 40
0.5063383028966305
 40
0.5087841158955109
 40
0.5123176782368467
 40
0.5158770031706912
 40
0.5194293909957591
 40
0.5229610230071549
 40
0.5264740238403947
 40
0.5368432988516032
 40
0.5471343803656705
 40
0.5574179220519979
 40
0.5602372101733898
 40
0.5630829624880647
 40
0.565956310347339
 40
0.5688296275467787
 40
0.5716768449509877
 40
0.5738861702284456
 40
0.5760707628900606
 40
0.5782395997174092
 40
0.5804118575887364
 40
0.5826024208467402
 40
0.5859047936587693
 40
0.5892474461360436
 40
0.5926038868613029
 40
0.5959491921597538
 40
0.5992776659304239
 40
0.6025951322142556
 40
0.6065643272529377
 40
0.6105177069682421
 40
0.6144469587628957
 40
0.6183650536294568
 40
0.6223018837425719
 40
0.6262121393952853
 40
0.6301875929389605
 40
0.6342244136026522
 40
0.6382658094154309
 40
0.6408611688405035
 40
0.6434251399400709
 40
0.6459518262148175
 40
0.6484412870087303
 40
0.6509011727267894
 40
0.6533045192932184
 40
0.6557199586264044
 40
0.6581669271479851
 40
0.6606490406958879
 40
0.6642381125807672
 40
0.6678351397687538
 40
0.6713991576432436
 40
0.6749322160577878
 40
0.6784491409433342
 40
0.6803178897240167
 40
0.6821985094677318
 40
0.6841010804795932
 40
0.6860158348810996
 40
0.6879030376252572
 40
0.6897320698514161
 40
0.6914097398069733
 40
0.6930811859974673
 40
0.6947795586468635
 40
0.6965252095373237
 40
0.6983271886708375
 40
0.7007009528839441
 40
0.7031502977585063
 40
0.7056476519059373
 40
0.7081573022921566
 40
0.7106380461619075
 40
0.7137879384802651
 40
0.7168375487361182
 40
0.7198142300074882
 40
0.7239756821041248
 40
0.7280885753219808
 40
0.7321942268027276
 40
0.7363275419526722
 40
0.7405040989614637
 40
0.7447108490294992
 40
0.7546563266174556
 40
0.7645251698049198
 40
0.7694021958891114
 40
0.7742667390247756
 40
0.7791621200326463
 40
0.784137500601112
 40
0.7867948080629593
 40
0.7894991410823843
 40
0.7922541378598171
 40
0.7950285508458604
 40
0.7977830275520283
 40
0.8004856284669763
 40
0.8025374778312457
 40
0.8045414292468253
 40
0.8065013663047949
 40
0.8084305798224011
 40
0.810353478920941
 40
0.8123021552304802
 40
0.8142955767504107
 40
0.8171098723501678
 40
0.8199792070907479
 40
0.8228516375642593
 40
0.8257008348750986
 40
0.8357136539503724
 40
0.8455526918390138
 40
0.8520689188661727
 40
0.8585885897057647
 40
0.8651443904164406
 40
0.8690329712998003
 40
0.8729416363557177
 40
0.876861465788515
 40
0.8807771287378985
 40
0.8845389712988364
 40
0.8882839245913572
 40
0.8920154677515487
 40
0.895746062385675
 40
0.8994892765649352
 40
0.9032523724866575
 40
0.9077143901288367
 40
0.9121994545667991
 40
0.9166910208171776
 40
0.9211626094984367
 40
0.9249262744993139
 40
0.9286563191900631
 40
0.9323560521060297
 40
0.9360434907307414
 40
0.9397471091052159
 40
0.9434803889859889
 40
0.947030109950116
 40
0.9506096134260818
 40
0.9542247683085399
 40
0.957878969051277
 40
0.9615460371185823
 40
0.964453730836426
 40
0.9673407998239241
 40
0.9701996706009198
 40
0.9730270132260711
 40
0.9758248229833451
 40
0.9786013117320175
 40
0.9813724180429911
 40
0.9841590076248207
 40
0.9871068493216982
 40
0.9900833306460661
 40
0.9930775869039134
 40
0.9960715762314263
 40
0.9990427177790389
 40
1.0
 40
1.0
 40
1.0
 40
1.0
 10
3.297122324157219
 20
5.86915471660212
 30
0.0
 10
3.293527664825881
 20
5.863428941747753
 30
0.0
 10
3.286427737507736
 20
5.852119779582745
 30
0.0
 10
3.274420965705112
 20
5.836799252690521
 30
0.0
 10
3.261900209542233
 20
5.8228203803683
 30
0.0
 10
3.248889243362032
 20
5.809970313288004
 30
0.0
 10
3.234171592167716
 20
5.796672830027623
 30
0.0
 10
3.217817833004865
 20
5.78286091340072
 30
0.0
 10
3.200035727880425
 20
5.768105303080482
 30
0.0
 10
3.182084876672923
 20
5.752553086820693
 30
0.0
 10
3.164242145366296
 20
5.735456852280439
 30
0.0
 10
3.147043509212383
 20
5.715746157436789
 30
0.0
 10
3.130891637387708
 20
5.694278429289524
 30
0.0
 10
3.11526766438537
 20
5.671809280075566
 30
0.0
 10
3.100813521737682
 20
5.650458944453369
 30
0.0
 10
3.087095062350381
 20
5.630860967967048
 30
0.0
 10
3.07435978452754
 20
5.612973230328071
 30
0.0
 10
3.061884761447923
 20
5.595019901133861
 30
0.0
 10
3.049985184820227
 20
5.576816873681795
 30
0.0
 10
3.038968581613099
 20
5.558167334701985
 30
0.0
 10
3.029251935687451
 20
5.538857867703897
 30
0.0
 10
3.020868864037928
 20
5.519001233138435
 30
0.0
 10
3.012823897193924
 20
5.496982496240488
 30
0.0
 10
3.005080781470189
 20
5.472836093088771
 30
0.0
 10
2.997315942141699
 20
5.446693688066821
 30
0.0
 10
2.989518064204227
 20
5.420456256409697
 30
0.0
 10
2.981110413041206
 20
5.394308383330497
 30
0.0
 10
2.972179555807162
 20
5.370138674246171
 30
0.0
 10
2.962468607549259
 20
5.348167044245082
 30
0.0
 10
2.952590439545783
 20
5.328313635288967
 30
0.0
 10
2.942308631925033
 20
5.308672873842534
 30
0.0
 10
2.932056038083706
 20
5.28907012126123
 30
0.0
 10
2.922323689786135
 20
5.269445843478014
 30
0.0
 10
2.913610931568359
 20
5.249617594572675
 30
0.0
 10
2.906118279661786
 20
5.22961364159056
 30
0.0
 10
2.899490918607862
 20
5.209420689785954
 30
0.0
 10
2.890741021747858
 20
5.179638258369003
 30
0.0
 10
2.880575444932996
 20
5.140387302806328
 30
0.0
 10
2.867351122878605
 20
5.091732300126917
 30
0.0
 10
2.85472518676115
 20
5.048522677839849
 30
0.0
 10
2.842673288008686
 20
5.010837977767225
 30
0.0
 10
2.831501722131659
 20
4.97864723302718
 30
0.0
 10
2.819335351339091
 20
4.946630183008712
 30
0.0
 10
2.806032517608036
 20
4.914806319378414
 30
0.0
 10
2.791385908922531
 20
4.883266109306995
 30
0.0
 10
2.775606249977216
 20
4.852090119536077
 30
0.0
 10
2.759588600074488
 20
4.821044520961183
 30
0.0
 10
2.745330623705554
 20
4.792429172864102
 30
0.0
 10
2.733328399786465
 20
4.766170063683189
 30
0.0
 10
2.723632726181627
 20
4.742301191351068
 30
0.0
 10
2.71551026917372
 20
4.71821313454574
 30
0.0
 10
2.709078376599325
 20
4.693998409184583
 30
0.0
 10
2.704137434852646
 20
4.669725127059431
 30
0.0
 10
2.700952597504153
 20
4.648151933795109
 30
0.0
 10
2.698939805911442
 20
4.62925680906858
 30
0.0
 10
2.697711847483012
 20
4.613013202460073
 30
0.0
 10
2.696928295279389
 20
4.596904542487023
 30
0.0
 10
2.696902443165933
 20
4.581258313692117
 30
0.0
 10
2.697924586257976
 20
4.567523955871092
 30
0.0
 10
2.70002793795195
 20
4.555919288502069
 30
0.0
 10
2.703058476922922
 20
4.546395428141199
 30
0.0
 10
2.707433052421582
 20
4.538288096003237
 30
0.0
 10
2.712828884837954
 20
4.531343376128969
 30
0.0
 10
2.719420652297859
 20
4.524474960169595
 30
0.0
 10
2.726950509346554
 20
4.517330158396475
 30
0.0
 10
2.734845938376537
 20
4.509081085258501
 30
0.0
 10
2.741741674803092
 20
4.499330215938774
 30
0.0
 10
2.747395932052348
 20
4.48813337744518
 30
0.0
 10
2.751639122388541
 20
4.475754311475571
 30
0.0
 10
2.754310340665353
 20
4.462381069216261
 30
0.0
 10
2.755272832316037
 20
4.448186357497994
 30
0.0
 10
2.754314298906515
 20
4.433192681871878
 30
0.0
 10
2.751556294772912
 20
4.416955453201259
 30
0.0
 10
2.747077518540758
 20
4.399536780772677
 30
0.0
 10
2.741069382889211
 20
4.381053447463994
 30
0.0
 10
2.734113493792192
 20
4.362330014429978
 30
0.0
 10
2.726598455356582
 20
4.343494154661375
 30
0.0
 10
2.718915261704988
 20
4.32467746610055
 30
0.0
 10
2.711435040089457
 20
4.306015807951931
 30
0.0
 10
2.704574069851974
 20
4.28757086506636
 30
0.0
 10
2.698741201490547
 20
4.270206358145212
 30
0.0
 10
2.693480363324282
 20
4.253835375180449
 30
0.0
 10
2.68850245249819
 20
4.238272707761781
 30
0.0
 10
2.683272158261284
 20
4.222506841126499
 30
0.0
 10
2.677569712697703
 20
4.206402691231702
 30
0.0
 10
2.671146259082675
 20
4.190040576543937
 30
0.0
 10
2.664543457616877
 20
4.173636739708268
 30
0.0
 10
2.659185292378945
 20
4.158994743923879
 30
0.0
 10
2.655511417196802
 20
4.14640849143858
 30
0.0
 10
2.653444629107969
 20
4.135999398855535
 30
0.0
 10
2.652882599885264
 20
4.126268273810382
 30
0.0
 10
2.654146468387161
 20
4.11755634559297
 30
0.0
 10
2.657203448518743
 20
4.109182614748987
 30
0.0
 10
2.662263201252725
 20
4.101432214686976
 30
0.0
 10
2.669300080707227
 20
4.094575278824494
 30
0.0
 10
2.677623368048384
 20
4.089020000734797
 30
0.0
 10
2.687943116798013
 20
4.084210730327091
 30
0.0
 10
2.700241787956589
 20
4.080582641434159
 30
0.0
 10
2.714332115985773
 20
4.078213110362205
 30
0.0
 10
2.728733458968347
 20
4.076908580373536
 30
0.0
 10
2.743073779402542
 20
4.076160245787308
 30
0.0
 10
2.75698161199443
 20
4.075463171053943
 30
0.0
 10
2.769092049384926
 20
4.074405118944002
 30
0.0
 10
2.779267006364051
 20
4.072720286746611
 30
0.0
 10
2.787531045999568
 20
4.07045311359217
 30
0.0
 10
2.794822004853506
 20
4.067197161735899
 30
0.0
 10
2.80098094128521
 20
4.062709056375006
 30
0.0
 10
2.805826959668852
 20
4.056722302912709
 30
0.0
 10
2.809142809641502
 20
4.0489736896659
 30
0.0
 10
2.8106889489157
 20
4.039365026984532
 30
0.0
 10
2.810666449292556
 20
4.027411003592366
 30
0.0
 10
2.80891867958814
 20
4.013093910389204
 30
0.0
 10
2.80542282999029
 20
3.996619645251155
 30
0.0
 10
2.800527976885256
 20
3.97910553088298
 30
0.0
 10
2.794492326386746
 20
3.960969368976812
 30
0.0
 10
2.786867699323091
 20
3.940768212210372
 30
0.0
 10
2.777742183335073
 20
3.919174421137965
 30
0.0
 10
2.767252908312533
 20
3.896855826253375
 30
0.0
 10
2.755396951627947
 20
3.874021431688831
 30
0.0
 10
2.741912704513703
 20
3.850400765105151
 30
0.0
 10
2.726678179751134
 20
3.825454493513399
 30
0.0
 10
2.711152508219892
 20
3.800393128015671
 30
0.0
 10
2.695910419256222
 20
3.774917917874987
 30
0.0
 10
2.682632559725171
 20
3.750698740122063
 30
0.0
 10
2.671632778048071
 20
3.727795410933909
 30
0.0
 10
2.662994266791079
 20
3.706339864980205
 30
0.0
 10
2.65578564315383
 20
3.684608099436464
 30
0.0
 10
2.649778019644414
 20
3.662785913084523
 30
0.0
 10
2.64434203491886
 20
3.639060962248442
 30
0.0
 10
2.639569382026826
 20
3.613590618338267
 30
0.0
 10
2.635340543277194
 20
3.586407998267968
 30
0.0
 10
2.631574157556002
 20
3.55931380288212
 30
0.0
 10
2.62768514567813
 20
3.532180082095612
 30
0.0
 10
2.62461070066747
 20
3.505402627057532
 30
0.0
 10
2.623976861094625
 20
3.47966840630593
 30
0.0
 10
2.625711599578576
 20
3.453925884408202
 30
0.0
 10
2.628741805507348
 20
3.427067553922456
 30
0.0
 10
2.632432773726356
 20
3.398486221143116
 30
0.0
 10
2.637148575536132
 20
3.369809866888936
 30
0.0
 10
2.642373484663146
 20
3.345327180266178
 30
0.0
 10
2.647822305184722
 20
3.325305144708845
 30
0.0
 10
2.653024743530655
 20
3.309592472023862
 30
0.0
 10
2.65895598935131
 20
3.295089426785838
 30
0.0
 10
2.665683776888028
 20
3.282038318086056
 30
0.0
 10
2.673060657207586
 20
3.271008882816895
 30
0.0
 10
2.681053284116631
 20
3.262078671037757
 30
0.0
 10
2.689610355364286
 20
3.255248537354087
 30
0.0
 10
2.699061780573205
 20
3.250420522656053
 30
0.0
 10
2.709459891385036
 20
3.247783743171688
 30
0.0
 10
2.720847383950117
 20
3.247611247441397
 30
0.0
 10
2.733058548465585
 20
3.249656076051948
 30
0.0
 10
2.747611850291945
 20
3.253904945088181
 30
0.0
 10
2.764495095052396
 20
3.26054659071435
 30
0.0
 10
2.783509553882161
 20
3.269120312133866
 30
0.0
 10
2.80271671594262
 20
3.277976685656503
 30
0.0
 10
2.825548244996194
 20
3.287573206071335
 30
0.0
 10
2.851722437859325
 20
3.297011693272978
 30
0.0
 10
2.881050833783668
 20
3.305582083884086
 30
0.0
 10
2.909783585165901
 20
3.312113572554165
 30
0.0
 10
2.937997781655413
 20
3.316834414473254
 30
0.0
 10
2.965771713999838
 20
3.3199686720263
 30
0.0
 10
2.994817183940503
 20
3.321843581875525
 30
0.0
 10
3.025159143388541
 20
3.322443573659485
 30
0.0
 10
3.056831472839097
 20
3.32182153895123
 30
0.0
 10
3.088364994783127
 20
3.320476657897261
 30
0.0
 10
3.116122482818389
 20
3.318318666106939
 30
0.0
 10
3.139713232923765
 20
3.314521856049336
 30
0.0
 10
3.159217803061227
 20
3.309532634587784
 30
0.0
 10
3.177714388110244
 20
3.302222064671102
 30
0.0
 10
3.195126106398001
 20
3.292663853993734
 30
0.0
 10
3.211634358591448
 20
3.28142860639876
 30
0.0
 10
3.228305986976541
 20
3.268200010868321
 30
0.0
 10
3.245250039503298
 20
3.253249817634021
 30
0.0
 10
3.262916216932969
 20
3.237232357507223
 30
0.0
 10
3.281022563087007
 20
3.221727189503965
 30
0.0
 10
3.297383909719317
 20
3.209605538478845
 30
0.0
 10
3.311826148187033
 20
3.200758016202201
 30
0.0
 10
3.323907564999831
 20
3.194657716836097
 30
0.0
 10
3.336518265671148
 20
3.189812896278366
 30
0.0
 10
3.349672658896538
 20
3.186505235777695
 30
0.0
 10
3.363302212946545
 20
3.185007686851198
 30
0.0
 10
3.377427340450295
 20
3.18563046474926
 30
0.0
 10
3.391937458223809
 20
3.188242360153407
 30
0.0
 10
3.406804042263803
 20
3.192462116970196
 30
0.0
 10
3.424147625340898
 20
3.198780746918275
 30
0.0
 10
3.443943382998824
 20
3.207398434257282
 30
0.0
 10
3.466058777785848
 20
3.21803141436709
 30
0.0
 10
3.48817134146179
 20
3.228772274347639
 30
0.0
 10
3.510185103565945
 20
3.239308152824218
 30
0.0
 10
3.546357851325079
 20
3.256525805253917
 30
0.0
 10
3.596567392652652
 20
3.280278226606569
 30
0.0
 10
3.660854896026032
 20
3.311158549950459
 30
0.0
 10
3.709469246741118
 20
3.336021682958395
 30
0.0
 10
3.742609408507417
 20
3.353048114389458
 30
0.0
 10
3.760351733401519
 20
3.361851932733742
 30
0.0
 10
3.778200152298365
 20
3.370226276269834
 30
0.0
 10
3.79601585600734
 20
3.377658767194393
 30
0.0
 10
3.812354179607475
 20
3.383203199918499
 30
0.0
 10
3.82706642089257
 20
3.386758236555031
 30
0.0
 10
3.840120106525411
 20
3.388499527914502
 30
0.0
 10
3.852623313060449
 20
3.388381184951331
 30
0.0
 10
3.864543607731617
 20
3.386489257476272
 30
0.0
 10
3.87791156105369
 20
3.382709867412635
 30
0.0
 10
3.892601700451101
 20
3.376735308363008
 30
0.0
 10
3.90874431722998
 20
3.368996591901577
 30
0.0
 10
3.925001512762562
 20
3.361311628709934
 30
0.0
 10
3.941847035425708
 20
3.354889734410412
 30
0.0
 10
3.959529566218769
 20
3.350577502130094
 30
0.0
 10
3.979038618139718
 20
3.347917898113087
 30
0.0
 10
4.000391540142171
 20
3.347181640797927
 30
0.0
 10
4.023500889474356
 20
3.348503948113298
 30
0.0
 10
4.046951341802147
 20
3.351642469197162
 30
0.0
 10
4.070688688599226
 20
3.356341414759362
 30
0.0
 10
4.094606909297886
 20
3.362302773597325
 30
0.0
 10
4.118783663456806
 20
3.36926059312641
 30
0.0
 10
4.143245276409015
 20
3.376904204175092
 30
0.0
 10
4.168034237907444
 20
3.385115510637446
 30
0.0
 10
4.190104036115652
 20
3.393516122186243
 30
0.0
 10
4.209203628371228
 20
3.402011159375219
 30
0.0
 10
4.225183954415365
 20
3.410144437521185
 30
0.0
 10
4.240914457780137
 20
3.419397704363244
 30
0.0
 10
4.256306849816109
 20
3.429942108822762
 30
0.0
 10
4.271182132752012
 20
3.441879924312307
 30
0.0
 10
4.285454361440054
 20
3.455352849326414
 30
0.0
 10
4.298999148679096
 20
3.470440961152964
 30
0.0
 10
4.311999434550468
 20
3.486817870113451
 30
0.0
 10
4.32643068105718
 20
3.506652280133491
 30
0.0
 10
4.342200942789004
 20
3.529833982824266
 30
0.0
 10
4.359559736451532
 20
3.555780290706681
 30
0.0
 10
4.377229829040534
 20
3.581175717199823
 30
0.0
 10
4.394649325964387
 20
3.606504963296241
 30
0.0
 10
4.408778948787197
 20
3.628319482361175
 30
0.0
 10
4.419655243730113
 20
3.646611645347192
 30
0.0
 10
4.427690745766191
 20
3.661139923748745
 30
0.0
 10
4.435199625610946
 20
3.676117219009564
 30
0.0
 10
4.4423112864445
 20
3.691282368357095
 30
0.0
 10
4.449594322994878
 20
3.706141733093275
 30
0.0
 10
4.457367411596999
 20
3.719991052652348
 30
0.0
 10
4.466088794883231
 20
3.732219953966261
 30
0.0
 10
4.475529890589942
 20
3.742710388055356
 30
0.0
 10
4.485691511008572
 20
3.751816394714933
 30
0.0
 10
4.496448282888691
 20
3.759626776498224
 30
0.0
 10
4.508746413651396
 20
3.766866776230711
 30
0.0
 10
4.522529520937301
 20
3.773191014153327
 30
0.0
 10
4.537618294124666
 20
3.778339963885057
 30
0.0
 10
4.552770045484753
 20
3.782018290578188
 30
0.0
 10
4.567732188979115
 20
3.784379652569279
 30
0.0
 10
4.58370771819342
 20
3.785699044802415
 30
0.0
 10
4.600378337547144
 20
3.785741813864833
 30
0.0
 10
4.617520559512255
 20
3.784252824192499
 30
0.0
 10
4.6360199096877
 20
3.78109530418701
 30
0.0
 10
4.655793561129497
 20
3.775920894101332
 30
0.0
 10
4.676911243740528
 20
3.768749032319282
 30
0.0
 10
4.697649025362836
 20
3.760865807611084
 30
0.0
 10
4.718547031484127
 20
3.753057329469443
 30
0.0
 10
4.739881098275489
 20
3.745775061311159
 30
0.0
 10
4.771348871086308
 20
3.735630769983237
 30
0.0
 10
4.812873896075728
 20
3.722993469623291
 30
0.0
 10
4.855606804290654
 20
3.710120419964773
 30
0.0
 10
4.889471662749167
 20
3.699722194067476
 30
0.0
 10
4.914938886035373
 20
3.6924059506834
 30
0.0
 10
4.941027396370612
 20
3.686125752158147
 30
0.0
 10
4.963761781013679
 20
3.682202153477353
 30
0.0
 10
4.982926800266108
 20
3.68011802262892
 30
0.0
 10
4.998205494719089
 20
3.679173286335446
 30
0.0
 10
5.013935554472295
 20
3.678956926675986
 30
0.0
 10
5.030047720656702
 20
3.679739084953334
 30
0.0
 10
5.046386459073929
 20
3.681828270136926
 30
0.0
 10
5.061606220550622
 20
3.685265431588349
 30
0.0
 10
5.075522559887547
 20
3.689905843131277
 30
0.0
 10
5.088025273375488
 20
3.695448498112343
 30
0.0
 10
5.100279853844299
 20
3.702469279361546
 30
0.0
 10
5.112205607674402
 20
3.711118849453413
 30
0.0
 10
5.123686832878584
 20
3.721597745448032
 30
0.0
 10
5.134625539140357
 20
3.733788263321615
 30
0.0
 10
5.146483831677242
 20
3.749008952790622
 30
0.0
 10
5.159123679128136
 20
3.767324695588099
 30
0.0
 10
5.172554265064901
 20
3.788341223964525
 30
0.0
 10
5.185920922920036
 20
3.809545746712629
 30
0.0
 10
5.210581849571462
 20
3.848224745331299
 30
0.0
 10
5.246541283975348
 20
3.903691408543184
 30
0.0
 10
5.289196008511835
 20
3.967267984144945
 30
0.0
 10
5.326891610444961
 20
4.021697799047164
 30
0.0
 10
5.359689244497753
 20
4.067744680750473
 30
0.0
 10
5.388483278317983
 20
4.107151886487113
 30
0.0
 10
5.413285253630773
 20
4.139939141620563
 30
0.0
 10
5.4340167372745
 20
4.166041316240016
 30
0.0
 10
5.455358322966902
 20
4.191326361467427
 30
0.0
 10
5.477029823206772
 20
4.215214270595318
 30
0.0
 10
5.498974054055059
 20
4.237433791674579
 30
0.0
 10
5.521132148445441
 20
4.257756413589952
 30
0.0
 10
5.543753054453888
 20
4.276128264282032
 30
0.0
 10
5.566759047311172
 20
4.2923782615396
 30
0.0
 10
5.590036465228127
 20
4.306711556787845
 30
0.0
 10
5.614914729681008
 20
4.320048254811037
 30
0.0
 10
5.641323232649361
 20
4.332210824656752
 30
0.0
 10
5.669132590829613
 20
4.343107379869697
 30
0.0
 10
5.696809650915847
 20
4.352371601810663
 30
0.0
 10
5.722749113646862
 20
4.35915933443263
 30
0.0
 10
5.746756368315059
 20
4.36339791248733
 30
0.0
 10
5.768729797849051
 20
4.365190960726063
 30
0.0
 10
5.789854405209416
 20
4.364439986386456
 30
0.0
 10
5.809967067211704
 20
4.360892372832177
 30
0.0
 10
5.829384891252172
 20
4.355466862083535
 30
0.0
 10
5.848131168225368
 20
4.349119691666283
 30
0.0
 10
5.866600655909738
 20
4.342700768178514
 30
0.0
 10
5.885119139361536
 20
4.336913427580731
 30
0.0
 10
5.904359634193768
 20
4.332353225890788
 30
0.0
 10
5.924489950874013
 20
4.329691633982115
 30
0.0
 10
5.943957982499279
 20
4.329134338529564
 30
0.0
 10
5.96246457753332
 20
4.330405840893583
 30
0.0
 10
5.979762792337789
 20
4.333148266843361
 30
0.0
 10
5.997219053141403
 20
4.337579588894574
 30
0.0
 10
6.014734450139734
 20
4.343816804807414
 30
0.0
 10
6.032208600874893
 20
4.351983164904333
 30
0.0
 10
6.049545462875321
 20
4.362190725743086
 30
0.0
 10
6.066624632386549
 20
4.374603561064471
 30
0.0
 10
6.083647723563828
 20
4.389147312545969
 30
0.0
 10
6.100611749011362
 20
4.405515518323936
 30
0.0
 10
6.117513982726583
 20
4.423389646878455
 30
0.0
 10
6.13411872147758
 20
4.442123792460781
 30
0.0
 10
6.150447886663426
 20
4.461316610798567
 30
0.0
 10
6.16295250004089
 20
4.476330621357178
 30
0.0
 10
6.17006388981714
 20
4.484826055062952
 30
0.0
 10
6.171796800368591
 20
4.48689623081918
 30
0.0
  0
SPLINE
  5
2FA
330
1F
100
AcDbEntity
  8
0
  6
Continuous
 62
     7
370
    15
100
AcDbSpline
210
0.0
220
0.0
230
1.0
 70
     8
 71
     3
 72
    17
 73
    13
 74
     0
 42
0.0000000001
 43
0.0000000001
 40
0.0
 40
0.0
 40
0.0
 40
0.0
 40
0.025196729111565
 40
0.1358198691490876
 40
0.2470730390406221
 40
0.3582903049325188
 40
0.4685511420247733
 40
0.5770184509923394
 40
0.7034584484547207
 40
0.8297990293645096
 40
0.9568457356916221
 40
0.9999999999999998
 40
0.9999999999999998
 40
0.9999999999999998
 40
0.9999999999999998
 10
6.506056569710802
 20
4.966039214200248
 30
0.0
 10
6.506895279952438
 20
4.967525872110233
 30
0.0
 10
6.511416244350969
 20
4.975539518719266
 30
0.0
 10
6.520997701748372
 20
4.989050799598879
 30
0.0
 10
6.534477505299673
 20
5.006341888164204
 30
0.0
 10
6.548845980703537
 20
5.02219875781946
 30
0.0
 10
6.563660596457038
 20
5.036567568773548
 30
0.0
 10
6.57964861516497
 20
5.050024092600802
 30
0.0
 10
6.596715795720607
 20
5.062458841718786
 30
0.0
 10
6.61482887169178
 20
5.074106966771798
 30
0.0
 10
6.62901694358694
 20
5.082526948749535
 30
0.0
 10
6.63716433901809
 20
5.087267955344517
 30
0.0
 10
6.639230101948513
 20
5.088470032224122
 30
0.0
  0
SPLINE
  5
2FB
330
1F
100
AcDbEntity
  8
0
  6
Continuous
 62
     7
370
    15
100
AcDbSpline
210
0.0
220
0.0
230
1.0
 70
     8
 71
     3
 72
    16
 73
    12
 74
     0
 42
0.0000000001
 43
0.0000000001
 40
0.0
 40
0.0
 40
0.0
 40
0.0
 40
0.0325336229542046
 40
0.1513730306035027
 40
0.268008381047194
 40
0.3963948558754008
 40
0.5219465451575252
 40
0.6457421014832671
 40
0.76885390507299
 40
0.8922554299349435
 40
1.0
 40
1.0
 40
1.0
 40
1.0
 10
6.84093457579741
 20
5.394858333946555
 30
0.0
 10
6.841342841656097
 20
5.397938468161346
 30
0.0
 10
6.843242428443838
 20
5.412269772468115
 30
0.0
 10
6.845070979341469
 20
5.437139058708034
 30
0.0
 10
6.846917094590468
 20
5.470597646573772
 30
0.0
 10
6.847606178774407
 20
5.504156180383889
 30
0.0
 10
6.847095755423345
 20
5.537745454621314
 30
0.0
 10
6.845358532998305
 20
5.570182168101014
 30
0.0
 10
6.842359759955411
 20
5.601641935699872
 30
0.0
 10
6.838544696417377
 20
5.631125572344774
 30
0.0
 10
6.834880709131991
 20
5.6494934676068
 30
0.0
 10
6.833172807750778
 20
5.658055329656131
 30
0.0
  0
SPLINE
  5
2FC
330
1F
100
AcDbEntity
  8
0
  6
Continuous
 62
     7
370
    15
100
AcDbSpline
210
0.0
220
0.0
230
1.0
 70
     8
 71
     3
 72
    89
 73
    85
 74
     0
 42
0.0000000001
 43
0.0000000001
 40
0.0
 40
0.0
 40
0.0
 40
0.0
 40
0.0000677124990373
 40
0.0163689412814762
 40
0.0327771805475685
 40
0.0492727590358244
 40
0.0687947056469216
 40
0.0883656929969996
 40
0.1079417560506961
 40
0.1274768656839086
 40
0.1401186769403896
 40
0.1527106013336866
 40
0.165239987254636
 40
0.1776960703460514
 40
0.19008345646485
 40
0.2024341892212477
 40
0.2148154047826894
 40
0.2257388114473313
 40
0.2367304387147827
 40
0.2477526853933272
 40
0.2587722116460187
 40
0.269763004644973
 40
0.2807096103972477
 40
0.2916102488760099
 40
0.3024858593738881
 40
0.3126825580814494
 40
0.3229053093027778
 40
0.3331545455099194
 40
0.343417318769653
 40
0.3536698984691895
 40
0.3638856938111192
 40
0.3798844413473049
 40
0.3958237596928347
 40
0.411670934568368
 40
0.4237548320371866
 40
0.4358589295021725
 40
0.4480189489981018
 40
0.4602480762974486
 40
0.4725418405910546
 40
0.4848806289584182
 40
0.4972330547150572
 40
0.514469973099665
 40
0.5315851279338152
 40
0.5486243209283907
 40
0.5656640471668771
 40
0.5828007114279434
 40
0.5940828757751607
 40
0.6053671640939619
 40
0.6166070547855892
 40
0.6277669213563812
 40
0.638837100351656
 40
0.6498500948926137
 40
0.6605722485951592
 40
0.6713711938553027
 40
0.6822731373448493
 40
0.693278406934626
 40
0.7043666563891032
 40
0.7189566680386341
 40
0.7335773911276675
 40
0.7481748177163307
 40
0.7611382836632253
 40
0.7739928002488582
 40
0.7867077829956982
 40
0.7992709169319029
 40
0.8116970311679821
 40
0.824037150622262
 40
0.8345581946187678
 40
0.845159293908275
 40
0.8558792408203867
 40
0.8667200379999492
 40
0.8776583693634515
 40
0.8886554115735126
 40
0.8996658765592961
 40
0.9106466446558659
 40
0.9204335056530892
 40
0.9301604894104523
 40
0.9398359408515112
 40
0.9494923567103738
 40
0.959191548271271
 40
0.9669044610371301
 40
0.974762958533754
 40
0.9828407032949165
 40
0.9912220475080646
 40
0.9999999999999998
 40
0.9999999999999998
 40
0.9999999999999998
 40
0.9999999999999998
 10
6.948195954547582
 20
6.234120082839402
 30
0.0
 10
6.94822047858665
 20
6.23416897762712
 30
0.0
 10
6.954148963891314
 20
6.245988891535264
 30
0.0
 10
6.964999743216549
 20
6.270126206794357
 30
0.0
 10
6.980701471123894
 20
6.306498113399451
 30
0.0
 10
6.996108469361599
 20
6.345628318921214
 30
0.0
 10
7.011133962034938
 20
6.387354262745041
 30
0.0
 10
7.025431096040454
 20
6.431559799503572
 30
0.0
 10
7.038177606696044
 20
6.475817826457706
 30
0.0
 10
7.048028548102965
 20
6.514791581366872
 30
0.0
 10
7.055537976086963
 20
6.548388766133173
 30
0.0
 10
7.061189845419561
 20
6.576622903908504
 30
0.0
 10
7.066122876505335
 20
6.604579924808431
 30
0.0
 10
7.070321478935574
 20
6.632215899729614
 30
0.0
 10
7.073472095874736
 20
6.659423828070719
 30
0.0
 10
7.075263731796243
 20
6.686090411059172
 30
0.0
 10
7.075372049084096
 20
6.710985725700592
 30
0.0
 10
7.073778074639798
 20
6.733985440371108
 30
0.0
 10
7.070750000243314
 20
6.755089995888263
 30
0.0
 10
7.06621683987041
 20
6.775123816493774
 30
0.0
 10
7.0601809269466
 20
6.793861326436281
 30
0.0
 10
7.052642746180841
 20
6.811075739511518
 30
0.0
 10
7.043602733104949
 20
6.826539582678154
 30
0.0
 10
7.03305444851083
 20
6.840022497611629
 30
0.0
 10
7.021263393717249
 20
6.851068232170479
 30
0.0
 10
7.008536089969296
 20
6.859927642347032
 30
0.0
 10
6.995105839259247
 20
6.866839025014257
 30
0.0
 10
6.980840360747434
 20
6.872087411484833
 30
0.0
 10
6.965884766373603
 20
6.875758573086407
 30
0.0
 10
6.950384134381113
 20
6.877949677398616
 30
0.0
 10
6.931423330322266
 20
6.878855136797764
 30
0.0
 10
6.908964691634917
 20
6.878056573118873
 30
0.0
 10
6.883320996377871
 20
6.876406414103975
 30
0.0
 10
6.860008192066278
 20
6.875804919192392
 30
0.0
 10
6.839387119865777
 20
6.877433309386042
 30
0.0
 10
6.821446762040078
 20
6.881096831432965
 30
0.0
 10
6.804186439277854
 20
6.886593163136337
 30
0.0
 10
6.787568393805618
 20
6.893718085089927
 30
0.0
 10
6.77154457669105
 20
6.902229297470287
 30
0.0
 10
6.756069828101611
 20
6.911895309658694
 30
0.0
 10
6.739118726025327
 20
6.923897977159072
 30
0.0
 10
6.72085978912148
 20
6.938321449836523
 30
0.0
 10
6.701439844039171
 20
6.95527906315034
 30
0.0
 10
6.683061432627555
 20
6.973663063385501
 30
0.0
 10
6.665849612923333
 20
6.993759274140263
 30
0.0
 10
6.651971588193827
 20
7.013463267143098
 30
0.0
 10
6.640576384589644
 20
7.031557743743456
 30
0.0
 10
6.630944447317207
 20
7.047050461709248
 30
0.0
 10
6.621096190677699
 20
7.062183103185327
 30
0.0
 10
6.610714839935822
 20
7.076473558110963
 30
0.0
 10
6.599494342610727
 20
7.089454761112119
 30
0.0
 10
6.587212562322387
 20
7.100498407760778
 30
0.0
 10
6.573729417761308
 20
7.109270914070937
 30
0.0
 10
6.559319121373431
 20
7.116152093659378
 30
0.0
 10
6.544016961643218
 20
7.121458227386319
 30
0.0
 10
6.528000221628562
 20
7.12543955059901
 30
0.0
 10
6.509718840140699
 20
7.12863850737461
 30
0.0
 10
6.489208034186955
 20
7.130960973529065
 30
0.0
 10
6.466612061135096
 20
7.13258171438165
 30
0.0
 10
6.444748189962116
 20
7.133807473158053
 30
0.0
 10
6.423857119209564
 20
7.135162186379528
 30
0.0
 10
6.404121629995658
 20
7.137013168889954
 30
0.0
 10
6.384922270217121
 20
7.13980511324294
 30
0.0
 10
6.366448819950341
 20
7.143932506334073
 30
0.0
 10
6.348896075079486
 20
7.149799381130042
 30
0.0
 10
6.333261268333516
 20
7.157404428605898
 30
0.0
 10
6.319585224463055
 20
7.16676288739139
 30
0.0
 10
6.307699344779498
 20
7.177521866907298
 30
0.0
 10
6.296599711811913
 20
7.189726334879575
 30
0.0
 10
6.286073814727794
 20
7.203010257878807
 30
0.0
 10
6.275900353417828
 20
7.216986931410054
 30
0.0
 10
6.265863950980982
 20
7.2312783587908
 30
0.0
 10
6.255749213973168
 20
7.245504988342933
 30
0.0
 10
6.245698622627811
 20
7.258813781106405
 30
0.0
 10
6.235556705141191
 20
7.270917566527386
 30
0.0
 10
6.225229286619573
 20
7.281626648183274
 30
0.0
 10
6.214177357720378
 20
7.291116947883914
 30
0.0
 10
6.202240872494382
 20
7.29910530081131
 30
0.0
 10
6.190201989029457
 20
7.304853757775785
 30
0.0
 10
6.178202785126186
 20
7.308564147698877
 30
0.0
 10
6.166377659888818
 20
7.310557533191168
 30
0.0
 10
6.153665249344019
 20
7.310962772009181
 30
0.0
 10
6.140014451935235
 20
7.309779798175373
 30
0.0
 10
6.13044486816212
 20
7.307537900355082
 30
0.0
 10
6.125549483859855
 20
7.306391042596485
 30
0.0
  0
LINE
  5
2FD
330
1F
100
AcDbEntity
  8
0
  6
Continuous
 62
     7
370
    15
100
AcDbLine
 10
6.125549483859855
 20
7.306391042596485
 30
0.0
 11
6.024680978720079
 21
7.357646341584238
 31
0.0
  0
SPLINE
  5
2FE
330
1F
100
AcDbEntity
  8
0
  6
Continuous
 62
     7
370
    15
100
AcDbSpline
210
0.0
220
0.0
230
1.0
 70
     8
 71
     3
 72
    45
 73
    41
 74
     0
 42
0.0000000001
 43
0.0000000001
 40
0.0
 40
0.0
 40
0.0
 40
0.0
 40
0.0054606636601749
 40
0.026279542943384
 40
0.047736630049502
 40
0.0713134567770074
 40
0.0957522856631094
 40
0.1209822721018489
 40
0.1468666714264661
 40
0.1732210968762801
 40
0.1998263867248084
 40
0.2415440839320702
 40
0.2822365225781279
 40
0.3208977513290187
 40
0.3525468423679779
 40
0.3838920455812906
 40
0.4157137004590509
 40
0.4477568467892893
 40
0.4796326611356104
 40
0.5046068271588366
 40
0.5296165918162216
 40
0.5547612642249071
 40
0.5799648880643684
 40
0.605094355475019
 40
0.630098406593164
 40
0.6550394029405245
 40
0.6800735354789698
 40
0.7052569758661455
 40
0.730526104708641
 40
0.7635056078248576
 40
0.7959881860564526
 40
0.8281355750791826
 40
0.8520816658353874
 40
0.8773994714700648
 40
0.9039105772796022
 40
0.9306937909199856
 40
0.951348288662235
 40
0.971230288493491
 40
0.9900136359808053
 40
1.0
 40
1.0
 40
1.0
 40
1.0
 10
2.223087160807817
 20
3.492704165048314
 30
0.0
 10
2.222132467235208
 20
3.493098753079072
 30
0.0
 10
2.217537987094971
 20
3.494997715136531
 30
0.0
 10
2.210475596479167
 20
3.500935373392481
 30
0.0
 10
2.201674670895495
 20
3.510383124776908
 30
0.0
 10
2.19382040750769
 20
3.522325046778525
 30
0.0
 10
2.186761980562841
 20
3.536307610520043
 30
0.0
 10
2.180599482005765
 20
3.551905478294896
 30
0.0
 10
2.175240536645525
 20
3.568806849851868
 30
0.0
 10
2.170609139744715
 20
3.586729636285668
 30
0.0
 10
2.165874216942117
 20
3.60892588997786
 30
0.0
 10
2.16141761392861
 20
3.635252083195297
 30
0.0
 10
2.157495932341054
 20
3.665214755088158
 30
0.0
 10
2.154342631010322
 20
3.692984376969433
 30
0.0
 10
2.152575107854953
 20
3.719153987949824
 30
0.0
 10
2.153199200858502
 20
3.744827271284784
 30
0.0
 10
2.156256300143555
 20
3.771542197287729
 30
0.0
 10
2.160136742444826
 20
3.798616610226305
 30
0.0
 10
2.163625944471094
 20
3.823727638269693
 30
0.0
 10
2.167193055070927
 20
3.846949217277534
 30
0.0
 10
2.170958399438038
 20
3.868383120951864
 30
0.0
 10
2.175446015769844
 20
3.890023777406594
 30
0.0
 10
2.180849467943529
 20
3.911819510718761
 30
0.0
 10
2.187360981584606
 20
3.933622749150002
 30
0.0
 10
2.195152970717225
 20
3.955263048822589
 30
0.0
 10
2.204463812742825
 20
3.976522950070611
 30
0.0
 10
2.215024324491332
 20
3.997304121306207
 30
0.0
 10
2.226456464735647
 20
4.017681974697406
 30
0.0
 10
2.239665987338963
 20
4.039787586682631
 30
0.0
 10
2.254376379017192
 20
4.063545111791274
 30
0.0
 10
2.270081062829728
 20
4.089206479881446
 30
0.0
 10
2.283683968836256
 20
4.112998646316908
 30
0.0
 10
2.295331742313144
 20
4.135385465562561
 30
0.0
 10
2.305375344366582
 20
4.156604491178446
 30
0.0
 10
2.314932243797162
 20
4.178929233281763
 30
0.0
 10
2.32299464160518
 20
4.2001587706664
 30
0.0
 10
2.329430025887163
 20
4.219616397618074
 30
0.0
 10
2.334108097072911
 20
4.236759599319955
 30
0.0
 10
2.337263683573237
 20
4.250830130702784
 30
0.0
 10
2.338062549972405
 20
4.258859433907587
 30
0.0
 10
2.338339847527613
 20
4.261646515891551
 30
0.0
  0
SPLINE
  5
2FF
330
1F
100
AcDbEntity
  8
0
  6
Continuous
 62
     7
370
    15
100
AcDbSpline
210
0.0
220
0.0
230
1.0
 70
     8
 71
     3
 72
    98
 73
    94
 74
     0
 42
0.0000000001
 43
0.0000000001
 40
0.0
 40
0.0
 40
0.0
 40
0.0
 40
0.0023874597874911
 40
0.0105064184692061
 40
0.0182601800129886
 40
0.0255584119525741
 40
0.0310820907815316
 40
0.0364145500580725
 40
0.041735774617583
 40
0.0472447697056336
 40
0.0530220774430998
 40
0.0631613827978256
 40
0.0735576717344217
 40
0.0836952932090549
 40
0.0934985321199669
 40
0.1031112526631958
 40
0.1126624781715623
 40
0.1222804181059965
 40
0.1320997818636417
 40
0.1421331820065863
 40
0.1522716457351995
 40
0.1623947556077797
 40
0.1723923663374084
 40
0.1821852580864587
 40
0.1917499666834932
 40
0.2001761502731346
 40
0.2085907690262044
 40
0.2171536688173997
 40
0.2259056543557648
 40
0.2348155023615149
 40
0.2436547107563598
 40
0.2524964179636862
 40
0.2612801863255891
 40
0.2699634255572453
 40
0.2771936857057449
 40
0.2842766793148301
 40
0.2912769731433728
 40
0.2983388163464604
 40
0.3055483426154581
 40
0.3129210336288743
 40
0.3247364300642809
 40
0.3365769370973751
 40
0.3482745715190695
 40
0.3613806733819265
 40
0.3743026077050189
 40
0.3870837954867538
 40
0.3998023613487999
 40
0.4125674291276308
 40
0.4254474099026315
 40
0.4450539431530499
 40
0.4647949525195098
 40
0.484473566377014
 40
0.5040013039706242
 40
0.523461130064486
 40
0.5425814539490142
 40
0.5617534976484871
 40
0.5809965551019536
 40
0.6003110592545005
 40
0.6132208990109033
 40
0.6261473396975372
 40
0.6390470357673848
 40
0.6518649151294813
 40
0.6645786343488364
 40
0.6772245450901819
 40
0.6891824076046564
 40
0.7012238481550089
 40
0.7133110707028809
 40
0.7253861736984125
 40
0.7374391195491647
 40
0.7499423362499777
 40
0.7625377370550958
 40
0.7751920111798699
 40
0.7878310673132301
 40
0.8003714835332525
 40
0.8127512708622429
 40
0.8249629871373061
 40
0.8360796058413253
 40
0.8472615015933739
 40
0.8585993567638626
 40
0.8700928114915278
 40
0.881685754744026
 40
0.8932999482296553
 40
0.9043486410967698
 40
0.9153210975727366
 40
0.9261868179637
 40
0.9369460693407008
 40
0.9476539031782769
 40
0.9584135540334177
 40
0.9692749060034946
 40
0.9802239198127345
 40
0.9900901943860528
 40
0.9999459131076676
 40
1.0
 40
1.0
 40
1.0
 40
1.0
 10
2.208926759992179
 20
4.327575253090126
 30
0.0
 10
2.20803245852875
 20
4.327980777736992
 30
0.0
 10
2.204096934478614
 20
4.329765357172371
 30
0.0
 10
2.197924302100178
 20
4.334172150513309
 30
0.0
 10
2.190851572620662
 20
4.34095733724369
 30
0.0
 10
2.185800304951381
 20
4.34872472291809
 30
0.0
 10
2.182741657263996
 20
4.357095104705601
 30
0.0
 10
2.181478157615332
 20
4.365807810642183
 30
0.0
 10
2.18204016514539
 20
4.375538744087131
 30
0.0
 10
2.184106659447472
 20
4.385947830114875
 30
0.0
 10
2.188053891853485
 20
4.399465439221803
 30
0.0
 10
2.194203153800445
 20
4.41595315991711
 30
0.0
 10
2.201964758817795
 20
4.43500468197265
 30
0.0
 10
2.209105642853258
 20
4.453981002510776
 30
0.0
 10
2.21539613914285
 20
4.47255413611727
 30
0.0
 10
2.22125115953429
 20
4.490778692877992
 30
0.0
 10
2.227047933949222
 20
4.508887573787356
 30
0.0
 10
2.233169693669679
 20
4.527110222788434
 30
0.0
 10
2.240030497536365
 20
4.545555190732339
 30
0.0
 10
2.247510765313188
 20
4.564216842397416
 30
0.0
 10
2.255193945507199
 20
4.583033531082303
 30
0.0
 10
2.262708990807854
 20
4.601869396926921
 30
0.0
 10
2.269664866159328
 20
4.620592805994435
 30
0.0
 10
2.275673048608783
 20
4.639076226523026
 30
0.0
 10
2.280175917259972
 20
4.65658892593819
 30
0.0
 10
2.282953855892707
 20
4.673013099277942
 30
0.0
 10
2.283878183208485
 20
4.688266031134355
 30
0.0
 10
2.282812208254868
 20
4.702680271398774
 30
0.0
 10
2.280004773062966
 20
4.71614938156018
 30
0.0
 10
2.275657585175704
 20
4.728441287594647
 30
0.0
 10
2.269991843880324
 20
4.739422774153723
 30
0.0
 10
2.263165577545754
 20
4.748928940936391
 30
0.0
 10
2.255398324378793
 20
4.757007205794817
 30
0.0
 10
2.24784389161272
 20
4.764181706938819
 30
0.0
 10
2.24107007855845
 20
4.771259392591045
 30
0.0
 10
2.235412368393892
 20
4.778704440812419
 30
0.0
 10
2.23097770001368
 20
4.787545282935322
 30
0.0
 10
2.228038656295319
 20
4.797930514494361
 30
0.0
 10
2.226289994560664
 20
4.809462572136339
 30
0.0
 10
2.225373078193651
 20
4.824316089158704
 30
0.0
 10
2.225691104820196
 20
4.842530780420149
 30
0.0
 10
2.227049586203632
 20
4.863705754192711
 30
0.0
 10
2.229291882848177
 20
4.885975620849111
 30
0.0
 10
2.2327337659782
 20
4.90926471090826
 30
0.0
 10
2.237673651904602
 20
4.933537732050596
 30
0.0
 10
2.244105812614578
 20
4.957752527277836
 30
0.0
 10
2.252228236044238
 20
4.981840561517872
 30
0.0
 10
2.261923777138334
 20
5.005709454890274
 30
0.0
 10
2.274605999642855
 20
5.033454766151292
 30
0.0
 10
2.290410749324062
 20
5.064969123144398
 30
0.0
 10
2.308710372479774
 20
5.100336560846989
 30
0.0
 10
2.326388009771847
 20
5.13598939954823
 30
0.0
 10
2.342299101511618
 20
5.172164106235196
 30
0.0
 10
2.356548071272985
 20
5.208395358238854
 30
0.0
 10
2.369383394055265
 20
5.244633189031659
 30
0.0
 10
2.381061090442905
 20
5.280837928273509
 30
0.0
 10
2.391881590969707
 20
5.317194987431467
 30
0.0
 10
2.400927050359527
 20
5.349601303679999
 30
0.0
 10
2.408584557851403
 20
5.378018937830444
 30
0.0
 10
2.414996883010509
 20
5.402390591593457
 30
0.0
 10
2.421543665265939
 20
5.426713572473681
 30
0.0
 10
2.428648718740249
 20
5.45092264789262
 30
0.0
 10
2.436697726973384
 20
5.474936399433917
 30
0.0
 10
2.445936401756397
 20
5.498218293702977
 30
0.0
 10
2.456544587163618
 20
5.520570986310808
 30
0.0
 10
2.467728166293567
 20
5.542201550578899
 30
0.0
 10
2.479109471293571
 20
5.563811363140003
 30
0.0
 10
2.490115577527374
 20
5.585641003362039
 30
0.0
 10
2.500174268929227
 20
5.60820283114605
 30
0.0
 10
2.50885071700005
 20
5.631472126934436
 30
0.0
 10
2.516623631664039
 20
5.655222452339743
 30
0.0
 10
2.523807250348104
 20
5.679081168790204
 30
0.0
 10
2.530836095672336
 20
5.702904306425603
 30
0.0
 10
2.538133248619301
 20
5.726552801381355
 30
0.0
 10
2.546131645041114
 20
5.749887633779338
 30
0.0
 10
2.555012969667152
 20
5.772147934240313
 30
0.0
 10
2.565093910032695
 20
5.793189291696538
 30
0.0
 10
2.576396527964295
 20
5.812864225312083
 30
0.0
 10
2.588734715916078
 20
5.831994195022667
 30
0.0
 10
2.601751423749784
 20
5.850816777196495
 30
0.0
 10
2.615085695293962
 20
5.869545872177831
 30
0.0
 10
2.628134986684481
 20
5.888167015408582
 30
0.0
 10
2.640718942483015
 20
5.906693357497489
 30
0.0
 10
2.65311083192572
 20
5.924716594074642
 30
0.0
 10
2.665716824029692
 20
5.942229230323483
 30
0.0
 10
2.678758186504591
 20
5.958929178387196
 30
0.0
 10
2.692484072189588
 20
5.974421457225449
 30
0.0
 10
2.70688792866439
 20
5.988528435967999
 30
0.0
 10
2.721717604054107
 20
6.001743839140856
 30
0.0
 10
2.7363011532003
 20
6.013997535337387
 30
0.0
 10
2.75042439541223
 20
6.025827407996096
 30
0.0
 10
2.759553587767199
 20
6.033408172524619
 30
0.0
 10
2.764046202756226
 20
6.037486590658056
 30
0.0
 10
2.764070723074048
 20
6.037508850323993
 30
0.0
  0
LINE
  5
300
330
1F
100
AcDbEntity
  8
0
  6
Continuous
 62
     7
370
    15
100
AcDbLine
 10
6.125549483859855
 20
7.306391042596485
 30
0.0
 11
5.48177822063175
 21
6.979265261057891
 31
0.0
  0
LINE
  5
301
330
1F
100
AcDbEntity
  8
0
  6
Continuous
 62
     7
370
    15
100
AcDbLine
 10
4.857429766208899
 20
6.662008981115614
 30
0.0
 11
4.824548939245817
 21
6.645300925269818
 31
0.0
  0
LINE
  5
302
330
1F
100
AcDbEntity
  8
0
  6
Continuous
 62
     7
370
    15
100
AcDbLine
 10
4.734565905965933
 20
6.59957696744776
 30
0.0
 11
3.297122324157219
 21
5.86915471660212
 31
0.0
  0
LWPOLYLINE
  5
303
330
1F
100
AcDbEntity
  8
0
  6
Continuous
 62
     8
370
    15
100
AcDbPolyline
 90
        9
 70
   128
 43
0.0
 10
6.77170985495436
 20
6.242922929583083
 10
6.774606119872762
 20
6.244685811296831
 10
6.776836468387311
 20
6.24668310713757
 10
6.778329134702806
 20
6.248850666005297
 10
6.779036102109453
 20
6.25111883863618
 10
6.778934710453709
 20
6.253414699703912
 10
6.778028088254105
 20
6.255664515845337
 10
6.776345662597903
 20
6.257795831625144
 10
6.774964343886619
 20
6.259005252007193
  0
ARC
  5
304
330
1F
100
AcDbEntity
  8
0
  6
Continuous
 62
     8
370
    15
100
AcDbCircle
 10
6.736107849272851
 20
6.25201566765516
 30
0.0
 40
0.0073734184841992
100
AcDbArc
 50
135.3868279063094
 51
213.7503799919236
  0
LWPOLYLINE
  5
305
330
1F
100
AcDbEntity
  8
0
  6
Continuous
 62
     8
370
    15
100
AcDbPolyline
 90
        9
 70
   128
 43
0.0
 10
6.594933157472946
 20
6.153095659208435
 10
6.597829422391347
 20
6.154858540922183
 10
6.600059762263581
 20
6.156855832371418
 10
6.601552428579075
 20
6.159023391239144
 10
6.602259404628039
 20
6.161291568261531
 10
6.602158012972295
 20
6.163587429329266
 10
6.601251399415007
 20
6.165837249862193
 10
6.599568965116488
 20
6.167968561250496
 10
6.598187646405204
 20
6.169177981632546
  0
ARC
  5
306
330
1F
100
AcDbEntity
  8
0
  6
Continuous
 62
     8
370
    15
100
AcDbCircle
 10
6.559331184878669
 20
6.162188386482355
 30
0.0
 40
0.0073734496215716
100
AcDbArc
 50
135.3869487453389
 51
213.7501584469508
  0
LWPOLYLINE
  5
307
330
1F
100
AcDbEntity
  8
0
  6
Continuous
 62
     8
370
    15
100
AcDbPolyline
 90
        9
 70
   128
 43
0.0
 10
6.197185549249339
 20
6.310293397734336
 10
6.200081969729436
 20
6.312056217967018
 10
6.202312171324606
 20
6.314053579680328
 10
6.203804837640102
 20
6.316221138548054
 10
6.204511813689065
 20
6.318489315570441
 10
6.204410422033323
 20
6.320785176638175
 10
6.20350391218383
 20
6.323034909341011
 10
6.201821356892883
 20
6.325166299776397
 10
6.20044017645866
 20
6.326375649894372
  0
ARC
  5
308
330
1F
100
AcDbEntity
  8
0
  6
Continuous
 62
     8
370
    15
100
AcDbCircle
 10
6.161583479552104
 20
6.31938609242847
 30
0.0
 40
0.0073732555975681
100
AcDbArc
 50
135.3858726135291
 51
213.7514359907873
  0
LWPOLYLINE
  5
309
330
1F
100
AcDbEntity
  8
0
  6
Continuous
 62
     8
370
    15
100
AcDbPolyline
 90
        9
 70
   128
 43
0.0
 10
6.373962246730754
 20
6.400120668108984
 10
6.376858649926218
 20
6.401883479558657
 10
6.379088860163705
 20
6.40388084566347
 10
6.3805815264792
 20
6.406048404531197
 10
6.381288502528163
 20
6.408316581553584
 10
6.381187102230104
 20
6.410612438229814
 10
6.380280626949876
 20
6.412862188498667
 10
6.378598063016615
 20
6.41499357454255
 10
6.377216882582392
 20
6.416202924660525
  0
ARC
  5
30A
330
1F
100
AcDbEntity
  8
0
  6
Continuous
 62
     8
370
    15
100
AcDbCircle
 10
6.33836017275285
 20
6.409213358332613
 30
0.0
 40
0.0073732495546091
100
AcDbArc
 50
135.3856816044229
 51
213.7514255878707
  0
LWPOLYLINE
  5
30B
330
1F
100
AcDbEntity
  8
0
  6
Continuous
 62
     8
370
    15
100
AcDbPolyline
 90
        9
 70
   128
 43
0.0
 10
6.064602995890172
 20
6.602232046213712
 10
6.067499399085636
 20
6.603994857663386
 10
6.069729747600185
 20
6.605992153504125
 10
6.071222275638619
 20
6.608159782635927
 10
6.071929243045265
 20
6.61042795526681
 10
6.071827851389522
 20
6.612723816334542
 10
6.070921367466979
 20
6.614973562211893
 10
6.069238803533716
 20
6.617104948255774
 10
6.067857623099492
 20
6.61831429837375
  0
ARC
  5
30C
330
1F
100
AcDbEntity
  8
0
  6
Continuous
 62
     8
370
    15
100
AcDbCircle
 10
6.029000933701332
 20
6.611324732541956
 30
0.0
 40
0.0073732668180455
100
AcDbArc
 50
135.3858673144757
 51
213.7513405837716
  0
LWPOLYLINE
  5
30D
330
1F
100
AcDbEntity
  8
0
  6
Continuous
 62
     8
370
    15
100
AcDbPolyline
 90
        9
 70
   128
 43
0.0
 10
5.887826298408757
 20
6.512404775839065
 10
5.890722701604222
 20
6.514167587288738
 10
5.892953041476454
 20
6.516164878737972
 10
5.894445569514887
 20
6.518332507869774
 10
5.895152545563851
 20
6.520600684892161
 10
5.895051153908108
 20
6.522896545959895
 10
5.894144678627881
 20
6.52514629622875
 10
5.892462106052301
 20
6.527277677881127
 10
5.891080925618077
 20
6.528487027999101
  0
ARC
  5
30E
330
1F
100
AcDbEntity
  8
0
  6
Continuous
 62
     8
370
    15
100
AcDbCircle
 10
5.85222426930575
 20
6.521497451369455
 30
0.0
 40
0.0073732979539465
100
AcDbArc
 50
135.3859881540835
 51
213.7511190381871
  0
LWPOLYLINE
  5
30F
330
1F
100
AcDbEntity
  8
0
  6
Continuous
 62
     8
370
    15
100
AcDbPolyline
 90
        9
 70
   128
 43
0.0
 10
5.666855456805098
 20
6.759429749607577
 10
5.66975179086203
 20
6.761192596189286
 10
5.67198213937658
 20
6.763189892030026
 10
5.673474736553544
 20
6.76535748602979
 10
5.674181712602507
 20
6.767625663052178
 10
5.674080312304447
 20
6.769921519728407
 10
5.673173837024221
 20
6.772171269997261
 10
5.671491273090957
 20
6.774302656041142
 10
5.670110023518204
 20
6.775512041291155
  0
ARC
  5
310
330
1F
100
AcDbEntity
  8
0
  6
Continuous
 62
     8
370
    15
100
AcDbCircle
 10
5.631253282828268
 20
6.768522508078812
 30
0.0
 40
0.0073732043285299
100
AcDbArc
 50
135.3856963621641
 51
213.7522982761133
  0
LWPOLYLINE
  5
311
330
1F
100
AcDbEntity
  8
0
  6
Continuous
 62
     8
370
    15
100
AcDbPolyline
 90
        9
 70
   128
 43
0.0
 10
3.191981795773096
 20
8.017011482154593
 10
3.194878060691499
 20
8.018774363868342
 10
3.197108409206047
 20
8.02077165970908
 10
3.198601075521543
 20
8.022939218576809
 10
3.199308051570506
 20
8.025207395599196
 10
3.199206651272446
 20
8.027503252275424
 10
3.198300037715157
 20
8.029753072808352
 10
3.196617612058956
 20
8.03188438858816
 10
3.195236293347671
 20
8.033093808970209
  0
ARC
  5
312
330
1F
100
AcDbEntity
  8
0
  6
Continuous
 62
     8
370
    15
100
AcDbCircle
 10
3.1563797783001
 20
8.026104224122114
 30
0.0
 40
0.0073734012185961
100
AcDbArc
 50
135.3866421894243
 51
213.7504650028661
  0
LWPOLYLINE
  5
313
330
1F
100
AcDbEntity
  8
0
  6
Continuous
 62
     8
370
    15
100
AcDbPolyline
 90
        9
 70
   128
 43
0.0
 10
4.959748701448707
 20
7.11873881354015
 10
4.962645035505639
 20
7.120501660121861
 10
4.964875349450923
 20
7.122498973528618
 10
4.966367981197153
 20
7.124666549962364
 10
4.967074957246116
 20
7.12693472698475
 10
4.966973556948056
 20
7.12923058366098
 10
4.966067047098564
 20
7.131480351495853
 10
4.964384517734566
 20
7.133611719973716
 10
4.963003268161813
 20
7.134821105223728
  0
ARC
  5
314
330
1F
100
AcDbEntity
  8
0
  6
Continuous
 62
     8
370
    15
100
AcDbCircle
 10
4.924146655719593
 20
7.127831529636073
 30
0.0
 40
0.0073733253834917
100
AcDbArc
 50
135.3861618837905
 51
213.750945308487
  0
LWPOLYLINE
  5
315
330
1F
100
AcDbEntity
  8
0
  6
Continuous
 62
     8
370
    15
100
AcDbPolyline
 90
        9
 70
   128
 43
0.0
 10
2.484874936708909
 20
8.376320598785223
 10
2.487771339904373
 20
8.378083410234898
 10
2.490001550141859
 20
8.380080776339712
 10
2.491494216457355
 20
8.382248335207437
 10
2.492201192506318
 20
8.384516512229824
 10
2.492099792208259
 20
8.386812368906054
 10
2.491193316928032
 20
8.389062119174909
 10
2.489510752994769
 20
8.39119350521879
 10
2.488129572560545
 20
8.392402855336765
  0
ARC
  5
316
330
1F
100
AcDbEntity
  8
0
  6
Continuous
 62
     8
370
    15
100
AcDbCircle
 10
2.44927286273101
 20
8.385413289008852
 30
0.0
 40
0.0073732495546135
100
AcDbArc
 50
135.3856816044373
 51
213.7514255878324
  0
LWPOLYLINE
  5
317
330
1F
100
AcDbEntity
  8
0
  6
Continuous
 62
     8
370
    15
100
AcDbPolyline
 90
        9
 70
   128
 43
0.0
 10
2.882622544932514
 20
8.219122860259323
 10
2.885518809850916
 20
8.220885741973072
 10
2.887749158365465
 20
8.22288303781381
 10
2.889241824680961
 20
8.225050596681537
 10
2.889948792087607
 20
8.22731876931242
 10
2.889847400431864
 20
8.229614630380154
 10
2.888940916509321
 20
8.231864376257503
 10
2.887258352576058
 20
8.233995762301384
 10
2.885877172141835
 20
8.235205112419359
  0
ARC
  5
318
330
1F
100
AcDbEntity
  8
0
  6
Continuous
 62
     8
370
    15
100
AcDbCircle
 10
2.847020282765787
 20
8.228215683079797
 30
0.0
 40
0.007373176382207
100
AcDbArc
 50
135.3858969248194
 51
213.7530858603607
  0
LWPOLYLINE
  5
319
330
1F
100
AcDbEntity
  8
0
  6
Continuous
 62
     8
370
    15
100
AcDbPolyline
 90
        9
 70
   128
 43
0.0
 10
2.7058458474511
 20
8.129295589884675
 10
2.708742112369502
 20
8.131058471598423
 10
2.710972452241734
 20
8.133055763047657
 10
2.712465118557229
 20
8.135223321915384
 10
2.713172094606193
 20
8.137491498937773
 10
2.713070702950449
 20
8.139787360005506
 10
2.712164227670222
 20
8.14203711027436
 10
2.710481655094643
 20
8.144168491926738
 10
2.709100474660421
 20
8.145377842044711
  0
ARC
  5
31A
330
1F
100
AcDbEntity
  8
0
  6
Continuous
 62
     8
370
    15
100
AcDbCircle
 10
2.670243618366379
 20
8.138388401908359
 30
0.0
 40
0.0073732075146475
100
AcDbArc
 50
135.3860177507754
 51
213.7528643280819
  0
LWPOLYLINE
  5
31B
330
1F
100
AcDbEntity
  8
0
  6
Continuous
 62
     8
370
    15
100
AcDbPolyline
 90
        9
 70
   128
 43
0.0
 10
4.650389497330648
 20
7.320850167903307
 10
4.653285817613889
 20
7.322613021483978
 10
4.655516135880331
 20
7.324610332694983
 10
4.65700877083367
 20
7.326777907499069
 10
4.657715744755813
 20
7.329046076819169
 10
4.657614342027102
 20
7.331341943513518
 10
4.656707813542615
 20
7.333591712034563
 10
4.655025297142092
 20
7.335723073925169
 10
4.653644056211654
 20
7.336932454783678
  0
ARC
  5
31C
330
1F
100
AcDbEntity
  8
0
  6
Continuous
 62
     8
370
    15
100
AcDbCircle
 10
4.614787387180005
 20
7.329942896244389
 30
0.0
 40
0.0073732854306395
100
AcDbArc
 50
135.386041680364
 51
213.7513326144307
  0
LWPOLYLINE
  5
31D
330
1F
100
AcDbEntity
  8
0
  6
Continuous
 62
     8
370
    15
100
AcDbPolyline
 90
        9
 70
   128
 43
0.0
 10
4.782972003967292
 20
7.028911543165502
 10
4.785868355308857
 20
7.030674398530222
 10
4.788098660611825
 20
7.032671707545475
 10
4.789591292358054
 20
7.034839283979221
 10
4.790298268407018
 20
7.037107461001609
 10
4.790196876751275
 20
7.039403322069341
 10
4.789290332332517
 20
7.041653072338196
 10
4.787607811610835
 20
7.043784445207564
 10
4.786226562038081
 20
7.044993830457576
  0
ARC
  5
31E
330
1F
100
AcDbEntity
  8
0
  6
Continuous
 62
     8
370
    15
100
AcDbCircle
 10
4.747369962521265
 20
7.038004263731874
 30
0.0
 40
0.0073733314284174
100
AcDbArc
 50
135.3863529034233
 51
213.7509557008911
  0
LWPOLYLINE
  5
31F
330
1F
100
AcDbEntity
  8
0
  6
Continuous
 62
     8
370
    15
100
AcDbPolyline
 90
        9
 70
   128
 43
0.0
 10
4.473612799849233
 20
7.23102289752866
 10
4.476509120132474
 20
7.23278575110933
 10
4.4787394297566
 20
7.234783057928832
 10
4.480232064709939
 20
7.236950632732916
 10
4.480939047274398
 20
7.239218806444521
 10
4.480837644545687
 20
7.24151467313887
 10
4.479931124703517
 20
7.243764446051421
 10
4.478248599660677
 20
7.245895803550522
 10
4.47686735873024
 20
7.247105184409029
  0
ARC
  5
320
330
1F
100
AcDbEntity
  8
0
  6
Continuous
 62
     8
370
    15
100
AcDbCircle
 10
4.438010722784206
 20
7.240115615071945
 30
0.0
 40
0.007373316566394
100
AcDbArc
 50
135.3861625180621
 51
213.7511110707573
  0
LWPOLYLINE
  5
321
330
1F
100
AcDbEntity
  8
0
  6
Continuous
 62
     8
370
    15
100
AcDbPolyline
 90
        9
 70
   128
 43
0.0
 10
3.589729334858171
 20
7.85981377876073
 10
3.592625668915104
 20
7.861576625342441
 10
3.594855948291121
 20
7.863573956315218
 10
3.596348614606617
 20
7.865741515182945
 10
3.597055582013264
 20
7.868009687813827
 10
3.596954190357521
 20
7.870305548881561
 10
3.596047637296446
 20
7.872555329890947
 10
3.594365142501714
 20
7.874686680802792
 10
3.592983892928961
 20
7.875896066052804
  0
ARC
  5
322
330
1F
100
AcDbEntity
  8
0
  6
Continuous
 62
     8
370
    15
100
AcDbCircle
 10
3.554127300919336
 20
7.868906490961239
 30
0.0
 40
0.0073733426480135
100
AcDbArc
 50
135.3863475972827
 51
213.7508603009669
  0
LWPOLYLINE
  5
323
330
1F
100
AcDbEntity
  8
0
  6
Continuous
 62
     8
370
    15
100
AcDbPolyline
 90
        9
 70
   128
 43
0.0
 10
4.25264191152305
 20
7.478047895038743
 10
4.255538245579983
 20
7.479810741620453
 10
4.257768559525266
 20
7.48180805502721
 10
4.259261191271496
 20
7.483975631460956
 10
4.25996816732046
 20
7.486243808483344
 10
4.2598667670224
 20
7.488539665159573
 10
4.258960257172907
 20
7.490789432994445
 10
4.25727772780891
 20
7.492920801472308
 10
4.255896512805422
 20
7.494130169156302
  0
ARC
  5
324
330
1F
100
AcDbEntity
  8
0
  6
Continuous
 62
     8
370
    15
100
AcDbCircle
 10
4.217039801668033
 20
7.487140632322877
 30
0.0
 40
0.0073732648541039
100
AcDbArc
 50
135.3859291167977
 51
213.7516217991568
  0
LWPOLYLINE
  5
325
330
1F
100
AcDbEntity
  8
0
  6
Continuous
 62
     8
370
    15
100
AcDbPolyline
 90
        9
 70
   128
 43
0.0
 10
4.075865214041636
 20
7.388220624664094
 10
4.078761565383201
 20
7.389983480028814
 10
4.080991870686168
 20
7.391980789044068
 10
4.082484502432398
 20
7.394148365477813
 10
4.083191478481362
 20
7.3964165425002
 10
4.083090086825619
 20
7.398712403567934
 10
4.08218354240686
 20
7.400962153836788
 10
4.080501021685179
 20
7.403093526706156
 10
4.079119806681691
 20
7.404302894390149
  0
ARC
  5
326
330
1F
100
AcDbEntity
  8
0
  6
Continuous
 62
     8
370
    15
100
AcDbCircle
 10
4.04026310847106
 20
7.397313366418456
 30
0.0
 40
0.0073732709000502
100
AcDbArc
 50
135.3861201443582
 51
213.751632183815
  0
LWPOLYLINE
  5
327
330
1F
100
AcDbEntity
  8
0
  6
Continuous
 62
     8
370
    15
100
AcDbPolyline
 90
        9
 70
   128
 43
0.0
 10
5.180719577621633
 20
6.87171382220562
 10
5.183615911678566
 20
6.873476668787331
 10
5.185846182412267
 20
6.875473995368603
 10
5.187338848727762
 20
6.87764155423633
 10
5.188045824776726
 20
6.879909731258718
 10
5.187944433120982
 20
6.88220559232645
 10
5.187037888702224
 20
6.884455377727341
 10
5.185355385265175
 20
6.886586724247682
 10
5.183974135692422
 20
6.887796109497694
  0
ARC
  5
328
330
1F
100
AcDbEntity
  8
0
  6
Continuous
 62
     8
370
    15
100
AcDbCircle
 10
5.14511757676933
 20
6.880806523608123
 30
0.0
 40
0.0073733737846502
100
AcDbArc
 50
135.3864684365942
 51
213.7506387556843
  0
LWPOLYLINE
  5
329
330
1F
100
AcDbEntity
  8
0
  6
Continuous
 62
     8
370
    15
100
AcDbPolyline
 90
        9
 70
   128
 43
0.0
 10
3.015205098291682
 20
7.927184211779946
 10
3.018101380494717
 20
7.928947102276703
 10
3.020331720366949
 20
7.930944393725937
 10
3.021824386682444
 20
7.933111952593664
 10
3.022531362731407
 20
7.935380129616052
 10
3.022429971075665
 20
7.937675990683786
 10
3.021523322949109
 20
7.939925793650696
 10
3.019840905935225
 20
7.942057113822007
 10
3.018459587223941
 20
7.943266534204058
  0
ARC
  5
32A
330
1F
100
AcDbEntity
  8
0
  6
Continuous
 62
     8
370
    15
100
AcDbCircle
 10
2.9796030851042
 20
7.936276958217856
 30
0.0
 40
0.0073734072654982
100
AcDbArc
 50
135.3868332196144
 51
213.7504753846913
  0
LWPOLYLINE
  5
32B
330
1F
100
AcDbEntity
  8
0
  6
Continuous
 62
     8
370
    15
100
AcDbPolyline
 90
        9
 70
   128
 43
0.0
 10
5.490078759323682
 20
6.669602479232929
 10
5.492975110665249
 20
6.671365334597649
 10
5.495205450537481
 20
6.673362626046883
 10
5.496698047714446
 20
6.675530220046646
 10
5.497405023763408
 20
6.677798397069034
 10
5.497303632107666
 20
6.680094258136768
 10
5.496397122258173
 20
6.682343990839603
 10
5.494714566967226
 20
6.68447538127499
 10
5.493333317394473
 20
6.685684766525002
  0
ARC
  5
32C
330
1F
100
AcDbEntity
  8
0
  6
Continuous
 62
     8
370
    15
100
AcDbCircle
 10
5.45447658963265
 20
6.678695242174171
 30
0.0
 40
0.0073732103754958
100
AcDbArc
 50
135.3858873976671
 51
213.7523086530213
  0
LWPOLYLINE
  5
32D
330
1F
100
AcDbEntity
  8
0
  6
Continuous
 62
     8
370
    15
100
AcDbPolyline
 90
        9
 70
   128
 43
0.0
 10
2.308098239227494
 20
8.286493328410577
 10
2.310994659707591
 20
8.288256148643259
 10
2.313224861302761
 20
8.290253510356567
 10
2.314717527618256
 20
8.292421069224294
 10
2.31542450366722
 20
8.294689246246683
 10
2.315323112011477
 20
8.296985107314416
 10
2.314416602161984
 20
8.29923484001725
 10
2.312734046871038
 20
8.301366230452638
 10
2.311352866436815
 20
8.302575580570612
  0
ARC
  5
32E
330
1F
100
AcDbEntity
  8
0
  6
Continuous
 62
     8
370
    15
100
AcDbCircle
 10
2.272496169530254
 20
8.295586023104709
 30
0.0
 40
0.0073732555975652
100
AcDbArc
 50
135.3858726134975
 51
213.7514359907988
  0
LWPOLYLINE
  5
32F
330
1F
100
AcDbEntity
  8
0
  6
Continuous
 62
     8
370
    15
100
AcDbPolyline
 90
        9
 70
   128
 43
0.0
 10
5.357496275103047
 20
6.961541092580268
 10
5.36039260915998
 20
6.963303939161978
 10
5.362622888535997
 20
6.965301270134755
 10
5.364115554851493
 20
6.967468829002481
 10
5.36482252225814
 20
6.969737001633364
 10
5.364721130602396
 20
6.972032862701099
 10
5.363814577541323
 20
6.974282643710485
 10
5.36213208274659
 20
6.976413994622329
 10
5.360750833173836
 20
6.977623379872341
  0
ARC
  5
330
330
1F
100
AcDbEntity
  8
0
  6
Continuous
 62
     8
370
    15
100
AcDbCircle
 10
5.321894241164205
 20
6.970633804780775
 30
0.0
 40
0.007373342648008
100
AcDbArc
 50
135.3863475972342
 51
213.7508603009861
  0
LWPOLYLINE
  5
331
330
1F
100
AcDbEntity
  8
0
  6
Continuous
 62
     8
370
    15
100
AcDbPolyline
 90
        9
 70
   128
 43
0.0
 10
3.412952637376756
 20
7.769986508386083
 10
3.415848971433689
 20
7.771749354967793
 10
3.418079242167391
 20
7.773746681549066
 10
3.419571908482886
 20
7.775914240416792
 10
3.420278884531849
 20
7.77818241743918
 10
3.420177492876106
 20
7.780478278506913
 10
3.419270948457348
 20
7.782728063907804
 10
3.4175884450203
 20
7.784859410428144
 10
3.416207195447546
 20
7.786068795678157
  0
ARC
  5
332
330
1F
100
AcDbEntity
  8
0
  6
Continuous
 62
     8
370
    15
100
AcDbCircle
 10
3.377350636524451
 20
7.779079209788587
 30
0.0
 40
0.0073733737846468
100
AcDbArc
 50
135.386468436587
 51
213.7506387556958
  0
TEXT
  5
33A
330
1F
100
AcDbEntity
  8
0
100
AcDbText
 10
4.011030282797065
 20
2.473112109790648
 30
0.0
 40
0.25
  1
USP  LSTI
100
AcDbText
  0
TEXT
  5
33B
330
1F
100
AcDbEntity
  8
0
100
AcDbText
 10
3.097900742804078
 20
1.947088667375105
 30
0.0
 40
0.25
  1
SIMPSON  LSTI
100
AcDbText
  0
LINE
  5
33E
330
1F
100
AcDbEntity
  8
0
100
AcDbLine
 10
4.846169686933949
 20
5.795012696610083
 30
0.0
 11
4.433690739332515
 21
5.585415739104189
 31
0.0
  0
LINE
  5
33F
330
1F
100
AcDbEntity
  8
0
100
AcDbLine
 10
4.433690739332515
 20
5.585415739104189
 30
0.0
 11
4.433690739332515
 21
5.370097080974081
 31
0.0
  0
ENDSEC
  0
SECTION
  2
OBJECTS
  0
DICTIONARY
  5
C
330
0
100
AcDbDictionary
281
     1
  3
ACAD_COLOR
350
337
  3
ACAD_GROUP
350
D
  3
ACAD_LAYOUT
350
1A
  3
ACAD_MATERIAL
350
336
  3
ACAD_MLINESTYLE
350
17
  3
ACAD_PLOTSETTINGS
350
19
  3
ACAD_PLOTSTYLENAME
350
E
  0
DICTIONARY
  5
337
102
{ACAD_REACTORS
330
C
102
}
330
C
100
AcDbDictionary
281
     1
  0
DICTIONARY
  5
D
102
{ACAD_REACTORS
330
C
102
}
330
C
100
AcDbDictionary
281
     1
  0
DICTIONARY
  5
1A
102
{ACAD_REACTORS
330
C
102
}
330
C
100
AcDbDictionary
281
     1
  3
Layout1
350
1E
  3
Layout2
350
26
  3
Model
350
22
  0
DICTIONARY
  5
336
102
{ACAD_REACTORS
330
C
102
}
330
C
100
AcDbDictionary
281
     1
  0
DICTIONARY
  5
17
102
{ACAD_REACTORS
330
C
102
}
330
C
100
AcDbDictionary
281
     1
  3
Standard
350
18
  0
DICTIONARY
  5
19
102
{ACAD_REACTORS
330
C
102
}
330
C
100
AcDbDictionary
281
     1
  0
ACDBDICTIONARYWDFLT
  5
E
102
{ACAD_REACTORS
330
C
102
}
330
C
100
AcDbDictionary
281
     1
  3
Normal
350
F
100
AcDbDictionaryWithDefault
340
F
  0
LAYOUT
  5
1E
102
{ACAD_REACTORS
330
1A
102
}
330
1A
100
AcDbPlotSettings
  1

  2
none_device
  4

  6

 40
0.0
 41
0.0
 42
0.0
 43
0.0
 44
0.0
 45
0.0
 46
0.0
 47
0.0
 48
0.0
 49
0.0
140
0.0
141
0.0
142
1.0
143
1.0
 70
   688
 72
     0
 73
     0
 74
     5
  7

 75
    16
147
1.0
 76
     0
 77
     2
 78
   300
148
0.0
149
0.0
100
AcDbLayout
  1
Layout1
 70
     1
 71
     1
 10
0.0
 20
0.0
 11
12.0
 21
9.0
 12
0.0
 22
0.0
 32
0.0
 14
1.000000000000000E+20
 24
1.000000000000000E+20
 34
1.000000000000000E+20
 15
-1.000000000000000E+20
 25
-1.000000000000000E+20
 35
-1.000000000000000E+20
146
0.0
 13
0.0
 23
0.0
 33
0.0
 16
1.0
 26
0.0
 36
0.0
 17
0.0
 27
1.0
 37
0.0
 76
     0
330
1B
  0
LAYOUT
  5
26
102
{ACAD_REACTORS
330
1A
102
}
330
1A
100
AcDbPlotSettings
  1

  2
none_device
  4

  6

 40
0.0
 41
0.0
 42
0.0
 43
0.0
 44
0.0
 45
0.0
 46
0.0
 47
0.0
 48
0.0
 49
0.0
140
0.0
141
0.0
142
1.0
143
1.0
 70
   688
 72
     0
 73
     0
 74
     5
  7

 75
    16
147
1.0
 76
     0
 77
     2
 78
   300
148
0.0
149
0.0
100
AcDbLayout
  1
Layout2
 70
     1
 71
     2
 10
0.0
 20
0.0
 11
0.0
 21
0.0
 12
0.0
 22
0.0
 32
0.0
 14
0.0
 24
0.0
 34
0.0
 15
0.0
 25
0.0
 35
0.0
146
0.0
 13
0.0
 23
0.0
 33
0.0
 16
1.0
 26
0.0
 36
0.0
 17
0.0
 27
1.0
 37
0.0
 76
     0
330
23
  0
LAYOUT
  5
22
102
{ACAD_REACTORS
330
1A
102
}
330
1A
100
AcDbPlotSettings
  1

  2
none_device
  4

  6

 40
0.0
 41
0.0
 42
0.0
 43
0.0
 44
0.0
 45
0.0
 46
0.0
 47
0.0
 48
0.0
 49
0.0
140
0.0
141
0.0
142
1.0
143
1.0
 70
  1712
 72
     0
 73
     0
 74
     0
  7

 75
     0
147
1.0
 76
     0
 77
     2
 78
   300
148
0.0
149
0.0
100
AcDbLayout
  1
Model
 70
     1
 71
     0
 10
0.0
 20
0.0
 11
8.5
 21
11.0
 12
0.0
 22
0.0
 32
0.0
 14
0.0
 24
0.0
 34
0.0
 15
8.5
 25
11.0
 35
0.0
146
0.0
 13
0.0
 23
0.0
 33
0.0
 16
1.0
 26
0.0
 36
0.0
 17
0.0
 27
1.0
 37
0.0
 76
     0
330
1F
  0
MLINESTYLE
  5
18
102
{ACAD_REACTORS
330
17
102
}
330
17
100
AcDbMlineStyle
  2
STANDARD
 70
     0
  3

 62
   256
 51
90.0
 52
90.0
 71
     2
 49
0.5
 62
   256
  6
BYLAYER
 49
-0.5
 62
   256
  6
BYLAYER
  0
ACDBPLACEHOLDER
  5
F
102
{ACAD_REACTORS
330
E
102
}
330
E
  0
ENDSEC
  0
EOF
