  0
SECTION
  2
HEADER
  9
$ACADVER
  1
AC1018
  9
$ACADMAINTVER
 70
     0
  9
$DWGCODEPAGE
  3
ANSI_1252
  9
$INSBASE
 10
0.0
 20
0.0
 30
0.0
  9
$EXTMIN
 10
1.529178965083899
 20
2.264107086243196
 30
0.0
  9
$EXTMAX
 10
6.596777571483115
 20
10.06646032058919
 30
0.0
  9
$LIMMIN
 10
0.0
 20
0.0
  9
$LIMMAX
 10
8.5
 20
11.0
  9
$ORTHOMODE
 70
     0
  9
$REGENMODE
 70
     1
  9
$FILLMODE
 70
     1
  9
$QTEXTMODE
 70
     0
  9
$MIRRTEXT
 70
     1
  9
$LTSCALE
 40
1.0
  9
$ATTMODE
 70
     1
  9
$TEXTSIZE
 40
0.25
  9
$TRACEWID
 40
0.05
  9
$TEXTSTYLE
  7
Standard
  9
$CLAYER
  8
0
  9
$CELTYPE
  6
ByLayer
  9
$CECOLOR
 62
   256
  9
$CELTSCALE
 40
1.0
  9
$DISPSILH
 70
     0
  9
$DIMSCALE
 40
1.0
  9
$DIMASZ
 40
0.156
  9
$DIMEXO
 40
0.05
  9
$DIMDLI
 40
0.38
  9
$DIMRND
 40
0.0
  9
$DIMDLE
 40
0.0
  9
$DIMEXE
 40
0.125
  9
$DIMTP
 40
0.0
  9
$DIMTM
 40
0.0
  9
$DIMTXT
 40
0.125
  9
$DIMCEN
 40
0.09
  9
$DIMTSZ
 40
0.0
  9
$DIMTOL
 70
     0
  9
$DIMLIM
 70
     0
  9
$DIMTIH
 70
     1
  9
$DIMTOH
 70
     1
  9
$DIMSE1
 70
     0
  9
$DIMSE2
 70
     0
  9
$DIMTAD
 70
     0
  9
$DIMZIN
 70
     0
  9
$DIMBLK
  1

  9
$DIMASO
 70
     1
  9
$DIMSHO
 70
     1
  9
$DIMPOST
  1

  9
$DIMAPOST
  1

  9
$DIMALT
 70
     0
  9
$DIMALTD
 70
     2
  9
$DIMALTF
 40
25.4
  9
$DIMLFAC
 40
8.0
  9
$DIMTOFL
 70
     0
  9
$DIMTVP
 40
0.0
  9
$DIMTIX
 70
     0
  9
$DIMSOXD
 70
     0
  9
$DIMSAH
 70
     0
  9
$DIMBLK1
  1

  9
$DIMBLK2
  1

  9
$DIMSTYLE
  2
Standard
  9
$DIMCLRD
 70
     0
  9
$DIMCLRE
 70
     0
  9
$DIMCLRT
 70
     0
  9
$DIMTFAC
 40
1.0
  9
$DIMGAP
 40
0.06
  9
$DIMJUST
 70
     0
  9
$DIMSD1
 70
     0
  9
$DIMSD2
 70
     0
  9
$DIMTOLJ
 70
     1
  9
$DIMTZIN
 70
     0
  9
$DIMALTZ
 70
     0
  9
$DIMALTTZ
 70
     0
  9
$DIMUPT
 70
     0
  9
$DIMDEC
 70
     3
  9
$DIMTDEC
 70
     3
  9
$DIMALTU
 70
     2
  9
$DIMALTTD
 70
     2
  9
$DIMTXSTY
  7
Standard
  9
$DIMAUNIT
 70
     0
  9
$DIMADEC
 70
     0
  9
$DIMALTRND
 40
0.0
  9
$DIMAZIN
 70
     0
  9
$DIMDSEP
 70
    46
  9
$DIMATFIT
 70
     3
  9
$DIMFRAC
 70
     0
  9
$DIMLDRBLK
  1

  9
$DIMLUNIT
 70
     2
  9
$DIMLWD
 70
    -2
  9
$DIMLWE
 70
    -2
  9
$DIMTMOVE
 70
     0
  9
$LUNITS
 70
     2
  9
$LUPREC
 70
     3
  9
$SKETCHINC
 40
0.1
  9
$FILLETRAD
 40
0.5
  9
$AUNITS
 70
     0
  9
$AUPREC
 70
     0
  9
$MENU
  1
.
  9
$ELEVATION
 40
0.0
  9
$PELEVATION
 40
0.0
  9
$THICKNESS
 40
0.0
  9
$LIMCHECK
 70
     0
  9
$CHAMFERA
 40
0.5
  9
$CHAMFERB
 40
0.5
  9
$CHAMFERC
 40
1.0
  9
$CHAMFERD
 40
0.0
  9
$SKPOLY
 70
     0
  9
$TDCREATE
 40
2456528.581989815
  9
$TDUCREATE
 40
2456528.790323148
  9
$TDUPDATE
 40
2456528.582676262
  9
$TDUUPDATE
 40
2456528.791009595
  9
$TDINDWG
 40
0.0005552315
  9
$TDUSRTIMER
 40
0.0005552315
  9
$USRTIMER
 70
     1
  9
$ANGBASE
 50
0.0
  9
$ANGDIR
 70
     0
  9
$PDMODE
 70
     0
  9
$PDSIZE
 40
-1.0
  9
$PLINEWID
 40
0.0
  9
$SPLFRAME
 70
     0
  9
$SPLINETYPE
 70
     6
  9
$SPLINESEGS
 70
     8
  9
$HANDSEED
  5
FC
  9
$SURFTAB1
 70
     6
  9
$SURFTAB2
 70
     6
  9
$SURFTYPE
 70
     6
  9
$SURFU
 70
     6
  9
$SURFV
 70
     6
  9
$UCSBASE
  2

  9
$UCSNAME
  2

  9
$UCSORG
 10
0.0
 20
0.0
 30
0.0
  9
$UCSXDIR
 10
1.0
 20
0.0
 30
0.0
  9
$UCSYDIR
 10
0.0
 20
1.0
 30
0.0
  9
$UCSORTHOREF
  2

  9
$UCSORTHOVIEW
 70
     0
  9
$UCSORGTOP
 10
0.0
 20
0.0
 30
0.0
  9
$UCSORGBOTTOM
 10
0.0
 20
0.0
 30
0.0
  9
$UCSORGLEFT
 10
0.0
 20
0.0
 30
0.0
  9
$UCSORGRIGHT
 10
0.0
 20
0.0
 30
0.0
  9
$UCSORGFRONT
 10
0.0
 20
0.0
 30
0.0
  9
$UCSORGBACK
 10
0.0
 20
0.0
 30
0.0
  9
$PUCSBASE
  2

  9
$PUCSNAME
  2

  9
$PUCSORG
 10
0.0
 20
0.0
 30
0.0
  9
$PUCSXDIR
 10
1.0
 20
0.0
 30
0.0
  9
$PUCSYDIR
 10
0.0
 20
1.0
 30
0.0
  9
$PUCSORTHOREF
  2

  9
$PUCSORTHOVIEW
 70
     0
  9
$PUCSORGTOP
 10
0.0
 20
0.0
 30
0.0
  9
$PUCSORGBOTTOM
 10
0.0
 20
0.0
 30
0.0
  9
$PUCSORGLEFT
 10
0.0
 20
0.0
 30
0.0
  9
$PUCSORGRIGHT
 10
0.0
 20
0.0
 30
0.0
  9
$PUCSORGFRONT
 10
0.0
 20
0.0
 30
0.0
  9
$PUCSORGBACK
 10
0.0
 20
0.0
 30
0.0
  9
$USERI1
 70
     0
  9
$USERI2
 70
     0
  9
$USERI3
 70
     0
  9
$USERI4
 70
     0
  9
$USERI5
 70
     0
  9
$USERR1
 40
0.0
  9
$USERR2
 40
0.0
  9
$USERR3
 40
0.0
  9
$USERR4
 40
0.0
  9
$USERR5
 40
0.0
  9
$WORLDVIEW
 70
     1
  9
$SHADEDGE
 70
     3
  9
$SHADEDIF
 70
    70
  9
$TILEMODE
 70
     1
  9
$MAXACTVP
 70
    64
  9
$PINSBASE
 10
0.0
 20
0.0
 30
0.0
  9
$PLIMCHECK
 70
     0
  9
$PEXTMIN
 10
1.000000000000000E+20
 20
1.000000000000000E+20
 30
1.000000000000000E+20
  9
$PEXTMAX
 10
-1.000000000000000E+20
 20
-1.000000000000000E+20
 30
-1.000000000000000E+20
  9
$PLIMMIN
 10
0.0
 20
0.0
  9
$PLIMMAX
 10
12.0
 20
9.0
  9
$UNITMODE
 70
     0
  9
$VISRETAIN
 70
     1
  9
$PLINEGEN
 70
     0
  9
$PSLTSCALE
 70
     1
  9
$TREEDEPTH
 70
  3020
  9
$CMLSTYLE
  2
Standard
  9
$CMLJUST
 70
     0
  9
$CMLSCALE
 40
1.0
  9
$PROXYGRAPHICS
 70
     1
  9
$MEASUREMENT
 70
     0
  9
$CELWEIGHT
370
    -1
  9
$ENDCAPS
280
     0
  9
$JOINSTYLE
280
     0
  9
$LWDISPLAY
290
     1
  9
$INSUNITS
 70
     1
  9
$HYPERLINKBASE
  1

  9
$STYLESHEET
  1

  9
$XEDIT
290
     1
  9
$CEPSNTYPE
380
     0
  9
$PSTYLEMODE
290
     1
  9
$FINGERPRINTGUID
  2
{C82DE085-08C1-4CE8-85F4-0778B15BA56B}
  9
$VERSIONGUID
  2
{6147D81B-605D-4AD2-9834-01EF925890BE}
  9
$EXTNAMES
290
     1
  9
$PSVPSCALE
 40
0.0
  9
$OLESTARTUP
290
     0
  9
$SORTENTS
280
   127
  9
$INDEXCTL
280
     0
  9
$HIDETEXT
280
     0
  9
$XCLIPFRAME
290
     0
  9
$HALOGAP
280
     0
  9
$OBSCOLOR
 70
   257
  9
$OBSLTYPE
280
     0
  9
$INTERSECTIONDISPLAY
280
     0
  9
$INTERSECTIONCOLOR
 70
   257
  9
$DIMASSOC
280
     1
  9
$PROJECTNAME
  1

  0
ENDSEC
  0
SECTION
  2
CLASSES
  0
CLASS
  1
ACDBDICTIONARYWDFLT
  2
AcDbDictionaryWithDefault
  3
ObjectDBX Classes
 90
        0
 91
        1
280
     0
281
     0
  0
CLASS
  1
VISUALSTYLE
  2
AcDbVisualStyle
  3
ObjectDBX Classes
 90
     4095
 91
        0
280
     0
281
     0
  0
CLASS
  1
MATERIAL
  2
AcDbMaterial
  3
ObjectDBX Classes
 90
        0
 91
        0
280
     0
281
     0
  0
ENDSEC
  0
SECTION
  2
TABLES
  0
TABLE
  2
VPORT
  5
8
330
0
100
AcDbSymbolTable
 70
     3
  0
VPORT
  5
FB
330
8
100
AcDbSymbolTableRecord
100
AcDbViewportTableRecord
  2
*Active
 70
     0
 10
0.0
 20
0.0
 11
1.0
 21
1.0
 12
7.30094028464172
 22
6.337437517091109
 13
0.0
 23
0.0
 14
0.5
 24
0.5
 15
0.5
 25
0.5
 16
0.0
 26
0.0
 36
1.0
 17
0.0
 27
0.0
 37
0.0
 40
13.87321283470212
 41
2.144329896907216
 42
50.0
 43
0.0
 44
0.0
 50
0.0
 51
0.0
 71
     0
 72
  2000
 73
     1
 74
     3
 75
     0
 76
     0
 77
     0
 78
     0
281
     0
 65
     1
110
0.0
120
0.0
130
0.0
111
1.0
121
0.0
131
0.0
112
0.0
122
1.0
132
0.0
 79
     0
146
0.0
  0
ENDTAB
  0
TABLE
  2
LTYPE
  5
5
330
0
100
AcDbSymbolTable
 70
     6
  0
LTYPE
  5
14
330
5
100
AcDbSymbolTableRecord
100
AcDbLinetypeTableRecord
  2
ByBlock
 70
     0
  3

 72
    65
 73
     0
 40
0.0
  0
LTYPE
  5
15
330
5
100
AcDbSymbolTableRecord
100
AcDbLinetypeTableRecord
  2
ByLayer
 70
     0
  3

 72
    65
 73
     0
 40
0.0
  0
LTYPE
  5
16
330
5
100
AcDbSymbolTableRecord
100
AcDbLinetypeTableRecord
  2
Continuous
 70
     0
  3
Solid line
 72
    65
 73
     0
 40
0.0
  0
LTYPE
  5
3F
330
5
100
AcDbSymbolTableRecord
100
AcDbLinetypeTableRecord
  2
HIDDEN
 70
     0
  3
Hidden __ __ __ __ __ __ __ __ __ __ __ __ __ __
 72
    65
 73
     2
 40
0.075
 49
0.05
 74
     0
 49
-0.025
 74
     0
  0
LTYPE
  5
40
330
5
100
AcDbSymbolTableRecord
100
AcDbLinetypeTableRecord
  2
PHANTOM
 70
     0
  3
Phantom ______  __  __  ______  __  __  ______
 72
    65
 73
     6
 40
0.5
 49
0.25
 74
     0
 49
-0.05
 74
     0
 49
0.05
 74
     0
 49
-0.05
 74
     0
 49
0.05
 74
     0
 49
-0.05
 74
     0
  0
LTYPE
  5
41
330
5
100
AcDbSymbolTableRecord
100
AcDbLinetypeTableRecord
  2
CENTER
 70
     0
  3
Center ____ _ ____ _ ____ _ ____ _ ____ _ ____
 72
    65
 73
     4
 40
0.4
 49
0.25
 74
     0
 49
-0.05
 74
     0
 49
0.05
 74
     0
 49
-0.05
 74
     0
  0
LTYPE
  5
42
330
5
100
AcDbSymbolTableRecord
100
AcDbLinetypeTableRecord
  2
CENTERX2
 70
     0
  3
Center (2x) ________  __  ________  __  _____
 72
    65
 73
     4
 40
0.8
 49
0.5
 74
     0
 49
-0.1
 74
     0
 49
0.1
 74
     0
 49
-0.1
 74
     0
  0
LTYPE
  5
43
330
5
100
AcDbSymbolTableRecord
100
AcDbLinetypeTableRecord
  2
DOT2
 70
     0
  3
Dot (.5x) ........................................
 72
    65
 73
     2
 40
0.025
 49
0.0
 74
     0
 49
-0.025
 74
     0
  0
ENDTAB
  0
TABLE
  2
LAYER
  5
2
330
0
100
AcDbSymbolTable
 70
     7
  0
LAYER
  5
10
330
2
100
AcDbSymbolTableRecord
100
AcDbLayerTableRecord
  2
0
 70
     0
 62
     7
  6
Continuous
370
    -3
390
F
  0
LAYER
  5
44
330
2
100
AcDbSymbolTableRecord
100
AcDbLayerTableRecord
  2
SLD-0
 70
     0
 62
   179
  6
Continuous
370
    -3
390
F
  0
LAYER
  5
45
330
2
100
AcDbSymbolTableRecord
100
AcDbLayerTableRecord
  2
SLD-DEFPOINTS
 70
     0
 62
   179
  6
Continuous
370
    -3
390
F
  0
LAYER
  5
46
330
2
100
AcDbSymbolTableRecord
100
AcDbLayerTableRecord
  2
OBJ
 70
     0
 62
   179
  6
Continuous
370
    -3
390
F
  0
LAYER
  5
47
330
2
100
AcDbSymbolTableRecord
100
AcDbLayerTableRecord
  2
FORMAT
 70
     0
 62
     7
  6
Continuous
370
    -3
390
F
  0
LAYER
  5
48
330
2
100
AcDbSymbolTableRecord
100
AcDbLayerTableRecord
  2
TOLERANCES
 70
     0
 62
     7
  6
Continuous
370
    -3
390
F
  0
LAYER
  5
49
330
2
100
AcDbSymbolTableRecord
100
AcDbLayerTableRecord
  2
QTY-BLANK-SIZE-1
 70
     0
 62
     7
  6
Continuous
370
    -3
390
F
  0
ENDTAB
  0
TABLE
  2
STYLE
  5
3
330
0
100
AcDbSymbolTable
 70
     2
  0
STYLE
  5
11
330
3
100
AcDbSymbolTableRecord
100
AcDbTextStyleTableRecord
  2
Standard
 70
     0
 40
0.0
 41
1.0
 50
0.0
 71
     0
 42
0.25
  3
txt
  4

  0
STYLE
  5
F1
330
3
100
AcDbSymbolTableRecord
100
AcDbTextStyleTableRecord
  2
SLDTEXTSTYLE0
 70
     0
 40
0.0
 41
0.7
 50
0.0
 71
     0
 42
0.2
  3
TXT
  4

  0
ENDTAB
  0
TABLE
  2
VIEW
  5
6
330
0
100
AcDbSymbolTable
 70
     0
  0
ENDTAB
  0
TABLE
  2
UCS
  5
7
330
0
100
AcDbSymbolTable
 70
     0
  0
ENDTAB
  0
TABLE
  2
APPID
  5
9
330
0
100
AcDbSymbolTable
 70
     1
  0
APPID
  5
12
330
9
100
AcDbSymbolTableRecord
100
AcDbRegAppTableRecord
  2
ACAD
 70
     0
  0
ENDTAB
  0
TABLE
  2
DIMSTYLE
  5
A
330
0
100
AcDbSymbolTable
 70
     1
100
AcDbDimStyleTable
 71
     0
  0
DIMSTYLE
105
27
330
A
100
AcDbSymbolTableRecord
100
AcDbDimStyleTableRecord
  2
Standard
 70
     0
340
11
  0
ENDTAB
  0
TABLE
  2
BLOCK_RECORD
  5
1
330
0
100
AcDbSymbolTable
 70
     1
  0
BLOCK_RECORD
  5
1F
330
1
100
AcDbSymbolTableRecord
100
AcDbBlockTableRecord
  2
*Model_Space
340
22
  0
BLOCK_RECORD
  5
1B
330
1
100
AcDbSymbolTableRecord
100
AcDbBlockTableRecord
  2
*Paper_Space
340
1E
  0
BLOCK_RECORD
  5
23
330
1
100
AcDbSymbolTableRecord
100
AcDbBlockTableRecord
  2
*Paper_Space0
340
26
  0
ENDTAB
  0
ENDSEC
  0
SECTION
  2
BLOCKS
  0
BLOCK
  5
20
330
1F
100
AcDbEntity
  8
0
100
AcDbBlockBegin
  2
*Model_Space
 70
     0
 10
0.0
 20
0.0
 30
0.0
  3
*Model_Space
  1

  0
ENDBLK
  5
21
330
1F
100
AcDbEntity
  8
0
100
AcDbBlockEnd
  0
BLOCK
  5
1C
330
1B
100
AcDbEntity
 67
     1
  8
0
100
AcDbBlockBegin
  2
*Paper_Space
 70
     0
 10
0.0
 20
0.0
 30
0.0
  3
*Paper_Space
  1

  0
ENDBLK
  5
1D
330
1B
100
AcDbEntity
 67
     1
  8
0
100
AcDbBlockEnd
  0
BLOCK
  5
24
330
23
100
AcDbEntity
  8
0
100
AcDbBlockBegin
  2
*Paper_Space0
 70
     0
 10
0.0
 20
0.0
 30
0.0
  3
*Paper_Space0
  1

  0
ENDBLK
  5
25
330
23
100
AcDbEntity
  8
0
100
AcDbBlockEnd
  0
ENDSEC
  0
SECTION
  2
ENTITIES
  0
SPLINE
  5
4A
330
1F
100
AcDbEntity
  8
0
  6
Continuous
 62
     7
370
    15
100
AcDbSpline
210
0.0
220
0.0
230
1.0
 70
     8
 71
     3
 72
    10
 73
     6
 74
     0
 42
0.0000000001
 43
0.0000000001
 40
0.0
 40
0.0
 40
0.0
 40
0.0
 40
0.0700998424619521
 40
0.5307892378672809
 40
1.0
 40
1.0
 40
1.0
 40
1.0
 10
6.020249864491622
 20
5.699724828819228
 30
0.0
 10
6.018840368702739
 20
5.698255058069218
 30
0.0
 10
6.008167802698549
 20
5.687126095879881
 30
0.0
 10
5.985925973611313
 20
5.666711064882222
 30
0.0
 10
5.962578800129937
 20
5.649226671061147
 30
0.0
 10
5.950798239632082
 20
5.640404362898586
 30
0.0
  0
LINE
  5
4B
330
1F
100
AcDbEntity
  8
0
  6
Continuous
 62
     7
370
    15
100
AcDbLine
 10
5.950798239632082
 20
5.640404362898586
 30
0.0
 11
5.872935947043005
 21
5.661264531606859
 31
0.0
  0
LINE
  5
4C
330
1F
100
AcDbEntity
  8
0
  6
Continuous
 62
     7
370
    15
100
AcDbLine
 10
5.990787067174193
 20
5.7855455527986
 30
0.0
 11
5.872935947043005
 21
5.661264531606859
 31
0.0
  0
LINE
  5
4D
330
1F
100
AcDbEntity
  8
0
  6
Continuous
 62
     7
370
    15
100
AcDbLine
 10
6.068649359763271
 20
5.764685384090327
 30
0.0
 11
5.990787067174193
 21
5.7855455527986
 31
0.0
  0
SPLINE
  5
4E
330
1F
100
AcDbEntity
  8
0
  6
Continuous
 62
     7
370
    15
100
AcDbSpline
210
0.0
220
0.0
230
1.0
 70
     8
 71
     3
 72
     9
 73
     5
 74
     0
 42
0.0000000001
 43
0.0000000001
 40
0.0
 40
0.0
 40
0.0
 40
0.0
 40
0.4954581618679684
 40
0.9999999999999998
 40
0.9999999999999998
 40
0.9999999999999998
 40
0.9999999999999998
 10
6.068649359763271
 20
5.764685384090327
 30
0.0
 10
6.062021599836318
 20
5.753805296346109
 30
0.0
 10
6.048644567349932
 20
5.731845646507666
 30
0.0
 10
6.029771909814823
 20
5.710496411229292
 30
0.0
 10
6.020249864491622
 20
5.699724828819228
 30
0.0
  0
LWPOLYLINE
  5
4F
330
1F
100
AcDbEntity
  8
0
  6
Continuous
 62
     7
370
    15
100
AcDbPolyline
 90
        9
 70
   128
 43
0.0
 10
6.020249864491622
 20
5.421602597311214
 10
6.034075738524911
 20
5.416016848641381
 10
6.048673302272201
 20
5.413176148454963
 10
6.063792758220909
 20
5.413129135898043
 10
6.079175424557217
 20
5.415876570207681
 10
6.094558090893523
 20
5.421371508535385
 10
6.109677546842231
 20
5.429519859786039
 10
6.124275110589522
 20
5.440182257288905
 10
6.13810098462281
 20
5.453176214869201
  0
LWPOLYLINE
  5
50
330
1F
100
AcDbEntity
  8
0
  6
Continuous
 62
     7
370
    15
100
AcDbPolyline
 90
        9
 70
   128
 43
0.0
 10
5.961324304426029
 20
5.544876904286228
 10
5.962332551623918
 20
5.524187921812563
 10
5.965340008584837
 20
5.504393166075804
 10
5.97029516710317
 20
5.485831307105304
 10
5.977113332478417
 20
5.468819995356711
 10
5.985677868008743
 20
5.453650272156488
 10
5.995842061731321
 20
5.440581664965842
 10
6.007432203086958
 20
5.429837842302464
 10
6.020249864491622
 20
5.421602597311214
  0
ARC
  5
51
330
1F
100
AcDbEntity
  8
0
  6
Continuous
 62
     7
370
    15
100
AcDbCircle
 10
6.191787717710681
 20
5.545812434927799
 30
0.0
 40
0.2304653120979244
100
AcDbArc
 50
138.0999480391599
 51
180.232582092678
  0
LWPOLYLINE
  5
52
330
1F
100
AcDbEntity
  8
0
  6
Continuous
 62
     7
370
    15
100
AcDbPolyline
 90
        9
 70
   128
 43
0.0
 10
6.13810098462281
 20
5.731298446377214
 10
6.124275110589522
 20
5.736884206822334
 10
6.109677546842231
 20
5.739724895233465
 10
6.094558090893523
 20
5.739771919565672
 10
6.079175424557217
 20
5.737024467593105
 10
6.063792758220909
 20
5.73152954692833
 10
6.048673302272201
 20
5.72338118390239
 10
6.034075738524911
 20
5.71271879817481
 10
6.020249864491622
 20
5.699724828819228
  0
LWPOLYLINE
  5
53
330
1F
100
AcDbEntity
  8
0
  6
Continuous
 62
     7
370
    15
100
AcDbPolyline
 90
        9
 70
   128
 43
0.0
 10
6.197026544688404
 20
5.608024139402201
 10
6.19601833205978
 20
5.628713137024996
 10
6.193010875098861
 20
5.648507892761757
 10
6.188055682011262
 20
5.667069734375258
 10
6.18123748206675
 20
5.684081047165738
 10
6.172673015674956
 20
5.69925078373725
 10
6.162508752813847
 20
5.712319366517277
 10
6.150918646027474
 20
5.723063195498323
 10
6.13810098462281
 20
5.731298446377214
  0
ARC
  5
54
330
1F
100
AcDbEntity
  8
0
  6
Continuous
 62
     7
370
    15
100
AcDbCircle
 10
5.966563040969599
 20
5.607088643174286
 30
0.0
 40
0.2304654023916388
100
AcDbArc
 50
318.0999566858998
 51
0.232573445937693
  0
SPLINE
  5
55
330
1F
100
AcDbEntity
  8
0
  6
Continuous
 62
     7
370
    15
100
AcDbSpline
210
0.0
220
0.0
230
1.0
 70
     8
 71
     3
 72
    10
 73
     6
 74
     0
 42
0.0000000001
 43
0.0000000001
 40
0.0
 40
0.0
 40
0.0
 40
0.0
 40
0.3762052455554407
 40
0.7558653215172379
 40
0.9999999999999998
 40
0.9999999999999998
 40
0.9999999999999998
 40
0.9999999999999998
 10
5.950798239632082
 20
5.640404362898586
 30
0.0
 10
5.95301637129384
 20
5.628400650752384
 30
0.0
 10
5.957473004531919
 20
5.604282991979731
 30
0.0
 10
5.960817303000742
 20
5.572235489364032
 30
0.0
 10
5.961181693027847
 20
5.55257243703154
 30
0.0
 10
5.961324304426029
 20
5.544876904286228
 30
0.0
  0
SPLINE
  5
56
330
1F
100
AcDbEntity
  8
0
  6
Continuous
 62
     7
370
    15
100
AcDbSpline
210
0.0
220
0.0
230
1.0
 70
     8
 71
     3
 72
    10
 73
     6
 74
     0
 42
0.0000000001
 43
0.0000000001
 40
0.0
 40
0.0
 40
0.0
 40
0.0
 40
0.3838999043528091
 40
0.7733994480530716
 40
1.0
 40
1.0
 40
1.0
 40
1.0
 10
5.961324304426029
 20
5.544876904286228
 30
0.0
 10
5.960981375466224
 20
5.532924142186025
 30
0.0
 10
5.960290515517506
 20
5.508844272651828
 30
0.0
 10
5.955910411817082
 20
5.479109101485889
 30
0.0
 10
5.952172892709751
 20
5.461475247766174
 30
0.0
 10
5.950798239632082
 20
5.454989546799612
 30
0.0
  0
LINE
  5
57
330
1F
100
AcDbEntity
  8
0
  6
Continuous
 62
     7
370
    15
100
AcDbLine
 10
5.950798239632082
 20
5.454989546799612
 30
0.0
 11
5.872935947043005
 21
5.475849715507886
 31
0.0
  0
LINE
  5
58
330
1F
100
AcDbEntity
  8
0
  6
Continuous
 62
     7
370
    15
100
AcDbLine
 10
5.872935947043005
 20
5.661264531606859
 30
0.0
 11
5.872935947043005
 21
5.475849715507886
 31
0.0
  0
SPLINE
  5
59
330
1F
100
AcDbEntity
  8
0
  6
Continuous
 62
     7
370
    15
100
AcDbSpline
210
0.0
220
0.0
230
1.0
 70
     8
 71
     3
 72
     9
 73
     5
 74
     0
 42
0.0000000001
 43
0.0000000001
 40
0.0
 40
0.0
 40
0.0
 40
0.0
 40
0.4954577651981468
 40
1.0
 40
1.0
 40
1.0
 40
1.0
 10
5.950798239632082
 20
5.454989546799612
 30
0.0
 10
5.963310017535955
 20
5.449237144765359
 30
0.0
 10
5.988562983142154
 20
5.437626867485819
 30
0.0
 10
6.009623795272589
 20
5.42697627237194
 30
0.0
 10
6.020249864491622
 20
5.421602597311214
 30
0.0
  0
SPLINE
  5
5A
330
1F
100
AcDbEntity
  8
0
  6
Continuous
 62
     7
370
    15
100
AcDbSpline
210
0.0
220
0.0
230
1.0
 70
     8
 71
     3
 72
    10
 73
     6
 74
     0
 42
0.0000000001
 43
0.0000000001
 40
0.0
 40
0.0
 40
0.0
 40
0.0
 40
0.0700998137878428
 40
0.5307896579419947
 40
0.9999999999999998
 40
0.9999999999999998
 40
0.9999999999999998
 40
0.9999999999999998
 10
6.13810098462281
 20
5.731298446377214
 30
0.0
 10
6.136691488804097
 20
5.732026453164242
 30
0.0
 10
6.126018909762016
 20
5.737538856872408
 30
0.0
 10
6.103777078255083
 20
5.748499841879918
 30
0.0
 10
6.080429907815924
 20
5.759257347031432
 30
0.0
 10
6.068649359763271
 20
5.764685384090327
 30
0.0
  0
SPLINE
  5
5B
330
1F
100
AcDbEntity
  8
0
  6
Continuous
 62
     7
370
    15
100
AcDbSpline
210
0.0
220
0.0
230
1.0
 70
     8
 71
     3
 72
    10
 73
     6
 74
     0
 42
0.0000000001
 43
0.0000000001
 40
0.0
 40
0.0
 40
0.0
 40
0.0
 40
0.070099813741445
 40
0.5307896887341111
 40
1.0
 40
1.0
 40
1.0
 40
1.0
 10
6.020249864491622
 20
5.421602597311214
 30
0.0
 10
6.02163420826983
 20
5.420881329064182
 30
0.0
 10
6.032116338876423
 20
5.415419948670963
 30
0.0
 10
6.049760305178092
 20
5.405690773156218
 30
0.0
 10
6.062314664114063
 20
5.397824787573114
 30
0.0
 10
6.068649359763271
 20
5.393855757780023
 30
0.0
  0
LINE
  5
5C
330
1F
100
AcDbEntity
  8
0
  6
Continuous
 62
     7
370
    15
100
AcDbLine
 10
6.068649359763271
 20
5.393855757780023
 30
0.0
 11
5.990787067174193
 21
5.414715926488297
 31
0.0
  0
LINE
  5
5D
330
1F
100
AcDbEntity
  8
0
  6
Continuous
 62
     7
370
    15
100
AcDbLine
 10
5.872935947043005
 20
5.475849715507886
 30
0.0
 11
5.990787067174193
 21
5.414715926488297
 31
0.0
  0
SPLINE
  5
5E
330
1F
100
AcDbEntity
  8
0
  6
Continuous
 62
     7
370
    15
100
AcDbSpline
210
0.0
220
0.0
230
1.0
 70
     8
 71
     3
 72
     9
 73
     5
 74
     0
 42
0.0000000001
 43
0.0000000001
 40
0.0
 40
0.0
 40
0.0
 40
0.0
 40
0.4954581618679684
 40
0.9999999999999998
 40
0.9999999999999998
 40
0.9999999999999998
 40
0.9999999999999998
 10
6.068649359763271
 20
5.393855757780023
 30
0.0
 10
6.081161150883471
 20
5.403159448538044
 30
0.0
 10
6.106414122946802
 20
5.421937402912523
 30
0.0
 10
6.127474927553837
 20
5.442700409407219
 30
0.0
 10
6.13810098462281
 20
5.453176214869201
 30
0.0
  0
SPLINE
  5
5F
330
1F
100
AcDbEntity
  8
0
  6
Continuous
 62
     7
370
    15
100
AcDbSpline
210
0.0
220
0.0
230
1.0
 70
     8
 71
     3
 72
    10
 73
     6
 74
     0
 42
0.0000000001
 43
0.0000000001
 40
0.0
 40
0.0
 40
0.0
 40
0.0
 40
0.2441342743897348
 40
0.6200133488267001
 40
1.0
 40
1.0
 40
1.0
 40
1.0
 10
6.197026544688404
 20
5.608024139402201
 30
0.0
 10
6.196883987633072
 20
5.615719657775169
 30
0.0
 10
6.196521943927836
 20
5.635263509736588
 30
0.0
 10
6.193192893925163
 20
5.667308268351918
 30
0.0
 10
6.188739351818109
 20
5.691426799275417
 30
0.0
 10
6.186500479894458
 20
5.703551598014559
 30
0.0
  0
SPLINE
  5
60
330
1F
100
AcDbEntity
  8
0
  6
Continuous
 62
     7
370
    15
100
AcDbSpline
210
0.0
220
0.0
230
1.0
 70
     8
 71
     3
 72
     9
 73
     5
 74
     0
 42
0.0000000001
 43
0.0000000001
 40
0.0
 40
0.0
 40
0.0
 40
0.0
 40
0.4954577575011109
 40
1.0
 40
1.0
 40
1.0
 40
1.0
 10
6.186500479894458
 20
5.703551598014559
 30
0.0
 10
6.17987273321786
 20
5.707727601848166
 30
0.0
 10
6.166495716557495
 20
5.716156178796213
 30
0.0
 10
6.147623044768949
 20
5.726220547315273
 30
0.0
 10
6.13810098462281
 20
5.731298446377214
 30
0.0
  0
SPLINE
  5
61
330
1F
100
AcDbEntity
  8
0
  6
Continuous
 62
     7
370
    15
100
AcDbSpline
210
0.0
220
0.0
230
1.0
 70
     8
 71
     3
 72
    10
 73
     6
 74
     0
 42
0.0000000001
 43
0.0000000001
 40
0.0
 40
0.0
 40
0.0
 40
0.0
 40
0.226601059273939
 40
0.6108209361026129
 40
0.9999999999999998
 40
0.9999999999999998
 40
0.9999999999999998
 40
0.9999999999999998
 10
6.186500479894458
 20
5.518136781915586
 30
0.0
 10
6.187875131670333
 20
5.524622507105498
 30
0.0
 10
6.191580613397759
 20
5.542105288273863
 30
0.0
 10
6.195975201166415
 20
5.571830092186019
 30
0.0
 10
6.196674601948997
 20
5.595907992908604
 30
0.0
 10
6.197026544688404
 20
5.608024139402201
 30
0.0
  0
SPLINE
  5
62
330
1F
100
AcDbEntity
  8
0
  6
Continuous
 62
     7
370
    15
100
AcDbSpline
210
0.0
220
0.0
230
1.0
 70
     8
 71
     3
 72
    10
 73
     6
 74
     0
 42
0.0000000001
 43
0.0000000001
 40
0.0
 40
0.0
 40
0.0
 40
0.0
 40
0.0701002429330063
 40
0.5307896573487343
 40
1.0
 40
1.0
 40
1.0
 40
1.0
 10
6.13810098462281
 20
5.453176214869201
 30
0.0
 10
6.139485340280566
 20
5.454652724674406
 30
0.0
 10
6.14996749604044
 20
5.465832659304954
 30
0.0
 10
6.167611421280101
 20
5.487479576190235
 30
0.0
 10
6.180165780669153
 20
5.507855476673048
 30
0.0
 10
6.186500479894458
 20
5.518136781915586
 30
0.0
  0
SPLINE
  5
63
330
1F
100
AcDbEntity
  8
0
  6
Continuous
 62
     7
370
    15
100
AcDbSpline
210
0.0
220
0.0
230
1.0
 70
     8
 71
     3
 72
    10
 73
     6
 74
     0
 42
0.0000000001
 43
0.0000000001
 40
0.0
 40
0.0
 40
0.0
 40
0.0
 40
0.0701005727350153
 40
0.5307890981377275
 40
0.9999999999999998
 40
0.9999999999999998
 40
0.9999999999999998
 40
0.9999999999999998
 10
3.781078340014191
 20
8.150730993728323
 30
0.0
 10
3.779668845314188
 20
8.149261183740794
 30
0.0
 10
3.768996401545819
 20
8.138132043317595
 30
0.0
 10
3.746754489655907
 20
8.117717290960943
 30
0.0
 10
3.723407412602672
 20
8.100232868177526
 30
0.0
 10
3.711626888000979
 20
8.091410535845442
 30
0.0
  0
LINE
  5
64
330
1F
100
AcDbEntity
  8
0
  6
Continuous
 62
     7
370
    15
100
AcDbLine
 10
3.711626888000979
 20
8.091410535845442
 30
0.0
 11
3.633764595411902
 21
8.112270704553715
 31
0.0
  0
LINE
  5
65
330
1F
100
AcDbEntity
  8
0
  6
Continuous
 62
     7
370
    15
100
AcDbLine
 10
3.751615646404558
 20
8.236551792593306
 30
0.0
 11
3.633764595411902
 21
8.112270704553715
 31
0.0
  0
LINE
  5
66
330
1F
100
AcDbEntity
  8
0
  6
Continuous
 62
     7
370
    15
100
AcDbLine
 10
3.829477938993636
 20
8.215691623885032
 30
0.0
 11
3.751615646404558
 21
8.236551792593306
 31
0.0
  0
SPLINE
  5
67
330
1F
100
AcDbEntity
  8
0
  6
Continuous
 62
     7
370
    15
100
AcDbSpline
210
0.0
220
0.0
230
1.0
 70
     8
 71
     3
 72
     9
 73
     5
 74
     0
 42
0.0000000001
 43
0.0000000001
 40
0.0
 40
0.0
 40
0.0
 40
0.0
 40
0.4954601500417138
 40
0.9999999999999998
 40
0.9999999999999998
 40
0.9999999999999998
 40
0.9999999999999998
 10
3.829477938993636
 20
8.215691623885032
 30
0.0
 10
3.822850120897355
 20
8.204811481416108
 30
0.0
 10
3.809473024685436
 20
8.18285180924467
 30
0.0
 10
3.790600354299184
 20
8.161502547198047
 30
0.0
 10
3.781078340014191
 20
8.150730993728323
 30
0.0
  0
LWPOLYLINE
  5
68
330
1F
100
AcDbEntity
  8
0
  6
Continuous
 62
     7
370
    15
100
AcDbPolyline
 90
        9
 70
   128
 43
0.0
 10
3.781078340014191
 20
7.872608715119165
 10
3.794904386893809
 20
7.867023012756773
 10
3.809501743225505
 20
7.864182327653144
 10
3.824621233743478
 20
7.864135206604847
 10
3.840004003787582
 20
7.866882762901242
 10
3.855386497277562
 20
7.872377560719213
 10
3.870505987795535
 20
7.880526038984219
 10
3.885103620681356
 20
7.891188384358343
 10
3.898929391006848
 20
7.904182314154175
  0
LWPOLYLINE
  5
69
330
1F
100
AcDbEntity
  8
0
  6
Continuous
 62
     7
370
    15
100
AcDbPolyline
 90
        9
 70
   128
 43
0.0
 10
3.722152952794925
 20
7.995882997749901
 10
3.723160992577223
 20
7.975193995033166
 10
3.726168518676671
 20
7.955399210718237
 10
3.731123815472066
 20
7.936837482995982
 10
3.737941980847313
 20
7.91982613592153
 10
3.746506308962047
 20
7.904656451354668
 10
3.756670502684624
 20
7.891587667534726
 10
3.768260609470996
 20
7.880843918036865
 10
3.781078340014191
 20
7.872608715119165
  0
ARC
  5
6A
330
1F
100
AcDbEntity
  8
0
  6
Continuous
 62
     7
370
    15
100
AcDbCircle
 10
3.952615905039159
 20
7.996818966324337
 30
0.0
 40
0.2304648528394313
100
AcDbArc
 50
138.099968006247
 51
180.2326914313788
  0
LWPOLYLINE
  5
6B
330
1F
100
AcDbEntity
  8
0
  6
Continuous
 62
     7
370
    15
100
AcDbPolyline
 90
        9
 70
   128
 43
0.0
 10
3.898929391006848
 20
8.182304592763333
 10
3.885103620681356
 20
8.187890369217631
 10
3.870505987795535
 20
8.190730980229353
 10
3.855386497277562
 20
8.190777912873068
 10
3.840004003787582
 20
8.188030619073163
 10
3.824621233743478
 20
8.182535558758702
 10
3.809501743225505
 20
8.174387268898279
 10
3.794904386893809
 20
8.163724997616061
 10
3.781078340014191
 20
8.150730993728323
  0
LWPOLYLINE
  5
6C
330
1F
100
AcDbEntity
  8
0
  6
Continuous
 62
     7
370
    15
100
AcDbPolyline
 90
        9
 70
   128
 43
0.0
 10
3.957855054780239
 20
8.059030195819921
 10
3.956846738443817
 20
8.07971912444475
 10
3.953839488898492
 20
8.099513982851584
 10
3.948884192103097
 20
8.118075898978421
 10
3.942066026727851
 20
8.135087246052874
 10
3.933501422058994
 20
8.15025685652783
 10
3.923337228336416
 20
8.16332545194319
 10
3.911747121550043
 20
8.174069201441051
 10
3.898929391006848
 20
8.182304592763333
  0
ARC
  5
6D
330
1F
100
AcDbEntity
  8
0
  6
Continuous
 62
     7
370
    15
100
AcDbCircle
 10
3.727393179985677
 20
8.058094237216785
 30
0.0
 40
0.2304637753581487
100
AcDbArc
 50
318.0997625080741
 51
0.2326900402872448
  0
SPLINE
  5
6E
330
1F
100
AcDbEntity
  8
0
  6
Continuous
 62
     7
370
    15
100
AcDbSpline
210
0.0
220
0.0
230
1.0
 70
     8
 71
     3
 72
    10
 73
     6
 74
     0
 42
0.0000000001
 43
0.0000000001
 40
0.0
 40
0.0
 40
0.0
 40
0.0
 40
0.3762060150731139
 40
0.7558647719941165
 40
1.0
 40
1.0
 40
1.0
 40
1.0
 10
3.711626888000979
 20
8.091410535845442
 30
0.0
 10
3.713845017845478
 20
8.079406788887286
 30
0.0
 10
3.718301635076442
 20
8.055289127036937
 30
0.0
 10
3.721645958064753
 20
8.023241597454891
 30
0.0
 10
3.722010342922824
 20
8.0035785538821
 30
0.0
 10
3.722152952794925
 20
7.995882997749901
 30
0.0
  0
SPLINE
  5
6F
330
1F
100
AcDbEntity
  8
0
  6
Continuous
 62
     7
370
    15
100
AcDbSpline
210
0.0
220
0.0
230
1.0
 70
     8
 71
     3
 72
    10
 73
     6
 74
     0
 42
0.0000000001
 43
0.0000000001
 40
0.0
 40
0.0
 40
0.0
 40
0.0
 40
0.3839007031276334
 40
0.7733990767080761
 40
1.0
 40
1.0
 40
1.0
 40
1.0
 10
3.722152952794925
 20
7.995882997749901
 30
0.0
 10
3.72181002720715
 20
7.983930222218233
 30
0.0
 10
3.721119175820833
 20
7.959850387289622
 30
0.0
 10
3.716739045860927
 20
7.930115265494493
 30
0.0
 10
3.713001540176638
 20
7.912481451597821
 30
0.0
 10
3.711626888000979
 20
7.905995746240862
 30
0.0
  0
LINE
  5
70
330
1F
100
AcDbEntity
  8
0
  6
Continuous
 62
     7
370
    15
100
AcDbLine
 10
3.711626888000979
 20
7.905995746240862
 30
0.0
 11
3.633764595411902
 21
7.926855914949137
 31
0.0
  0
LINE
  5
71
330
1F
100
AcDbEntity
  8
0
  6
Continuous
 62
     7
370
    15
100
AcDbLine
 10
3.633764595411902
 20
8.112270704553715
 30
0.0
 11
3.633764595411902
 21
7.926855914949137
 31
0.0
  0
SPLINE
  5
72
330
1F
100
AcDbEntity
  8
0
  6
Continuous
 62
     7
370
    15
100
AcDbSpline
210
0.0
220
0.0
230
1.0
 70
     8
 71
     3
 72
     9
 73
     5
 74
     0
 42
0.0000000001
 43
0.0000000001
 40
0.0
 40
0.0
 40
0.0
 40
0.0
 40
0.4954584435966045
 40
1.0
 40
1.0
 40
1.0
 40
1.0
 10
3.711626888000979
 20
7.905995746240862
 30
0.0
 10
3.724138638778748
 20
7.900243292443395
 30
0.0
 10
3.749391515058226
 20
7.888632926585645
 30
0.0
 10
3.770452299202808
 20
7.877982365690014
 30
0.0
 10
3.781078340014191
 20
7.872608715119165
 30
0.0
  0
SPLINE
  5
73
330
1F
100
AcDbEntity
  8
0
  6
Continuous
 62
     7
370
    15
100
AcDbSpline
210
0.0
220
0.0
230
1.0
 70
     8
 71
     3
 72
    10
 73
     6
 74
     0
 42
0.0000000001
 43
0.0000000001
 40
0.0
 40
0.0
 40
0.0
 40
0.0
 40
0.0700995731664683
 40
0.5307881105345415
 40
1.0
 40
1.0
 40
1.0
 40
1.0
 10
3.898929391006848
 20
8.182304592763333
 30
0.0
 10
3.897519894704196
 20
8.183032574636097
 30
0.0
 10
3.886847306477256
 20
8.188544792546903
 30
0.0
 10
3.864605547435844
 20
8.199505901967611
 30
0.0
 10
3.84125847393537
 20
8.210263515594682
 30
0.0
 10
3.829477938993636
 20
8.215691623885032
 30
0.0
  0
SPLINE
  5
74
330
1F
100
AcDbEntity
  8
0
  6
Continuous
 62
     7
370
    15
100
AcDbSpline
210
0.0
220
0.0
230
1.0
 70
     8
 71
     3
 72
    10
 73
     6
 74
     0
 42
0.0000000001
 43
0.0000000001
 40
0.0
 40
0.0
 40
0.0
 40
0.0
 40
0.070099329678312
 40
0.53079071573698
 40
0.9999999999999998
 40
0.9999999999999998
 40
0.9999999999999998
 40
0.9999999999999998
 10
3.781078340014191
 20
7.872608715119165
 30
0.0
 10
3.782462684119192
 20
7.871887471835234
 30
0.0
 10
3.792944909865019
 20
7.866426232182097
 30
0.0
 10
3.810588878166732
 20
7.85669689280931
 30
0.0
 10
3.823143252658263
 20
7.848830886014118
 30
0.0
 10
3.829477938993636
 20
7.844861856271292
 30
0.0
  0
LINE
  5
75
330
1F
100
AcDbEntity
  8
0
  6
Continuous
 62
     7
370
    15
100
AcDbLine
 10
3.829477938993636
 20
7.844861856271292
 30
0.0
 11
3.751615646404558
 21
7.865722024979567
 31
0.0
  0
LINE
  5
76
330
1F
100
AcDbEntity
  8
0
  6
Continuous
 62
     7
370
    15
100
AcDbLine
 10
3.633764595411902
 20
7.926855914949137
 30
0.0
 11
3.751615646404558
 21
7.865722024979567
 31
0.0
  0
SPLINE
  5
77
330
1F
100
AcDbEntity
  8
0
  6
Continuous
 62
     7
370
    15
100
AcDbSpline
210
0.0
220
0.0
230
1.0
 70
     8
 71
     3
 72
     9
 73
     5
 74
     0
 42
0.0000000001
 43
0.0000000001
 40
0.0
 40
0.0
 40
0.0
 40
0.0
 40
0.4954584435966045
 40
1.0
 40
1.0
 40
1.0
 40
1.0
 10
3.829477938993636
 20
7.844861856271292
 30
0.0
 10
3.841989689771404
 20
7.854165588760912
 30
0.0
 10
3.867242566050883
 20
7.872943616686084
 30
0.0
 10
3.888303350195465
 20
7.893706550973367
 30
0.0
 10
3.898929391006848
 20
7.904182314154175
 30
0.0
  0
SPLINE
  5
78
330
1F
100
AcDbEntity
  8
0
  6
Continuous
 62
     7
370
    15
100
AcDbSpline
210
0.0
220
0.0
230
1.0
 70
     8
 71
     3
 72
    10
 73
     6
 74
     0
 42
0.0000000001
 43
0.0000000001
 40
0.0
 40
0.0
 40
0.0
 40
0.0
 40
0.244134821668819
 40
0.6200130568846926
 40
1.0
 40
1.0
 40
1.0
 40
1.0
 10
3.957855054780239
 20
8.059030195819921
 30
0.0
 10
3.957712498809277
 20
8.066725737603706
 30
0.0
 10
3.957350458840015
 20
8.08626959600593
 30
0.0
 10
3.954021394347333
 20
8.118314381621805
 30
0.0
 10
3.949567860898472
 20
8.142432915564302
 30
0.0
 10
3.947328989986293
 20
8.154557733915462
 30
0.0
  0
SPLINE
  5
79
330
1F
100
AcDbEntity
  8
0
  6
Continuous
 62
     7
370
    15
100
AcDbSpline
210
0.0
220
0.0
230
1.0
 70
     8
 71
     3
 72
     9
 73
     5
 74
     0
 42
0.0000000001
 43
0.0000000001
 40
0.0
 40
0.0
 40
0.0
 40
0.0
 40
0.4954557432126627
 40
1.0
 40
1.0
 40
1.0
 40
1.0
 10
3.947328989986293
 20
8.154557733915462
 30
0.0
 10
3.940701266501672
 20
8.158733716827521
 30
0.0
 10
3.927324242266075
 20
8.167162285815297
 30
0.0
 10
3.908451516434893
 20
8.177226667025569
 30
0.0
 10
3.898929391006848
 20
8.182304592763333
 30
0.0
  0
SPLINE
  5
7A
330
1F
100
AcDbEntity
  8
0
  6
Continuous
 62
     7
370
    15
100
AcDbSpline
210
0.0
220
0.0
230
1.0
 70
     8
 71
     3
 72
    10
 73
     6
 74
     0
 42
0.0000000001
 43
0.0000000001
 40
0.0
 40
0.0
 40
0.0
 40
0.0
 40
0.2266014358944814
 40
0.6108217460906734
 40
1.0
 40
1.0
 40
1.0
 40
1.0
 10
3.947328989986293
 20
7.969142944310884
 30
0.0
 10
3.948703641671032
 20
7.975628673486804
 30
0.0
 10
3.952409121907838
 20
7.993111459525954
 30
0.0
 10
3.956803705784377
 20
8.022836229080281
 30
0.0
 10
3.957503110581697
 20
8.046914089116679
 30
0.0
 10
3.957855054780239
 20
8.059030195819921
 30
0.0
  0
SPLINE
  5
7B
330
1F
100
AcDbEntity
  8
0
  6
Continuous
 62
     7
370
    15
100
AcDbSpline
210
0.0
220
0.0
230
1.0
 70
     8
 71
     3
 72
    10
 73
     6
 74
     0
 42
0.0000000001
 43
0.0000000001
 40
0.0
 40
0.0
 40
0.0
 40
0.0
 40
0.0701027974339705
 40
0.5307907235446262
 40
1.0
 40
1.0
 40
1.0
 40
1.0
 10
3.898929391006848
 20
7.904182314154175
 30
0.0
 10
3.90031383016539
 20
7.905658817067923
 30
0.0
 10
3.910796257251952
 20
7.916838314585723
 30
0.0
 10
3.928439883176472
 20
7.938485928494741
 30
0.0
 10
3.940994272599148
 20
7.958861699512823
 30
0.0
 10
3.947328989986292
 20
7.969142944310885
 30
0.0
  0
SPLINE
  5
7C
330
1F
100
AcDbEntity
  8
0
  6
Continuous
 62
     7
370
    15
100
AcDbSpline
210
0.0
220
0.0
230
1.0
 70
     8
 71
     3
 72
    10
 73
     6
 74
     0
 42
0.0000000001
 43
0.0000000001
 40
0.0
 40
0.0
 40
0.0
 40
0.0
 40
0.0701003332994776
 40
0.5307890113180712
 40
1.0
 40
1.0
 40
1.0
 40
1.0
 10
4.488185199078381
 20
8.340172736122198
 30
0.0
 10
4.486775704456531
 20
8.338702925875676
 30
0.0
 10
4.476103226572658
 20
8.327573747298961
 30
0.0
 10
4.453861207559489
 20
8.307159007240432
 30
0.0
 10
4.430514039951533
 20
8.289674552144584
 30
0.0
 10
4.418733470511045
 20
8.280852204147413
 30
0.0
  0
LINE
  5
7D
330
1F
100
AcDbEntity
  8
0
  6
Continuous
 62
     7
370
    15
100
AcDbLine
 10
4.418733470511045
 20
8.280852204147413
 30
0.0
 11
4.340871177921968
 21
8.301712372855686
 31
0.0
  0
LINE
  5
7E
330
1F
100
AcDbEntity
  8
0
  6
Continuous
 62
     7
370
    15
100
AcDbLine
 10
4.458722367191686
 20
8.425993497941229
 30
0.0
 11
4.340871177921968
 21
8.301712372855686
 31
0.0
  0
LINE
  5
7F
330
1F
100
AcDbEntity
  8
0
  6
Continuous
 62
     7
370
    15
100
AcDbLine
 10
4.536584659780764
 20
8.405133329232954
 30
0.0
 11
4.458722367191686
 21
8.425993497941229
 31
0.0
  0
SPLINE
  5
80
330
1F
100
AcDbEntity
  8
0
  6
Continuous
 62
     7
370
    15
100
AcDbSpline
210
0.0
220
0.0
230
1.0
 70
     8
 71
     3
 72
     9
 73
     5
 74
     0
 42
0.0000000001
 43
0.0000000001
 40
0.0
 40
0.0
 40
0.0
 40
0.0
 40
0.4954592968200147
 40
1.0
 40
1.0
 40
1.0
 40
1.0
 10
4.536584659780764
 20
8.405133329232954
 30
0.0
 10
4.529956890901713
 20
8.394253193270923
 30
0.0
 10
4.516579870989907
 20
8.372293496416178
 30
0.0
 10
4.497707219787111
 20
8.350944283180478
 30
0.0
 10
4.488185199078381
 20
8.340172736122198
 30
0.0
  0
LWPOLYLINE
  5
81
330
1F
100
AcDbEntity
  8
0
  6
Continuous
 62
     7
370
    15
100
AcDbPolyline
 90
        9
 70
   128
 43
0.0
 10
4.488185199078381
 20
8.06205045751304
 10
4.502011107680937
 20
8.056464718104695
 10
4.516608602289695
 20
8.053624070047019
 10
4.531728092807668
 20
8.053576948998724
 10
4.54711072457471
 20
8.056324468249163
 10
4.562493356341752
 20
8.06181930311309
 10
4.577612846859725
 20
8.069967781378096
 10
4.592210341468484
 20
8.080630089706266
 10
4.606036250071039
 20
8.093624056548051
  0
LWPOLYLINE
  5
82
330
1F
100
AcDbEntity
  8
0
  6
Continuous
 62
     7
370
    15
100
AcDbPolyline
 90
        9
 70
   128
 43
0.0
 10
4.429259535304991
 20
8.185324666051871
 10
4.430267851641413
 20
8.164635737427042
 10
4.433275239463799
 20
8.14484091606616
 10
4.438230536259195
 20
8.126279188343906
 10
4.445048701634441
 20
8.109267841269453
 10
4.453613168026237
 20
8.094098193748545
 10
4.463777361748815
 20
8.081029409928602
 10
4.475367468535186
 20
8.070285660430741
 10
4.488185199078381
 20
8.06205045751304
  0
ARC
  5
83
330
1F
100
AcDbEntity
  8
0
  6
Continuous
 62
     7
370
    15
100
AcDbCircle
 10
4.659723621409886
 20
8.186259970431805
 30
0.0
 40
0.2304659839942712
100
AcDbArc
 50
138.0999737298961
 51
180.232525163602
  0
LWPOLYLINE
  5
84
330
1F
100
AcDbEntity
  8
0
  6
Continuous
 62
     7
370
    15
100
AcDbPolyline
 90
        9
 70
   128
 43
0.0
 10
4.606036250071039
 20
8.37174633515721
 10
4.592210341468484
 20
8.377332074565554
 10
4.577612846859725
 20
8.38017272262323
 10
4.562493356341752
 20
8.380219655266945
 10
4.54711072457471
 20
8.377472324421086
 10
4.531728092807668
 20
8.371977301152579
 10
4.516608602289695
 20
8.363829011292155
 10
4.502011107680937
 20
8.353166702963983
 10
4.488185199078381
 20
8.340172736122198
  0
LWPOLYLINE
  5
85
330
1F
100
AcDbEntity
  8
0
  6
Continuous
 62
     7
370
    15
100
AcDbPolyline
 90
        9
 70
   128
 43
0.0
 10
4.664961913844429
 20
8.248471938213798
 10
4.663953597508006
 20
8.269160866838625
 10
4.66094620968562
 20
8.288955688199507
 10
4.655990912890225
 20
8.307517604326344
 10
4.649172747514978
 20
8.324528951400797
 10
4.640608281123183
 20
8.339698598921707
 10
4.630444087400606
 20
8.352767194337067
 10
4.618853980614233
 20
8.363510943834928
 10
4.606036250071039
 20
8.37174633515721
  0
ARC
  5
86
330
1F
100
AcDbEntity
  8
0
  6
Continuous
 62
     7
370
    15
100
AcDbCircle
 10
4.434498668227115
 20
8.247536501262231
 30
0.0
 40
0.2304651440516689
100
AcDbArc
 50
318.099893578492
 51
0.2325589698691909
  0
SPLINE
  5
87
330
1F
100
AcDbEntity
  8
0
  6
Continuous
 62
     7
370
    15
100
AcDbSpline
210
0.0
220
0.0
230
1.0
 70
     8
 71
     3
 72
    10
 73
     6
 74
     0
 42
0.0000000001
 43
0.0000000001
 40
0.0
 40
0.0
 40
0.0
 40
0.0
 40
0.3762060150731139
 40
0.7558647719941165
 40
1.0
 40
1.0
 40
1.0
 40
1.0
 10
4.418733470511045
 20
8.280852204147413
 30
0.0
 10
4.420951600355545
 20
8.268848457189257
 30
0.0
 10
4.425408217586507
 20
8.244730795338908
 30
0.0
 10
4.428752540574819
 20
8.212683265756862
 30
0.0
 10
4.429116925432891
 20
8.19302022218407
 30
0.0
 10
4.429259535304991
 20
8.185324666051871
 30
0.0
  0
SPLINE
  5
88
330
1F
100
AcDbEntity
  8
0
  6
Continuous
 62
     7
370
    15
100
AcDbSpline
210
0.0
220
0.0
230
1.0
 70
     8
 71
     3
 72
    10
 73
     6
 74
     0
 42
0.0000000001
 43
0.0000000001
 40
0.0
 40
0.0
 40
0.0
 40
0.0
 40
0.3839007031276334
 40
0.7733990767080761
 40
1.0
 40
1.0
 40
1.0
 40
1.0
 10
4.429259535304991
 20
8.185324666051871
 30
0.0
 10
4.428916609717217
 20
8.173371890520202
 30
0.0
 10
4.428225758330898
 20
8.149292055591592
 30
0.0
 10
4.423845628370992
 20
8.119556933796463
 30
0.0
 10
4.420108122686705
 20
8.101923119899792
 30
0.0
 10
4.418733470511045
 20
8.095437414542832
 30
0.0
  0
LINE
  5
89
330
1F
100
AcDbEntity
  8
0
  6
Continuous
 62
     7
370
    15
100
AcDbLine
 10
4.418733470511045
 20
8.095437414542832
 30
0.0
 11
4.340871177921968
 21
8.116297583251107
 31
0.0
  0
LINE
  5
8A
330
1F
100
AcDbEntity
  8
0
  6
Continuous
 62
     7
370
    15
100
AcDbLine
 10
4.340871177921968
 20
8.301712372855686
 30
0.0
 11
4.340871177921968
 21
8.116297583251107
 31
0.0
  0
SPLINE
  5
8B
330
1F
100
AcDbEntity
  8
0
  6
Continuous
 62
     7
370
    15
100
AcDbSpline
210
0.0
220
0.0
230
1.0
 70
     8
 71
     3
 72
     9
 73
     5
 74
     0
 42
0.0000000001
 43
0.0000000001
 40
0.0
 40
0.0
 40
0.0
 40
0.0
 40
0.4954584402118936
 40
0.9999999999999998
 40
0.9999999999999998
 40
0.9999999999999998
 40
0.9999999999999998
 10
4.418733470511045
 20
8.095437414542832
 30
0.0
 10
4.43124526762056
 20
8.089684973131657
 30
0.0
 10
4.456498237585433
 20
8.078074632194249
 30
0.0
 10
4.477559112432527
 20
8.067424095772068
 30
0.0
 10
4.488185199078381
 20
8.06205045751304
 30
0.0
  0
SPLINE
  5
8C
330
1F
100
AcDbEntity
  8
0
  6
Continuous
 62
     7
370
    15
100
AcDbSpline
210
0.0
220
0.0
230
1.0
 70
     8
 71
     3
 72
    10
 73
     6
 74
     0
 42
0.0000000001
 43
0.0000000001
 40
0.0
 40
0.0
 40
0.0
 40
0.0
 40
0.0700994521643206
 40
0.5307889204631011
 40
0.9999999999999998
 40
0.9999999999999998
 40
0.9999999999999998
 40
0.9999999999999998
 10
4.606036250071039
 20
8.37174633515721
 30
0.0
 10
4.604626753854374
 20
8.372474317474253
 30
0.0
 10
4.59395413157073
 20
8.377986556675109
 30
0.0
 10
4.571712300556916
 20
8.388947549259027
 30
0.0
 10
4.548365191031952
 20
8.399705208169466
 30
0.0
 10
4.536584659780764
 20
8.405133329232954
 30
0.0
  0
SPLINE
  5
8D
330
1F
100
AcDbEntity
  8
0
  6
Continuous
 62
     7
370
    15
100
AcDbSpline
210
0.0
220
0.0
230
1.0
 70
     8
 71
     3
 72
    10
 73
     6
 74
     0
 42
0.0000000001
 43
0.0000000001
 40
0.0
 40
0.0
 40
0.0
 40
0.0
 40
0.0700994506799321
 40
0.5307899058136354
 40
1.0
 40
1.0
 40
1.0
 40
1.0
 10
4.488185199078381
 20
8.06205045751304
 30
0.0
 10
4.489569543432287
 20
8.061329214629738
 30
0.0
 10
4.500051736974408
 20
8.055867995770196
 30
0.0
 10
4.517695604555818
 20
8.046138547262962
 30
0.0
 10
4.530249967508695
 20
8.038272579190749
 30
0.0
 10
4.536584659780763
 20
8.034303561619216
 30
0.0
  0
LINE
  5
8E
330
1F
100
AcDbEntity
  8
0
  6
Continuous
 62
     7
370
    15
100
AcDbLine
 10
4.536584659780764
 20
8.034303561619216
 30
0.0
 11
4.458722367191686
 21
8.055163730327491
 31
0.0
  0
LINE
  5
8F
330
1F
100
AcDbEntity
  8
0
  6
Continuous
 62
     7
370
    15
100
AcDbLine
 10
4.340871177921968
 20
8.116297583251107
 30
0.0
 11
4.458722367191686
 21
8.055163730327491
 31
0.0
  0
SPLINE
  5
90
330
1F
100
AcDbEntity
  8
0
  6
Continuous
 62
     7
370
    15
100
AcDbSpline
210
0.0
220
0.0
230
1.0
 70
     8
 71
     3
 72
     9
 73
     5
 74
     0
 42
0.0000000001
 43
0.0000000001
 40
0.0
 40
0.0
 40
0.0
 40
0.0
 40
0.4954592968200147
 40
1.0
 40
1.0
 40
1.0
 40
1.0
 10
4.536584659780764
 20
8.034303561619216
 30
0.0
 10
4.54909645954163
 20
8.043607300678488
 30
0.0
 10
4.574349391197508
 20
8.062385309526005
 30
0.0
 10
4.595410209829107
 20
8.083148288524194
 30
0.0
 10
4.606036250071039
 20
8.093624056548051
 30
0.0
  0
SPLINE
  5
91
330
1F
100
AcDbEntity
  8
0
  6
Continuous
 62
     7
370
    15
100
AcDbSpline
210
0.0
220
0.0
230
1.0
 70
     8
 71
     3
 72
    10
 73
     6
 74
     0
 42
0.0000000001
 43
0.0000000001
 40
0.0
 40
0.0
 40
0.0
 40
0.0
 40
0.244134821668819
 40
0.6200130568846926
 40
1.0
 40
1.0
 40
1.0
 40
1.0
 10
4.664961913844429
 20
8.248471938213798
 30
0.0
 10
4.664819357873468
 20
8.256167479997582
 30
0.0
 10
4.664457317904205
 20
8.275711338399807
 30
0.0
 10
4.661128253411524
 20
8.307756124015682
 30
0.0
 10
4.656674719962662
 20
8.331874657958179
 30
0.0
 10
4.654435849050483
 20
8.343999476309338
 30
0.0
  0
SPLINE
  5
92
330
1F
100
AcDbEntity
  8
0
  6
Continuous
 62
     7
370
    15
100
AcDbSpline
210
0.0
220
0.0
230
1.0
 70
     8
 71
     3
 72
     9
 73
     5
 74
     0
 42
0.0000000001
 43
0.0000000001
 40
0.0
 40
0.0
 40
0.0
 40
0.0
 40
0.4954574530420964
 40
1.0
 40
1.0
 40
1.0
 40
1.0
 10
4.654435849050483
 20
8.343999476309338
 30
0.0
 10
4.647808073462294
 20
8.348175432129382
 30
0.0
 10
4.634430990228414
 20
8.356603917349262
 30
0.0
 10
4.615558316793696
 20
8.366668383680616
 30
0.0
 10
4.606036250071039
 20
8.37174633515721
 30
0.0
  0
SPLINE
  5
93
330
1F
100
AcDbEntity
  8
0
  6
Continuous
 62
     7
370
    15
100
AcDbSpline
210
0.0
220
0.0
230
1.0
 70
     8
 71
     3
 72
    10
 73
     6
 74
     0
 42
0.0000000001
 43
0.0000000001
 40
0.0
 40
0.0
 40
0.0
 40
0.0
 40
0.2266014358944814
 40
0.6108217460906734
 40
1.0
 40
1.0
 40
1.0
 40
1.0
 10
4.654435849050483
 20
8.15858468670476
 30
0.0
 10
4.655810500735222
 20
8.165070415880681
 30
0.0
 10
4.659515980972028
 20
8.18255320191983
 30
0.0
 10
4.663910564848567
 20
8.212277971474158
 30
0.0
 10
4.664609969645887
 20
8.236355831510556
 30
0.0
 10
4.664961913844429
 20
8.248471938213798
 30
0.0
  0
SPLINE
  5
94
330
1F
100
AcDbEntity
  8
0
  6
Continuous
 62
     7
370
    15
100
AcDbSpline
210
0.0
220
0.0
230
1.0
 70
     8
 71
     3
 72
    10
 73
     6
 74
     0
 42
0.0000000001
 43
0.0000000001
 40
0.0
 40
0.0
 40
0.0
 40
0.0
 40
0.070099332249955
 40
0.5307890090671444
 40
0.9999999999999998
 40
0.9999999999999998
 40
0.9999999999999998
 40
0.9999999999999998
 10
4.606036250071039
 20
8.093624056548051
 30
0.0
 10
4.607420594491919
 20
8.095100538801924
 30
0.0
 10
4.617902788541166
 20
8.106280396402331
 30
0.0
 10
4.635546665183388
 20
8.127927504404947
 30
0.0
 10
4.648101106126151
 20
8.148303386569182
 30
0.0
 10
4.654435849050483
 20
8.15858468670476
 30
0.0
  0
SPLINE
  5
95
330
1F
100
AcDbEntity
  8
0
  6
Continuous
 62
     7
370
    15
100
AcDbSpline
210
0.0
220
0.0
230
1.0
 70
     8
 71
     3
 72
    10
 73
     6
 74
     0
 42
0.0000000001
 43
0.0000000001
 40
0.0
 40
0.0
 40
0.0
 40
0.0
 40
0.070100422766175
 40
0.5307892572095339
 40
1.0
 40
1.0
 40
1.0
 40
1.0
 10
6.020249864491622
 20
8.750629792160497
 30
0.0
 10
6.018840369852191
 20
8.749159981965743
 30
0.0
 10
6.008167900512027
 20
8.738030812829142
 30
0.0
 10
5.985925917067281
 20
8.717616082338901
 30
0.0
 10
5.96257878573054
 20
8.700131630532819
 30
0.0
 10
5.950798239632082
 20
8.691309287970174
 30
0.0
  0
LINE
  5
96
330
1F
100
AcDbEntity
  8
0
  6
Continuous
 62
     7
370
    15
100
AcDbLine
 10
5.950798239632082
 20
8.691309287970174
 30
0.0
 11
5.872935947043005
 21
8.712169456678447
 31
0.0
  0
LINE
  5
97
330
1F
100
AcDbEntity
  8
0
  6
Continuous
 62
     7
370
    15
100
AcDbLine
 10
5.990787067174193
 20
8.836450563241015
 30
0.0
 11
5.872935947043005
 21
8.712169456678447
 31
0.0
  0
LINE
  5
98
330
1F
100
AcDbEntity
  8
0
  6
Continuous
 62
     7
370
    15
100
AcDbLine
 10
6.068649359763271
 20
8.81559039453274
 30
0.0
 11
5.990787067174193
 21
8.836450563241015
 31
0.0
  0
SPLINE
  5
99
330
1F
100
AcDbEntity
  8
0
  6
Continuous
 62
     7
370
    15
100
AcDbSpline
210
0.0
220
0.0
230
1.0
 70
     8
 71
     3
 72
     9
 73
     5
 74
     0
 42
0.0000000001
 43
0.0000000001
 40
0.0
 40
0.0
 40
0.0
 40
0.0
 40
0.4954586552100209
 40
1.0
 40
1.0
 40
1.0
 40
1.0
 10
6.068649359763271
 20
8.81559039453274
 30
0.0
 10
6.062021604631732
 20
8.804710257231382
 30
0.0
 10
6.048644595143972
 20
8.782750529236023
 30
0.0
 10
6.029771912947051
 20
8.761401340536918
 30
0.0
 10
6.020249864491622
 20
8.750629792160497
 30
0.0
  0
LWPOLYLINE
  5
9A
330
1F
100
AcDbEntity
  8
0
  6
Continuous
 62
     7
370
    15
100
AcDbPolyline
 90
        9
 70
   128
 43
0.0
 10
6.020249864491622
 20
8.472507513551338
 10
6.034075738524911
 20
8.466921764881506
 10
6.048673302272201
 20
8.464081135346805
 10
6.063792758220909
 20
8.464034005037021
 10
6.079175424557217
 20
8.46678153354895
 10
6.094558090893523
 20
8.472276377674363
 10
6.109677546842231
 20
8.480424846677882
 10
6.124275110589522
 20
8.491087173529029
 10
6.13810098462281
 20
8.504081131109325
  0
LWPOLYLINE
  5
9B
330
1F
100
AcDbEntity
  8
0
  6
Continuous
 62
     7
370
    15
100
AcDbPolyline
 90
        9
 70
   128
 43
0.0
 10
5.961324304426029
 20
8.595781749874634
 10
5.962332551623918
 20
8.575092802726828
 10
5.965340008584837
 20
8.555297999888923
 10
5.97029516710317
 20
8.536736235120715
 10
5.977113332478417
 20
8.519724888046264
 10
5.985677868008743
 20
8.504555259048329
 10
5.995842061731321
 20
8.491486475228388
 10
6.007432203086958
 20
8.480742734992015
 10
6.020249864491622
 20
8.472507513551338
  0
ARC
  5
9C
330
1F
100
AcDbEntity
  8
0
  6
Continuous
 62
     7
370
    15
100
AcDbCircle
 10
6.191788084394146
 20
8.596717258020623
 30
0.0
 40
0.2304656786870539
100
AcDbArc
 50
138.0999829674311
 51
180.2325761300764
  0
LWPOLYLINE
  5
9D
330
1F
100
AcDbEntity
  8
0
  6
Continuous
 62
     7
370
    15
100
AcDbPolyline
 90
        9
 70
   128
 43
0.0
 10
6.13810098462281
 20
8.782203409718484
 10
6.124275110589522
 20
8.787789158388317
 10
6.109677546842231
 20
8.790629787923016
 10
6.094558090893523
 20
8.790676729828218
 10
6.079175424557217
 20
8.787929389720872
 10
6.063792758220909
 20
8.782434357190876
 10
6.048673302272201
 20
8.774286076591939
 10
6.034075738524911
 20
8.763623749740792
 10
6.020249864491622
 20
8.750629792160497
  0
LWPOLYLINE
  5
9E
330
1F
100
AcDbEntity
  8
0
  6
Continuous
 62
     7
370
    15
100
AcDbPolyline
 90
        9
 70
   128
 43
0.0
 10
6.197026544688404
 20
8.658928984990607
 10
6.19601833205978
 20
8.6796179413999
 10
6.193010875098861
 20
8.699412744237806
 10
6.188055682011262
 20
8.717974688149107
 10
6.18123748206675
 20
8.73498602596207
 10
6.172673015674956
 20
8.75015567348298
 10
6.162508752813847
 20
8.763224250375364
 10
6.150918646027474
 20
8.773967999873224
 10
6.13810098462281
 20
8.782203409718484
  0
ARC
  5
9F
330
1F
100
AcDbEntity
  8
0
  6
Continuous
 62
     7
370
    15
100
AcDbCircle
 10
5.966563525948017
 20
8.657993374434662
 30
0.0
 40
0.230464917881322
100
AcDbArc
 50
318.0999103942596
 51
0.2326023581579157
  0
SPLINE
  5
A0
330
1F
100
AcDbEntity
  8
0
  6
Continuous
 62
     7
370
    15
100
AcDbSpline
210
0.0
220
0.0
230
1.0
 70
     8
 71
     3
 72
    10
 73
     6
 74
     0
 42
0.0000000001
 43
0.0000000001
 40
0.0
 40
0.0
 40
0.0
 40
0.0
 40
0.3762060150731139
 40
0.7558647719941165
 40
1.0
 40
1.0
 40
1.0
 40
1.0
 10
5.950798239632082
 20
8.691309287970174
 30
0.0
 10
5.953016369476581
 20
8.67930554101202
 30
0.0
 10
5.957472986707544
 20
8.655187879161669
 30
0.0
 10
5.960817309695856
 20
8.623140349579625
 30
0.0
 10
5.961181694553928
 20
8.603477306006832
 30
0.0
 10
5.961324304426029
 20
8.595781749874634
 30
0.0
  0
SPLINE
  5
A1
330
1F
100
AcDbEntity
  8
0
  6
Continuous
 62
     7
370
    15
100
AcDbSpline
210
0.0
220
0.0
230
1.0
 70
     8
 71
     3
 72
    10
 73
     6
 74
     0
 42
0.0000000001
 43
0.0000000001
 40
0.0
 40
0.0
 40
0.0
 40
0.0
 40
0.3839007031276334
 40
0.7733990767080761
 40
1.0
 40
1.0
 40
1.0
 40
1.0
 10
5.961324304426029
 20
8.595781749874634
 30
0.0
 10
5.960981378838253
 20
8.583828974342967
 30
0.0
 10
5.960290527451936
 20
8.559749139414355
 30
0.0
 10
5.955910397492029
 20
8.530014017619224
 30
0.0
 10
5.952172891807743
 20
8.512380203722553
 30
0.0
 10
5.950798239632082
 20
8.505894498365595
 30
0.0
  0
LINE
  5
A2
330
1F
100
AcDbEntity
  8
0
  6
Continuous
 62
     7
370
    15
100
AcDbLine
 10
5.950798239632082
 20
8.505894498365595
 30
0.0
 11
5.872935947043005
 21
8.526754667073868
 31
0.0
  0
LINE
  5
A3
330
1F
100
AcDbEntity
  8
0
  6
Continuous
 62
     7
370
    15
100
AcDbLine
 10
5.872935947043005
 20
8.712169456678447
 30
0.0
 11
5.872935947043005
 21
8.526754667073868
 31
0.0
  0
SPLINE
  5
A4
330
1F
100
AcDbEntity
  8
0
  6
Continuous
 62
     7
370
    15
100
AcDbSpline
210
0.0
220
0.0
230
1.0
 70
     8
 71
     3
 72
     9
 73
     5
 74
     0
 42
0.0000000001
 43
0.0000000001
 40
0.0
 40
0.0
 40
0.0
 40
0.0
 40
0.4954582277522591
 40
0.9999999999999998
 40
0.9999999999999998
 40
0.9999999999999998
 40
0.9999999999999998
 10
5.950798239632082
 20
8.505894498365595
 30
0.0
 10
5.963310012912888
 20
8.500142048907347
 30
0.0
 10
5.988562945612319
 20
8.488531686749585
 30
0.0
 10
6.009623789162023
 20
8.477881152817046
 30
0.0
 10
6.020249864491622
 20
8.472507513551338
 30
0.0
  0
SPLINE
  5
A5
330
1F
100
AcDbEntity
  8
0
  6
Continuous
 62
     7
370
    15
100
AcDbSpline
210
0.0
220
0.0
230
1.0
 70
     8
 71
     3
 72
    10
 73
     6
 74
     0
 42
0.0000000001
 43
0.0000000001
 40
0.0
 40
0.0
 40
0.0
 40
0.0
 40
0.0700994225568654
 40
0.5307886962771946
 40
1.0
 40
1.0
 40
1.0
 40
1.0
 10
6.13810098462281
 20
8.782203409718484
 30
0.0
 10
6.136691488404188
 20
8.782931392013576
 30
0.0
 10
6.126018866105715
 20
8.788443631048235
 30
0.0
 10
6.103777026304408
 20
8.799404635061334
 30
0.0
 10
6.080429903146814
 20
8.810162278736173
 30
0.0
 10
6.068649359763271
 20
8.81559039453274
 30
0.0
  0
SPLINE
  5
A6
330
1F
100
AcDbEntity
  8
0
  6
Continuous
 62
     7
370
    15
100
AcDbSpline
210
0.0
220
0.0
230
1.0
 70
     8
 71
     3
 72
    10
 73
     6
 74
     0
 42
0.0000000001
 43
0.0000000001
 40
0.0
 40
0.0
 40
0.0
 40
0.0
 40
0.0700994210724165
 40
0.5307896816268513
 40
1.0
 40
1.0
 40
1.0
 40
1.0
 10
6.020249864491622
 20
8.472507513551338
 30
0.0
 10
6.021634208862272
 20
8.471786270686024
 30
0.0
 10
6.032116402531173
 20
8.466325051962687
 30
0.0
 10
6.049760272377767
 20
8.456595593773608
 30
0.0
 10
6.062314654828136
 20
8.448729639365764
 30
0.0
 10
6.068649359763271
 20
8.444760626919002
 30
0.0
  0
LINE
  5
A7
330
1F
100
AcDbEntity
  8
0
  6
Continuous
 62
     7
370
    15
100
AcDbLine
 10
6.068649359763271
 20
8.444760626919002
 30
0.0
 11
5.990787067174193
 21
8.465620795627275
 31
0.0
  0
LINE
  5
A8
330
1F
100
AcDbEntity
  8
0
  6
Continuous
 62
     7
370
    15
100
AcDbLine
 10
5.872935947043005
 20
8.526754667073868
 30
0.0
 11
5.990787067174193
 21
8.465620795627275
 31
0.0
  0
SPLINE
  5
A9
330
1F
100
AcDbEntity
  8
0
  6
Continuous
 62
     7
370
    15
100
AcDbSpline
210
0.0
220
0.0
230
1.0
 70
     8
 71
     3
 72
     9
 73
     5
 74
     0
 42
0.0000000001
 43
0.0000000001
 40
0.0
 40
0.0
 40
0.0
 40
0.0
 40
0.4954586552100209
 40
1.0
 40
1.0
 40
1.0
 40
1.0
 10
6.068649359763271
 20
8.444760626919002
 30
0.0
 10
6.081161145952684
 20
8.454064367270429
 30
0.0
 10
6.106414082918958
 20
8.472842403043131
 30
0.0
 10
6.127474921036554
 20
8.493605360587881
 30
0.0
 10
6.13810098462281
 20
8.504081131109325
 30
0.0
  0
SPLINE
  5
AA
330
1F
100
AcDbEntity
  8
0
  6
Continuous
 62
     7
370
    15
100
AcDbSpline
210
0.0
220
0.0
230
1.0
 70
     8
 71
     3
 72
    10
 73
     6
 74
     0
 42
0.0000000001
 43
0.0000000001
 40
0.0
 40
0.0
 40
0.0
 40
0.0
 40
0.244134821668819
 40
0.6200130568846926
 40
1.0
 40
1.0
 40
1.0
 40
1.0
 10
6.197026544688404
 20
8.658928984990607
 30
0.0
 10
6.196883988717443
 20
8.666624526774391
 30
0.0
 10
6.196521948748181
 20
8.686168385176616
 30
0.0
 10
6.193192884255499
 20
8.718213170792491
 30
0.0
 10
6.188739350806637
 20
8.742331704734988
 30
0.0
 10
6.186500479894458
 20
8.754456523086149
 30
0.0
  0
SPLINE
  5
AB
330
1F
100
AcDbEntity
  8
0
  6
Continuous
 62
     7
370
    15
100
AcDbSpline
210
0.0
220
0.0
230
1.0
 70
     8
 71
     3
 72
     9
 73
     5
 74
     0
 42
0.0000000001
 43
0.0000000001
 40
0.0
 40
0.0
 40
0.0
 40
0.0
 40
0.4954572405799408
 40
1.0
 40
1.0
 40
1.0
 40
1.0
 10
6.186500479894458
 20
8.754456523086149
 30
0.0
 10
6.17987272819327
 20
8.758632486937676
 30
0.0
 10
6.166495687435058
 20
8.767060991982109
 30
0.0
 10
6.147623041487002
 20
8.77712545684465
 30
0.0
 10
6.13810098462281
 20
8.782203409718484
 30
0.0
  0
SPLINE
  5
AC
330
1F
100
AcDbEntity
  8
0
  6
Continuous
 62
     7
370
    15
100
AcDbSpline
210
0.0
220
0.0
230
1.0
 70
     8
 71
     3
 72
    10
 73
     6
 74
     0
 42
0.0000000001
 43
0.0000000001
 40
0.0
 40
0.0
 40
0.0
 40
0.0
 40
0.2266014358944814
 40
0.6108217460906734
 40
1.0
 40
1.0
 40
1.0
 40
1.0
 10
6.186500479894458
 20
8.569041733481569
 30
0.0
 10
6.187875131579198
 20
8.57552746265749
 30
0.0
 10
6.191580611816004
 20
8.593010248696641
 30
0.0
 10
6.195975195692542
 20
8.622735018250967
 30
0.0
 10
6.196674600489863
 20
8.646812878287365
 30
0.0
 10
6.197026544688404
 20
8.658928984990607
 30
0.0
  0
SPLINE
  5
AD
330
1F
100
AcDbEntity
  8
0
  6
Continuous
 62
     7
370
    15
100
AcDbSpline
210
0.0
220
0.0
230
1.0
 70
     8
 71
     3
 72
    10
 73
     6
 74
     0
 42
0.0000000001
 43
0.0000000001
 40
0.0
 40
0.0
 40
0.0
 40
0.0
 40
0.070099854539529
 40
0.5307896826013744
 40
0.9999999999999998
 40
0.9999999999999998
 40
0.9999999999999998
 40
0.9999999999999998
 10
6.13810098462281
 20
8.504081131109325
 30
0.0
 10
6.139485340875145
 20
8.505557615943736
 30
0.0
 10
6.149967559712981
 20
8.516737423972873
 30
0.0
 10
6.167611386760555
 20
8.538384568061019
 30
0.0
 10
6.180165771077672
 20
8.558760444977641
 30
0.0
 10
6.186500479894458
 20
8.569041733481569
 30
0.0
  0
SPLINE
  5
AE
330
1F
100
AcDbEntity
  8
0
  6
Continuous
 62
     7
370
    15
100
AcDbSpline
210
0.0
220
0.0
230
1.0
 70
     8
 71
     3
 72
    10
 73
     6
 74
     0
 42
0.0000000001
 43
0.0000000001
 40
0.0
 40
0.0
 40
0.0
 40
0.0
 40
0.0700994566456025
 40
0.5307890211529966
 40
1.0
 40
1.0
 40
1.0
 40
1.0
 10
6.020249864491622
 20
6.663168444436137
 30
0.0
 10
6.018840368019125
 20
6.661698700484103
 30
0.0
 10
6.008167742456022
 20
6.650569884499271
 30
0.0
 10
5.985925991849013
 20
6.630154709877931
 30
0.0
 10
5.962578806613954
 20
6.612670333980895
 30
0.0
 10
5.950798239632082
 20
6.603848034448105
 30
0.0
  0
LINE
  5
AF
330
1F
100
AcDbEntity
  8
0
  6
Continuous
 62
     7
370
    15
100
AcDbLine
 10
5.950798239632082
 20
6.603848034448105
 30
0.0
 11
5.872935947043005
 21
6.624708203156378
 31
0.0
  0
LINE
  5
B0
330
1F
100
AcDbEntity
  8
0
  6
Continuous
 62
     7
370
    15
100
AcDbLine
 10
5.990787067174193
 20
6.748989215516655
 30
0.0
 11
5.872935947043005
 21
6.624708203156378
 31
0.0
  0
LINE
  5
B1
330
1F
100
AcDbEntity
  8
0
  6
Continuous
 62
     7
370
    15
100
AcDbLine
 10
6.068649359763271
 20
6.728129046808381
 30
0.0
 11
5.990787067174193
 21
6.748989215516655
 31
0.0
  0
SPLINE
  5
B2
330
1F
100
AcDbEntity
  8
0
  6
Continuous
 62
     7
370
    15
100
AcDbSpline
210
0.0
220
0.0
230
1.0
 70
     8
 71
     3
 72
     9
 73
     5
 74
     0
 42
0.0000000001
 43
0.0000000001
 40
0.0
 40
0.0
 40
0.0
 40
0.0
 40
0.495458161623826
 40
0.9999999999999998
 40
0.9999999999999998
 40
0.9999999999999998
 40
0.9999999999999998
 10
6.068649359763271
 20
6.728129046808381
 30
0.0
 10
6.062021599833944
 20
6.717248951176412
 30
0.0
 10
6.048644567336177
 20
6.695289285407037
 30
0.0
 10
6.029771909813272
 20
6.673940034657342
 30
0.0
 10
6.020249864491622
 20
6.663168444436137
 30
0.0
  0
LWPOLYLINE
  5
B3
330
1F
100
AcDbEntity
  8
0
  6
Continuous
 62
     7
370
    15
100
AcDbPolyline
 90
        9
 70
   128
 43
0.0
 10
6.020249864491622
 20
6.385046260029268
 10
6.034075738524911
 20
6.379460511359436
 10
6.048673302272201
 20
6.376619787622446
 10
6.063792758220909
 20
6.376572798616098
 10
6.079175424557217
 20
6.379320232925735
 10
6.094558090893523
 20
6.38481517125344
 10
6.109677546842231
 20
6.392963498953521
 10
6.124275110589522
 20
6.40362592000696
 10
6.13810098462281
 20
6.416619877587256
  0
LWPOLYLINE
  5
B4
330
1F
100
AcDbEntity
  8
0
  6
Continuous
 62
     7
370
    15
100
AcDbPolyline
 90
        9
 70
   128
 43
0.0
 10
5.961324304426029
 20
6.508320590554855
 10
5.962332551623918
 20
6.48763154920476
 10
5.965340008584837
 20
6.467836840569144
 10
5.97029516710317
 20
6.449274981598644
 10
5.977113332478417
 20
6.432263634524193
 10
5.985677868008743
 20
6.417093911323969
 10
5.995842061731321
 20
6.40402531590861
 10
6.007432203086958
 20
6.393281481469945
 10
6.020249864491622
 20
6.385046260029268
  0
ARC
  5
B5
330
1F
100
AcDbEntity
  8
0
  6
Continuous
 62
     7
370
    15
100
AcDbCircle
 10
6.191787552138708
 20
6.509256113978042
 30
0.0
 40
0.2304651464980139
100
AcDbArc
 50
138.0999322871896
 51
180.2325804652279
  0
LWPOLYLINE
  5
B6
330
1F
100
AcDbEntity
  8
0
  6
Continuous
 62
     7
370
    15
100
AcDbPolyline
 90
        9
 70
   128
 43
0.0
 10
6.13810098462281
 20
6.694742061994124
 10
6.124275110589522
 20
6.700327810663956
 10
6.109677546842231
 20
6.703168534400947
 10
6.094558090893523
 20
6.703215570508439
 10
6.079175424557217
 20
6.700468136198803
 10
6.063792758220909
 20
6.694973197871098
 10
6.048673302272201
 20
6.686824823069871
 10
6.034075738524911
 20
6.676162402016433
 10
6.020249864491622
 20
6.663168444436137
  0
LWPOLYLINE
  5
B7
330
1F
100
AcDbEntity
  8
0
  6
Continuous
 62
     7
370
    15
100
AcDbPolyline
 90
        9
 70
   128
 43
0.0
 10
6.197026544688404
 20
6.571467825670828
 10
6.19601833205978
 20
6.592156782080121
 10
6.193010875098861
 20
6.611951584918028
 10
6.188055682011262
 20
6.630513340424746
 10
6.18123748206675
 20
6.647524678237711
 10
6.172673015674956
 20
6.66269441996091
 10
6.162508752813847
 20
6.675762996853294
 10
6.150918646027474
 20
6.686506840553446
 10
6.13810098462281
 20
6.694742061994124
  0
ARC
  5
B8
330
1F
100
AcDbEntity
  8
0
  6
Continuous
 62
     7
370
    15
100
AcDbCircle
 10
5.966563105703646
 20
6.570532281400843
 30
0.0
 40
0.2304653378531411
100
AcDbArc
 50
318.0999504701135
 51
0.2325854548611237
  0
SPLINE
  5
B9
330
1F
100
AcDbEntity
  8
0
  6
Continuous
 62
     7
370
    15
100
AcDbSpline
210
0.0
220
0.0
230
1.0
 70
     8
 71
     3
 72
    10
 73
     6
 74
     0
 42
0.0000000001
 43
0.0000000001
 40
0.0
 40
0.0
 40
0.0
 40
0.0
 40
0.3762054118158517
 40
0.7558655327331874
 40
1.0
 40
1.0
 40
1.0
 40
1.0
 10
5.950798239632082
 20
6.603848034448105
 30
0.0
 10
5.953016371196444
 20
6.59184431886009
 30
0.0
 10
5.957473003514611
 20
6.567726657091434
 30
0.0
 10
5.960817302221723
 20
6.535679159630686
 30
0.0
 10
5.96118169287008
 20
6.516016115488099
 30
0.0
 10
5.961324304426029
 20
6.508320590554855
 30
0.0
  0
SPLINE
  5
BA
330
1F
100
AcDbEntity
  8
0
  6
Continuous
 62
     7
370
    15
100
AcDbSpline
210
0.0
220
0.0
230
1.0
 70
     8
 71
     3
 72
    10
 73
     6
 74
     0
 42
0.0000000001
 43
0.0000000001
 40
0.0
 40
0.0
 40
0.0
 40
0.0
 40
0.3838999469624856
 40
0.773399523041514
 40
1.0
 40
1.0
 40
1.0
 40
1.0
 10
5.961324304426029
 20
6.508320590554855
 30
0.0
 10
5.960981375394482
 20
6.496367816755741
 30
0.0
 10
5.960290515310931
 20
6.472287923990971
 30
0.0
 10
5.955910413088136
 20
6.442552724429508
 30
0.0
 10
5.952172892788455
 20
6.42491885550306
 30
0.0
 10
5.950798239632082
 20
6.418433150641234
 30
0.0
  0
LINE
  5
BB
330
1F
100
AcDbEntity
  8
0
  6
Continuous
 62
     7
370
    15
100
AcDbLine
 10
5.950798239632082
 20
6.418433150641234
 30
0.0
 11
5.872935947043005
 21
6.439293319349508
 31
0.0
  0
LINE
  5
BC
330
1F
100
AcDbEntity
  8
0
  6
Continuous
 62
     7
370
    15
100
AcDbLine
 10
5.872935947043005
 20
6.624708203156378
 30
0.0
 11
5.872935947043005
 21
6.439293319349508
 31
0.0
  0
SPLINE
  5
BD
330
1F
100
AcDbEntity
  8
0
  6
Continuous
 62
     7
370
    15
100
AcDbSpline
210
0.0
220
0.0
230
1.0
 70
     8
 71
     3
 72
     9
 73
     5
 74
     0
 42
0.0000000001
 43
0.0000000001
 40
0.0
 40
0.0
 40
0.0
 40
0.0
 40
0.4954577346539408
 40
1.0
 40
1.0
 40
1.0
 40
1.0
 10
5.950798239632082
 20
6.418433150641234
 30
0.0
 10
5.963310017841233
 20
6.412680761232336
 30
0.0
 10
5.98856298562039
 20
6.401070508719241
 30
0.0
 10
6.009623795676095
 20
6.39041992810143
 30
0.0
 10
6.020249864491622
 20
6.385046260029268
 30
0.0
  0
SPLINE
  5
BE
330
1F
100
AcDbEntity
  8
0
  6
Continuous
 62
     7
370
    15
100
AcDbSpline
210
0.0
220
0.0
230
1.0
 70
     8
 71
     3
 72
    10
 73
     6
 74
     0
 42
0.0000000001
 43
0.0000000001
 40
0.0
 40
0.0
 40
0.0
 40
0.0
 40
0.0700999215928813
 40
0.5307896827494129
 40
1.0
 40
1.0
 40
1.0
 40
1.0
 10
6.13810098462281
 20
6.694742061994124
 30
0.0
 10
6.136691489009246
 20
6.695470077100382
 30
0.0
 10
6.126018927434841
 20
6.700982535581175
 30
0.0
 10
6.103777069764962
 20
6.711943469559206
 30
0.0
 10
6.080429905462405
 20
6.722700997771265
 30
0.0
 10
6.068649359763271
 20
6.728129046808381
 30
0.0
  0
SPLINE
  5
BF
330
1F
100
AcDbEntity
  8
0
  6
Continuous
 62
     7
370
    15
100
AcDbSpline
210
0.0
220
0.0
230
1.0
 70
     8
 71
     3
 72
    10
 73
     6
 74
     0
 42
0.0000000001
 43
0.0000000001
 40
0.0
 40
0.0
 40
0.0
 40
0.0
 40
0.0700999386869161
 40
0.5307898121837562
 40
1.0
 40
1.0
 40
1.0
 40
1.0
 10
6.020249864491622
 20
6.385046260029268
 30
0.0
 10
6.021634208113545
 20
6.384324983459322
 30
0.0
 10
6.032116321291417
 20
6.378863548509937
 30
0.0
 10
6.049760307819989
 20
6.369134423924176
 30
0.0
 10
6.062314665542072
 20
6.361268445943943
 30
0.0
 10
6.068649359763271
 20
6.357299420498078
 30
0.0
  0
LINE
  5
C0
330
1F
100
AcDbEntity
  8
0
  6
Continuous
 62
     7
370
    15
100
AcDbLine
 10
6.068649359763271
 20
6.357299420498078
 30
0.0
 11
5.990787067174193
 21
6.378159589206352
 31
0.0
  0
LINE
  5
C1
330
1F
100
AcDbEntity
  8
0
  6
Continuous
 62
     7
370
    15
100
AcDbLine
 10
5.872935947043005
 20
6.439293319349508
 30
0.0
 11
5.990787067174193
 21
6.378159589206352
 31
0.0
  0
SPLINE
  5
C2
330
1F
100
AcDbEntity
  8
0
  6
Continuous
 62
     7
370
    15
100
AcDbSpline
210
0.0
220
0.0
230
1.0
 70
     8
 71
     3
 72
     9
 73
     5
 74
     0
 42
0.0000000001
 43
0.0000000001
 40
0.0
 40
0.0
 40
0.0
 40
0.0
 40
0.4954580384714919
 40
0.9999999999999998
 40
0.9999999999999998
 40
0.9999999999999998
 40
0.9999999999999998
 10
6.068649359763271
 20
6.357299420498078
 30
0.0
 10
6.081161152116774
 20
6.366603100829684
 30
0.0
 10
6.106414132958709
 20
6.385381038836924
 30
0.0
 10
6.127474929183967
 20
6.406144061437234
 30
0.0
 10
6.13810098462281
 20
6.416619877587256
 30
0.0
  0
SPLINE
  5
C3
330
1F
100
AcDbEntity
  8
0
  6
Continuous
 62
     7
370
    15
100
AcDbSpline
210
0.0
220
0.0
230
1.0
 70
     8
 71
     3
 72
    10
 73
     6
 74
     0
 42
0.0000000001
 43
0.0000000001
 40
0.0
 40
0.0
 40
0.0
 40
0.0
 40
0.2441340655483696
 40
0.6200126767694201
 40
1.0
 40
1.0
 40
1.0
 40
1.0
 10
6.197026544688404
 20
6.571467825670828
 30
0.0
 10
6.196883987948958
 20
6.579163336204595
 30
0.0
 10
6.196521945128687
 20
6.598707163791417
 30
0.0
 10
6.193192884341259
 20
6.630751917246324
 30
0.0
 10
6.188739350835327
 20
6.654870451204858
 30
0.0
 10
6.186500479894458
 20
6.666995269564079
 30
0.0
  0
SPLINE
  5
C4
330
1F
100
AcDbEntity
  8
0
  6
Continuous
 62
     7
370
    15
100
AcDbSpline
210
0.0
220
0.0
230
1.0
 70
     8
 71
     3
 72
     9
 73
     5
 74
     0
 42
0.0000000001
 43
0.0000000001
 40
0.0
 40
0.0
 40
0.0
 40
0.0
 40
0.4954579814467684
 40
1.0
 40
1.0
 40
1.0
 40
1.0
 10
6.186500479894458
 20
6.666995269564079
 30
0.0
 10
6.179872735394667
 20
6.671171284111726
 30
0.0
 10
6.166495729174203
 20
6.679599878874602
 30
0.0
 10
6.147623046190781
 20
6.689664192754039
 30
0.0
 10
6.13810098462281
 20
6.694742061994124
 30
0.0
  0
SPLINE
  5
C5
330
1F
100
AcDbEntity
  8
0
  6
Continuous
 62
     7
370
    15
100
AcDbSpline
210
0.0
220
0.0
230
1.0
 70
     8
 71
     3
 72
    10
 73
     6
 74
     0
 42
0.0000000001
 43
0.0000000001
 40
0.0
 40
0.0
 40
0.0
 40
0.0
 40
0.2266009830735214
 40
0.6108205254766541
 40
1.0
 40
1.0
 40
1.0
 40
1.0
 10
6.186500479894458
 20
6.481580385757208
 30
0.0
 10
6.187875131560654
 20
6.488066114936533
 30
0.0
 10
6.191580611747474
 20
6.505548900984854
 30
0.0
 10
6.19597520498573
 20
6.535273729832328
 30
0.0
 10
6.196674603003571
 20
6.559351655190409
 30
0.0
 10
6.197026544688404
 20
6.571467825670828
 30
0.0
  0
SPLINE
  5
C6
330
1F
100
AcDbEntity
  8
0
  6
Continuous
 62
     7
370
    15
100
AcDbSpline
210
0.0
220
0.0
230
1.0
 70
     8
 71
     3
 72
    10
 73
     6
 74
     0
 42
0.0000000001
 43
0.0000000001
 40
0.0
 40
0.0
 40
0.0
 40
0.0
 40
0.0701001393564897
 40
0.5307896956926506
 40
0.9999999999999998
 40
0.9999999999999998
 40
0.9999999999999998
 40
0.9999999999999998
 10
6.13810098462281
 20
6.416619877587256
 30
0.0
 10
6.139485340447535
 20
6.418096379141472
 30
0.0
 10
6.149967513716823
 20
6.429276268623103
 30
0.0
 10
6.167611410041311
 20
6.45092323057156
 30
0.0
 10
6.180165777713098
 20
6.471299098783383
 30
0.0
 10
6.186500479894458
 20
6.481580385757208
 30
0.0
  0
LINE
  5
C7
330
1F
100
AcDbEntity
  8
0
  6
Continuous
 62
     7
370
    15
100
AcDbLine
 10
6.596777571483115
 20
7.952837205780504
 30
0.0
 11
6.596777571483115
 21
9.719150508928359
 31
0.0
  0
LINE
  5
C8
330
1F
100
AcDbEntity
  8
0
  6
Continuous
 62
     7
370
    15
100
AcDbLine
 10
2.943392406658151
 20
6.974054943398927
 30
0.0
 11
5.65396851536813
 21
7.700248239847514
 31
0.0
  0
LINE
  5
C9
330
1F
100
AcDbEntity
  8
0
  6
Continuous
 62
     7
370
    15
100
AcDbLine
 10
6.285414884786796
 20
7.869419700875726
 30
0.0
 11
6.596777571483115
 21
7.952837205780504
 31
0.0
  0
LINE
  5
CA
330
1F
100
AcDbEntity
  8
0
  6
Continuous
 62
     7
370
    15
100
AcDbLine
 10
2.943392406658151
 20
6.974054943398927
 30
0.0
 11
2.943392406658151
 21
7.787739101032941
 31
0.0
  0
LINE
  5
CB
330
1F
100
AcDbEntity
  8
0
  6
Continuous
 62
     7
370
    15
100
AcDbLine
 10
2.943392406658151
 20
7.787739101032941
 30
0.0
 11
2.825541355665493
 21
7.825637995937845
 31
0.0
  0
LINE
  5
CC
330
1F
100
AcDbEntity
  8
0
  6
Continuous
 62
     7
370
    15
100
AcDbLine
 10
2.825541355665493
 20
7.825637995937845
 30
0.0
 11
3.002318070431542
 21
7.96838258443616
 31
0.0
  0
LINE
  5
CD
330
1F
100
AcDbEntity
  8
0
  6
Continuous
 62
     7
370
    15
100
AcDbLine
 10
3.002318070431542
 20
7.96838258443616
 30
0.0
 11
3.002318070431542
 21
8.756155083110243
 31
0.0
  0
LINE
  5
CE
330
1F
100
AcDbEntity
  8
0
  6
Continuous
 62
     7
370
    15
100
AcDbLine
 10
3.002318070431542
 20
8.756155083110243
 30
0.0
 11
6.596777571483115
 21
9.719150508928359
 31
0.0
  0
LINE
  5
CF
330
1F
100
AcDbEntity
  8
0
  6
Continuous
 62
     7
370
    15
100
AcDbLine
 10
1.705955679849947
 20
8.315692396096995
 30
0.0
 11
3.002318070431542
 21
7.96838258443616
 31
0.0
  0
LINE
  5
D0
330
1F
100
AcDbEntity
  8
0
  6
Continuous
 62
     7
370
    15
100
AcDbLine
 10
1.705955679849947
 20
8.315692396096995
 30
0.0
 11
1.705955679849947
 21
9.103464894771079
 31
0.0
  0
LINE
  5
D1
330
1F
100
AcDbEntity
  8
0
  6
Continuous
 62
     7
370
    15
100
AcDbLine
 10
1.705955679849947
 20
9.103464894771079
 30
0.0
 11
3.002318070431542
 21
8.756155083110243
 31
0.0
  0
LINE
  5
D2
330
1F
100
AcDbEntity
  8
0
  6
Continuous
 62
     7
370
    15
100
AcDbLine
 10
6.596777571483115
 20
9.719150508928359
 30
0.0
 11
5.30041518090152
 21
10.06646032058919
 31
0.0
  0
LINE
  5
D3
330
1F
100
AcDbEntity
  8
0
  6
Continuous
 62
     7
370
    15
100
AcDbLine
 10
1.705955679849947
 20
9.103464894771079
 30
0.0
 11
5.30041518090152
 21
10.06646032058919
 31
0.0
  0
LINE
  5
D4
330
1F
100
AcDbEntity
  8
0
  6
Continuous
 62
     7
370
    15
100
AcDbLine
 10
1.529178965083899
 20
8.172947807598681
 30
0.0
 11
2.825541355665493
 21
7.825637995937845
 31
0.0
  0
LINE
  5
D5
330
1F
100
AcDbEntity
  8
0
  6
Continuous
 62
     7
370
    15
100
AcDbLine
 10
1.529178965083899
 20
8.172947807598681
 30
0.0
 11
1.705955679849947
 21
8.315692396096995
 31
0.0
  0
LINE
  5
D6
330
1F
100
AcDbEntity
  8
0
  6
Continuous
 62
     7
370
    15
100
AcDbLine
 10
1.647030016076556
 20
8.135048912693777
 30
0.0
 11
2.943392406658151
 21
7.787739101032941
 31
0.0
  0
LINE
  5
D7
330
1F
100
AcDbEntity
  8
0
  6
Continuous
 62
     7
370
    15
100
AcDbLine
 10
1.647030016076556
 20
8.135048912693777
 30
0.0
 11
1.529178965083899
 21
8.172947807598681
 31
0.0
  0
LINE
  5
D8
330
1F
100
AcDbEntity
  8
0
  6
Continuous
 62
     7
370
    15
100
AcDbLine
 10
1.647030016076556
 20
7.321364755059764
 30
0.0
 11
2.943392406658151
 21
6.974054943398927
 31
0.0
  0
LINE
  5
D9
330
1F
100
AcDbEntity
  8
0
  6
Continuous
 62
     7
370
    15
100
AcDbLine
 10
1.647030016076556
 20
7.321364755059764
 30
0.0
 11
1.647030016076556
 21
8.135048912693777
 31
0.0
  0
LINE
  5
DA
330
1F
100
AcDbEntity
  8
0
  6
Continuous
 62
     7
370
    15
100
AcDbLine
 10
5.300415154974566
 20
7.605527387173553
 30
0.0
 11
5.65396851536813
 21
7.700248239847514
 31
0.0
  0
LINE
  5
DB
330
1F
100
AcDbEntity
  8
0
  6
Continuous
 62
     7
370
    15
100
AcDbLine
 10
6.596777571483115
 20
7.952837205780504
 30
0.0
 11
6.596777571483115
 21
4.339923494138372
 31
0.0
  0
LINE
  5
DC
330
1F
100
AcDbEntity
  8
0
  6
Continuous
 62
     7
370
    15
100
AcDbLine
 10
6.596777571483115
 20
4.339923494138372
 30
0.0
 11
6.027442103888963
 21
4.187392230150341
 31
0.0
  0
LINE
  5
DD
330
1F
100
AcDbEntity
  8
0
  6
Continuous
 62
     7
370
    15
100
AcDbLine
 10
6.027442103888963
 20
4.187392230150341
 30
0.0
 11
5.948596350265366
 21
3.925407642131752
 31
0.0
  0
LINE
  5
DE
330
1F
100
AcDbEntity
  8
0
  6
Continuous
 62
     7
370
    15
100
AcDbLine
 10
5.948596350265366
 20
3.925407642131752
 30
0.0
 11
5.903446677075132
 21
4.073885567984182
 31
0.0
  0
LINE
  5
DF
330
1F
100
AcDbEntity
  8
0
  6
Continuous
 62
     7
370
    15
100
AcDbLine
 10
5.903446677075132
 20
4.073885567984182
 30
0.0
 11
5.300415154974566
 21
3.912326758589586
 31
0.0
  0
LINE
  5
E0
330
1F
100
AcDbEntity
  8
0
  6
Continuous
 62
     7
370
    15
100
AcDbLine
 10
5.300415154974566
 20
7.605527387173553
 30
0.0
 11
5.300415154974566
 21
3.912326758589586
 31
0.0
  0
LINE
  5
E1
330
1F
100
AcDbEntity
  8
0
  6
Continuous
 62
     7
370
    15
100
AcDbLine
 10
4.004052764392971
 20
4.259636570250423
 30
0.0
 11
5.300415154974566
 21
3.912326758589586
 31
0.0
  0
LINE
  5
E2
330
1F
100
AcDbEntity
  8
0
  6
Continuous
 62
     7
370
    15
100
AcDbLine
 10
4.004052764392971
 20
7.258217577596534
 30
0.0
 11
4.004052764392971
 21
4.259636570250423
 31
0.0
  0
LINE
  5
E3
330
1F
100
AcDbEntity
  8
0
  6
Continuous
 62
     7
370
    15
100
AcDbLine
 10
5.648918637062299
 20
4.005694613496922
 30
0.0
 11
5.948596350265366
 21
3.925407642131752
 31
0.0
  0
LINE
  5
E4
330
1F
100
AcDbEntity
  8
0
  6
Continuous
 62
     7
370
    15
100
AcDbLine
 10
3.414797163737027
 20
7.582071366182954
 30
0.0
 11
3.456987880645854
 21
7.57076800683691
 31
0.0
  0
LINE
  5
E5
330
1F
100
AcDbEntity
  8
0
  6
Continuous
 62
     7
370
    15
100
AcDbLine
 10
3.414797163737027
 20
7.582071366182954
 30
0.0
 11
3.414797163737027
 21
8.384940912410467
 31
0.0
  0
LINE
  5
E6
330
1F
100
AcDbEntity
  8
0
  6
Continuous
 62
     7
370
    15
100
AcDbLine
 10
3.414797163737027
 20
8.384940912410467
 30
0.0
 11
3.456987880645854
 21
8.373637553064423
 31
0.0
  0
LINE
  5
E7
330
1F
100
AcDbEntity
  8
0
  6
Continuous
 62
     7
370
    15
100
AcDbLine
 10
3.456987880645854
 20
7.57076800683691
 30
0.0
 11
3.456987880645854
 21
8.373637553064423
 31
0.0
  0
LINE
  5
E8
330
1F
100
AcDbEntity
  8
0
  6
Continuous
 62
     7
370
    15
100
AcDbLine
 10
3.414797163737027
 20
8.384940912410467
 30
0.0
 11
6.243224185162601
 21
9.14270777084811
 31
0.0
  0
LINE
  5
E9
330
1F
100
AcDbEntity
  8
0
  6
Continuous
 62
     7
370
    15
100
AcDbLine
 10
6.243224185162601
 20
9.14270777084811
 30
0.0
 11
6.285414902071429
 21
9.131404411502066
 31
0.0
  0
LINE
  5
EA
330
1F
100
AcDbEntity
  8
0
  6
Continuous
 62
     7
370
    15
100
AcDbLine
 10
3.456987880645854
 20
8.373637553064423
 30
0.0
 11
6.285414902071429
 21
9.131404411502066
 31
0.0
  0
LINE
  5
EB
330
1F
100
AcDbEntity
  8
0
  6
Continuous
 62
     7
370
    15
100
AcDbLine
 10
6.285414902071429
 20
9.131404411502066
 30
0.0
 11
6.285414902071429
 21
5.277629949034431
 31
0.0
  0
LINE
  5
EC
330
1F
100
AcDbEntity
  8
0
  6
Continuous
 62
     7
370
    15
100
AcDbLine
 10
6.285414902071429
 20
5.277629949034431
 30
0.0
 11
5.696159232276957
 21
5.119761842721519
 31
0.0
  0
LINE
  5
ED
330
1F
100
AcDbEntity
  8
0
  6
Continuous
 62
     7
370
    15
100
AcDbLine
 10
5.696159232276957
 20
5.119761842721519
 30
0.0
 11
5.696159232276957
 21
8.170666758961642
 31
0.0
  0
LINE
  5
EE
330
1F
100
AcDbEntity
  8
0
  6
Continuous
 62
     7
370
    15
100
AcDbLine
 10
5.696159232276957
 20
8.170666758961642
 30
0.0
 11
3.456987880645854
 21
7.57076800683691
 31
0.0
  0
LINE
  5
EF
330
1F
100
AcDbEntity
  8
0
  6
Continuous
 62
     7
370
    15
100
AcDbLine
 10
5.65396851536813
 20
5.131065202067563
 30
0.0
 11
5.696159232276957
 21
5.119761842721519
 31
0.0
  0
LINE
  5
F0
330
1F
100
AcDbEntity
  8
0
  6
Continuous
 62
     7
370
    15
100
AcDbLine
 10
5.65396851536813
 20
5.131065202067563
 30
0.0
 11
5.65396851536813
 21
8.159363452523706
 31
0.0
  0
TEXT
  5
F8
330
1F
100
AcDbEntity
  8
0
100
AcDbText
 10
4.048438624898409
 20
2.801375072962944
 30
0.0
 40
0.25
  1
USP  LH
100
AcDbText
  0
TEXT
  5
F9
330
1F
100
AcDbEntity
  8
0
100
AcDbText
 10
3.131122756900275
 20
2.264107086243196
 30
0.0
 40
0.25
  1
SIMPSON  HL
100
AcDbText
  0
ENDSEC
  0
SECTION
  2
OBJECTS
  0
DICTIONARY
  5
C
330
0
100
AcDbDictionary
281
     1
  3
ACAD_COLOR
350
F5
  3
ACAD_GROUP
350
D
  3
ACAD_LAYOUT
350
1A
  3
ACAD_MATERIAL
350
F4
  3
ACAD_MLINESTYLE
350
17
  3
ACAD_PLOTSETTINGS
350
19
  3
ACAD_PLOTSTYLENAME
350
E
  0
DICTIONARY
  5
F5
102
{ACAD_REACTORS
330
C
102
}
330
C
100
AcDbDictionary
281
     1
  0
DICTIONARY
  5
D
102
{ACAD_REACTORS
330
C
102
}
330
C
100
AcDbDictionary
281
     1
  0
DICTIONARY
  5
1A
102
{ACAD_REACTORS
330
C
102
}
330
C
100
AcDbDictionary
281
     1
  3
Layout1
350
1E
  3
Layout2
350
26
  3
Model
350
22
  0
DICTIONARY
  5
F4
102
{ACAD_REACTORS
330
C
102
}
330
C
100
AcDbDictionary
281
     1
  0
DICTIONARY
  5
17
102
{ACAD_REACTORS
330
C
102
}
330
C
100
AcDbDictionary
281
     1
  3
Standard
350
18
  0
DICTIONARY
  5
19
102
{ACAD_REACTORS
330
C
102
}
330
C
100
AcDbDictionary
281
     1
  0
ACDBDICTIONARYWDFLT
  5
E
102
{ACAD_REACTORS
330
C
102
}
330
C
100
AcDbDictionary
281
     1
  3
Normal
350
F
100
AcDbDictionaryWithDefault
340
F
  0
LAYOUT
  5
1E
102
{ACAD_REACTORS
330
1A
102
}
330
1A
100
AcDbPlotSettings
  1

  2
none_device
  4

  6

 40
0.0
 41
0.0
 42
0.0
 43
0.0
 44
0.0
 45
0.0
 46
0.0
 47
0.0
 48
0.0
 49
0.0
140
0.0
141
0.0
142
1.0
143
1.0
 70
   688
 72
     0
 73
     0
 74
     5
  7

 75
    16
147
1.0
 76
     0
 77
     2
 78
   300
148
0.0
149
0.0
100
AcDbLayout
  1
Layout1
 70
     1
 71
     1
 10
0.0
 20
0.0
 11
12.0
 21
9.0
 12
0.0
 22
0.0
 32
0.0
 14
1.000000000000000E+20
 24
1.000000000000000E+20
 34
1.000000000000000E+20
 15
-1.000000000000000E+20
 25
-1.000000000000000E+20
 35
-1.000000000000000E+20
146
0.0
 13
0.0
 23
0.0
 33
0.0
 16
1.0
 26
0.0
 36
0.0
 17
0.0
 27
1.0
 37
0.0
 76
     0
330
1B
  0
LAYOUT
  5
26
102
{ACAD_REACTORS
330
1A
102
}
330
1A
100
AcDbPlotSettings
  1

  2
none_device
  4

  6

 40
0.0
 41
0.0
 42
0.0
 43
0.0
 44
0.0
 45
0.0
 46
0.0
 47
0.0
 48
0.0
 49
0.0
140
0.0
141
0.0
142
1.0
143
1.0
 70
   688
 72
     0
 73
     0
 74
     5
  7

 75
    16
147
1.0
 76
     0
 77
     2
 78
   300
148
0.0
149
0.0
100
AcDbLayout
  1
Layout2
 70
     1
 71
     2
 10
0.0
 20
0.0
 11
0.0
 21
0.0
 12
0.0
 22
0.0
 32
0.0
 14
0.0
 24
0.0
 34
0.0
 15
0.0
 25
0.0
 35
0.0
146
0.0
 13
0.0
 23
0.0
 33
0.0
 16
1.0
 26
0.0
 36
0.0
 17
0.0
 27
1.0
 37
0.0
 76
     0
330
23
  0
LAYOUT
  5
22
102
{ACAD_REACTORS
330
1A
102
}
330
1A
100
AcDbPlotSettings
  1

  2
none_device
  4

  6

 40
0.0
 41
0.0
 42
0.0
 43
0.0
 44
0.0
 45
0.0
 46
0.0
 47
0.0
 48
0.0
 49
0.0
140
0.0
141
0.0
142
1.0
143
1.0
 70
  1712
 72
     0
 73
     0
 74
     0
  7

 75
     0
147
1.0
 76
     0
 77
     2
 78
   300
148
0.0
149
0.0
100
AcDbLayout
  1
Model
 70
     1
 71
     0
 10
0.0
 20
0.0
 11
8.5
 21
11.0
 12
0.0
 22
0.0
 32
0.0
 14
0.0
 24
0.0
 34
0.0
 15
8.5
 25
11.0
 35
0.0
146
0.0
 13
0.0
 23
0.0
 33
0.0
 16
1.0
 26
0.0
 36
0.0
 17
0.0
 27
1.0
 37
0.0
 76
     0
330
1F
  0
MLINESTYLE
  5
18
102
{ACAD_REACTORS
330
17
102
}
330
17
100
AcDbMlineStyle
  2
STANDARD
 70
     0
  3

 62
   256
 51
90.0
 52
90.0
 71
     2
 49
0.5
 62
   256
  6
BYLAYER
 49
-0.5
 62
   256
  6
BYLAYER
  0
ACDBPLACEHOLDER
  5
F
102
{ACAD_REACTORS
330
E
102
}
330
E
  0
ENDSEC
  0
EOF
