  0
SECTION
  2
HEADER
  9
$ACADVER
  1
AC1018
  9
$ACADMAINTVER
 70
     0
  9
$DWGCODEPAGE
  3
ANSI_1252
  9
$INSBASE
 10
0.0
 20
0.0
 30
0.0
  9
$EXTMIN
 10
1.20551963386616
 20
1.762036704003829
 30
0.0
  9
$EXTMAX
 10
8.25115579747427
 20
8.367594594879484
 30
0.0
  9
$LIMMIN
 10
0.0
 20
0.0
  9
$LIMMAX
 10
8.5
 20
11.0
  9
$ORTHOMODE
 70
     0
  9
$REGENMODE
 70
     1
  9
$FILLMODE
 70
     1
  9
$QTEXTMODE
 70
     0
  9
$MIRRTEXT
 70
     1
  9
$LTSCALE
 40
1.0
  9
$ATTMODE
 70
     1
  9
$TEXTSIZE
 40
0.25
  9
$TRACEWID
 40
0.05
  9
$TEXTSTYLE
  7
Standard
  9
$CLAYER
  8
0
  9
$CELTYPE
  6
ByLayer
  9
$CECOLOR
 62
   256
  9
$CELTSCALE
 40
1.0
  9
$DISPSILH
 70
     0
  9
$DIMSCALE
 40
1.0
  9
$DIMASZ
 40
0.156
  9
$DIMEXO
 40
0.05
  9
$DIMDLI
 40
0.38
  9
$DIMRND
 40
0.0
  9
$DIMDLE
 40
0.0
  9
$DIMEXE
 40
0.125
  9
$DIMTP
 40
0.0
  9
$DIMTM
 40
0.0
  9
$DIMTXT
 40
0.125
  9
$DIMCEN
 40
0.09
  9
$DIMTSZ
 40
0.0
  9
$DIMTOL
 70
     0
  9
$DIMLIM
 70
     0
  9
$DIMTIH
 70
     1
  9
$DIMTOH
 70
     1
  9
$DIMSE1
 70
     0
  9
$DIMSE2
 70
     0
  9
$DIMTAD
 70
     0
  9
$DIMZIN
 70
     0
  9
$DIMBLK
  1

  9
$DIMASO
 70
     1
  9
$DIMSHO
 70
     1
  9
$DIMPOST
  1

  9
$DIMAPOST
  1

  9
$DIMALT
 70
     0
  9
$DIMALTD
 70
     2
  9
$DIMALTF
 40
25.4
  9
$DIMLFAC
 40
8.0
  9
$DIMTOFL
 70
     0
  9
$DIMTVP
 40
0.0
  9
$DIMTIX
 70
     0
  9
$DIMSOXD
 70
     0
  9
$DIMSAH
 70
     0
  9
$DIMBLK1
  1

  9
$DIMBLK2
  1

  9
$DIMSTYLE
  2
Standard
  9
$DIMCLRD
 70
     0
  9
$DIMCLRE
 70
     0
  9
$DIMCLRT
 70
     0
  9
$DIMTFAC
 40
1.0
  9
$DIMGAP
 40
0.06
  9
$DIMJUST
 70
     0
  9
$DIMSD1
 70
     0
  9
$DIMSD2
 70
     0
  9
$DIMTOLJ
 70
     1
  9
$DIMTZIN
 70
     0
  9
$DIMALTZ
 70
     0
  9
$DIMALTTZ
 70
     0
  9
$DIMUPT
 70
     0
  9
$DIMDEC
 70
     3
  9
$DIMTDEC
 70
     3
  9
$DIMALTU
 70
     2
  9
$DIMALTTD
 70
     2
  9
$DIMTXSTY
  7
Standard
  9
$DIMAUNIT
 70
     0
  9
$DIMADEC
 70
     0
  9
$DIMALTRND
 40
0.0
  9
$DIMAZIN
 70
     0
  9
$DIMDSEP
 70
    46
  9
$DIMATFIT
 70
     3
  9
$DIMFRAC
 70
     0
  9
$DIMLDRBLK
  1

  9
$DIMLUNIT
 70
     2
  9
$DIMLWD
 70
    -2
  9
$DIMLWE
 70
    -2
  9
$DIMTMOVE
 70
     0
  9
$LUNITS
 70
     2
  9
$LUPREC
 70
     3
  9
$SKETCHINC
 40
0.1
  9
$FILLETRAD
 40
0.5
  9
$AUNITS
 70
     0
  9
$AUPREC
 70
     0
  9
$MENU
  1
.
  9
$ELEVATION
 40
0.0
  9
$PELEVATION
 40
0.0
  9
$THICKNESS
 40
0.0
  9
$LIMCHECK
 70
     0
  9
$CHAMFERA
 40
0.5
  9
$CHAMFERB
 40
0.5
  9
$CHAMFERC
 40
1.0
  9
$CHAMFERD
 40
0.0
  9
$SKPOLY
 70
     0
  9
$TDCREATE
 40
2456567.343775637
  9
$TDUCREATE
 40
2456567.552108970
  9
$TDUPDATE
 40
2456567.346328032
  9
$TDUUPDATE
 40
2456567.554661366
  9
$TDINDWG
 40
0.0024649653
  9
$TDUSRTIMER
 40
0.0024649653
  9
$USRTIMER
 70
     1
  9
$ANGBASE
 50
0.0
  9
$ANGDIR
 70
     0
  9
$PDMODE
 70
     0
  9
$PDSIZE
 40
-1.0
  9
$PLINEWID
 40
0.0
  9
$SPLFRAME
 70
     0
  9
$SPLINETYPE
 70
     6
  9
$SPLINESEGS
 70
     8
  9
$HANDSEED
  5
180
  9
$SURFTAB1
 70
     6
  9
$SURFTAB2
 70
     6
  9
$SURFTYPE
 70
     6
  9
$SURFU
 70
     6
  9
$SURFV
 70
     6
  9
$UCSBASE
  2

  9
$UCSNAME
  2

  9
$UCSORG
 10
0.0
 20
0.0
 30
0.0
  9
$UCSXDIR
 10
1.0
 20
0.0
 30
0.0
  9
$UCSYDIR
 10
0.0
 20
1.0
 30
0.0
  9
$UCSORTHOREF
  2

  9
$UCSORTHOVIEW
 70
     0
  9
$UCSORGTOP
 10
0.0
 20
0.0
 30
0.0
  9
$UCSORGBOTTOM
 10
0.0
 20
0.0
 30
0.0
  9
$UCSORGLEFT
 10
0.0
 20
0.0
 30
0.0
  9
$UCSORGRIGHT
 10
0.0
 20
0.0
 30
0.0
  9
$UCSORGFRONT
 10
0.0
 20
0.0
 30
0.0
  9
$UCSORGBACK
 10
0.0
 20
0.0
 30
0.0
  9
$PUCSBASE
  2

  9
$PUCSNAME
  2

  9
$PUCSORG
 10
0.0
 20
0.0
 30
0.0
  9
$PUCSXDIR
 10
1.0
 20
0.0
 30
0.0
  9
$PUCSYDIR
 10
0.0
 20
1.0
 30
0.0
  9
$PUCSORTHOREF
  2

  9
$PUCSORTHOVIEW
 70
     0
  9
$PUCSORGTOP
 10
0.0
 20
0.0
 30
0.0
  9
$PUCSORGBOTTOM
 10
0.0
 20
0.0
 30
0.0
  9
$PUCSORGLEFT
 10
0.0
 20
0.0
 30
0.0
  9
$PUCSORGRIGHT
 10
0.0
 20
0.0
 30
0.0
  9
$PUCSORGFRONT
 10
0.0
 20
0.0
 30
0.0
  9
$PUCSORGBACK
 10
0.0
 20
0.0
 30
0.0
  9
$USERI1
 70
     0
  9
$USERI2
 70
     0
  9
$USERI3
 70
     0
  9
$USERI4
 70
     0
  9
$USERI5
 70
     0
  9
$USERR1
 40
0.0
  9
$USERR2
 40
0.0
  9
$USERR3
 40
0.0
  9
$USERR4
 40
0.0
  9
$USERR5
 40
0.0
  9
$WORLDVIEW
 70
     1
  9
$SHADEDGE
 70
     3
  9
$SHADEDIF
 70
    70
  9
$TILEMODE
 70
     1
  9
$MAXACTVP
 70
    64
  9
$PINSBASE
 10
0.0
 20
0.0
 30
0.0
  9
$PLIMCHECK
 70
     0
  9
$PEXTMIN
 10
1.000000000000000E+20
 20
1.000000000000000E+20
 30
1.000000000000000E+20
  9
$PEXTMAX
 10
-1.000000000000000E+20
 20
-1.000000000000000E+20
 30
-1.000000000000000E+20
  9
$PLIMMIN
 10
0.0
 20
0.0
  9
$PLIMMAX
 10
12.0
 20
9.0
  9
$UNITMODE
 70
     0
  9
$VISRETAIN
 70
     1
  9
$PLINEGEN
 70
     0
  9
$PSLTSCALE
 70
     1
  9
$TREEDEPTH
 70
  3020
  9
$CMLSTYLE
  2
Standard
  9
$CMLJUST
 70
     0
  9
$CMLSCALE
 40
1.0
  9
$PROXYGRAPHICS
 70
     1
  9
$MEASUREMENT
 70
     0
  9
$CELWEIGHT
370
    -1
  9
$ENDCAPS
280
     0
  9
$JOINSTYLE
280
     0
  9
$LWDISPLAY
290
     1
  9
$INSUNITS
 70
     1
  9
$HYPERLINKBASE
  1

  9
$STYLESHEET
  1

  9
$XEDIT
290
     1
  9
$CEPSNTYPE
380
     0
  9
$PSTYLEMODE
290
     1
  9
$FINGERPRINTGUID
  2
{95F212F7-C004-43DA-8958-1E90D5BD1634}
  9
$VERSIONGUID
  2
{50F1D032-6E77-4145-9510-D26770291319}
  9
$EXTNAMES
290
     1
  9
$PSVPSCALE
 40
0.0
  9
$OLESTARTUP
290
     0
  9
$SORTENTS
280
   127
  9
$INDEXCTL
280
     0
  9
$HIDETEXT
280
     0
  9
$XCLIPFRAME
290
     0
  9
$HALOGAP
280
     0
  9
$OBSCOLOR
 70
   257
  9
$OBSLTYPE
280
     0
  9
$INTERSECTIONDISPLAY
280
     0
  9
$INTERSECTIONCOLOR
 70
   257
  9
$DIMASSOC
280
     1
  9
$PROJECTNAME
  1

  0
ENDSEC
  0
SECTION
  2
CLASSES
  0
CLASS
  1
ACDBDICTIONARYWDFLT
  2
AcDbDictionaryWithDefault
  3
ObjectDBX Classes
 90
        0
 91
        1
280
     0
281
     0
  0
CLASS
  1
VISUALSTYLE
  2
AcDbVisualStyle
  3
ObjectDBX Classes
 90
     4095
 91
        0
280
     0
281
     0
  0
CLASS
  1
MATERIAL
  2
AcDbMaterial
  3
ObjectDBX Classes
 90
        0
 91
        0
280
     0
281
     0
  0
CLASS
  1
SCALE
  2
AcDbScale
  3
ObjectDBX Classes
 90
     1153
 91
       33
280
     0
281
     0
  0
CLASS
  1
DICTIONARYVAR
  2
AcDbDictionaryVar
  3
ObjectDBX Classes
 90
        0
 91
        1
280
     0
281
     0
  0
CLASS
  1
ACDBPLACEHOLDER
  2
AcDbPlaceHolder
  3
ObjectDBX Classes
 90
        0
 91
        1
280
     0
281
     0
  0
CLASS
  1
LAYOUT
  2
AcDbLayout
  3
ObjectDBX Classes
 90
        0
 91
        3
280
     0
281
     0
  0
ENDSEC
  0
SECTION
  2
TABLES
  0
TABLE
  2
VPORT
  5
8
330
0
100
AcDbSymbolTable
 70
     3
  0
VPORT
  5
17F
330
8
100
AcDbSymbolTableRecord
100
AcDbViewportTableRecord
  2
*Active
 70
     0
 10
0.0
 20
0.0
 11
1.0
 21
1.0
 12
4.621106246479142
 22
5.179221588586662
 13
0.0
 23
0.0
 14
0.5
 24
0.5
 15
0.5
 25
0.5
 16
0.0
 26
0.0
 36
1.0
 17
0.0
 27
0.0
 37
0.0
 40
7.842690667922351
 41
2.234582829504232
 42
50.0
 43
0.0
 44
0.0
 50
0.0
 51
0.0
 71
     0
 72
  2000
 73
     1
 74
     3
 75
     0
 76
     0
 77
     0
 78
     0
281
     0
 65
     1
110
0.0
120
0.0
130
0.0
111
1.0
121
0.0
131
0.0
112
0.0
122
1.0
132
0.0
 79
     0
146
0.0
  0
ENDTAB
  0
TABLE
  2
LTYPE
  5
5
330
0
100
AcDbSymbolTable
 70
     6
  0
LTYPE
  5
14
330
5
100
AcDbSymbolTableRecord
100
AcDbLinetypeTableRecord
  2
ByBlock
 70
     0
  3

 72
    65
 73
     0
 40
0.0
  0
LTYPE
  5
15
330
5
100
AcDbSymbolTableRecord
100
AcDbLinetypeTableRecord
  2
ByLayer
 70
     0
  3

 72
    65
 73
     0
 40
0.0
  0
LTYPE
  5
16
330
5
100
AcDbSymbolTableRecord
100
AcDbLinetypeTableRecord
  2
Continuous
 70
     0
  3
Solid line
 72
    65
 73
     0
 40
0.0
  0
LTYPE
  5
3F
330
5
100
AcDbSymbolTableRecord
100
AcDbLinetypeTableRecord
  2
HIDDEN
 70
     0
  3
Hidden __ __ __ __ __ __ __ __ __ __ __ __ __ __
 72
    65
 73
     2
 40
0.075
 49
0.05
 74
     0
 49
-0.025
 74
     0
  0
LTYPE
  5
40
330
5
100
AcDbSymbolTableRecord
100
AcDbLinetypeTableRecord
  2
PHANTOM
 70
     0
  3
Phantom ______  __  __  ______  __  __  ______
 72
    65
 73
     6
 40
0.5
 49
0.25
 74
     0
 49
-0.05
 74
     0
 49
0.05
 74
     0
 49
-0.05
 74
     0
 49
0.05
 74
     0
 49
-0.05
 74
     0
  0
LTYPE
  5
41
330
5
100
AcDbSymbolTableRecord
100
AcDbLinetypeTableRecord
  2
CENTER
 70
     0
  3
Center ____ _ ____ _ ____ _ ____ _ ____ _ ____
 72
    65
 73
     4
 40
0.4
 49
0.25
 74
     0
 49
-0.05
 74
     0
 49
0.05
 74
     0
 49
-0.05
 74
     0
  0
LTYPE
  5
42
330
5
100
AcDbSymbolTableRecord
100
AcDbLinetypeTableRecord
  2
CENTERX2
 70
     0
  3
Center (2x) ________  __  ________  __  _____
 72
    65
 73
     4
 40
0.8
 49
0.5
 74
     0
 49
-0.1
 74
     0
 49
0.1
 74
     0
 49
-0.1
 74
     0
  0
LTYPE
  5
43
330
5
100
AcDbSymbolTableRecord
100
AcDbLinetypeTableRecord
  2
DOT2
 70
     0
  3
Dot (.5x) ........................................
 72
    65
 73
     2
 40
0.025
 49
0.0
 74
     0
 49
-0.025
 74
     0
  0
ENDTAB
  0
TABLE
  2
LAYER
  5
2
330
0
100
AcDbSymbolTable
 70
     8
  0
LAYER
  5
10
330
2
100
AcDbSymbolTableRecord
100
AcDbLayerTableRecord
  2
0
 70
     0
 62
     7
  6
Continuous
370
    -3
390
F
  0
LAYER
  5
44
330
2
100
AcDbSymbolTableRecord
100
AcDbLayerTableRecord
  2
SLD-0
 70
     0
 62
   179
  6
Continuous
370
    -3
390
F
  0
LAYER
  5
45
330
2
100
AcDbSymbolTableRecord
100
AcDbLayerTableRecord
  2
SLD-DEFPOINTS
 70
     0
 62
   179
  6
Continuous
370
    -3
390
F
  0
LAYER
  5
46
330
2
100
AcDbSymbolTableRecord
100
AcDbLayerTableRecord
  2
OBJ
 70
     0
 62
   179
  6
Continuous
370
    -3
390
F
  0
LAYER
  5
47
330
2
100
AcDbSymbolTableRecord
100
AcDbLayerTableRecord
  2
FORMAT
 70
     0
 62
     7
  6
Continuous
370
    -3
390
F
  0
LAYER
  5
48
330
2
100
AcDbSymbolTableRecord
100
AcDbLayerTableRecord
  2
BLANK-SIZE-1
 70
     0
 62
     7
  6
Continuous
370
    -3
390
F
  0
LAYER
  5
49
330
2
100
AcDbSymbolTableRecord
100
AcDbLayerTableRecord
  2
TOLERANCES
 70
     0
 62
     7
  6
Continuous
370
    -3
390
F
  0
LAYER
  5
4A
330
2
100
AcDbSymbolTableRecord
100
AcDbLayerTableRecord
  2
QTY-BLANK-SIZE-1
 70
     0
 62
     7
  6
Continuous
370
    -3
390
F
  0
ENDTAB
  0
TABLE
  2
STYLE
  5
3
330
0
100
AcDbSymbolTable
 70
     2
  0
STYLE
  5
11
330
3
100
AcDbSymbolTableRecord
100
AcDbTextStyleTableRecord
  2
Standard
 70
     0
 40
0.0
 41
1.0
 50
0.0
 71
     0
 42
0.25
  3
txt
  4

  0
STYLE
  5
13B
330
3
100
AcDbSymbolTableRecord
100
AcDbTextStyleTableRecord
  2
SLDTEXTSTYLE0
 70
     0
 40
0.0
 41
0.7
 50
0.0
 71
     0
 42
0.2
  3
TXT
  4

  0
ENDTAB
  0
TABLE
  2
VIEW
  5
6
330
0
100
AcDbSymbolTable
 70
     0
  0
ENDTAB
  0
TABLE
  2
UCS
  5
7
330
0
100
AcDbSymbolTable
 70
     0
  0
ENDTAB
  0
TABLE
  2
APPID
  5
9
330
0
100
AcDbSymbolTable
 70
     1
  0
APPID
  5
12
330
9
100
AcDbSymbolTableRecord
100
AcDbRegAppTableRecord
  2
ACAD
 70
     0
  0
ENDTAB
  0
TABLE
  2
DIMSTYLE
  5
A
330
0
100
AcDbSymbolTable
 70
     2
100
AcDbDimStyleTable
 71
     0
  0
DIMSTYLE
105
27
330
A
100
AcDbSymbolTableRecord
100
AcDbDimStyleTableRecord
  2
Standard
 70
     0
340
11
  0
DIMSTYLE
105
13F
330
A
100
AcDbSymbolTableRecord
100
AcDbDimStyleTableRecord
  2
SLDDIMSTYLE0
 70
     0
 41
0.052
 44
0.0
 45
0.000000001
140
0.0
146
0.052
147
0.0
173
     1
271
     0
272
     0
276
     2
277
     5
340
11
341
140
343
140
344
140
  0
ENDTAB
  0
TABLE
  2
BLOCK_RECORD
  5
1
330
0
100
AcDbSymbolTable
 70
     4
  0
BLOCK_RECORD
  5
1F
330
1
100
AcDbSymbolTableRecord
100
AcDbBlockTableRecord
  2
*Model_Space
340
22
  0
BLOCK_RECORD
  5
1B
330
1
100
AcDbSymbolTableRecord
100
AcDbBlockTableRecord
  2
*Paper_Space
340
1E
  0
BLOCK_RECORD
  5
23
330
1
100
AcDbSymbolTableRecord
100
AcDbBlockTableRecord
  2
*Paper_Space0
340
26
  0
BLOCK_RECORD
  5
138
330
1
100
AcDbSymbolTableRecord
100
AcDbBlockTableRecord
  2
SW_NOTE_0
340
0
102
{BLKREFS
331
13E
102
}
  0
BLOCK_RECORD
  5
140
330
1
100
AcDbSymbolTableRecord
100
AcDbBlockTableRecord
  2
_DOT
340
0
  0
BLOCK_RECORD
  5
149
330
1
100
AcDbSymbolTableRecord
100
AcDbBlockTableRecord
  2
SW_NOTE_1
340
0
102
{BLKREFS
331
14E
102
}
  0
ENDTAB
  0
ENDSEC
  0
SECTION
  2
BLOCKS
  0
BLOCK
  5
20
330
1F
100
AcDbEntity
  8
0
100
AcDbBlockBegin
  2
*Model_Space
 70
     0
 10
0.0
 20
0.0
 30
0.0
  3
*Model_Space
  1

  0
ENDBLK
  5
21
330
1F
100
AcDbEntity
  8
0
100
AcDbBlockEnd
  0
BLOCK
  5
1C
330
1B
100
AcDbEntity
 67
     1
  8
0
100
AcDbBlockBegin
  2
*Paper_Space
 70
     0
 10
0.0
 20
0.0
 30
0.0
  3
*Paper_Space
  1

  0
ENDBLK
  5
1D
330
1B
100
AcDbEntity
 67
     1
  8
0
100
AcDbBlockEnd
  0
BLOCK
  5
24
330
23
100
AcDbEntity
  8
0
100
AcDbBlockBegin
  2
*Paper_Space0
 70
     0
 10
0.0
 20
0.0
 30
0.0
  3
*Paper_Space0
  1

  0
ENDBLK
  5
25
330
23
100
AcDbEntity
  8
0
100
AcDbBlockEnd
  0
BLOCK
  5
139
330
138
100
AcDbEntity
  8
0
100
AcDbBlockBegin
  2
SW_NOTE_0
 70
     0
 10
0.0
 20
0.0
 30
0.0
  3
SW_NOTE_0
  1

  0
MTEXT
  5
13C
330
138
100
AcDbEntity
  8
OBJ
 62
     0
100
AcDbMText
 10
-0.7575388239210982
 20
0.1811908241722796
 30
0.0
 40
0.1041666666666667
 41
0.0
 71
     2
 72
     1
  1
BP/LBP
  7
SLDTEXTSTYLE0
 73
     1
 44
1.0
  0
MTEXT
  5
13D
330
138
100
AcDbEntity
  8
OBJ
 62
     0
100
AcDbMText
 10
-0.7647051666380071
 20
0.0432241410753322
 30
0.0
 40
0.0833333333333333
 41
0.0
 71
     2
 72
     1
  1
Standard Bearing Plate
  7
SLDTEXTSTYLE0
 73
     1
 44
1.0
  0
ENDBLK
  5
13A
330
138
100
AcDbEntity
  8
0
100
AcDbBlockEnd
  0
BLOCK
  5
141
330
140
100
AcDbEntity
  8
0
100
AcDbBlockBegin
  2
_DOT
 70
     0
 10
0.0
 20
0.0
 30
0.0
  3
_DOT
  1

  0
POLYLINE
  5
143
330
140
100
AcDbEntity
  8
0
  6
ByBlock
 62
     0
100
AcDb2dPolyline
 66
     1
 10
0.0
 20
0.0
 30
0.0
 70
     1
 40
0.5
 41
0.5
  0
VERTEX
  5
145
330
143
100
AcDbEntity
  8
0
  6
ByBlock
 62
     0
100
AcDbVertex
100
AcDb2dVertex
 10
-0.25
 20
0.0
 30
0.0
 42
1.0
  0
VERTEX
  5
146
330
143
100
AcDbEntity
  8
0
  6
ByBlock
 62
     0
100
AcDbVertex
100
AcDb2dVertex
 10
0.25
 20
0.0
 30
0.0
 42
1.0
  0
SEQEND
  5
147
330
143
100
AcDbEntity
  8
0
  6
ByBlock
 62
     0
  0
LINE
  5
144
330
140
100
AcDbEntity
  8
0
  6
ByBlock
 62
     0
370
    -2
100
AcDbLine
 10
-0.5
 20
0.0
 30
0.0
 11
-1.0
 21
0.0
 31
0.0
  0
ENDBLK
  5
142
330
140
100
AcDbEntity
  8
0
100
AcDbBlockEnd
  0
BLOCK
  5
14A
330
149
100
AcDbEntity
  8
0
100
AcDbBlockBegin
  2
SW_NOTE_1
 70
     0
 10
0.0
 20
0.0
 30
0.0
  3
SW_NOTE_1
  1

  0
MTEXT
  5
14C
330
149
100
AcDbEntity
  8
OBJ
 62
     0
100
AcDbMText
 10
0.698882813611222
 20
0.0479665203841051
 30
0.0
 40
0.1041666666666667
 41
0.0
 71
     2
 72
     1
  1
HBPS/LBPS
  7
SLDTEXTSTYLE0
 73
     1
 44
1.0
  0
MTEXT
  5
14D
330
149
100
AcDbEntity
  8
OBJ
 62
     0
100
AcDbMText
 10
0.6923385358352771
 20
-0.0900001627128423
 30
0.0
 40
0.0833333333333333
 41
0.0
 71
     2
 72
     1
  1
Slotted Bearing Plate
  7
SLDTEXTSTYLE0
 73
     1
 44
1.0
  0
ENDBLK
  5
14B
330
149
100
AcDbEntity
  8
0
100
AcDbBlockEnd
  0
ENDSEC
  0
SECTION
  2
ENTITIES
  0
SPLINE
  5
4B
330
1F
100
AcDbEntity
  8
0
  6
Continuous
 62
     7
370
    15
100
AcDbSpline
210
0.0
220
0.0
230
1.0
 70
     8
 71
     3
 72
    12
 73
     8
 74
     0
 42
0.0000000001
 43
0.0000000001
 40
0.0
 40
0.0
 40
0.0
 40
0.0
 40
0.1225218640752729
 40
0.347271910041602
 40
0.5716472293506093
 40
0.7957173007170022
 40
1.0
 40
1.0
 40
1.0
 40
1.0
 10
5.333929433145456
 20
6.81413816665086
 30
0.0
 10
5.335357572580917
 20
6.813838392654632
 30
0.0
 10
5.339405443655205
 20
6.812988723176974
 30
0.0
 10
5.346238257615667
 20
6.81184705980449
 30
0.0
 10
5.354383441512442
 20
6.81070413125443
 30
0.0
 10
5.362383251383361
 20
6.809819118728168
 30
0.0
 10
5.367691322040565
 20
6.809432875566253
 30
0.0
 10
5.370222756587364
 20
6.809248675063531
 30
0.0
  0
SPLINE
  5
4C
330
1F
100
AcDbEntity
  8
0
  6
Continuous
 62
     7
370
    15
100
AcDbSpline
210
0.0
220
0.0
230
1.0
 70
     8
 71
     3
 72
    12
 73
     8
 74
     0
 42
0.0000000001
 43
0.0000000001
 40
0.0
 40
0.0
 40
0.0
 40
0.0
 40
0.0471016100007772
 40
0.3610154757744753
 40
0.6759703820860416
 40
0.9918745819718564
 40
1.0
 40
1.0
 40
1.0
 40
1.0
 10
5.483041411800832
 20
6.82573380280321
 30
0.0
 10
5.483390240854869
 20
6.82587155236475
 30
0.0
 10
5.486063879545879
 20
6.826927349045506
 30
0.0
 10
5.490816330643101
 20
6.82911234625726
 30
0.0
 10
5.497219062019505
 20
6.832332985119013
 30
0.0
 10
5.501420575176367
 20
6.834608470676887
 30
0.0
 10
5.503398893407817
 20
6.835861775891641
 30
0.0
 10
5.503448502029174
 20
6.83589320397174
 30
0.0
  0
SPLINE
  5
4D
330
1F
100
AcDbEntity
  8
0
  6
Continuous
 62
     7
370
    15
100
AcDbSpline
210
0.0
220
0.0
230
1.0
 70
     8
 71
     3
 72
     9
 73
     5
 74
     0
 42
0.0000000001
 43
0.0000000001
 40
0.0
 40
0.0
 40
0.0
 40
0.0
 40
0.298572020760872
 40
1.0
 40
1.0
 40
1.0
 40
1.0
 10
5.539454756083975
 20
7.025404862344616
 30
0.0
 10
5.539277266823305
 20
7.025798399404994
 30
0.0
 10
5.538682806363753
 20
7.027116463500134
 30
0.0
 10
5.537923829661059
 20
7.028369186904934
 30
0.0
 10
5.537391462166198
 20
7.02924788215131
 30
0.0
  0
SPLINE
  5
4E
330
1F
100
AcDbEntity
  8
0
  6
Continuous
 62
     7
370
    15
100
AcDbSpline
210
0.0
220
0.0
230
1.0
 70
     8
 71
     3
 72
     9
 73
     5
 74
     0
 42
0.0000000001
 43
0.0000000001
 40
0.0
 40
0.0
 40
0.0
 40
0.0
 40
0.3030745496780638
 40
1.0
 40
1.0
 40
1.0
 40
1.0
 10
5.239001401906379
 20
6.872346137223555
 30
0.0
 10
5.239183147591905
 20
6.871942965187101
 30
0.0
 10
5.239782820793496
 20
6.870612691705277
 30
0.0
 10
5.240548521819291
 20
6.869348359266365
 30
0.0
 10
5.241082158351506
 20
6.868467213812021
 30
0.0
  0
SPLINE
  5
4F
330
1F
100
AcDbEntity
  8
0
  6
Continuous
 62
     7
370
    15
100
AcDbSpline
210
0.0
220
0.0
230
1.0
 70
     8
 71
     3
 72
    12
 73
     8
 74
     0
 42
0.0000000001
 43
0.0000000001
 40
0.0
 40
0.0
 40
0.0
 40
0.0
 40
0.0474905381022065
 40
0.3610913744635606
 40
0.675732213255357
 40
0.991321399002485
 40
1.0
 40
1.0
 40
1.0
 40
1.0
 10
5.295437772880573
 20
7.071992369696174
 30
0.0
 10
5.295085706212317
 20
7.071853349137985
 30
0.0
 10
5.292408789036319
 20
7.070796314906714
 30
0.0
 10
5.287653164872883
 20
7.068609997477087
 30
0.0
 10
5.281250383310394
 20
7.065389383232716
 30
0.0
 10
5.277045411918519
 20
7.063111744601146
 30
0.0
 10
5.275063748912343
 20
7.061856210417374
 30
0.0
 10
5.275010712307274
 20
7.061822607695596
 30
0.0
  0
SPLINE
  5
50
330
1F
100
AcDbEntity
  8
0
  6
Continuous
 62
     7
370
    15
100
AcDbSpline
210
0.0
220
0.0
230
1.0
 70
     8
 71
     3
 72
    12
 73
     8
 74
     0
 42
0.0000000001
 43
0.0000000001
 40
0.0
 40
0.0
 40
0.0
 40
0.0
 40
0.1225218640752744
 40
0.3472719100416024
 40
0.5716472293506093
 40
0.7957173007170041
 40
0.9999999999999998
 40
0.9999999999999998
 40
0.9999999999999998
 40
0.9999999999999998
 10
4.037567000970118
 20
6.454829089592959
 30
0.0
 10
4.038995140405578
 20
6.454529315596732
 30
0.0
 10
4.043043011479866
 20
6.453679646119073
 30
0.0
 10
4.049875825440329
 20
6.452537982746589
 30
0.0
 10
4.058021009337104
 20
6.451395054196529
 30
0.0
 10
4.066020819208024
 20
6.450510041670268
 30
0.0
 10
4.071328889865228
 20
6.450123798508352
 30
0.0
 10
4.073860324412025
 20
6.44993959800563
 30
0.0
  0
SPLINE
  5
51
330
1F
100
AcDbEntity
  8
0
  6
Continuous
 62
     7
370
    15
100
AcDbSpline
210
0.0
220
0.0
230
1.0
 70
     8
 71
     3
 72
    12
 73
     8
 74
     0
 42
0.0000000001
 43
0.0000000001
 40
0.0
 40
0.0
 40
0.0
 40
0.0
 40
0.0471016100007704
 40
0.3610154757744762
 40
0.6759703820860404
 40
0.9918745819718463
 40
1.0
 40
1.0
 40
1.0
 40
1.0
 10
4.186678979625494
 20
6.466424725745309
 30
0.0
 10
4.18702780867953
 20
6.466562475306849
 30
0.0
 10
4.18970144737054
 20
6.467618271987605
 30
0.0
 10
4.194453898467764
 20
6.469803269199358
 30
0.0
 10
4.200856629844164
 20
6.473023908061112
 30
0.0
 10
4.205058143001034
 20
6.475299393618982
 30
0.0
 10
4.207036461232479
 20
6.476552698833739
 30
0.0
 10
4.207086069853835
 20
6.476584126913839
 30
0.0
  0
SPLINE
  5
52
330
1F
100
AcDbEntity
  8
0
  6
Continuous
 62
     7
370
    15
100
AcDbSpline
210
0.0
220
0.0
230
1.0
 70
     8
 71
     3
 72
     9
 73
     5
 74
     0
 42
0.0000000001
 43
0.0000000001
 40
0.0
 40
0.0
 40
0.0
 40
0.0
 40
0.2985720207608742
 40
1.0
 40
1.0
 40
1.0
 40
1.0
 10
4.243092323908637
 20
6.666095785286714
 30
0.0
 10
4.242914834647966
 20
6.666489322347092
 30
0.0
 10
4.242320374188414
 20
6.667807386442233
 30
0.0
 10
4.24156139748572
 20
6.669060109847034
 30
0.0
 10
4.241029029990859
 20
6.669938805093408
 30
0.0
  0
SPLINE
  5
53
330
1F
100
AcDbEntity
  8
0
  6
Continuous
 62
     7
370
    15
100
AcDbSpline
210
0.0
220
0.0
230
1.0
 70
     8
 71
     3
 72
     9
 73
     5
 74
     0
 42
0.0000000001
 43
0.0000000001
 40
0.0
 40
0.0
 40
0.0
 40
0.0
 40
0.3030745496780479
 40
1.0
 40
1.0
 40
1.0
 40
1.0
 10
3.94263896973104
 20
6.513037060165655
 30
0.0
 10
3.942820715416567
 20
6.512633888129201
 30
0.0
 10
3.943420388618157
 20
6.511303614647375
 30
0.0
 10
3.944186089643953
 20
6.510039282208463
 30
0.0
 10
3.944719726176167
 20
6.50915813675412
 30
0.0
  0
SPLINE
  5
54
330
1F
100
AcDbEntity
  8
0
  6
Continuous
 62
     7
370
    15
100
AcDbSpline
210
0.0
220
0.0
230
1.0
 70
     8
 71
     3
 72
    12
 73
     8
 74
     0
 42
0.0000000001
 43
0.0000000001
 40
0.0
 40
0.0
 40
0.0
 40
0.0
 40
0.0474905381022066
 40
0.3610913744635651
 40
0.6757322132553658
 40
0.991321399002485
 40
1.0
 40
1.0
 40
1.0
 40
1.0
 10
3.999075340705234
 20
6.712683292638273
 30
0.0
 10
3.998723274036979
 20
6.712544272080084
 30
0.0
 10
3.996046356860982
 20
6.711487237848813
 30
0.0
 10
3.991290732697544
 20
6.709300920419187
 30
0.0
 10
3.984887951135056
 20
6.706080306174813
 30
0.0
 10
3.980682979743178
 20
6.703802667543249
 30
0.0
 10
3.978701316737005
 20
6.702547133359473
 30
0.0
 10
3.978648280131936
 20
6.702513530637693
 30
0.0
  0
LINE
  5
55
330
1F
100
AcDbEntity
  8
0
  6
Continuous
 62
     7
370
    15
100
AcDbLine
 10
5.305901422553231
 20
7.032506054202946
 30
0.0
 11
5.305901422553231
 21
7.029749975412943
 31
0.0
  0
LINE
  5
56
330
1F
100
AcDbEntity
  8
0
  6
Continuous
 62
     7
370
    15
100
AcDbLine
 10
5.305901422553231
 20
7.054589135507846
 30
0.0
 11
5.305901422553231
 21
7.051833056717843
 31
0.0
  0
LINE
  5
57
330
1F
100
AcDbEntity
  8
0
  6
Continuous
 62
     7
370
    15
100
AcDbLine
 10
5.305901422553231
 20
7.076672216812745
 30
0.0
 11
5.305901422553231
 21
7.073916138022743
 31
0.0
  0
LINE
  5
58
330
1F
100
AcDbEntity
  8
0
  6
Continuous
 62
     7
370
    15
100
AcDbLine
 10
5.305901422553231
 20
7.098755298117646
 30
0.0
 11
5.305901422553231
 21
7.095999219327643
 31
0.0
  0
LINE
  5
59
330
1F
100
AcDbEntity
  8
0
  6
Continuous
 62
     7
370
    15
100
AcDbLine
 10
5.472568089219897
 20
7.107040759980092
 30
0.0
 11
5.472568089219897
 21
7.109796838770096
 31
0.0
  0
LINE
  5
5A
330
1F
100
AcDbEntity
  8
0
  6
Continuous
 62
     7
370
    15
100
AcDbLine
 10
5.472568089219897
 20
7.084957678675192
 30
0.0
 11
5.472568089219897
 21
7.087713757465196
 31
0.0
  0
LINE
  5
5B
330
1F
100
AcDbEntity
  8
0
  6
Continuous
 62
     7
370
    15
100
AcDbLine
 10
5.472568089219897
 20
7.062874597370292
 30
0.0
 11
5.472568089219897
 21
7.065630676160297
 31
0.0
  0
LINE
  5
5C
330
1F
100
AcDbEntity
  8
0
  6
Continuous
 62
     7
370
    15
100
AcDbLine
 10
5.472568089219897
 20
7.040791516065392
 30
0.0
 11
5.472568089219897
 21
7.043547594855398
 31
0.0
  0
LINE
  5
5D
330
1F
100
AcDbEntity
  8
0
  6
Continuous
 62
     7
370
    15
100
AcDbLine
 10
5.472568089219897
 20
7.018708434760494
 30
0.0
 11
5.472568089219897
 21
7.021464513550498
 31
0.0
  0
LINE
  5
5E
330
1F
100
AcDbEntity
  8
0
  6
Continuous
 62
     7
370
    15
100
AcDbLine
 10
5.321168089219898
 20
7.120183040262298
 30
0.0
 11
5.321168089219898
 21
7.106346784485202
 31
0.0
  0
LINE
  5
5F
330
1F
100
AcDbEntity
  8
0
  6
Continuous
 62
     7
370
    15
100
AcDbLine
 10
5.45730142255323
 20
7.117388325137653
 30
0.0
 11
5.45730142255323
 21
7.120183040262298
 31
0.0
  0
LINE
  5
60
330
1F
100
AcDbEntity
  8
0
  6
Continuous
 62
     7
370
    15
100
AcDbLine
 10
5.444192711263292
 20
7.140589102436996
 30
0.0
 11
5.435782152470331
 21
7.146437846073901
 31
0.0
  0
LINE
  5
61
330
1F
100
AcDbEntity
  8
0
  6
Continuous
 62
     7
370
    15
100
AcDbLine
 10
5.342687359302797
 20
7.146437846073901
 30
0.0
 11
5.334276800509835
 21
7.140589102436996
 31
0.0
  0
LINE
  5
62
330
1F
100
AcDbEntity
  8
0
  6
Continuous
 62
     7
370
    15
100
AcDbLine
 10
4.009538990377891
 20
6.667740696977918
 30
0.0
 11
4.009538990377891
 21
6.664984618187914
 31
0.0
  0
LINE
  5
63
330
1F
100
AcDbEntity
  8
0
  6
Continuous
 62
     7
370
    15
100
AcDbLine
 10
4.009538990377891
 20
6.689823778282818
 30
0.0
 11
4.009538990377891
 21
6.687067699492816
 31
0.0
  0
LINE
  5
64
330
1F
100
AcDbEntity
  8
0
  6
Continuous
 62
     7
370
    15
100
AcDbLine
 10
4.009538990377891
 20
6.711906859587718
 30
0.0
 11
4.009538990377891
 21
6.709150780797714
 31
0.0
  0
LINE
  5
65
330
1F
100
AcDbEntity
  8
0
  6
Continuous
 62
     7
370
    15
100
AcDbLine
 10
4.009538990377891
 20
6.733989940892618
 30
0.0
 11
4.009538990377891
 21
6.731233862102614
 31
0.0
  0
LINE
  5
66
330
1F
100
AcDbEntity
  8
0
  6
Continuous
 62
     7
370
    15
100
AcDbLine
 10
4.176205657044558
 20
6.742275402755064
 30
0.0
 11
4.176205657044558
 21
6.745031481545067
 31
0.0
  0
LINE
  5
67
330
1F
100
AcDbEntity
  8
0
  6
Continuous
 62
     7
370
    15
100
AcDbLine
 10
4.176205657044558
 20
6.720192321450164
 30
0.0
 11
4.176205657044558
 21
6.722948400240167
 31
0.0
  0
LINE
  5
68
330
1F
100
AcDbEntity
  8
0
  6
Continuous
 62
     7
370
    15
100
AcDbLine
 10
4.176205657044558
 20
6.698109240145265
 30
0.0
 11
4.176205657044558
 21
6.700865318935268
 31
0.0
  0
LINE
  5
69
330
1F
100
AcDbEntity
  8
0
  6
Continuous
 62
     7
370
    15
100
AcDbLine
 10
4.176205657044558
 20
6.676026158840366
 30
0.0
 11
4.176205657044558
 21
6.678782237630368
 31
0.0
  0
LINE
  5
6A
330
1F
100
AcDbEntity
  8
0
  6
Continuous
 62
     7
370
    15
100
AcDbLine
 10
4.024805657044558
 20
6.760873963204396
 30
0.0
 11
4.024805657044558
 21
6.741581372373869
 31
0.0
  0
LINE
  5
6B
330
1F
100
AcDbEntity
  8
0
  6
Continuous
 62
     7
370
    15
100
AcDbLine
 10
4.160938990377892
 20
6.752622913026319
 30
0.0
 11
4.160938990377892
 21
6.760873963204396
 31
0.0
  0
LINE
  5
6C
330
1F
100
AcDbEntity
  8
0
  6
Continuous
 62
     7
370
    15
100
AcDbLine
 10
4.147830279087954
 20
6.781280025379095
 30
0.0
 11
4.139419720294992
 21
6.787128769015999
 31
0.0
  0
LINE
  5
6D
330
1F
100
AcDbEntity
  8
0
  6
Continuous
 62
     7
370
    15
100
AcDbLine
 10
4.046324927127458
 20
6.787128769015999
 30
0.0
 11
4.037914368334496
 21
6.781280025379094
 31
0.0
  0
LINE
  5
6E
330
1F
100
AcDbEntity
  8
0
  6
Continuous
 62
     7
370
    15
100
AcDbLine
 10
4.029475255471794
 20
6.777737363133264
 30
0.0
 11
4.029475255471794
 21
6.774981284343261
 31
0.0
  0
LINE
  5
6F
330
1F
100
AcDbEntity
  8
0
  6
Continuous
 62
     7
370
    15
100
AcDbLine
 10
5.500313001593329
 20
6.495410814365346
 30
0.0
 11
5.500313001593329
 21
6.534024626579452
 31
0.0
  0
ARC
  5
70
330
1F
100
AcDbEntity
  8
0
  6
Continuous
 62
     7
370
    15
100
AcDbCircle
 10
5.470850219043889
 20
6.430529297711016
 30
0.0
 40
0.0712577487640583
100
AcDbArc
 50
65.57713827236202
 51
114.4228617276367
  0
LINE
  5
71
330
1F
100
AcDbEntity
  8
0
  6
Continuous
 62
     7
370
    15
100
AcDbLine
 10
5.441387436494451
 20
6.495410814365346
 30
0.0
 11
5.441387436494451
 21
6.534024626579452
 31
0.0
  0
ARC
  5
72
330
1F
100
AcDbEntity
  8
0
  6
Continuous
 62
     7
370
    15
100
AcDbCircle
 10
5.470850219043889
 20
6.469143109925113
 30
0.0
 40
0.0712577487640672
100
AcDbArc
 50
65.57713827236527
 51
114.4228617276334
  0
LINE
  5
73
330
1F
100
AcDbEntity
  8
0
  6
Continuous
 62
     7
370
    15
100
AcDbLine
 10
5.540272421839223
 20
6.936586840722958
 30
0.0
 11
5.606266885710558
 21
6.936586840722958
 31
0.0
  0
LWPOLYLINE
  5
74
330
1F
100
AcDbEntity
  8
0
  6
Continuous
 62
     7
370
    15
100
AcDbPolyline
 90
       31
 70
   128
 43
0.0
 10
5.31511653673008
 20
6.821060727725803
 10
5.312610158250745
 20
6.821304860135488
 10
5.305161162579475
 20
6.822206902602328
 10
5.297847370749774
 20
6.823359749563811
 10
5.290701447931408
 20
6.824758252125549
 10
5.283755309550381
 20
6.826396164235612
 10
5.277039978746902
 20
6.828266170580904
 10
5.270585447818512
 20
6.830359919259138
 10
5.264420544267197
 20
6.83266805908045
 10
5.258572802048773
 20
6.835180281332091
 10
5.253068338599547
 20
6.837885365819633
 10
5.247931738189511
 20
6.840771230979084
 10
5.243185942123026
 20
6.843824987836088
 10
5.238852146277384
 20
6.847032997571212
 10
5.234949706436878
 20
6.850380932434221
 10
5.231496051845166
 20
6.853853839735295
 10
5.228506607362042
 20
6.857436208627366
 10
5.225994724572267
 20
6.861112039381329
 10
5.223971622154149
 20
6.864864914844713
 10
5.222446335774201
 20
6.868678073764677
 10
5.221425677731668
 20
6.872534485647825
 10
5.220914206533135
 20
6.876416926822528
 10
5.220914206533135
 20
6.880308057364024
 10
5.221425677731668
 20
6.884190498538726
 10
5.222446335774201
 20
6.888046910421874
 10
5.223971622154149
 20
6.891860069341837
 10
5.225994724572267
 20
6.895612944805223
 10
5.228506607362042
 20
6.899288775559186
 10
5.231496051845166
 20
6.902871144451255
 10
5.234949706436878
 20
6.906344051752329
 10
5.238197089933904
 20
6.909164358442371
  0
LINE
  5
75
330
1F
100
AcDbEntity
  8
0
  6
Continuous
 62
     7
370
    15
100
AcDbLine
 10
5.60626688571056
 20
6.820138143463593
 30
0.0
 11
5.46367125717095
 21
6.820138143463593
 31
0.0
  0
LWPOLYLINE
  5
76
330
1F
100
AcDbEntity
  8
0
  6
Continuous
 62
     7
370
    15
100
AcDbPolyline
 90
       48
 70
   128
 43
0.0
 10
5.60626688571056
 20
6.820138143463593
 10
5.613920208327187
 20
6.820268165501171
 10
5.621539349347139
 20
6.820657650903922
 10
5.62909027983704
 20
6.821304860135489
 10
5.636539275508311
 20
6.822206902602328
 10
5.64385306733801
 20
6.823359749563811
 10
5.650998990156376
 20
6.82475825212555
 10
5.657945128537405
 20
6.826396164235613
 10
5.664660459340883
 20
6.828266170580906
 10
5.671114990269273
 20
6.830359919259139
 10
5.677279893820587
 20
6.832668059080452
 10
5.683127636039012
 20
6.835180281332092
 10
5.688632099488239
 20
6.837885365819634
 10
5.693768699898273
 20
6.840771230979084
 10
5.69851449596476
 20
6.843824987836089
 10
5.702848291810401
 20
6.847032997571213
 10
5.706750731650907
 20
6.850380932434223
 10
5.71020438624262
 20
6.853853839735297
 10
5.713193830725742
 20
6.857436208627368
 10
5.715705713515518
 20
6.861112039381329
 10
5.717728815933636
 20
6.864864914844715
 10
5.719254102313583
 20
6.868678073764678
 10
5.720274760356117
 20
6.872534485647826
 10
5.72078623155465
 20
6.876416926822529
 10
5.72078623155465
 20
6.880308057364024
 10
5.720274760356117
 20
6.884190498538728
 10
5.719254102313583
 20
6.888046910421874
 10
5.717728815933636
 20
6.891860069341838
 10
5.715705713515518
 20
6.895612944805224
 10
5.713193830725742
 20
6.899288775559186
 10
5.710204386242618
 20
6.902871144451257
 10
5.706750731650907
 20
6.906344051752332
 10
5.7028482918104
 20
6.909691986615341
 10
5.698514495964758
 20
6.912899996350464
 10
5.693768699898273
 20
6.915953753207469
 10
5.688632099488238
 20
6.918839618366921
 10
5.68312763603901
 20
6.921544702854461
 10
5.677279893820587
 20
6.924056925106101
 10
5.671114990269272
 20
6.926365064927414
 10
5.664660459340883
 20
6.928458813605648
 10
5.657945128537402
 20
6.93032881995094
 10
5.650998990156375
 20
6.931966732061003
 10
5.643853067338008
 20
6.933365234622741
 10
5.636539275508309
 20
6.934518081584225
 10
5.629090279837039
 20
6.935420124051064
 10
5.621539349347137
 20
6.936067333282631
 10
5.613920208327186
 20
6.93645681868538
 10
5.606266885710558
 20
6.936586840722958
  0
LINE
  5
77
330
1F
100
AcDbEntity
  8
0
  6
Continuous
 62
     7
370
    15
100
AcDbLine
 10
4.793206220406783
 20
6.863391280549197
 30
0.0
 11
5.441387436494451
 21
6.534024626579452
 31
0.0
  0
LWPOLYLINE
  5
78
330
1F
100
AcDbEntity
  8
0
  6
Continuous
 62
     7
370
    15
100
AcDbPolyline
 90
       15
 70
   128
 43
0.0
 10
4.793206220406783
 20
6.863391280549197
 10
4.796319749626845
 20
6.865161660242195
 10
4.799023612825188
 20
6.867098048055021
 10
4.801283807353278
 20
6.869176092787411
 10
4.803071909953525
 20
6.871369661821145
 10
4.804365434198253
 20
6.873651169752885
 10
4.805148113269562
 20
6.87599192529663
 10
4.80541010452401
 20
6.878362492093277
 10
4.805148113269562
 20
6.880733058889924
 10
4.804365434198253
 20
6.883073814433668
 10
4.803071909953525
 20
6.885355322365408
 10
4.801283807353278
 20
6.887548891399142
 10
4.799023612825188
 20
6.889626936131532
 10
4.796319749626845
 20
6.891563323944358
 10
4.793206220406783
 20
6.893333703637356
  0
LINE
  5
79
330
1F
100
AcDbEntity
  8
0
  6
Continuous
 62
     7
370
    15
100
AcDbLine
 10
5.441387436494452
 20
7.222700357607099
 30
0.0
 11
4.793206220406783
 21
6.893333703637356
 31
0.0
  0
ARC
  5
7A
330
1F
100
AcDbEntity
  8
0
  6
Continuous
 62
     7
370
    15
100
AcDbCircle
 10
5.470850219043891
 20
7.287581874261451
 30
0.0
 40
0.071257748764079
100
AcDbArc
 50
245.5771382723711
 51
294.4228617276305
  0
LINE
  5
7B
330
1F
100
AcDbEntity
  8
0
  6
Continuous
 62
     7
370
    15
100
AcDbLine
 10
6.148494217680999
 20
6.893333703637355
 30
0.0
 11
5.500313001593331
 21
7.222700357607099
 31
0.0
  0
LWPOLYLINE
  5
7C
330
1F
100
AcDbEntity
  8
0
  6
Continuous
 62
     7
370
    15
100
AcDbPolyline
 90
       15
 70
   128
 43
0.0
 10
6.148494217680999
 20
6.893333703637355
 10
6.145380688460937
 20
6.891563323944357
 10
6.142676825262594
 20
6.889626936131531
 10
6.140416630734504
 20
6.88754889139914
 10
6.138628528134257
 20
6.885355322365407
 10
6.137335003889529
 20
6.883073814433667
 10
6.13655232481822
 20
6.880733058889923
 10
6.136290333563771
 20
6.878362492093275
 10
6.13655232481822
 20
6.875991925296628
 10
6.137335003889529
 20
6.873651169752885
 10
6.138628528134257
 20
6.871369661821145
 10
6.140416630734504
 20
6.86917609278741
 10
6.142676825262594
 20
6.867098048055019
 10
6.145380688460937
 20
6.865161660242193
 10
6.148494217680998
 20
6.863391280549196
  0
LINE
  5
7D
330
1F
100
AcDbEntity
  8
0
  6
Continuous
 62
     7
370
    15
100
AcDbLine
 10
5.500313001593329
 20
6.534024626579452
 30
0.0
 11
6.148494217680998
 21
6.863391280549196
 31
0.0
  0
LINE
  5
7E
330
1F
100
AcDbEntity
  8
0
  6
Continuous
 62
     7
370
    15
100
AcDbLine
 10
6.148494217680998
 20
6.82477746833509
 30
0.0
 11
6.148494217680998
 21
6.863391280549196
 31
0.0
  0
LINE
  5
7F
330
1F
100
AcDbEntity
  8
0
  6
Continuous
 62
     7
370
    15
100
AcDbLine
 10
5.500313001593329
 20
6.495410814365346
 30
0.0
 11
6.148494217680998
 21
6.82477746833509
 31
0.0
  0
LINE
  5
80
330
1F
100
AcDbEntity
  8
0
  6
Continuous
 62
     7
370
    15
100
AcDbLine
 10
4.793206220406783
 20
6.82477746833509
 30
0.0
 11
4.793206220406783
 21
6.863391280549197
 31
0.0
  0
LINE
  5
81
330
1F
100
AcDbEntity
  8
0
  6
Continuous
 62
     7
370
    15
100
AcDbLine
 10
4.793206220406783
 20
6.82477746833509
 30
0.0
 11
5.441387436494451
 21
6.495410814365346
 31
0.0
  0
ARC
  5
82
330
1F
100
AcDbEntity
  8
0
  6
Continuous
 62
     7
370
    15
100
AcDbCircle
 10
5.275021383202657
 20
6.824919655120346
 30
0.0
 40
0.0586466595809589
100
AcDbArc
 50
127.4982401494551
 51
144.404369607727
  0
LINE
  5
83
330
1F
100
AcDbEntity
  8
0
  6
Continuous
 62
     7
370
    15
100
AcDbLine
 10
5.606266885710557
 20
6.897973028508853
 30
0.0
 11
5.606266885710558
 21
6.936586840722958
 31
0.0
  0
LWPOLYLINE
  5
84
330
1F
100
AcDbEntity
  8
0
  6
Continuous
 62
     7
370
    15
100
AcDbPolyline
 90
       20
 70
   128
 43
0.0
 10
5.714367301906007
 20
6.859055585986229
 10
5.713193830725742
 20
6.86067496334508
 10
5.710204386242618
 20
6.86425733223715
 10
5.706750731650907
 20
6.867730239538225
 10
5.7028482918104
 20
6.871078174401234
 10
5.698514495964758
 20
6.874286184136359
 10
5.693768699898273
 20
6.877339940993364
 10
5.688632099488238
 20
6.880225806152814
 10
5.68312763603901
 20
6.882930890640356
 10
5.677279893820587
 20
6.885443112891996
 10
5.671114990269272
 20
6.887751252713308
 10
5.664660459340883
 20
6.889845001391543
 10
5.657945128537402
 20
6.891715007736834
 10
5.650998990156375
 20
6.893352919846896
 10
5.643853067338008
 20
6.894751422408635
 10
5.636539275508309
 20
6.895904269370118
 10
5.629090279837039
 20
6.896806311836959
 10
5.621539349347137
 20
6.897453521068524
 10
5.613920208327186
 20
6.897843006471274
 10
5.606266885710557
 20
6.897973028508853
  0
LINE
  5
85
330
1F
100
AcDbEntity
  8
0
  6
Continuous
 62
     7
370
    15
100
AcDbLine
 10
6.148494217680999
 20
6.863391280549196
 30
0.0
 11
6.148494217680999
 21
6.893333703637355
 31
0.0
  0
LINE
  5
86
330
1F
100
AcDbEntity
  8
0
  6
Continuous
 62
     7
370
    15
100
AcDbLine
 10
4.793206220406783
 20
6.863391280549197
 30
0.0
 11
4.793206220406783
 21
6.893333703637356
 31
0.0
  0
LINE
  5
87
330
1F
100
AcDbEntity
  8
0
  6
Continuous
 62
     7
370
    15
100
AcDbLine
 10
5.536358232644067
 20
6.897973028508853
 30
0.0
 11
5.606266885710557
 21
6.897973028508853
 31
0.0
  0
SPLINE
  5
88
330
1F
100
AcDbEntity
  8
0
  6
Continuous
 62
     7
370
    15
100
AcDbSpline
210
0.0
220
0.0
230
1.0
 70
     8
 71
     3
 72
    18
 73
    14
 74
     0
 42
0.0000000001
 43
0.0000000001
 40
0.0
 40
0.0
 40
0.0
 40
0.0
 40
0.1668696973096997
 40
0.2867504264833969
 40
0.4065971872192489
 40
0.5407109445712264
 40
0.6745043649497353
 40
0.7724641654776253
 40
0.8219292386440596
 40
0.8712889251220095
 40
0.9300099572139664
 40
0.9892189115295034
 40
1.0
 40
1.0
 40
1.0
 40
1.0
 10
5.408770208390581
 20
6.948467297592758
 30
0.0
 10
5.404999412923032
 20
6.947946665474951
 30
0.0
 10
5.398519643222877
 20
6.947052006443211
 30
0.0
 10
5.38933417565161
 20
6.945558715563888
 30
0.0
 10
5.38090510689422
 20
6.943877157502254
 30
0.0
 10
5.372210758758628
 20
6.941647183592229
 30
0.0
 10
5.364177500494756
 20
6.93870408736941
 30
0.0
 10
5.358324276679693
 20
6.935618323305712
 30
0.0
 10
5.354593641446636
 20
6.932933247016356
 30
0.0
 10
5.351922613713243
 20
6.930448611985037
 30
0.0
 10
5.349677726251131
 20
6.927383743425573
 30
0.0
 10
5.34880749542332
 20
6.924704852551443
 30
0.0
 10
5.348770096156035
 20
6.923289659744406
 30
0.0
 10
5.348764335267867
 20
6.923071667037899
 30
0.0
  0
LINE
  5
89
330
1F
100
AcDbEntity
  8
0
  6
Continuous
 62
     7
370
    15
100
AcDbLine
 10
5.408770208390581
 20
6.948467297592758
 30
0.0
 11
5.439796128097811
 21
6.952691651577361
 31
0.0
  0
SPLINE
  5
8A
330
1F
100
AcDbEntity
  8
0
  6
Continuous
 62
     7
370
    15
100
AcDbSpline
210
0.0
220
0.0
230
1.0
 70
     8
 71
     3
 72
    17
 73
    13
 74
     0
 42
0.0000000001
 43
0.0000000001
 40
0.0
 40
0.0
 40
0.0
 40
0.0
 40
0.0506429177390891
 40
0.1010826615973928
 40
0.1431741898590027
 40
0.1853532903972697
 40
0.2585036010286204
 40
0.3318431071058848
 40
0.4684870760120232
 40
0.6059130110210309
 40
0.7433087176824789
 40
1.0
 40
1.0
 40
1.0
 40
1.0
 10
5.499802001220526
 20
6.943636297257182
 30
0.0
 10
5.499679641838111
 20
6.944644494169736
 30
0.0
 10
5.499435413965819
 20
6.946656843218431
 30
0.0
 10
5.497785194009027
 20
6.948993281073432
 30
0.0
 10
5.495776594788297
 20
6.950764767295964
 30
0.0
 10
5.493025658269256
 20
6.952421929154228
 30
0.0
 10
5.489328765216293
 20
6.953853803550322
 30
0.0
 10
5.483383486657483
 20
6.955186641528113
 30
0.0
 10
5.475742725192396
 20
6.955878380736642
 30
0.0
 10
5.466506677857689
 20
6.955678024358539
 30
0.0
 10
5.454507260017388
 20
6.954649544454754
 30
0.0
 10
5.445598748565233
 20
6.953463917732371
 30
0.0
 10
5.439796128097811
 20
6.952691651577361
 30
0.0
  0
LINE
  5
8B
330
1F
100
AcDbEntity
  8
0
  6
Continuous
 62
     7
370
    15
100
AcDbLine
 10
5.499802001220526
 20
6.943636297257182
 30
0.0
 11
5.499802001220526
 21
6.841718800335192
 31
0.0
  0
SPLINE
  5
8C
330
1F
100
AcDbEntity
  8
0
  6
Continuous
 62
     7
370
    15
100
AcDbSpline
210
0.0
220
0.0
230
1.0
 70
     8
 71
     3
 72
    27
 73
    23
 74
     0
 42
0.0000000001
 43
0.0000000001
 40
0.0
 40
0.0
 40
0.0
 40
0.0
 40
0.1667517656206221
 40
0.2864459230692007
 40
0.3463638423495615
 40
0.4063185206151527
 40
0.4727920843583278
 40
0.5393931149818014
 40
0.5841806814313826
 40
0.60660220279525
 40
0.6289754129080516
 40
0.6741680686423349
 40
0.7229812183723437
 40
0.7721556282564723
 40
0.821025056162235
 40
0.8459005312183821
 40
0.8709552747001753
 40
0.9000878833966668
 40
0.9297834130220202
 40
0.9589705700013407
 40
0.9892265308396234
 40
1.0
 40
1.0
 40
1.0
 40
1.0
 10
5.439796128097811
 20
6.816323169780333
 30
0.0
 10
5.443566933626494
 20
6.816843260396543
 30
0.0
 10
5.450044417486158
 20
6.817736671246414
 30
0.0
 10
5.457874596881922
 20
6.819014249033446
 30
0.0
 10
5.463282575048926
 20
6.820039560165159
 30
0.0
 10
5.467481517260196
 20
6.82093228029613
 30
0.0
 10
5.471816524592561
 20
6.821985663578383
 30
0.0
 10
5.475786115560024
 20
6.823113022307561
 30
0.0
 10
5.478744958147514
 20
6.824084334800768
 30
0.0
 10
5.480709662914412
 20
6.824792412329345
 30
0.0
 10
5.482670307065763
 20
6.825545467758654
 30
0.0
 10
5.485176441799302
 20
6.826607282224242
 30
0.0
 10
5.488186348432253
 20
6.828088882060233
 30
0.0
 10
5.491154874950384
 20
6.829830160605408
 30
0.0
 10
5.493487925701454
 20
6.83150894783538
 30
0.0
 10
5.495213824903064
 20
6.833011996140035
 30
0.0
 10
5.496492187775064
 20
6.834303728845087
 30
0.0
 10
5.497696972160323
 20
6.83577988257924
 30
0.0
 10
5.498733112947994
 20
6.837445200513174
 30
0.0
 10
5.49947469552891
 20
6.839226074808377
 30
0.0
 10
5.49977471103187
 20
6.840670556022412
 30
0.0
 10
5.499796325669338
 20
6.84150079655626
 30
0.0
 10
5.499802001220526
 20
6.841718800335192
 30
0.0
  0
LINE
  5
8D
330
1F
100
AcDbEntity
  8
0
  6
Continuous
 62
     7
370
    15
100
AcDbLine
 10
5.408770208390581
 20
6.812098815795729
 30
0.0
 11
5.439796128097811
 21
6.816323169780333
 31
0.0
  0
SPLINE
  5
8E
330
1F
100
AcDbEntity
  8
0
  6
Continuous
 62
     7
370
    15
100
AcDbSpline
210
0.0
220
0.0
230
1.0
 70
     8
 71
     3
 72
    17
 73
    13
 74
     0
 42
0.0000000001
 43
0.0000000001
 40
0.0
 40
0.0
 40
0.0
 40
0.0
 40
0.0506429177390882
 40
0.1010826615973922
 40
0.1431741898590007
 40
0.1853532903972656
 40
0.2585036010286172
 40
0.3318431071058818
 40
0.4684870760120201
 40
0.6059130110210277
 40
0.743308717682476
 40
1.0
 40
1.0
 40
1.0
 40
1.0
 10
5.348764335267867
 20
6.821154170115909
 30
0.0
 10
5.348886694650282
 20
6.820145973203354
 30
0.0
 10
5.349130922522574
 20
6.81813362415466
 30
0.0
 10
5.350781142479366
 20
6.815797186299657
 30
0.0
 10
5.352789741700095
 20
6.814025700077125
 30
0.0
 10
5.355540678219136
 20
6.81236853821886
 30
0.0
 10
5.359237571272099
 20
6.810936663822766
 30
0.0
 10
5.365182849830908
 20
6.809603825844977
 30
0.0
 10
5.372823611295997
 20
6.808912086636448
 30
0.0
 10
5.382059658630703
 20
6.809112443014551
 30
0.0
 10
5.394059076471004
 20
6.810140922918335
 30
0.0
 10
5.40296758792316
 20
6.811326549640718
 30
0.0
 10
5.408770208390581
 20
6.812098815795729
 30
0.0
  0
LINE
  5
8F
330
1F
100
AcDbEntity
  8
0
  6
Continuous
 62
     7
370
    15
100
AcDbLine
 10
5.348764335267867
 20
6.923071667037898
 30
0.0
 11
5.348764335267867
 21
6.821154170115909
 31
0.0
  0
LINE
  5
90
330
1F
100
AcDbEntity
  8
0
  6
Continuous
 62
     7
370
    15
100
AcDbLine
 10
5.262588985308244
 20
7.042737648331831
 30
0.0
 11
5.25427561517826
 21
7.026972144632133
 31
0.0
  0
LINE
  5
91
330
1F
100
AcDbEntity
  8
0
  6
Continuous
 62
     7
370
    15
100
AcDbLine
 10
5.496345073960864
 20
7.05993126695336
 30
0.0
 11
5.473632524383619
 21
7.071472416668454
 31
0.0
  0
ARC
  5
92
330
1F
100
AcDbEntity
  8
0
  6
Continuous
 62
     7
370
    15
100
AcDbCircle
 10
5.475504484171981
 20
7.015192895177061
 30
0.0
 40
0.049354352310034
100
AcDbArc
 50
350.5842504284729
 51
65.02236381729129
  0
LINE
  5
93
330
1F
100
AcDbEntity
  8
0
  6
Continuous
 62
     7
370
    15
100
AcDbLine
 10
5.515880526464882
 20
6.991353160253468
 30
0.0
 11
5.524193896594868
 21
7.007118663953165
 31
0.0
  0
ARC
  5
94
330
1F
100
AcDbEntity
  8
0
  6
Continuous
 62
     7
370
    15
100
AcDbCircle
 10
5.422469392384282
 20
7.080986392167511
 30
0.0
 40
0.1294594771871891
100
AcDbArc
 50
277.6914941566987
 51
316.1823752165225
  0
ARC
  5
95
330
1F
100
AcDbEntity
  8
0
  6
Continuous
 62
     7
370
    15
100
AcDbCircle
 10
5.388429524784115
 20
7.187820601793736
 30
0.0
 40
0.2402160436804839
100
AcDbArc
 50
249.6356382688924
 51
274.8574297484053
  0
LINE
  5
96
330
1F
100
AcDbEntity
  8
0
  6
Continuous
 62
     7
370
    15
100
AcDbLine
 10
5.282124437812262
 20
6.974159541631939
 30
0.0
 11
5.304836987389507
 21
6.962618391916845
 31
0.0
  0
ARC
  5
97
330
1F
100
AcDbEntity
  8
0
  6
Continuous
 62
     7
370
    15
100
AcDbCircle
 10
5.302965027601143
 20
7.018897913408236
 30
0.0
 40
0.0493543523100299
100
AcDbArc
 50
170.5842504284692
 51
245.0223638172936
  0
LWPOLYLINE
  5
98
330
1F
100
AcDbEntity
  8
0
  6
Continuous
 62
     7
370
    15
100
AcDbPolyline
 90
       31
 70
   128
 43
0.0
 10
5.330309190787684
 20
6.987102981204492
 10
5.335114085192381
 20
6.984846028262696
 10
5.340252651528857
 20
6.982787595181505
 10
5.345693208826901
 20
6.98094037288536
 10
5.351402214241601
 20
6.979315750113983
 10
5.35734446985614
 20
6.977923743207002
 10
5.363483339688651
 20
6.976772934349885
 10
5.369780975565238
 20
6.975870418661922
 10
5.376198550466544
 20
6.975221760452442
 10
5.382696497909242
 20
6.974830958915013
 10
5.389234755886564
 20
6.974700423471063
 10
5.395773013863884
 20
6.974830958915013
 10
5.402270961306583
 20
6.975221760452442
 10
5.408688536207889
 20
6.975870418661922
 10
5.414986172084476
 20
6.976772934349885
 10
5.421125041916988
 20
6.977923743207002
 10
5.427067297531526
 20
6.979315750113983
 10
5.432776302946226
 20
6.98094037288536
 10
5.43821686024427
 20
6.982787595181505
 10
5.443355426580745
 20
6.984846028262696
 10
5.448160320985443
 20
6.987102981204492
 10
5.452601919686565
 20
6.989544539141491
 10
5.456652838751142
 20
6.992155649057113
 10
5.460288102916071
 20
6.994920212590447
 10
5.463485299568927
 20
6.997821185287995
 10
5.466224716929171
 20
7.00084068168841
 10
5.468489465577826
 20
7.003960085592297
 10
5.47026558258637
 20
7.007160164837283
 10
5.471542117602825
 20
7.010421189870686
 10
5.472311200364324
 20
7.013723055388775
 10
5.472568089219897
 20
7.017045404292649
  0
ARC
  5
99
330
1F
100
AcDbEntity
  8
0
  6
Continuous
 62
     7
370
    15
100
AcDbCircle
 10
5.339723555049064
 20
7.01889639156099
 30
0.0
 40
0.0331579733479409
100
AcDbArc
 50
171.8969447555408
 51
253.5054226213026
  0
SPLINE
  5
9A
330
1F
100
AcDbEntity
  8
0
  6
Continuous
 62
     7
370
    15
100
AcDbSpline
210
0.0
220
0.0
230
1.0
 70
     8
 71
     3
 72
    17
 73
    13
 74
     0
 42
0.0000000001
 43
0.0000000001
 40
0.0
 40
0.0
 40
0.0
 40
0.0
 40
0.0311805025621815
 40
0.0795023118087604
 40
0.1519990610425139
 40
0.2111856014287135
 40
0.2705151399580527
 40
0.3888014815649521
 40
0.5074405447561095
 40
0.6713951500069899
 40
0.8356878644246247
 40
1.0
 40
1.0
 40
1.0
 40
1.0
 10
5.348764335267867
 20
6.923071667037898
 30
0.0
 10
5.348730262998883
 20
6.923718353212715
 30
0.0
 10
5.348643387421835
 20
6.925367237665754
 30
0.0
 10
5.347659278821102
 20
6.928756863045258
 30
0.0
 10
5.345702055492378
 20
6.932557755210651
 30
0.0
 10
5.343148547782866
 20
6.9361522503887
 30
0.0
 10
5.339680075175865
 20
6.940158375406818
 30
0.0
 10
5.335019945101674
 20
6.944480607454741
 30
0.0
 10
5.328503422095025
 20
6.949353743371021
 30
0.0
 10
5.321139090664291
 20
6.95401679772082
 30
0.0
 10
5.312991689743856
 20
6.958480152977462
 30
0.0
 10
5.307555328607308
 20
6.96123892458754
 30
0.0
 10
5.304836987389507
 20
6.962618391916845
 30
0.0
  0
SPLINE
  5
9B
330
1F
100
AcDbEntity
  8
0
  6
Continuous
 62
     7
370
    15
100
AcDbSpline
210
0.0
220
0.0
230
1.0
 70
     8
 71
     3
 72
    18
 73
    14
 74
     0
 42
0.0000000001
 43
0.0000000001
 40
0.0
 40
0.0
 40
0.0
 40
0.0
 40
0.1668735879144937
 40
0.2866551892157342
 40
0.4066054298187474
 40
0.539742787249682
 40
0.6744990392659833
 40
0.7724611237488133
 40
0.8213662537401628
 40
0.871285924194141
 40
0.9300083253802636
 40
0.9892186601659833
 40
1.0
 40
1.0
 40
1.0
 40
1.0
 10
5.515880526464882
 20
6.991353160253468
 30
0.0
 10
5.514870132583014
 20
6.989430372511026
 30
0.0
 10
5.513134479547633
 20
6.986127410724084
 30
0.0
 10
5.51067337247175
 20
6.981212099191506
 30
0.0
 10
5.508420391733426
 20
6.976416027612763
 30
0.0
 10
5.506091319180886
 20
6.970933372070224
 30
0.0
 10
5.503937131289457
 20
6.965022741604419
 30
0.0
 10
5.502366602345539
 20
6.959749541463368
 30
0.0
 10
5.501366952461538
 20
6.955677972810368
 30
0.0
 10
5.500650196387263
 20
6.952201191740547
 30
0.0
 10
5.500046765388149
 20
6.948288112685252
 30
0.0
 10
5.499813565183152
 20
6.945285538644822
 30
0.0
 10
5.499803544743592
 20
6.943856433053633
 30
0.0
 10
5.499802001220526
 20
6.943636297257182
 30
0.0
  0
SPLINE
  5
9C
330
1F
100
AcDbEntity
  8
0
  6
Continuous
 62
     7
370
    15
100
AcDbSpline
210
0.0
220
0.0
230
1.0
 70
     8
 71
     3
 72
    17
 73
    13
 74
     0
 42
0.0000000001
 43
0.0000000001
 40
0.0
 40
0.0
 40
0.0
 40
0.0
 40
0.0311805025623031
 40
0.0795023118088798
 40
0.1519990610426928
 40
0.2111856014289621
 40
0.2705151399583747
 40
0.3888014815654738
 40
0.5074405447568315
 40
0.6713951500074734
 40
0.8356878644248666
 40
1.0
 40
1.0
 40
1.0
 40
1.0
 10
5.238197089933904
 20
6.877337784713858
 30
0.0
 10
5.238231162202888
 20
6.876691098539039
 30
0.0
 10
5.238318037779936
 20
6.875042214085997
 30
0.0
 10
5.239302146380672
 20
6.871652588706488
 30
0.0
 10
5.241259369709398
 20
6.867851696541092
 30
0.0
 10
5.243812877418915
 20
6.864257201363042
 30
0.0
 10
5.247281350025922
 20
6.860251076344918
 30
0.0
 10
5.251941480100121
 20
6.855928844296993
 30
0.0
 10
5.258458003106775
 20
6.851055708380715
 30
0.0
 10
5.265822334537504
 20
6.846392654030922
 30
0.0
 10
5.273969735457927
 20
6.841929298774289
 30
0.0
 10
5.279406096594466
 20
6.839170527164214
 30
0.0
 10
5.282124437812262
 20
6.83779105983491
 30
0.0
  0
LINE
  5
9D
330
1F
100
AcDbEntity
  8
0
  6
Continuous
 62
     7
370
    15
100
AcDbLine
 10
5.238197089933904
 20
6.979255281635848
 30
0.0
 11
5.238197089933904
 21
6.877337784713858
 31
0.0
  0
SPLINE
  5
9E
330
1F
100
AcDbEntity
  8
0
  6
Continuous
 62
     7
370
    15
100
AcDbSpline
210
0.0
220
0.0
230
1.0
 70
     8
 71
     3
 72
    18
 73
    14
 74
     0
 42
0.0000000001
 43
0.0000000001
 40
0.0
 40
0.0
 40
0.0
 40
0.0
 40
0.1706640891065863
 40
0.3412653603650421
 40
0.4846432644670507
 40
0.6277470208464509
 40
0.690201309069032
 40
0.752600635612358
 40
0.8159809590640165
 40
0.8790960319924423
 40
0.9368116684046686
 40
0.9949929957743531
 40
1.0
 40
1.0
 40
1.0
 40
1.0
 10
5.282124437812262
 20
6.974159541631939
 30
0.0
 10
5.279301211975393
 20
6.975590490771471
 30
0.0
 10
5.273655799471479
 20
6.978451862348367
 30
0.0
 10
5.265640969376241
 20
6.98215622108605
 30
0.0
 10
5.258109932351572
 20
6.985088124862997
 30
0.0
 10
5.252435434309136
 20
6.986557556653925
 30
0.0
 10
5.248221568905292
 20
6.987004536853326
 30
0.0
 10
5.245369299464214
 20
6.986913518619214
 30
0.0
 10
5.242685748137993
 20
6.986300645418265
 30
0.0
 10
5.240390504447399
 20
6.984979048645305
 30
0.0
 10
5.238716434917562
 20
6.982800010037698
 30
0.0
 10
5.238209690101204
 20
6.980622735946831
 30
0.0
 10
5.238198015057157
 20
6.979355682190093
 30
0.0
 10
5.238197089933904
 20
6.979255281635848
 30
0.0
  0
SPLINE
  5
9F
330
1F
100
AcDbEntity
  8
0
  6
Continuous
 62
     7
370
    15
100
AcDbSpline
210
0.0
220
0.0
230
1.0
 70
     8
 71
     3
 72
    18
 73
    14
 74
     0
 42
0.0000000001
 43
0.0000000001
 40
0.0
 40
0.0
 40
0.0
 40
0.0
 40
0.1706640891065868
 40
0.3412653603650433
 40
0.4846432644670518
 40
0.627747020846452
 40
0.6902013090690331
 40
0.7526006356123577
 40
0.8159809590640156
 40
0.8790960319924419
 40
0.9368116684046682
 40
0.9949929957743529
 40
1.0
 40
1.0
 40
1.0
 40
1.0
 10
5.304836987389507
 20
6.826249910119817
 30
0.0
 10
5.307660213226378
 20
6.824818960980286
 30
0.0
 10
5.313305625730291
 20
6.821957589403389
 30
0.0
 10
5.321320455825529
 20
6.818253230665705
 30
0.0
 10
5.328851492850198
 20
6.815321326888759
 30
0.0
 10
5.334525990892635
 20
6.813851895097831
 30
0.0
 10
5.338739856296479
 20
6.813404914898429
 30
0.0
 10
5.341592125737556
 20
6.813495933132541
 30
0.0
 10
5.344275677063778
 20
6.81410880633349
 30
0.0
 10
5.346570920754371
 20
6.815430403106449
 30
0.0
 10
5.348244990284207
 20
6.817609441714058
 30
0.0
 10
5.348751735100567
 20
6.819786715804924
 30
0.0
 10
5.348763410144614
 20
6.821053769561662
 30
0.0
 10
5.348764335267867
 20
6.821154170115909
 30
0.0
  0
LINE
  5
A0
330
1F
100
AcDbEntity
  8
0
  6
Continuous
 62
     7
370
    15
100
AcDbLine
 10
5.282124437812262
 20
6.83779105983491
 30
0.0
 11
5.304836987389507
 21
6.826249910119817
 31
0.0
  0
SPLINE
  5
A1
330
1F
100
AcDbEntity
  8
0
  6
Continuous
 62
     7
370
    15
100
AcDbSpline
210
0.0
220
0.0
230
1.0
 70
     8
 71
     3
 72
    27
 73
    23
 74
     0
 42
0.0000000001
 43
0.0000000001
 40
0.0
 40
0.0
 40
0.0
 40
0.0
 40
0.0250166393002905
 40
0.0508046697735767
 40
0.0758140408872462
 40
0.101340681610464
 40
0.1289752877844848
 40
0.1429200650310421
 40
0.1566034483465524
 40
0.1856247766355602
 40
0.2216687986545949
 40
0.2576991907367683
 40
0.2937209090315835
 40
0.3321321609229366
 40
0.382535932242589
 40
0.4331255057792769
 40
0.4835141719779068
 40
0.5339896910427743
 40
0.6347858654515635
 40
0.7434337504945772
 40
0.8716845389427042
 40
1.0
 40
1.0
 40
1.0
 40
1.0
 10
5.540272421839223
 20
7.020384542074413
 30
0.0
 10
5.540264639217887
 20
7.02087482717342
 30
0.0
 10
5.540248833997122
 20
7.021870515373218
 30
0.0
 10
5.540124296356692
 20
7.023117857065543
 30
0.0
 10
5.539935450102905
 20
7.024168804339622
 30
0.0
 10
5.539682047260676
 20
7.025025926898822
 30
0.0
 10
5.539423023962988
 20
7.025582139409357
 30
0.0
 10
5.539189217833504
 20
7.025937031382641
 30
0.0
 10
5.538937282207282
 20
7.026235718718484
 30
0.0
 10
5.538563984632403
 20
7.026520658124728
 30
0.0
 10
5.538051098811707
 20
7.02666817053775
 30
0.0
 10
5.537474400906825
 20
7.026612388436658
 30
0.0
 10
5.536864127568192
 20
7.026373685955701
 30
0.0
 10
5.536156532561737
 20
7.025925563794375
 30
0.0
 10
5.535349012344747
 20
7.025225853562548
 30
0.0
 10
5.534458073048301
 20
7.024268138458339
 30
0.0
 10
5.533557284556508
 20
7.02314870438449
 30
0.0
 10
5.532349553876109
 20
7.021481909786865
 30
0.0
 10
5.530782195794508
 20
7.019054193642636
 30
0.0
 10
5.528738755175094
 20
7.015561874692401
 30
0.0
 10
5.526526029485022
 20
7.011528312449235
 30
0.0
 10
5.524971404849572
 20
7.008588793773173
 30
0.0
 10
5.524193896594868
 20
7.007118663953165
 30
0.0
  0
LINE
  5
A2
330
1F
100
AcDbEntity
  8
0
  6
Continuous
 62
     7
370
    15
100
AcDbLine
 10
5.540272421839223
 20
7.020384542074413
 30
0.0
 11
5.540272421839223
 21
6.918467045152424
 31
0.0
  0
SPLINE
  5
A3
330
1F
100
AcDbEntity
  8
0
  6
Continuous
 62
     7
370
    15
100
AcDbSpline
210
0.0
220
0.0
230
1.0
 70
     8
 71
     3
 72
    18
 73
    14
 74
     0
 42
0.0000000001
 43
0.0000000001
 40
0.0
 40
0.0
 40
0.0
 40
0.0
 40
0.1668696973097008
 40
0.2867504264833975
 40
0.4065971872192498
 40
0.5407109445712277
 40
0.6745043649497388
 40
0.7724641654776279
 40
0.8219292386440628
 40
0.8712889251220094
 40
0.9300099572139661
 40
0.9892189115295034
 40
1.0
 40
1.0
 40
1.0
 40
1.0
 10
5.524193896594868
 20
6.870750182156137
 30
0.0
 10
5.525204278195221
 20
6.872673490341137
 30
0.0
 10
5.526940527253517
 20
6.875978520860152
 30
0.0
 10
5.52940176587134
 20
6.880888659892358
 30
0.0
 10
5.531660328037828
 20
6.885705697753005
 30
0.0
 10
5.533989971599475
 20
6.891169831180455
 30
0.0
 10
5.536142476663871
 20
6.897101171980655
 30
0.0
 10
5.537710843258236
 20
6.902364242406357
 30
0.0
 10
5.538710463956189
 20
6.906437055793063
 30
0.0
 10
5.539426163680311
 20
6.90991527074901
 30
0.0
 10
5.540027679462884
 20
6.913815201815509
 30
0.0
 10
5.540260857110425
 20
6.916817804746049
 30
0.0
 10
5.54027087821389
 20
6.918246909486949
 30
0.0
 10
5.540272421839223
 20
6.918467045152424
 30
0.0
  0
LINE
  5
A4
330
1F
100
AcDbEntity
  8
0
  6
Continuous
 62
     7
370
    15
100
AcDbLine
 10
5.515880526464882
 20
6.85498467845644
 30
0.0
 11
5.524193896594868
 21
6.870750182156136
 31
0.0
  0
SPLINE
  5
A5
330
1F
100
AcDbEntity
  8
0
  6
Continuous
 62
     7
370
    15
100
AcDbSpline
210
0.0
220
0.0
230
1.0
 70
     8
 71
     3
 72
    28
 73
    24
 74
     0
 42
0.0000000001
 43
0.0000000001
 40
0.0
 40
0.0
 40
0.0
 40
0.0
 40
0.0250167589683094
 40
0.0508049127996024
 40
0.0758144035465276
 40
0.1013411663773807
 40
0.1220500760215647
 40
0.1429260759940486
 40
0.1856076393386566
 40
0.2216518337756084
 40
0.2579828237510073
 40
0.2949741837231615
 40
0.3321155886454944
 40
0.382519601073461
 40
0.4329144260986904
 40
0.483303351755726
 40
0.5352022328161173
 40
0.6045015160016689
 40
0.6391852847071473
 40
0.6737967735113642
 40
0.743432523200387
 40
0.8716839251409266
 40
0.9999999999999998
 40
0.9999999999999998
 40
0.9999999999999998
 40
0.9999999999999998
 10
5.499802001220526
 20
6.841718800335192
 30
0.0
 10
5.499809783636776
 20
6.841228515519331
 30
0.0
 10
5.499825588441049
 20
6.840232827894554
 30
0.0
 10
5.499950129246572
 20
6.838985481832429
 30
0.0
 10
5.500138963668603
 20
6.837934550893536
 30
0.0
 10
5.500369957372381
 20
6.837153310132801
 30
0.0
 10
5.500623466198726
 20
6.836573833768659
 30
0.0
 10
5.500975519113826
 20
6.836008286341026
 30
0.0
 10
5.501441260664713
 20
6.835602579329537
 30
0.0
 10
5.502024817384829
 20
6.835434743030618
 30
0.0
 10
5.502608449435279
 20
6.83549206759573
 30
0.0
 10
5.503219146578791
 20
6.835734585217916
 30
0.0
 10
5.50392524260641
 20
6.836184145082901
 30
0.0
 10
5.50472428280101
 20
6.836876513521699
 30
0.0
 10
5.505614044887307
 20
6.837832605911137
 30
0.0
 10
5.506522109025947
 20
6.838960573064313
 30
0.0
 10
5.50754980613388
 20
6.840380295149481
 30
0.0
 10
5.508488541005083
 20
6.841804099645281
 30
0.0
 10
5.509325177022142
 20
6.843148070541046
 30
0.0
 10
5.510164896247803
 20
6.844541023975036
 30
0.0
 10
5.511572013903879
 20
6.846972336093408
 30
0.0
 10
5.513548399483726
 20
6.850575029959239
 30
0.0
 10
5.515103020180175
 20
6.853514548636055
 30
0.0
 10
5.515880526464882
 20
6.85498467845644
 30
0.0
  0
SPLINE
  5
A6
330
1F
100
AcDbEntity
  8
0
  6
Continuous
 62
     7
370
    15
100
AcDbSpline
210
0.0
220
0.0
230
1.0
 70
     8
 71
     3
 72
    17
 73
    13
 74
     0
 42
0.0000000001
 43
0.0000000001
 40
0.0
 40
0.0
 40
0.0
 40
0.0
 40
0.0506466106970321
 40
0.101090032697532
 40
0.1426600854759905
 40
0.1853674451992612
 40
0.2577192825868406
 40
0.3318614305143953
 40
0.4328728896949171
 40
0.5350062725897763
 40
0.7432899993670167
 40
1.0
 40
1.0
 40
1.0
 40
1.0
 10
5.238197089933904
 20
6.979255281635848
 30
0.0
 10
5.23822987397436
 20
6.980342304300699
 30
0.0
 10
5.238295310529266
 20
6.982511988613637
 30
0.0
 10
5.238735894666966
 20
6.985899339418559
 30
0.0
 10
5.239273315012031
 20
6.988965284705807
 30
0.0
 10
5.240006183353459
 20
6.992379444048264
 30
0.0
 10
5.240999705263725
 20
6.996200784494705
 30
0.0
 10
5.242390585859062
 20
7.000726694458366
 30
0.0
 10
5.244014916677949
 20
7.005276281512864
 30
0.0
 10
5.246472994962863
 20
7.011338034475257
 30
0.0
 10
5.249905252747986
 20
7.018647142122051
 30
0.0
 10
5.252721077355261
 20
7.024010941417309
 30
0.0
 10
5.25427561517826
 20
7.026972144632133
 30
0.0
  0
SPLINE
  5
A7
330
1F
100
AcDbEntity
  8
0
  6
Continuous
 62
     7
370
    15
100
AcDbSpline
210
0.0
220
0.0
230
1.0
 70
     8
 71
     3
 72
    15
 73
    11
 74
     0
 42
0.0000000001
 43
0.0000000001
 40
0.0
 40
0.0
 40
0.0
 40
0.0
 40
0.198092696568622
 40
0.3963527274123586
 40
0.5619473398989339
 40
0.7290629810323265
 40
0.8012476554478944
 40
0.8740696491130115
 40
0.9463822603180499
 40
1.0
 40
1.0
 40
1.0
 40
1.0
 10
5.496345073960864
 20
7.05993126695336
 30
0.0
 10
5.499166485246327
 20
7.058490365996853
 30
0.0
 10
5.50481169113991
 20
7.055607346915708
 30
0.0
 10
5.5128141044663
 20
7.051191299769895
 30
0.0
 10
5.520344885794497
 20
7.046448139732744
 30
0.0
 10
5.526015590418702
 20
7.042173119830993
 30
0.0
 10
5.530245364351025
 20
7.038326256572231
 30
0.0
 10
5.533068429537221
 20
7.035347362352313
 30
0.0
 10
5.535547007882494
 20
7.032357785265313
 30
0.0
 10
5.536833255035856
 20
7.030171954488798
 30
0.0
 10
5.537380904308249
 20
7.029241286824186
 30
0.0
  0
SPLINE
  5
A8
330
1F
100
AcDbEntity
  8
0
  6
Continuous
 62
     7
370
    15
100
AcDbSpline
210
0.0
220
0.0
230
1.0
 70
     8
 71
     3
 72
    10
 73
     6
 74
     0
 42
0.0000000001
 43
0.0000000001
 40
0.0
 40
0.0
 40
0.0
 40
0.0
 40
0.4118766420657034
 40
0.9094069713196335
 40
1.0
 40
1.0
 40
1.0
 40
1.0
 10
5.239006161543419
 20
6.872348157526681
 30
0.0
 10
5.2388205275651
 20
6.872772999363481
 30
0.0
 10
5.238410655247139
 20
6.873711032960521
 30
0.0
 10
5.238209173107814
 20
6.875734805511314
 30
0.0
 10
5.238198702759736
 20
6.877123823855192
 30
0.0
 10
5.238197089933904
 20
6.877337784713858
 30
0.0
  0
SPLINE
  5
A9
330
1F
100
AcDbEntity
  8
0
  6
Continuous
 62
     7
370
    15
100
AcDbSpline
210
0.0
220
0.0
230
1.0
 70
     8
 71
     3
 72
    11
 73
     7
 74
     0
 42
0.0000000001
 43
0.0000000001
 40
0.0
 40
0.0
 40
0.0
 40
0.0
 40
0.1568941928723572
 40
0.4767170999884522
 40
0.7991426832660205
 40
0.9999999999999998
 40
0.9999999999999998
 40
0.9999999999999998
 40
0.9999999999999998
 10
5.295439324195628
 20
7.071988643544281
 30
0.0
 10
5.295973713235011
 20
7.072214646327583
 30
0.0
 10
5.297597434218284
 20
7.072901347278537
 30
0.0
 10
5.300383159797523
 20
7.073863797769602
 30
0.0
 10
5.303338911317589
 20
7.074803446400207
 30
0.0
 10
5.305190649806475
 20
7.075300967553014
 30
0.0
 10
5.305901422553231
 20
7.075491936460596
 30
0.0
  0
SPLINE
  5
AA
330
1F
100
AcDbEntity
  8
0
  6
Continuous
 62
     7
370
    15
100
AcDbSpline
210
0.0
220
0.0
230
1.0
 70
     8
 71
     3
 72
    13
 73
     9
 74
     0
 42
0.0000000001
 43
0.0000000001
 40
0.0
 40
0.0
 40
0.0
 40
0.0
 40
0.241107182919976
 40
0.4141735430091864
 40
0.5874835614717063
 40
0.7798469761544082
 40
0.9745494495089975
 40
1.0
 40
1.0
 40
1.0
 40
1.0
 10
5.262588985308244
 20
7.042737648331831
 30
0.0
 10
5.263599412003251
 20
7.044647389083904
 30
0.0
 10
5.265335121404993
 20
7.047927938771128
 30
0.0
 10
5.267795896405544
 20
7.052344098757216
 30
0.0
 10
5.270050085052577
 20
7.056104177953574
 30
0.0
 10
5.272374121939526
 20
7.059409261963216
 30
0.0
 10
5.274068985008681
 20
7.06129848111753
 30
0.0
 10
5.27492282085535
 20
7.061753493285192
 30
0.0
 10
5.275021527618251
 20
7.061806094471153
 30
0.0
  0
LINE
  5
AB
330
1F
100
AcDbEntity
  8
0
  6
Continuous
 62
     7
370
    15
100
AcDbLine
 10
5.471516112674853
 20
7.072535039475706
 30
0.0
 11
5.473632524383619
 21
7.071472416668454
 31
0.0
  0
SPLINE
  5
AC
330
1F
100
AcDbEntity
  8
0
  6
Continuous
 62
     7
370
    15
100
AcDbSpline
210
0.0
220
0.0
230
1.0
 70
     8
 71
     3
 72
    18
 73
    14
 74
     0
 42
0.0000000001
 43
0.0000000001
 40
0.0
 40
0.0
 40
0.0
 40
0.0
 40
0.1668696973096997
 40
0.2867504264833967
 40
0.4065971872192488
 40
0.5407109445712272
 40
0.6745043649497351
 40
0.7724641654776251
 40
0.8219292386440603
 40
0.8712889251220094
 40
0.9300099572139664
 40
0.9892189115295035
 40
1.0
 40
1.0
 40
1.0
 40
1.0
 10
4.112407776215243
 20
6.589158220534856
 30
0.0
 10
4.108636980747694
 20
6.58863758841705
 30
0.0
 10
4.102157211047539
 20
6.58774292938531
 30
0.0
 10
4.092971743476271
 20
6.586249638505987
 30
0.0
 10
4.084542674718882
 20
6.584568080444353
 30
0.0
 10
4.075848326583289
 20
6.582338106534328
 30
0.0
 10
4.067815068319418
 20
6.579395010311509
 30
0.0
 10
4.061961844504355
 20
6.57630924624781
 30
0.0
 10
4.058231209271297
 20
6.573624169958455
 30
0.0
 10
4.055560181537905
 20
6.571139534927136
 30
0.0
 10
4.053315294075794
 20
6.568074666367671
 30
0.0
 10
4.052445063247981
 20
6.565395775493543
 30
0.0
 10
4.052407663980696
 20
6.563980582686505
 30
0.0
 10
4.052401903092528
 20
6.563762589979997
 30
0.0
  0
LINE
  5
AD
330
1F
100
AcDbEntity
  8
0
  6
Continuous
 62
     7
370
    15
100
AcDbLine
 10
4.112407776215243
 20
6.589158220534856
 30
0.0
 11
4.143433695922472
 21
6.59338257451946
 31
0.0
  0
SPLINE
  5
AE
330
1F
100
AcDbEntity
  8
0
  6
Continuous
 62
     7
370
    15
100
AcDbSpline
210
0.0
220
0.0
230
1.0
 70
     8
 71
     3
 72
    17
 73
    13
 74
     0
 42
0.0000000001
 43
0.0000000001
 40
0.0
 40
0.0
 40
0.0
 40
0.0
 40
0.050642917739089
 40
0.1010826615973928
 40
0.1431741898590042
 40
0.1853532903972693
 40
0.2585036010286211
 40
0.3318431071058842
 40
0.4684870760120247
 40
0.6059130110210324
 40
0.743308717682479
 40
0.9999999999999998
 40
0.9999999999999998
 40
0.9999999999999998
 40
0.9999999999999998
 10
4.203439569045188
 20
6.584327220199281
 30
0.0
 10
4.203317209662772
 20
6.585335417111836
 30
0.0
 10
4.20307298179048
 20
6.587347766160529
 30
0.0
 10
4.201422761833689
 20
6.589684204015531
 30
0.0
 10
4.199414162612958
 20
6.591455690238062
 30
0.0
 10
4.196663226093918
 20
6.593112852096327
 30
0.0
 10
4.192966333040954
 20
6.594544726492423
 30
0.0
 10
4.187021054482146
 20
6.595877564470212
 30
0.0
 10
4.179380293017056
 20
6.596569303678742
 30
0.0
 10
4.170144245682351
 20
6.596368947300638
 30
0.0
 10
4.15814482784205
 20
6.595340467396852
 30
0.0
 10
4.149236316389895
 20
6.59415484067447
 30
0.0
 10
4.143433695922472
 20
6.59338257451946
 30
0.0
  0
LINE
  5
AF
330
1F
100
AcDbEntity
  8
0
  6
Continuous
 62
     7
370
    15
100
AcDbLine
 10
4.203439569045188
 20
6.58432722019928
 30
0.0
 11
4.203439569045188
 21
6.482409723277291
 31
0.0
  0
SPLINE
  5
B0
330
1F
100
AcDbEntity
  8
0
  6
Continuous
 62
     7
370
    15
100
AcDbSpline
210
0.0
220
0.0
230
1.0
 70
     8
 71
     3
 72
    27
 73
    23
 74
     0
 42
0.0000000001
 43
0.0000000001
 40
0.0
 40
0.0
 40
0.0
 40
0.0
 40
0.1667517656206221
 40
0.2864459230692007
 40
0.3463638423495615
 40
0.4063185206151527
 40
0.4727920843583278
 40
0.5393931149818014
 40
0.5841806814313826
 40
0.60660220279525
 40
0.6289754129080516
 40
0.6741680686423349
 40
0.7229812183723437
 40
0.7721556282564723
 40
0.821025056162235
 40
0.8459005312183821
 40
0.8709552747001753
 40
0.9000878833966668
 40
0.9297834130220202
 40
0.9589705700013407
 40
0.9892265308396234
 40
1.0
 40
1.0
 40
1.0
 40
1.0
 10
4.143433695922472
 20
6.457014092722431
 30
0.0
 10
4.147204501451156
 20
6.457534183338642
 30
0.0
 10
4.153681985310822
 20
6.458427594188512
 30
0.0
 10
4.161512164706583
 20
6.459705171975544
 30
0.0
 10
4.166920142873587
 20
6.460730483107258
 30
0.0
 10
4.171119085084859
 20
6.461623203238229
 30
0.0
 10
4.175454092417222
 20
6.462676586520482
 30
0.0
 10
4.179423683384685
 20
6.46380394524966
 30
0.0
 10
4.182382525972176
 20
6.464775257742866
 30
0.0
 10
4.184347230739073
 20
6.465483335271444
 30
0.0
 10
4.186307874890423
 20
6.466236390700753
 30
0.0
 10
4.188814009623963
 20
6.467298205166342
 30
0.0
 10
4.191823916256915
 20
6.468779805002332
 30
0.0
 10
4.194792442775048
 20
6.470521083547507
 30
0.0
 10
4.197125493526115
 20
6.472199870777479
 30
0.0
 10
4.198851392727726
 20
6.473702919082134
 30
0.0
 10
4.200129755599726
 20
6.474994651787187
 30
0.0
 10
4.201334539984984
 20
6.47647080552134
 30
0.0
 10
4.202370680772657
 20
6.478136123455273
 30
0.0
 10
4.203112263353571
 20
6.479916997750476
 30
0.0
 10
4.203412278856531
 20
6.481361478964511
 30
0.0
 10
4.203433893494
 20
6.482191719498359
 30
0.0
 10
4.203439569045188
 20
6.482409723277291
 30
0.0
  0
LINE
  5
B1
330
1F
100
AcDbEntity
  8
0
  6
Continuous
 62
     7
370
    15
100
AcDbLine
 10
4.112407776215243
 20
6.452789738737828
 30
0.0
 11
4.143433695922472
 21
6.457014092722431
 31
0.0
  0
SPLINE
  5
B2
330
1F
100
AcDbEntity
  8
0
  6
Continuous
 62
     7
370
    15
100
AcDbSpline
210
0.0
220
0.0
230
1.0
 70
     8
 71
     3
 72
    17
 73
    13
 74
     0
 42
0.0000000001
 43
0.0000000001
 40
0.0
 40
0.0
 40
0.0
 40
0.0
 40
0.0506429177390882
 40
0.101082661597392
 40
0.1431741898590003
 40
0.1853532903972653
 40
0.2585036010286203
 40
0.3318431071058819
 40
0.4684870760120225
 40
0.6059130110210298
 40
0.7433087176824765
 40
0.9999999999999998
 40
0.9999999999999998
 40
0.9999999999999998
 40
0.9999999999999998
 10
4.052401903092528
 20
6.461845093058007
 30
0.0
 10
4.052524262474944
 20
6.460836896145452
 30
0.0
 10
4.052768490347236
 20
6.458824547096758
 30
0.0
 10
4.054418710304027
 20
6.456488109241757
 30
0.0
 10
4.056427309524757
 20
6.454716623019224
 30
0.0
 10
4.059178246043797
 20
6.453059461160961
 30
0.0
 10
4.062875139096761
 20
6.451627586764865
 30
0.0
 10
4.06882041765557
 20
6.450294748787076
 30
0.0
 10
4.076461179120658
 20
6.449603009578546
 30
0.0
 10
4.085697226455364
 20
6.44980336595665
 30
0.0
 10
4.097696644295665
 20
6.450831845860435
 30
0.0
 10
4.10660515574782
 20
6.452017472582816
 30
0.0
 10
4.112407776215243
 20
6.452789738737828
 30
0.0
  0
LINE
  5
B3
330
1F
100
AcDbEntity
  8
0
  6
Continuous
 62
     7
370
    15
100
AcDbLine
 10
4.052401903092528
 20
6.563762589979997
 30
0.0
 11
4.052401903092528
 21
6.461845093058007
 31
0.0
  0
LINE
  5
B4
330
1F
100
AcDbEntity
  8
0
  6
Continuous
 62
     7
370
    15
100
AcDbLine
 10
3.966226553132906
 20
6.68342857127393
 30
0.0
 11
3.957913183002921
 21
6.667663067574232
 31
0.0
  0
LINE
  5
B5
330
1F
100
AcDbEntity
  8
0
  6
Continuous
 62
     7
370
    15
100
AcDbLine
 10
4.199982641785526
 20
6.700622189895459
 30
0.0
 11
4.177270092208281
 21
6.712163339610553
 31
0.0
  0
ARC
  5
B6
330
1F
100
AcDbEntity
  8
0
  6
Continuous
 62
     7
370
    15
100
AcDbCircle
 10
4.179142051996644
 20
6.655883818119161
 30
0.0
 40
0.0493543523100316
100
AcDbArc
 50
350.5842504284724
 51
65.02236381729272
  0
LINE
  5
B7
330
1F
100
AcDbEntity
  8
0
  6
Continuous
 62
     7
370
    15
100
AcDbLine
 10
4.219518094289544
 20
6.632044083195568
 30
0.0
 11
4.227831464419529
 21
6.647809586895265
 31
0.0
  0
ARC
  5
B8
330
1F
100
AcDbEntity
  8
0
  6
Continuous
 62
     7
370
    15
100
AcDbCircle
 10
4.126106960208947
 20
6.721677315109602
 30
0.0
 40
0.1294594771871804
100
AcDbArc
 50
277.6914941566972
 51
316.1823752165243
  0
ARC
  5
B9
330
1F
100
AcDbEntity
  8
0
  6
Continuous
 62
     7
370
    15
100
AcDbCircle
 10
4.092067092608783
 20
6.828511524735858
 30
0.0
 40
0.240216043680508
100
AcDbArc
 50
249.635638268893
 51
274.8574297484031
  0
LINE
  5
BA
330
1F
100
AcDbEntity
  8
0
  6
Continuous
 62
     7
370
    15
100
AcDbLine
 10
3.985762005636924
 20
6.614850464574038
 30
0.0
 11
4.00847455521417
 21
6.603309314858944
 31
0.0
  0
ARC
  5
BB
330
1F
100
AcDbEntity
  8
0
  6
Continuous
 62
     7
370
    15
100
AcDbCircle
 10
4.006602595425806
 20
6.659588836350336
 30
0.0
 40
0.049354352310032
100
AcDbArc
 50
170.5842504284716
 51
245.0223638172926
  0
LWPOLYLINE
  5
BC
330
1F
100
AcDbEntity
  8
0
  6
Continuous
 62
     7
370
    15
100
AcDbPolyline
 90
       34
 70
   128
 43
0.0
 10
4.033946758612346
 20
6.62779390414659
 10
4.038751653017043
 20
6.625536951204794
 10
4.043890219353519
 20
6.623478518123603
 10
4.049330776651562
 20
6.62163129582746
 10
4.055039782066263
 20
6.620006673056082
 10
4.060982037680801
 20
6.618614666149101
 10
4.067120907513312
 20
6.617463857291984
 10
4.0734185433899
 20
6.616561341604021
 10
4.079836118291206
 20
6.615912683394542
 10
4.086334065733905
 20
6.615521881857111
 10
4.092872323711225
 20
6.615391346413161
 10
4.099410581688545
 20
6.615521881857111
 10
4.105908529131244
 20
6.615912683394542
 10
4.11232610403255
 20
6.616561341604021
 10
4.118623739909137
 20
6.617463857291984
 10
4.124762609741649
 20
6.618614666149101
 10
4.130704865356188
 20
6.620006673056082
 10
4.136413870770888
 20
6.62163129582746
 10
4.141854428068931
 20
6.623478518123603
 10
4.146992994405407
 20
6.625536951204794
 10
4.151797888810104
 20
6.62779390414659
 10
4.156239487511228
 20
6.630235462083589
 10
4.160290406575804
 20
6.632846571999212
 10
4.163925670740733
 20
6.635611135532545
 10
4.167122867393589
 20
6.638512108230095
 10
4.169862284753833
 20
6.641531604630509
 10
4.172127033402488
 20
6.644651008534396
 10
4.173903150411032
 20
6.647851087779382
 10
4.175179685427487
 20
6.651112112812785
 10
4.175948768188986
 20
6.654413978330873
 10
4.176205657044558
 20
6.657736327234748
 10
4.175948768188986
 20
6.661058676138623
 10
4.175179685427487
 20
6.664360541656711
 10
4.174429608766335
 20
6.666432107228746
  0
ARC
  5
BD
330
1F
100
AcDbEntity
  8
0
  6
Continuous
 62
     7
370
    15
100
AcDbCircle
 10
4.044078274915237
 20
6.660492175483319
 30
0.0
 40
0.0342319232735496
100
AcDbArc
 50
178.4004109479085
 51
252.7844738618082
  0
SPLINE
  5
BE
330
1F
100
AcDbEntity
  8
0
  6
Continuous
 62
     7
370
    15
100
AcDbSpline
210
0.0
220
0.0
230
1.0
 70
     8
 71
     3
 72
    17
 73
    13
 74
     0
 42
0.0000000001
 43
0.0000000001
 40
0.0
 40
0.0
 40
0.0
 40
0.0
 40
0.0311805025621816
 40
0.0795023118087605
 40
0.151999061042514
 40
0.2111856014287134
 40
0.2705151399580528
 40
0.3888014815649522
 40
0.5074405447561098
 40
0.6713951500069895
 40
0.8356878644246249
 40
1.0
 40
1.0
 40
1.0
 40
1.0
 10
4.052401903092528
 20
6.563762589979997
 30
0.0
 10
4.052367830823544
 20
6.564409276154814
 30
0.0
 10
4.052280955246496
 20
6.566058160607853
 30
0.0
 10
4.051296846645763
 20
6.569447785987358
 30
0.0
 10
4.04933962331704
 20
6.57324867815275
 30
0.0
 10
4.046786115607527
 20
6.576843173330801
 30
0.0
 10
4.043317643000527
 20
6.580849298348917
 30
0.0
 10
4.038657512926335
 20
6.58517153039684
 30
0.0
 10
4.032140989919685
 20
6.59004466631312
 30
0.0
 10
4.024776658488954
 20
6.594707720662918
 30
0.0
 10
4.016629257568517
 20
6.59917107591956
 30
0.0
 10
4.011192896431969
 20
6.601929847529638
 30
0.0
 10
4.00847455521417
 20
6.603309314858944
 30
0.0
  0
SPLINE
  5
BF
330
1F
100
AcDbEntity
  8
0
  6
Continuous
 62
     7
370
    15
100
AcDbSpline
210
0.0
220
0.0
230
1.0
 70
     8
 71
     3
 72
    18
 73
    14
 74
     0
 42
0.0000000001
 43
0.0000000001
 40
0.0
 40
0.0
 40
0.0
 40
0.0
 40
0.1668735879144937
 40
0.2866551892157342
 40
0.4066054298187474
 40
0.539742787249682
 40
0.6744990392659833
 40
0.7724611237488133
 40
0.8213662537401628
 40
0.871285924194141
 40
0.9300083253802636
 40
0.9892186601659833
 40
1.0
 40
1.0
 40
1.0
 40
1.0
 10
4.219518094289544
 20
6.632044083195568
 30
0.0
 10
4.218507700407676
 20
6.630121295453125
 30
0.0
 10
4.216772047372293
 20
6.626818333666183
 30
0.0
 10
4.214310940296411
 20
6.621903022133605
 30
0.0
 10
4.212057959558088
 20
6.617106950554862
 30
0.0
 10
4.209728887005548
 20
6.611624295012323
 30
0.0
 10
4.207574699114118
 20
6.605713664546518
 30
0.0
 10
4.206004170170201
 20
6.600440464405467
 30
0.0
 10
4.2050045202862
 20
6.596368895752467
 30
0.0
 10
4.204287764211925
 20
6.592892114682646
 30
0.0
 10
4.203684333212811
 20
6.58897903562735
 30
0.0
 10
4.203451133007814
 20
6.585976461586921
 30
0.0
 10
4.203441112568254
 20
6.584547355995731
 30
0.0
 10
4.203439569045188
 20
6.584327220199281
 30
0.0
  0
SPLINE
  5
C0
330
1F
100
AcDbEntity
  8
0
  6
Continuous
 62
     7
370
    15
100
AcDbSpline
210
0.0
220
0.0
230
1.0
 70
     8
 71
     3
 72
    17
 73
    13
 74
     0
 42
0.0000000001
 43
0.0000000001
 40
0.0
 40
0.0
 40
0.0
 40
0.0
 40
0.0311805025623031
 40
0.0795023118088798
 40
0.1519990610426928
 40
0.2111856014289621
 40
0.2705151399583747
 40
0.3888014815654738
 40
0.5074405447568315
 40
0.671395150007473
 40
0.8356878644248666
 40
1.0
 40
1.0
 40
1.0
 40
1.0
 10
3.941834657758565
 20
6.518028707655955
 30
0.0
 10
3.941868730027549
 20
6.517382021481136
 30
0.0
 10
3.941955605604598
 20
6.515733137028095
 30
0.0
 10
3.942939714205334
 20
6.512343511648587
 30
0.0
 10
3.94489693753406
 20
6.508542619483191
 30
0.0
 10
3.947450445243576
 20
6.504948124305141
 30
0.0
 10
3.950918917850584
 20
6.500941999287017
 30
0.0
 10
3.955579047924783
 20
6.496619767239093
 30
0.0
 10
3.962095570931437
 20
6.491746631322814
 30
0.0
 10
3.969459902362164
 20
6.487083576973021
 30
0.0
 10
3.977607303282589
 20
6.482620221716387
 30
0.0
 10
3.983043664419127
 20
6.479861450106312
 30
0.0
 10
3.985762005636924
 20
6.47848198277701
 30
0.0
  0
LINE
  5
C1
330
1F
100
AcDbEntity
  8
0
  6
Continuous
 62
     7
370
    15
100
AcDbLine
 10
3.941834657758565
 20
6.619946204577946
 30
0.0
 11
3.941834657758565
 21
6.518028707655955
 31
0.0
  0
SPLINE
  5
C2
330
1F
100
AcDbEntity
  8
0
  6
Continuous
 62
     7
370
    15
100
AcDbSpline
210
0.0
220
0.0
230
1.0
 70
     8
 71
     3
 72
    18
 73
    14
 74
     0
 42
0.0000000001
 43
0.0000000001
 40
0.0
 40
0.0
 40
0.0
 40
0.0
 40
0.1706640891065863
 40
0.3412653603650421
 40
0.4846432644670507
 40
0.6277470208464509
 40
0.6902013090690323
 40
0.752600635612358
 40
0.8159809590640165
 40
0.8790960319924423
 40
0.9368116684046686
 40
0.9949929957743531
 40
1.0
 40
1.0
 40
1.0
 40
1.0
 10
3.985762005636924
 20
6.614850464574038
 30
0.0
 10
3.982938779800053
 20
6.616281413713569
 30
0.0
 10
3.977293367296141
 20
6.619142785290466
 30
0.0
 10
3.969278537200904
 20
6.622847144028149
 30
0.0
 10
3.961747500176234
 20
6.625779047805095
 30
0.0
 10
3.956073002133797
 20
6.627248479596024
 30
0.0
 10
3.951859136729954
 20
6.627695459795425
 30
0.0
 10
3.949006867288875
 20
6.627604441561313
 30
0.0
 10
3.946323315962655
 20
6.626991568360365
 30
0.0
 10
3.944028072272061
 20
6.625669971587404
 30
0.0
 10
3.942354002742224
 20
6.623490932979796
 30
0.0
 10
3.941847257925866
 20
6.62131365888893
 30
0.0
 10
3.941835582881818
 20
6.620046605132193
 30
0.0
 10
3.941834657758565
 20
6.619946204577946
 30
0.0
  0
SPLINE
  5
C3
330
1F
100
AcDbEntity
  8
0
  6
Continuous
 62
     7
370
    15
100
AcDbSpline
210
0.0
220
0.0
230
1.0
 70
     8
 71
     3
 72
    18
 73
    14
 74
     0
 42
0.0000000001
 43
0.0000000001
 40
0.0
 40
0.0
 40
0.0
 40
0.0
 40
0.1706640891065868
 40
0.3412653603650433
 40
0.484643264467052
 40
0.627747020846452
 40
0.6902013090690328
 40
0.7526006356123577
 40
0.8159809590640159
 40
0.8790960319924419
 40
0.9368116684046682
 40
0.9949929957743529
 40
1.0
 40
1.0
 40
1.0
 40
1.0
 10
4.00847455521417
 20
6.466940833061916
 30
0.0
 10
4.011297781051039
 20
6.465509883922384
 30
0.0
 10
4.016943193554952
 20
6.462648512345486
 30
0.0
 10
4.02495802365019
 20
6.458944153607803
 30
0.0
 10
4.032489060674859
 20
6.456012249830857
 30
0.0
 10
4.038163558717296
 20
6.454542818039929
 30
0.0
 10
4.04237742412114
 20
6.454095837840528
 30
0.0
 10
4.045229693562218
 20
6.45418685607464
 30
0.0
 10
4.047913244888439
 20
6.454799729275589
 30
0.0
 10
4.050208488579032
 20
6.456121326048548
 30
0.0
 10
4.051882558108868
 20
6.458300364656156
 30
0.0
 10
4.052389302925231
 20
6.460477638747023
 30
0.0
 10
4.052400977969274
 20
6.461744692503761
 30
0.0
 10
4.052401903092528
 20
6.461845093058007
 30
0.0
  0
LINE
  5
C4
330
1F
100
AcDbEntity
  8
0
  6
Continuous
 62
     7
370
    15
100
AcDbLine
 10
3.985762005636924
 20
6.47848198277701
 30
0.0
 11
4.00847455521417
 21
6.466940833061916
 31
0.0
  0
SPLINE
  5
C5
330
1F
100
AcDbEntity
  8
0
  6
Continuous
 62
     7
370
    15
100
AcDbSpline
210
0.0
220
0.0
230
1.0
 70
     8
 71
     3
 72
    27
 73
    23
 74
     0
 42
0.0000000001
 43
0.0000000001
 40
0.0
 40
0.0
 40
0.0
 40
0.0
 40
0.0250166393002855
 40
0.0508046697735764
 40
0.0758140408872406
 40
0.1013406816104635
 40
0.1289752877844848
 40
0.1429200650310398
 40
0.1566034483465518
 40
0.1856247766355598
 40
0.2216687986545924
 40
0.2576991907367672
 40
0.2937209090315841
 40
0.3321321609229363
 40
0.3825359322425887
 40
0.4331255057792779
 40
0.4835141719779088
 40
0.5339896910427751
 40
0.6347858654515633
 40
0.743433750494577
 40
0.8716845389427032
 40
0.9999999999999998
 40
0.9999999999999998
 40
0.9999999999999998
 40
0.9999999999999998
 10
4.243909989663885
 20
6.661075465016512
 30
0.0
 10
4.243902207042548
 20
6.661565750115519
 30
0.0
 10
4.243886401821782
 20
6.662561438315318
 30
0.0
 10
4.243761864181355
 20
6.663808780007641
 30
0.0
 10
4.243573017927567
 20
6.66485972728172
 30
0.0
 10
4.243319615085338
 20
6.665716849840921
 30
0.0
 10
4.243060591787648
 20
6.666273062351456
 30
0.0
 10
4.242826785658166
 20
6.66662795432474
 30
0.0
 10
4.242574850031944
 20
6.666926641660582
 30
0.0
 10
4.242201552457065
 20
6.667211581066827
 30
0.0
 10
4.241688666636369
 20
6.66735909347985
 30
0.0
 10
4.241111968731487
 20
6.667303311378757
 30
0.0
 10
4.240501695392854
 20
6.667064608897799
 30
0.0
 10
4.239794100386396
 20
6.666616486736474
 30
0.0
 10
4.238986580169409
 20
6.665916776504646
 30
0.0
 10
4.238095640872963
 20
6.664959061400437
 30
0.0
 10
4.237194852381169
 20
6.66383962732659
 30
0.0
 10
4.23598712170077
 20
6.662172832728963
 30
0.0
 10
4.234419763619169
 20
6.659745116584736
 30
0.0
 10
4.232376322999756
 20
6.656252797634499
 30
0.0
 10
4.230163597309684
 20
6.652219235391334
 30
0.0
 10
4.228608972674233
 20
6.649279716715272
 30
0.0
 10
4.227831464419529
 20
6.647809586895265
 30
0.0
  0
LINE
  5
C6
330
1F
100
AcDbEntity
  8
0
  6
Continuous
 62
     7
370
    15
100
AcDbLine
 10
4.243909989663885
 20
6.661075465016512
 30
0.0
 11
4.243909989663885
 21
6.559157968094522
 31
0.0
  0
SPLINE
  5
C7
330
1F
100
AcDbEntity
  8
0
  6
Continuous
 62
     7
370
    15
100
AcDbSpline
210
0.0
220
0.0
230
1.0
 70
     8
 71
     3
 72
    18
 73
    14
 74
     0
 42
0.0000000001
 43
0.0000000001
 40
0.0
 40
0.0
 40
0.0
 40
0.0
 40
0.1668696973097007
 40
0.2867504264833976
 40
0.4065971872192497
 40
0.5407109445712287
 40
0.6745043649497387
 40
0.7724641654776278
 40
0.8219292386440637
 40
0.8712889251220094
 40
0.9300099572139661
 40
0.9892189115295034
 40
1.0
 40
1.0
 40
1.0
 40
1.0
 10
4.227831464419529
 20
6.511441105098235
 30
0.0
 10
4.228841846019882
 20
6.513364413283234
 30
0.0
 10
4.230578095078178
 20
6.51666944380225
 30
0.0
 10
4.233039333696001
 20
6.521579582834457
 30
0.0
 10
4.23529789586249
 20
6.526396620695105
 30
0.0
 10
4.237627539424138
 20
6.531860754122553
 30
0.0
 10
4.239780044488532
 20
6.537792094922754
 30
0.0
 10
4.241348411082896
 20
6.543055165348456
 30
0.0
 10
4.24234803178085
 20
6.547127978735161
 30
0.0
 10
4.243063731504974
 20
6.550606193691109
 30
0.0
 10
4.243665247287546
 20
6.554506124757608
 30
0.0
 10
4.243898424935086
 20
6.557508727688147
 30
0.0
 10
4.243908446038552
 20
6.558937832429048
 30
0.0
 10
4.243909989663885
 20
6.559157968094523
 30
0.0
  0
LINE
  5
C8
330
1F
100
AcDbEntity
  8
0
  6
Continuous
 62
     7
370
    15
100
AcDbLine
 10
4.219518094289544
 20
6.495675601398538
 30
0.0
 11
4.227831464419529
 21
6.511441105098235
 31
0.0
  0
SPLINE
  5
C9
330
1F
100
AcDbEntity
  8
0
  6
Continuous
 62
     7
370
    15
100
AcDbSpline
210
0.0
220
0.0
230
1.0
 70
     8
 71
     3
 72
    28
 73
    24
 74
     0
 42
0.0000000001
 43
0.0000000001
 40
0.0
 40
0.0
 40
0.0
 40
0.0
 40
0.0250167589683094
 40
0.0508049127996024
 40
0.0758144035465276
 40
0.1013411663773807
 40
0.1220500760215647
 40
0.1429260759940486
 40
0.1856076393386566
 40
0.2216518337756084
 40
0.2579828237510073
 40
0.2949741837231615
 40
0.3321155886454944
 40
0.382519601073461
 40
0.4329144260986904
 40
0.483303351755726
 40
0.5352022328161173
 40
0.6045015160016689
 40
0.6391852847071473
 40
0.6737967735113642
 40
0.743432523200387
 40
0.8716839251409266
 40
0.9999999999999998
 40
0.9999999999999998
 40
0.9999999999999998
 40
0.9999999999999998
 10
4.203439569045188
 20
6.482409723277291
 30
0.0
 10
4.203447351461439
 20
6.48191943846143
 30
0.0
 10
4.20346315626571
 20
6.480923750836653
 30
0.0
 10
4.203587697071234
 20
6.479676404774528
 30
0.0
 10
4.203776531493264
 20
6.478625473835636
 30
0.0
 10
4.204007525197043
 20
6.4778442330749
 30
0.0
 10
4.204261034023388
 20
6.477264756710758
 30
0.0
 10
4.204613086938487
 20
6.476699209283125
 30
0.0
 10
4.205078828489375
 20
6.476293502271637
 30
0.0
 10
4.20566238520949
 20
6.476125665972718
 30
0.0
 10
4.20624601725994
 20
6.476182990537829
 30
0.0
 10
4.206856714403452
 20
6.476425508160014
 30
0.0
 10
4.20756281043107
 20
6.476875068025
 30
0.0
 10
4.208361850625672
 20
6.477567436463798
 30
0.0
 10
4.209251612711969
 20
6.478523528853236
 30
0.0
 10
4.210159676850609
 20
6.479651496006413
 30
0.0
 10
4.211187373958543
 20
6.481071218091579
 30
0.0
 10
4.212126108829744
 20
6.48249502258738
 30
0.0
 10
4.212962744846804
 20
6.483838993483145
 30
0.0
 10
4.213802464072464
 20
6.485231946917135
 30
0.0
 10
4.215209581728542
 20
6.487663259035507
 30
0.0
 10
4.217185967308387
 20
6.491265952901338
 30
0.0
 10
4.218740588004837
 20
6.494205471578154
 30
0.0
 10
4.219518094289544
 20
6.495675601398538
 30
0.0
  0
SPLINE
  5
CA
330
1F
100
AcDbEntity
  8
0
  6
Continuous
 62
     7
370
    15
100
AcDbSpline
210
0.0
220
0.0
230
1.0
 70
     8
 71
     3
 72
    17
 73
    13
 74
     0
 42
0.0000000001
 43
0.0000000001
 40
0.0
 40
0.0
 40
0.0
 40
0.0
 40
0.0506466106970321
 40
0.101090032697532
 40
0.1426600854759905
 40
0.1853674451992612
 40
0.2577192825868406
 40
0.3318614305143953
 40
0.4328728896949171
 40
0.5350062725897763
 40
0.7432899993670167
 40
1.0
 40
1.0
 40
1.0
 40
1.0
 10
3.941834657758565
 20
6.619946204577946
 30
0.0
 10
3.941867441799022
 20
6.621033227242797
 30
0.0
 10
3.941932878353928
 20
6.623202911555736
 30
0.0
 10
3.942373462491627
 20
6.626590262360658
 30
0.0
 10
3.942910882836692
 20
6.629656207647906
 30
0.0
 10
3.943643751178122
 20
6.633070366990363
 30
0.0
 10
3.944637273088386
 20
6.636891707436804
 30
0.0
 10
3.946028153683723
 20
6.641417617400465
 30
0.0
 10
3.947652484502611
 20
6.645967204454963
 30
0.0
 10
3.950110562787525
 20
6.652028957417356
 30
0.0
 10
3.953542820572648
 20
6.659338065064149
 30
0.0
 10
3.956358645179923
 20
6.664701864359407
 30
0.0
 10
3.957913183002921
 20
6.667663067574232
 30
0.0
  0
SPLINE
  5
CB
330
1F
100
AcDbEntity
  8
0
  6
Continuous
 62
     7
370
    15
100
AcDbSpline
210
0.0
220
0.0
230
1.0
 70
     8
 71
     3
 72
    15
 73
    11
 74
     0
 42
0.0000000001
 43
0.0000000001
 40
0.0
 40
0.0
 40
0.0
 40
0.0
 40
0.198092696568622
 40
0.3963527274123586
 40
0.561947339898934
 40
0.7290629810323266
 40
0.8012476554478944
 40
0.8740696491130115
 40
0.9463822603180503
 40
1.0
 40
1.0
 40
1.0
 40
1.0
 10
4.199982641785526
 20
6.700622189895459
 30
0.0
 10
4.202804053070989
 20
6.699181288938952
 30
0.0
 10
4.208449258964572
 20
6.696298269857808
 30
0.0
 10
4.216451672290961
 20
6.691882222711994
 30
0.0
 10
4.223982453619158
 20
6.687139062674843
 30
0.0
 10
4.229653158243363
 20
6.682864042773092
 30
0.0
 10
4.233882932175686
 20
6.67901717951433
 30
0.0
 10
4.236705997361882
 20
6.676038285294412
 30
0.0
 10
4.239184575707156
 20
6.673048708207411
 30
0.0
 10
4.240470822860517
 20
6.670862877430898
 30
0.0
 10
4.241018472132911
 20
6.669932209766285
 30
0.0
  0
SPLINE
  5
CC
330
1F
100
AcDbEntity
  8
0
  6
Continuous
 62
     7
370
    15
100
AcDbSpline
210
0.0
220
0.0
230
1.0
 70
     8
 71
     3
 72
    10
 73
     6
 74
     0
 42
0.0000000001
 43
0.0000000001
 40
0.0
 40
0.0
 40
0.0
 40
0.0
 40
0.4118766420657061
 40
0.9094069713196338
 40
1.0
 40
1.0
 40
1.0
 40
1.0
 10
3.942643729368081
 20
6.51303908046878
 30
0.0
 10
3.942458095389762
 20
6.51346392230558
 30
0.0
 10
3.9420482230718
 20
6.514401955902619
 30
0.0
 10
3.941846740932477
 20
6.516425728453413
 30
0.0
 10
3.941836270584397
 20
6.517814746797292
 30
0.0
 10
3.941834657758565
 20
6.518028707655955
 30
0.0
  0
SPLINE
  5
CD
330
1F
100
AcDbEntity
  8
0
  6
Continuous
 62
     7
370
    15
100
AcDbSpline
210
0.0
220
0.0
230
1.0
 70
     8
 71
     3
 72
    11
 73
     7
 74
     0
 42
0.0000000001
 43
0.0000000001
 40
0.0
 40
0.0
 40
0.0
 40
0.0
 40
0.148286001768041
 40
0.4505614353059963
 40
0.7552967460058542
 40
1.0
 40
1.0
 40
1.0
 40
1.0
 10
3.999076892020289
 20
6.71267956648638
 30
0.0
 10
3.999611286182459
 20
6.712905543778246
 30
0.0
 10
4.001235022731127
 20
6.71359216727443
 30
0.0
 10
4.0040205365557
 20
6.714555671475253
 30
0.0
 10
4.007180642039215
 20
6.715555846697491
 30
0.0
 10
4.009238172698265
 20
6.716106737799449
 30
0.0
 10
4.010154534380562
 20
6.716352087969436
 30
0.0
  0
SPLINE
  5
CE
330
1F
100
AcDbEntity
  8
0
  6
Continuous
 62
     7
370
    15
100
AcDbSpline
210
0.0
220
0.0
230
1.0
 70
     8
 71
     3
 72
    13
 73
     9
 74
     0
 42
0.0000000001
 43
0.0000000001
 40
0.0
 40
0.0
 40
0.0
 40
0.0
 40
0.241107182919976
 40
0.4141735430091847
 40
0.5874835614717063
 40
0.7798469761544082
 40
0.9745494495089975
 40
1.0
 40
1.0
 40
1.0
 40
1.0
 10
3.966226553132906
 20
6.68342857127393
 30
0.0
 10
3.967236979827912
 20
6.685338312026004
 30
0.0
 10
3.968972689229655
 20
6.688618861713228
 30
0.0
 10
3.971433464230205
 20
6.693035021699315
 30
0.0
 10
3.973687652877239
 20
6.696795100895672
 30
0.0
 10
3.976011689764187
 20
6.700100184905316
 30
0.0
 10
3.977706552833343
 20
6.701989404059627
 30
0.0
 10
3.978560388680011
 20
6.702444416227291
 30
0.0
 10
3.978659095442912
 20
6.702497017413252
 30
0.0
  0
LINE
  5
CF
330
1F
100
AcDbEntity
  8
0
  6
Continuous
 62
     7
370
    15
100
AcDbLine
 10
4.175134914031328
 20
6.713235384817532
 30
0.0
 11
4.177270092208281
 21
6.712163339610553
 31
0.0
  0
LINE
  5
D0
330
1F
100
AcDbEntity
  8
0
  6
Continuous
 62
     7
370
    15
100
AcDbLine
 10
4.092872323711224
 20
6.243214648518345
 30
0.0
 11
4.092872323711224
 21
6.281828460732451
 31
0.0
  0
LINE
  5
D1
330
1F
100
AcDbEntity
  8
0
  6
Continuous
 62
     7
370
    15
100
AcDbLine
 10
3.621467802920194
 20
6.482754033223613
 30
0.0
 11
4.092872323711224
 21
6.243214648518345
 31
0.0
  0
LINE
  5
D2
330
1F
100
AcDbEntity
  8
0
  6
Continuous
 62
     7
370
    15
100
AcDbLine
 10
3.621467802920194
 20
6.482754033223613
 30
0.0
 11
3.621467802920194
 21
6.52136784543772
 31
0.0
  0
LINE
  5
D3
330
1F
100
AcDbEntity
  8
0
  6
Continuous
 62
     7
370
    15
100
AcDbLine
 10
3.621467802920194
 20
6.52136784543772
 30
0.0
 11
4.092872323711224
 21
6.281828460732451
 31
0.0
  0
LINE
  5
D4
330
1F
100
AcDbEntity
  8
0
  6
Continuous
 62
     7
370
    15
100
AcDbLine
 10
4.564276844502257
 20
6.521367845437719
 30
0.0
 11
4.176009759484181
 21
6.718661792662647
 31
0.0
  0
LINE
  5
D5
330
1F
100
AcDbEntity
  8
0
  6
Continuous
 62
     7
370
    15
100
AcDbLine
 10
4.092872323711224
 20
6.281828460732451
 30
0.0
 11
4.564276844502257
 21
6.521367845437719
 31
0.0
  0
LINE
  5
D6
330
1F
100
AcDbEntity
  8
0
  6
Continuous
 62
     7
370
    15
100
AcDbLine
 10
4.0113399915702
 20
6.719477409652776
 30
0.0
 11
3.985563852431703
 21
6.706379528243085
 31
0.0
  0
LINE
  5
D7
330
1F
100
AcDbEntity
  8
0
  6
Continuous
 62
     7
370
    15
100
AcDbLine
 10
3.98485200825604
 20
6.706017811907488
 30
0.0
 11
3.621467802920194
 21
6.52136784543772
 31
0.0
  0
LINE
  5
D8
330
1F
100
AcDbEntity
  8
0
  6
Continuous
 62
     7
370
    15
100
AcDbLine
 10
4.564276844502257
 20
6.482754033223613
 30
0.0
 11
4.564276844502257
 21
6.521367845437719
 31
0.0
  0
LINE
  5
D9
330
1F
100
AcDbEntity
  8
0
  6
Continuous
 62
     7
370
    15
100
AcDbLine
 10
4.092872323711224
 20
6.243214648518345
 30
0.0
 11
4.564276844502257
 21
6.482754033223613
 31
0.0
  0
SPLINE
  5
DA
330
1F
100
AcDbEntity
  8
0
  6
Continuous
 62
     7
370
    15
100
AcDbSpline
210
0.0
220
0.0
230
1.0
 70
     8
 71
     3
 72
    28
 73
    24
 74
     0
 42
0.0000000001
 43
0.0000000001
 40
0.0
 40
0.0
 40
0.0
 40
0.0
 40
0.0014499580315377
 40
0.0510929026708471
 40
0.0993392617674988
 40
0.1485013493776685
 40
0.1989193123369268
 40
0.249989694576782
 40
0.3010600768166374
 40
0.3514780397758958
 40
0.4006401273860655
 40
0.4488864864827169
 40
0.4985294311220263
 40
0.5492352794465568
 40
0.6003792011541317
 40
0.6513031398878533
 40
0.7013658302873594
 40
0.7499896945767821
 40
0.7986135588662048
 40
0.8486762492657106
 40
0.8996001879994327
 40
0.9507441097070074
 40
1.0
 40
1.0
 40
1.0
 40
1.0
 10
5.457277483076629
 20
7.117387410108999
 30
0.0
 10
5.457285436938173
 20
7.117329615698385
 30
0.0
 10
5.457565711170166
 20
7.115293084893929
 30
0.0
 10
5.456587463947887
 20
7.111326652943766
 30
0.0
 10
5.454278280487899
 20
7.105646546203435
 30
0.0
 10
5.450224663565041
 20
7.100150797039294
 30
0.0
 10
5.44464481000632
 20
7.094906736042545
 30
0.0
 10
5.437571372823197
 20
7.090098051014272
 30
0.0
 10
5.429265912220216
 20
7.085917492305584
 30
0.0
 10
5.420059151719279
 20
7.082510279223041
 30
0.0
 10
5.410280986406535
 20
7.079945132500937
 30
0.0
 10
5.400058789762915
 20
7.078206058720569
 30
0.0
 10
5.389470740644711
 20
7.077217128769372
 30
0.0
 10
5.378669523104825
 20
7.077055391454864
 30
0.0
 10
5.368046566486687
 20
7.07775721704558
 30
0.0
 10
5.358008254987939
 20
7.079303792606971
 30
0.0
 10
5.348911304226964
 20
7.081606816282183
 30
0.0
 10
5.340916326391836
 20
7.084587069833625
 30
0.0
 10
5.334060643936409
 20
7.088145043793826
 30
0.0
 10
5.328425920432791
 20
7.092211093911898
 30
0.0
 10
5.324264951979754
 20
7.096730167205508
 30
0.0
 10
5.321639992566756
 20
7.101490176953251
 30
0.0
 10
5.321339466174057
 20
7.104748952558852
 30
0.0
 10
5.321192028696497
 20
7.106347699513857
 30
0.0
  0
SPLINE
  5
DB
330
1F
100
AcDbEntity
  8
0
  6
Continuous
 62
     7
370
    15
100
AcDbSpline
210
0.0
220
0.0
230
1.0
 70
     8
 71
     3
 72
    20
 73
    16
 74
     0
 42
0.0000000001
 43
0.0000000001
 40
0.0
 40
0.0
 40
0.0
 40
0.0
 40
0.0545655903858186
 40
0.1378091917998228
 40
0.2199893641152593
 40
0.3001224871939351
 40
0.3787629929073301
 40
0.4596799023826449
 40
0.5423293215207718
 40
0.6256927906520419
 40
0.7086976923673244
 40
0.7902987782130636
 40
0.8695546090996904
 40
0.9488104399863166
 40
1.0
 40
1.0
 40
1.0
 40
1.0
 10
5.441999627612513
 20
7.071272138080883
 30
0.0
 10
5.44050231891274
 20
7.070199010090143
 30
0.0
 10
5.436720761701836
 20
7.06748875074802
 30
0.0
 10
5.429232723201525
 20
7.063848056633929
 30
0.0
 10
5.420067757064107
 20
7.060423660491302
 30
0.0
 10
5.410278751421887
 20
7.057862967590684
 30
0.0
 10
5.400059415107975
 20
7.056122729670011
 30
0.0
 10
5.389470518319915
 20
7.05513410243091
 30
0.0
 10
5.378669770617752
 20
7.05497234802056
 30
0.0
 10
5.368045798106211
 20
7.055673926882198
 30
0.0
 10
5.358011045027918
 20
7.057221498713271
 30
0.0
 10
5.348901221170929
 20
7.059520881715736
 30
0.0
 10
5.340952772709956
 20
7.06251430391044
 30
0.0
 10
5.33481316922242
 20
7.065578556293235
 30
0.0
 10
5.331938910241158
 20
7.067785375738584
 30
0.0
 10
5.33081098957182
 20
7.068651378865695
 30
0.0
  0
SPLINE
  5
DC
330
1F
100
AcDbEntity
  8
0
  6
Continuous
 62
     7
370
    15
100
AcDbSpline
210
0.0
220
0.0
230
1.0
 70
     8
 71
     3
 72
    20
 73
    16
 74
     0
 42
0.0000000001
 43
0.0000000001
 40
0.0
 40
0.0
 40
0.0
 40
0.0
 40
0.0545655903858198
 40
0.1378091917998234
 40
0.2199893641152596
 40
0.3001224871939346
 40
0.3787629929073284
 40
0.459679902382646
 40
0.5423293215207723
 40
0.6256927906520429
 40
0.7086976923673251
 40
0.7902987782130641
 40
0.8695546090996908
 40
0.9488104399863168
 40
1.0
 40
1.0
 40
1.0
 40
1.0
 10
5.441999627612513
 20
7.049189056775983
 30
0.0
 10
5.44050231891274
 20
7.048115928785243
 30
0.0
 10
5.436720761701836
 20
7.045405669443121
 30
0.0
 10
5.429232723201525
 20
7.041764975329029
 30
0.0
 10
5.420067757064107
 20
7.038340579186402
 30
0.0
 10
5.410278751421887
 20
7.035779886285784
 30
0.0
 10
5.400059415107975
 20
7.034039648365111
 30
0.0
 10
5.389470518319915
 20
7.03305102112601
 30
0.0
 10
5.378669770617752
 20
7.032889266715659
 30
0.0
 10
5.368045798106211
 20
7.033590845577298
 30
0.0
 10
5.358011045027918
 20
7.035138417408369
 30
0.0
 10
5.348901221170929
 20
7.037437800410836
 30
0.0
 10
5.340952772709956
 20
7.04043122260554
 30
0.0
 10
5.33481316922242
 20
7.043495474988335
 30
0.0
 10
5.331938910241158
 20
7.045702294433684
 30
0.0
 10
5.33081098957182
 20
7.046568297560795
 30
0.0
  0
SPLINE
  5
DD
330
1F
100
AcDbEntity
  8
0
  6
Continuous
 62
     7
370
    15
100
AcDbSpline
210
0.0
220
0.0
230
1.0
 70
     8
 71
     3
 72
    20
 73
    16
 74
     0
 42
0.0000000001
 43
0.0000000001
 40
0.0
 40
0.0
 40
0.0
 40
0.0
 40
0.0545655903858214
 40
0.1378091917998252
 40
0.2199893641152618
 40
0.3001224871939364
 40
0.3787629929073307
 40
0.459679902382648
 40
0.542329321520775
 40
0.6256927906520455
 40
0.7086976923673284
 40
0.790298778213068
 40
0.8695546090996945
 40
0.9488104399863228
 40
1.0
 40
1.0
 40
1.0
 40
1.0
 10
5.441999627612513
 20
7.027105975471083
 30
0.0
 10
5.44050231891274
 20
7.026032847480344
 30
0.0
 10
5.436720761701837
 20
7.023322588138221
 30
0.0
 10
5.429232723201526
 20
7.019681894024129
 30
0.0
 10
5.420067757064107
 20
7.016257497881503
 30
0.0
 10
5.410278751421887
 20
7.013696804980884
 30
0.0
 10
5.400059415107975
 20
7.011956567060211
 30
0.0
 10
5.389470518319915
 20
7.01096793982111
 30
0.0
 10
5.378669770617752
 20
7.01080618541076
 30
0.0
 10
5.368045798106211
 20
7.011507764272398
 30
0.0
 10
5.358011045027918
 20
7.013055336103469
 30
0.0
 10
5.348901221170929
 20
7.015354719105936
 30
0.0
 10
5.340952772709955
 20
7.018348141300641
 30
0.0
 10
5.334813169222422
 20
7.021412393683435
 30
0.0
 10
5.331938910241158
 20
7.023619213128782
 30
0.0
 10
5.33081098957182
 20
7.024485216255895
 30
0.0
  0
SPLINE
  5
DE
330
1F
100
AcDbEntity
  8
0
  6
Continuous
 62
     7
370
    15
100
AcDbSpline
210
0.0
220
0.0
230
1.0
 70
     8
 71
     3
 72
    20
 73
    16
 74
     0
 42
0.0000000001
 43
0.0000000001
 40
0.0
 40
0.0
 40
0.0
 40
0.0
 40
0.0545655903858237
 40
0.1378091917998277
 40
0.2199893641152631
 40
0.3001224871939377
 40
0.3787629929073315
 40
0.4596799023826481
 40
0.542329321520774
 40
0.6256927906520439
 40
0.7086976923673256
 40
0.7902987782130639
 40
0.8695546090996892
 40
0.9488104399863154
 40
1.0
 40
1.0
 40
1.0
 40
1.0
 10
5.441999627612514
 20
7.005022894166184
 30
0.0
 10
5.44050231891274
 20
7.003949766175443
 30
0.0
 10
5.436720761701837
 20
7.001239506833321
 30
0.0
 10
5.429232723201525
 20
6.99759881271923
 30
0.0
 10
5.420067757064107
 20
6.994174416576602
 30
0.0
 10
5.410278751421887
 20
6.991613723675984
 30
0.0
 10
5.400059415107975
 20
6.989873485755311
 30
0.0
 10
5.389470518319915
 20
6.988884858516211
 30
0.0
 10
5.378669770617752
 20
6.98872310410586
 30
0.0
 10
5.368045798106211
 20
6.989424682967499
 30
0.0
 10
5.358011045027918
 20
6.990972254798569
 30
0.0
 10
5.348901221170929
 20
6.993271637801036
 30
0.0
 10
5.340952772709956
 20
6.99626505999574
 30
0.0
 10
5.334813169222422
 20
6.999329312378536
 30
0.0
 10
5.331938910241158
 20
7.001536131823884
 30
0.0
 10
5.33081098957182
 20
7.002402134950995
 30
0.0
  0
LINE
  5
DF
330
1F
100
AcDbEntity
  8
0
  6
Continuous
 62
     7
370
    15
100
AcDbLine
 10
5.438762507036217
 20
7.14436529296155
 30
0.0
 11
5.448160320985443
 21
7.142531892100915
 31
0.0
  0
SPLINE
  5
E0
330
1F
100
AcDbEntity
  8
0
  6
Continuous
 62
     7
370
    15
100
AcDbSpline
210
0.0
220
0.0
230
1.0
 70
     8
 71
     3
 72
    42
 73
    38
 74
     0
 42
0.0000000001
 43
0.0000000001
 40
0.0
 40
0.0
 40
0.0
 40
0.0
 40
0.0279553430848268
 40
0.0566439851326094
 40
0.0858433087351873
 40
0.115304872404174
 40
0.1447664360731606
 40
0.1739657596757386
 40
0.202654401723521
 40
0.2306097448083477
 40
0.2585650878931743
 40
0.2872537299409567
 40
0.3164530535435348
 40
0.3459146172125214
 40
0.3753761808815081
 40
0.4045755044840859
 40
0.4332641465318684
 40
0.461219489616695
 40
0.4891748327015217
 40
0.5178634747493042
 40
0.5470627983518821
 40
0.5765243620208686
 40
0.6059859256898555
 40
0.6351852492924336
 40
0.6638738913402163
 40
0.6918292344250429
 40
0.7197845775098696
 40
0.7484732195576524
 40
0.7776725431602302
 40
0.8071341068292168
 40
0.8365956704982037
 40
0.8657949941007812
 40
0.8944836361485638
 40
0.9224389792333905
 40
0.9503943223182172
 40
0.9790829643659996
 40
1.0
 40
1.0
 40
1.0
 40
1.0
 10
5.448160320985443
 20
7.142531892100915
 30
0.0
 10
5.450562356143816
 20
7.141080372074782
 30
0.0
 10
5.455429434447452
 20
7.138139257078248
 30
0.0
 10
5.461440590824844
 20
7.13308438414188
 30
0.0
 10
5.466376429956429
 20
7.127591773209822
 30
0.0
 10
5.46996812454173
 20
7.121741186539104
 30
0.0
 10
5.47212678484978
 20
7.115697453840142
 30
0.0
 10
5.472807697501798
 20
7.109619688233884
 30
0.0
 10
5.472052076332503
 20
7.103664250211765
 30
0.0
 10
5.469945115604004
 20
7.097919781988097
 30
0.0
 10
5.46652754951226
 20
7.092353776498804
 30
0.0
 10
5.461769542228174
 20
7.086943235061809
 30
0.0
 10
5.455669170423304
 20
7.081788970904161
 30
0.0
 10
5.448336331547547
 20
7.077036837607957
 30
0.0
 10
5.439950562671307
 20
7.072819740062826
 30
0.0
 10
5.430746826412966
 20
7.069242418381794
 30
0.0
 10
5.420994321361987
 20
7.06636978139799
 30
0.0
 10
5.410861032721892
 20
7.064216296159235
 30
0.0
 10
5.400376561604639
 20
7.062728794579363
 30
0.0
 10
5.389551641576581
 20
7.061889889040371
 30
0.0
 10
5.378530786067899
 20
7.061758558573257
 30
0.0
 10
5.367602077781357
 20
7.062363899996135
 30
0.0
 10
5.357058768680821
 20
7.063700113747143
 30
0.0
 10
5.347173823229566
 20
7.065722927058311
 30
0.0
 10
5.338177016868852
 20
7.068350862422707
 30
0.0
 10
5.330150668615896
 20
7.071524954006494
 30
0.0
 10
5.323083769810596
 20
7.075186579078302
 30
0.0
 10
5.317016852317201
 20
7.079303310388834
 30
0.0
 10
5.312096381532899
 20
7.083848759838777
 30
0.0
 10
5.308500464750271
 20
7.08871526095347
 30
0.0
 10
5.306343100709471
 20
7.093777518306833
 30
0.0
 10
5.305661243597335
 20
7.098900406542006
 30
0.0
 10
5.3064192948899
 20
7.103945227148571
 30
0.0
 10
5.308517703235301
 20
7.108858993502176
 30
0.0
 10
5.311967225672702
 20
7.11357973962537
 30
0.0
 10
5.316155005027075
 20
7.11768624369721
 30
0.0
 10
5.319736154454309
 20
7.120023094487414
 30
0.0
 10
5.321246203982524
 20
7.121008465387165
 30
0.0
  0
SPLINE
  5
E1
330
1F
100
AcDbEntity
  8
0
  6
Continuous
 62
     7
370
    15
100
AcDbSpline
210
0.0
220
0.0
230
1.0
 70
     8
 71
     3
 72
    35
 73
    31
 74
     0
 42
0.0000000001
 43
0.0000000001
 40
0.0
 40
0.0
 40
0.0
 40
0.0
 40
0.0233211046034147
 40
0.0600946477452222
 40
0.0962250400235845
 40
0.1314319177227357
 40
0.166638795421886
 40
0.2027691877002481
 40
0.2395427308420549
 40
0.2766465383600808
 40
0.3137503458781057
 40
0.3505238890199125
 40
0.3866542812982749
 40
0.4218611589974257
 40
0.4570680366965762
 40
0.4931984289749393
 40
0.5299719721167459
 40
0.5670757796347706
 40
0.6041795871527955
 40
0.6409531302946024
 40
0.6770835225729649
 40
0.7122904002721162
 40
0.7474972779712667
 40
0.7836276702496289
 40
0.8204012133914355
 40
0.8575050209094602
 40
0.8946088284274848
 40
0.9313823715692922
 40
0.9675127638476544
 40
1.0
 40
1.0
 40
1.0
 40
1.0
 10
5.470530013189626
 20
7.097380628916794
 30
0.0
 10
5.471033334512998
 20
7.096118158219439
 30
0.0
 10
5.4723303107131
 20
7.092864979043909
 30
0.0
 10
5.472770912668735
 20
7.087532847856648
 30
0.0
 10
5.472061580406385
 20
7.081582140135991
 30
0.0
 10
5.469942599196602
 20
7.075836443529454
 30
0.0
 10
5.466528243084181
 20
7.070270766070589
 30
0.0
 10
5.461769350689727
 20
7.064860134183438
 30
0.0
 10
5.455669222646221
 20
7.059705894935964
 30
0.0
 10
5.448336317496775
 20
7.054953754867198
 30
0.0
 10
5.439950566401344
 20
7.050736659139102
 30
0.0
 10
5.430746825435824
 20
7.047159336977036
 30
0.0
 10
5.420994321614402
 20
7.044286700118896
 30
0.0
 10
5.410861032655235
 20
7.04213321484748
 30
0.0
 10
5.400376561622349
 20
7.04064571327644
 30
0.0
 10
5.38955164157426
 20
7.039806807734594
 30
0.0
 10
5.378530786058724
 20
7.039675477269867
 30
0.0
 10
5.36760207782077
 20
7.040280818686039
 30
0.0
 10
5.357058768533041
 20
7.041617032461421
 30
0.0
 10
5.347173823771918
 20
7.0436398456831
 30
0.0
 10
5.338177014904872
 20
7.046267781372398
 30
0.0
 10
5.330150675741598
 20
7.049441871777895
 30
0.0
 10
5.323083742897935
 20
7.053103501262071
 30
0.0
 10
5.317016956480714
 20
7.057220215581292
 30
0.0
 10
5.312095983915428
 20
7.061765730076754
 30
0.0
 10
5.308501962544226
 20
7.066631985490581
 30
0.0
 10
5.306337533815125
 20
7.071695158634579
 30
0.0
 10
5.305681661343933
 20
7.076814678498806
 30
0.0
 10
5.306328664969608
 20
7.081744514376877
 30
0.0
 10
5.307856613077087
 20
7.084883368268009
 30
0.0
 10
5.308580025006812
 20
7.086369468705186
 30
0.0
  0
SPLINE
  5
E2
330
1F
100
AcDbEntity
  8
0
  6
Continuous
 62
     7
370
    15
100
AcDbSpline
210
0.0
220
0.0
230
1.0
 70
     8
 71
     3
 72
    35
 73
    31
 74
     0
 42
0.0000000001
 43
0.0000000001
 40
0.0
 40
0.0
 40
0.0
 40
0.0
 40
0.0233211046034143
 40
0.0600946477452217
 40
0.0962250400235838
 40
0.1314319177227345
 40
0.1666387954218851
 40
0.2027691877002475
 40
0.2395427308420543
 40
0.2766465383600795
 40
0.3137503458781044
 40
0.3505238890199112
 40
0.3866542812982736
 40
0.4218611589974245
 40
0.4570680366965745
 40
0.493198428974938
 40
0.5299719721167449
 40
0.5670757796347696
 40
0.6041795871527941
 40
0.6409531302946008
 40
0.6770835225729631
 40
0.7122904002721139
 40
0.7474972779712647
 40
0.7836276702496273
 40
0.8204012133914339
 40
0.8575050209094587
 40
0.8946088284274836
 40
0.9313823715692912
 40
0.9675127638476531
 40
1.0
 40
1.0
 40
1.0
 40
1.0
 10
5.470530013189626
 20
7.075297547611894
 30
0.0
 10
5.471033334512998
 20
7.074035076914539
 30
0.0
 10
5.4723303107131
 20
7.070781897739007
 30
0.0
 10
5.472770912668735
 20
7.065449766551749
 30
0.0
 10
5.472061580406385
 20
7.059499058831089
 30
0.0
 10
5.4699425991966
 20
7.053753362224556
 30
0.0
 10
5.466528243084181
 20
7.048187684765689
 30
0.0
 10
5.461769350689727
 20
7.042777052878538
 30
0.0
 10
5.455669222646221
 20
7.037622813631064
 30
0.0
 10
5.448336317496775
 20
7.032870673562298
 30
0.0
 10
5.439950566401344
 20
7.028653577834203
 30
0.0
 10
5.430746825435824
 20
7.025076255672136
 30
0.0
 10
5.420994321614402
 20
7.022203618813996
 30
0.0
 10
5.410861032655236
 20
7.02005013354258
 30
0.0
 10
5.400376561622349
 20
7.01856263197154
 30
0.0
 10
5.38955164157426
 20
7.017723726429693
 30
0.0
 10
5.378530786058724
 20
7.017592395964967
 30
0.0
 10
5.36760207782077
 20
7.018197737381139
 30
0.0
 10
5.357058768533041
 20
7.019533951156522
 30
0.0
 10
5.347173823771918
 20
7.0215567643782
 30
0.0
 10
5.338177014904873
 20
7.024184700067498
 30
0.0
 10
5.330150675741599
 20
7.027358790472995
 30
0.0
 10
5.323083742897936
 20
7.031020419957171
 30
0.0
 10
5.317016956480714
 20
7.035137134276391
 30
0.0
 10
5.312095983915428
 20
7.039682648771854
 30
0.0
 10
5.308501962544226
 20
7.044548904185681
 30
0.0
 10
5.306337533815125
 20
7.049612077329679
 30
0.0
 10
5.305681661343933
 20
7.054731597193906
 30
0.0
 10
5.306328664969608
 20
7.059661433071975
 30
0.0
 10
5.307856613077087
 20
7.062800286963109
 30
0.0
 10
5.308580025006812
 20
7.064286387400286
 30
0.0
  0
SPLINE
  5
E3
330
1F
100
AcDbEntity
  8
0
  6
Continuous
 62
     7
370
    15
100
AcDbSpline
210
0.0
220
0.0
230
1.0
 70
     8
 71
     3
 72
    35
 73
    31
 74
     0
 42
0.0000000001
 43
0.0000000001
 40
0.0
 40
0.0
 40
0.0
 40
0.0
 40
0.023321104603416
 40
0.0600946477452234
 40
0.0962250400235854
 40
0.1314319177227361
 40
0.1666387954218869
 40
0.202769187700249
 40
0.2395427308420557
 40
0.2766465383600812
 40
0.313750345878106
 40
0.3505238890199127
 40
0.3866542812982747
 40
0.4218611589974254
 40
0.4570680366965759
 40
0.4931984289749396
 40
0.5299719721167461
 40
0.5670757796347708
 40
0.6041795871527956
 40
0.6409531302946025
 40
0.6770835225729649
 40
0.7122904002721155
 40
0.7474972779712671
 40
0.7836276702496292
 40
0.8204012133914355
 40
0.8575050209094603
 40
0.8946088284274846
 40
0.9313823715692912
 40
0.9675127638476531
 40
0.9999999999999998
 40
0.9999999999999998
 40
0.9999999999999998
 40
0.9999999999999998
 10
5.470530013189626
 20
7.053214466306994
 30
0.0
 10
5.471033334512998
 20
7.051951995609639
 30
0.0
 10
5.4723303107131
 20
7.048698816434109
 30
0.0
 10
5.472770912668735
 20
7.043366685246848
 30
0.0
 10
5.472061580406385
 20
7.037415977526191
 30
0.0
 10
5.4699425991966
 20
7.031670280919656
 30
0.0
 10
5.466528243084181
 20
7.026104603460789
 30
0.0
 10
5.461769350689727
 20
7.020693971573638
 30
0.0
 10
5.455669222646221
 20
7.015539732326164
 30
0.0
 10
5.448336317496775
 20
7.010787592257398
 30
0.0
 10
5.439950566401344
 20
7.006570496529303
 30
0.0
 10
5.430746825435824
 20
7.002993174367236
 30
0.0
 10
5.420994321614402
 20
7.000120537509097
 30
0.0
 10
5.410861032655236
 20
6.99796705223768
 30
0.0
 10
5.400376561622349
 20
6.996479550666641
 30
0.0
 10
5.38955164157426
 20
6.995640645124794
 30
0.0
 10
5.378530786058724
 20
6.995509314660067
 30
0.0
 10
5.36760207782077
 20
6.996114656076241
 30
0.0
 10
5.35705876853304
 20
6.997450869851621
 30
0.0
 10
5.347173823771918
 20
6.999473683073301
 30
0.0
 10
5.338177014904872
 20
7.002101618762598
 30
0.0
 10
5.330150675741598
 20
7.005275709168095
 30
0.0
 10
5.323083742897935
 20
7.008937338652272
 30
0.0
 10
5.317016956480714
 20
7.013054052971492
 30
0.0
 10
5.312095983915428
 20
7.017599567466954
 30
0.0
 10
5.308501962544226
 20
7.022465822880781
 30
0.0
 10
5.306337533815125
 20
7.02752899602478
 30
0.0
 10
5.305681661343933
 20
7.032648515889006
 30
0.0
 10
5.306328664969608
 20
7.037578351767077
 30
0.0
 10
5.307856613077087
 20
7.040717205658209
 30
0.0
 10
5.308580025006812
 20
7.042203306095386
 30
0.0
  0
SPLINE
  5
E4
330
1F
100
AcDbEntity
  8
0
  6
Continuous
 62
     7
370
    15
100
AcDbSpline
210
0.0
220
0.0
230
1.0
 70
     8
 71
     3
 72
    19
 73
    15
 74
     0
 42
0.0000000001
 43
0.0000000001
 40
0.0
 40
0.0
 40
0.0
 40
0.0
 40
0.0565238301636805
 40
0.145652606111965
 40
0.2332225643801595
 40
0.3185541817928622
 40
0.4038857992055651
 40
0.4914557574737598
 40
0.5805845334220419
 40
0.6705137777798575
 40
0.7604430221376731
 40
0.8495717980859557
 40
0.9371417563541507
 40
1.0
 40
1.0
 40
1.0
 40
1.0
 10
5.470530013189626
 20
7.031131385002095
 30
0.0
 10
5.471033334523101
 20
7.029868914288218
 30
0.0
 10
5.472330310749234
 20
7.026615735070116
 30
0.0
 10
5.472770912424322
 20
7.021283604341655
 30
0.0
 10
5.472061581282237
 20
7.015332894788948
 30
0.0
 10
5.469942596021217
 20
7.009587204807679
 30
0.0
 10
5.466528255076451
 20
7.004021502544106
 30
0.0
 10
5.461769304274694
 20
6.998610966174427
 30
0.0
 10
5.45566939982364
 20
6.993456361270864
 30
0.0
 10
5.448335650083294
 20
6.9887056024196
 30
0.0
 10
5.439953046996436
 20
6.98448335853689
 30
0.0
 10
5.43073772733573
 20
6.980924971810251
 30
0.0
 10
5.421860096676224
 20
6.978235851733033
 30
0.0
 10
5.415922560068036
 20
6.977051330169462
 30
0.0
 10
5.413441488579946
 20
6.976556363506968
 30
0.0
  0
SPLINE
  5
E5
330
1F
100
AcDbEntity
  8
0
  6
Continuous
 62
     7
370
    15
100
AcDbSpline
210
0.0
220
0.0
230
1.0
 70
     8
 71
     3
 72
     9
 73
     5
 74
     0
 42
0.0000000001
 43
0.0000000001
 40
0.0
 40
0.0
 40
0.0
 40
0.0
 40
0.3307853189881924
 40
1.0
 40
1.0
 40
1.0
 40
1.0
 10
5.306322051305142
 20
7.013403248500569
 30
0.0
 10
5.3064001228359
 20
7.014152570121078
 30
0.0
 10
5.306636141565499
 20
7.016417850886262
 30
0.0
 10
5.307800691256695
 20
7.018635884280253
 30
0.0
 10
5.308580025006812
 20
7.020120224790487
 30
0.0
  0
LINE
  5
E6
330
1F
100
AcDbEntity
  8
0
  6
Continuous
 62
     7
370
    15
100
AcDbLine
 10
5.470530013189626
 20
7.009048303697195
 30
0.0
 11
5.470718297732012
 21
7.008520834016854
 31
0.0
  0
SPLINE
  5
E7
330
1F
100
AcDbEntity
  8
0
  6
Continuous
 62
     7
370
    15
100
AcDbSpline
210
0.0
220
0.0
230
1.0
 70
     8
 71
     3
 72
    32
 73
    28
 74
     0
 42
0.0000000001
 43
0.0000000001
 40
0.0
 40
0.0
 40
0.0
 40
0.0
 40
0.0014508165026534
 40
0.0429186247713003
 40
0.0833264908945922
 40
0.123734357017884
 40
0.1652021652865309
 40
0.2074081348374486
 40
0.2499931575612587
 40
0.2925781802850689
 40
0.3347841498359863
 40
0.3762519581046332
 40
0.4166598242279251
 40
0.4570676903512169
 40
0.4985354986198639
 40
0.5407414681707815
 40
0.5833264908945917
 40
0.625911513618402
 40
0.6681174831693197
 40
0.7095852914379668
 40
0.7499931575612587
 40
0.7904010236845507
 40
0.8318688319531979
 40
0.8740748015041154
 40
0.9166598242279256
 40
0.9592448469517361
 40
1.0
 40
1.0
 40
1.0
 40
1.0
 10
5.472543807810518
 20
7.107039997358934
 30
0.0
 10
5.472551867940487
 20
7.106970360034697
 30
0.0
 10
5.47279030587742
 20
7.104910321302327
 30
0.0
 10
5.471950436346915
 20
7.10090693777705
 30
0.0
 10
5.469972026970156
 20
7.09516402983199
 30
0.0
 10
5.466520132204605
 20
7.089597607682003
 30
0.0
 10
5.461771590609249
 20
7.084187181133818
 30
0.0
 10
5.455668611932627
 20
7.079032885335536
 30
0.0
 10
5.448336481811587
 20
7.074280760641768
 30
0.0
 10
5.439950522780855
 20
7.070063660788657
 30
0.0
 10
5.430746836863207
 20
7.066486339718628
 30
0.0
 10
5.420994318661336
 20
7.063613702575208
 30
0.0
 10
5.410861033439222
 20
7.061460217377938
 30
0.0
 10
5.40037656139834
 20
7.059972715786864
 30
0.0
 10
5.389551641666854
 20
7.059133810251436
 30
0.0
 10
5.378530785916173
 20
7.059002479781523
 30
0.0
 10
5.367602078301001
 20
7.05960782121202
 30
0.0
 10
5.357058766763218
 20
7.060944034935423
 30
0.0
 10
5.347173830259166
 20
7.062966848347912
 30
0.0
 10
5.338176991415194
 20
7.065594783344463
 30
0.0
 10
5.330150760966242
 20
7.068768876262276
 30
0.0
 10
5.323083421017967
 20
7.072430496338533
 30
0.0
 10
5.317018202293915
 20
7.076547246886113
 30
0.0
 10
5.312091228343339
 20
7.081092622693506
 30
0.0
 10
5.308519876412789
 20
7.085959401983206
 30
0.0
 10
5.306296568123833
 20
7.090962975057965
 30
0.0
 10
5.306047502468599
 20
7.094345737677945
 30
0.0
 10
5.305925703962609
 20
7.095999981948802
 30
0.0
  0
SPLINE
  5
E8
330
1F
100
AcDbEntity
  8
0
  6
Continuous
 62
     7
370
    15
100
AcDbSpline
210
0.0
220
0.0
230
1.0
 70
     8
 71
     3
 72
    32
 73
    28
 74
     0
 42
0.0000000001
 43
0.0000000001
 40
0.0
 40
0.0
 40
0.0
 40
0.0
 40
0.0014508165026529
 40
0.0429186247712998
 40
0.0833264908945921
 40
0.1237343570178835
 40
0.1652021652865301
 40
0.2074081348374475
 40
0.2499931575612587
 40
0.2925781802850689
 40
0.3347841498359862
 40
0.3762519581046331
 40
0.416659824227925
 40
0.4570676903512167
 40
0.4985354986198642
 40
0.5407414681707814
 40
0.5833264908945916
 40
0.6259115136184015
 40
0.6681174831693189
 40
0.7095852914379659
 40
0.7499931575612584
 40
0.7904010236845501
 40
0.8318688319531968
 40
0.8740748015041139
 40
0.9166598242279238
 40
0.9592448469517337
 40
1.0
 40
1.0
 40
1.0
 40
1.0
 10
5.472543807810517
 20
7.084956916054034
 30
0.0
 10
5.472551867940487
 20
7.084887278729797
 30
0.0
 10
5.47279030587742
 20
7.082827239997431
 30
0.0
 10
5.471950436346915
 20
7.07882385647215
 30
0.0
 10
5.469972026970157
 20
7.07308094852709
 30
0.0
 10
5.466520132204605
 20
7.067514526377103
 30
0.0
 10
5.461771590609249
 20
7.062104099828917
 30
0.0
 10
5.455668611932627
 20
7.056949804030636
 30
0.0
 10
5.448336481811587
 20
7.052197679336869
 30
0.0
 10
5.439950522780855
 20
7.047980579483757
 30
0.0
 10
5.430746836863207
 20
7.044403258413728
 30
0.0
 10
5.420994318661336
 20
7.041530621270308
 30
0.0
 10
5.410861033439222
 20
7.039377136073037
 30
0.0
 10
5.40037656139834
 20
7.037889634481964
 30
0.0
 10
5.389551641666854
 20
7.037050728946535
 30
0.0
 10
5.378530785916173
 20
7.036919398476623
 30
0.0
 10
5.367602078301001
 20
7.03752473990712
 30
0.0
 10
5.357058766763218
 20
7.038860953630523
 30
0.0
 10
5.347173830259166
 20
7.040883767043012
 30
0.0
 10
5.338176991415194
 20
7.043511702039563
 30
0.0
 10
5.330150760966242
 20
7.046685794957377
 30
0.0
 10
5.323083421017967
 20
7.050347415033633
 30
0.0
 10
5.317018202293915
 20
7.054464165581213
 30
0.0
 10
5.312091228343339
 20
7.059009541388606
 30
0.0
 10
5.308519876412789
 20
7.063876320678305
 30
0.0
 10
5.306296568123833
 20
7.068879893753066
 30
0.0
 10
5.3060475024686
 20
7.072262656373045
 30
0.0
 10
5.305925703962609
 20
7.073916900643902
 30
0.0
  0
SPLINE
  5
E9
330
1F
100
AcDbEntity
  8
0
  6
Continuous
 62
     7
370
    15
100
AcDbSpline
210
0.0
220
0.0
230
1.0
 70
     8
 71
     3
 72
    32
 73
    28
 74
     0
 42
0.0000000001
 43
0.0000000001
 40
0.0
 40
0.0
 40
0.0
 40
0.0
 40
0.0014508165026522
 40
0.0429186247712989
 40
0.0833264908945908
 40
0.1237343570178825
 40
0.1652021652865296
 40
0.207408134837447
 40
0.2499931575612576
 40
0.2925781802850678
 40
0.3347841498359853
 40
0.3762519581046322
 40
0.4166598242279245
 40
0.4570676903512154
 40
0.4985354986198639
 40
0.5407414681707812
 40
0.5833264908945912
 40
0.6259115136184012
 40
0.6681174831693184
 40
0.7095852914379652
 40
0.7499931575612574
 40
0.7904010236845494
 40
0.8318688319531965
 40
0.8740748015041141
 40
0.916659824227924
 40
0.9592448469517343
 40
1.0
 40
1.0
 40
1.0
 40
1.0
 10
5.472543807810517
 20
7.062873834749136
 30
0.0
 10
5.472551867940487
 20
7.062804197424897
 30
0.0
 10
5.47279030587742
 20
7.060744158692533
 30
0.0
 10
5.471950436346915
 20
7.05674077516725
 30
0.0
 10
5.469972026970156
 20
7.05099786722219
 30
0.0
 10
5.466520132204605
 20
7.045431445072204
 30
0.0
 10
5.461771590609249
 20
7.040021018524018
 30
0.0
 10
5.455668611932627
 20
7.034866722725737
 30
0.0
 10
5.448336481811587
 20
7.030114598031969
 30
0.0
 10
5.439950522780855
 20
7.025897498178857
 30
0.0
 10
5.430746836863207
 20
7.022320177108828
 30
0.0
 10
5.420994318661336
 20
7.019447539965408
 30
0.0
 10
5.410861033439222
 20
7.017294054768137
 30
0.0
 10
5.40037656139834
 20
7.015806553177064
 30
0.0
 10
5.389551641666855
 20
7.014967647641636
 30
0.0
 10
5.378530785916173
 20
7.014836317171723
 30
0.0
 10
5.367602078301001
 20
7.01544165860222
 30
0.0
 10
5.357058766763218
 20
7.016777872325623
 30
0.0
 10
5.347173830259166
 20
7.018800685738112
 30
0.0
 10
5.338176991415194
 20
7.021428620734663
 30
0.0
 10
5.330150760966244
 20
7.024602713652477
 30
0.0
 10
5.323083421017968
 20
7.028264333728733
 30
0.0
 10
5.317018202293915
 20
7.032381084276313
 30
0.0
 10
5.312091228343339
 20
7.036926460083706
 30
0.0
 10
5.308519876412789
 20
7.041793239373405
 30
0.0
 10
5.306296568123833
 20
7.046796812448166
 30
0.0
 10
5.3060475024686
 20
7.050179575068145
 30
0.0
 10
5.305925703962609
 20
7.051833819339002
 30
0.0
  0
SPLINE
  5
EA
330
1F
100
AcDbEntity
  8
0
  6
Continuous
 62
     7
370
    15
100
AcDbSpline
210
0.0
220
0.0
230
1.0
 70
     8
 71
     3
 72
    32
 73
    28
 74
     0
 42
0.0000000001
 43
0.0000000001
 40
0.0
 40
0.0
 40
0.0
 40
0.0
 40
0.0014508165026522
 40
0.0429186247712989
 40
0.0833264908945909
 40
0.1237343570178829
 40
0.1652021652865297
 40
0.2074081348374471
 40
0.249993157561258
 40
0.2925781802850682
 40
0.3347841498359856
 40
0.3762519581046323
 40
0.4166598242279243
 40
0.457067690351216
 40
0.4985354986198647
 40
0.5407414681707818
 40
0.583326490894592
 40
0.6259115136184022
 40
0.6681174831693199
 40
0.7095852914379668
 40
0.7499931575612587
 40
0.7904010236845517
 40
0.8318688319531982
 40
0.8740748015041154
 40
0.9166598242279256
 40
0.9592448469517355
 40
0.9999999999999998
 40
0.9999999999999998
 40
0.9999999999999998
 40
0.9999999999999998
 10
5.472543807810517
 20
7.040790753444236
 30
0.0
 10
5.472551867940487
 20
7.040721116119997
 30
0.0
 10
5.472790305877419
 20
7.038661077387633
 30
0.0
 10
5.471950436346915
 20
7.03465769386235
 30
0.0
 10
5.469972026970156
 20
7.028914785917291
 30
0.0
 10
5.466520132204605
 20
7.023348363767303
 30
0.0
 10
5.461771590609249
 20
7.017937937219118
 30
0.0
 10
5.455668611932627
 20
7.012783641420836
 30
0.0
 10
5.448336481811587
 20
7.008031516727069
 30
0.0
 10
5.439950522780855
 20
7.003814416873957
 30
0.0
 10
5.430746836863207
 20
7.000237095803928
 30
0.0
 10
5.420994318661336
 20
6.997364458660508
 30
0.0
 10
5.410861033439222
 20
6.995210973463237
 30
0.0
 10
5.40037656139834
 20
6.993723471872166
 30
0.0
 10
5.389551641666855
 20
6.992884566336735
 30
0.0
 10
5.378530785916173
 20
6.992753235866825
 30
0.0
 10
5.367602078301001
 20
6.993358577297319
 30
0.0
 10
5.357058766763218
 20
6.994694791020723
 30
0.0
 10
5.347173830259166
 20
6.996717604433213
 30
0.0
 10
5.338176991415194
 20
6.999345539429763
 30
0.0
 10
5.330150760966242
 20
7.002519632347577
 30
0.0
 10
5.323083421017967
 20
7.006181252423833
 30
0.0
 10
5.317018202293915
 20
7.010298002971413
 30
0.0
 10
5.312091228343339
 20
7.014843378778806
 30
0.0
 10
5.308519876412789
 20
7.019710158068506
 30
0.0
 10
5.306296568123833
 20
7.024713731143266
 30
0.0
 10
5.3060475024686
 20
7.028096493763245
 30
0.0
 10
5.305925703962609
 20
7.029750738034102
 30
0.0
  0
SPLINE
  5
EB
330
1F
100
AcDbEntity
  8
0
  6
Continuous
 62
     7
370
    15
100
AcDbSpline
210
0.0
220
0.0
230
1.0
 70
     8
 71
     3
 72
    12
 73
     8
 74
     0
 42
0.0000000001
 43
0.0000000001
 40
0.0
 40
0.0
 40
0.0
 40
0.0
 40
0.0091362062348725
 40
0.2702708485261589
 40
0.5247307321423904
 40
0.7791906157586226
 40
1.0
 40
1.0
 40
1.0
 40
1.0
 10
5.472543807810517
 20
7.018707672139336
 30
0.0
 10
5.472551866740388
 20
7.018638035122044
 30
0.0
 10
5.472790269175502
 20
7.016578005469849
 30
0.0
 10
5.471956447774272
 20
7.012573075036233
 30
0.0
 10
5.469951465395893
 20
7.006836963572505
 30
0.0
 10
5.466773084935067
 20
7.001538314671946
 30
0.0
 10
5.463737732920605
 20
6.998288908758565
 30
0.0
 10
5.462327512957739
 20
6.996779239677461
 30
0.0
  0
LWPOLYLINE
  5
EC
330
1F
100
AcDbEntity
  8
0
  6
Continuous
 62
     7
370
    15
100
AcDbPolyline
 90
       53
 70
   128
 43
0.0
 10
5.444192711263292
 20
7.140589102436996
 10
5.4449917050345
 20
7.140021546617607
 10
5.448182218370824
 20
7.137476730429833
 10
5.450924105924191
 20
7.13480029881767
 10
5.453196500274724
 20
7.132012621041758
 10
5.454982107129306
 20
7.129134913013218
 10
5.456267336941595
 20
7.126189075827754
 10
5.457042408336675
 20
7.123197529085095
 10
5.45730142255323
 20
7.120183040262298
 10
5.457042408336675
 20
7.117168551439498
 10
5.456267336941595
 20
7.114177004696838
 10
5.454982107129306
 20
7.111231167511376
 10
5.453196500274724
 20
7.108353459482835
 10
5.450924105924191
 20
7.105565781706924
 10
5.448182218370824
 20
7.102889350094761
 10
5.4449917050345
 20
7.100344533906988
 10
5.441376847648195
 20
7.097950700731397
 10
5.437365157459328
 20
7.095726069083889
 10
5.43298716585256
 20
7.093687569754572
 10
5.428276191987525
 20
7.091850716954222
 10
5.423268089219896
 20
7.09022949024177
 10
5.418000972235713
 20
7.088836228131423
 10
5.412514926975597
 20
7.087681534189115
 10
5.406851705556542
 20
7.086774196332967
 10
5.401054408513092
 20
7.086121119951936
 10
5.395167156776254
 20
7.085727275351615
 10
5.389234755886564
 20
7.085595659927225
 10
5.383302354996872
 20
7.085727275351615
 10
5.377415103260034
 20
7.086121119951936
 10
5.371617806216585
 20
7.086774196332967
 10
5.365954584797528
 20
7.087681534189115
 10
5.360468539537412
 20
7.088836228131423
 10
5.355201422553229
 20
7.09022949024177
 10
5.350193319785602
 20
7.091850716954222
 10
5.345482345920565
 20
7.093687569754573
 10
5.341104354313798
 20
7.095726069083889
 10
5.337092664124932
 20
7.097950700731397
 10
5.333477806738625
 20
7.100344533906988
 10
5.330287293402302
 20
7.102889350094761
 10
5.327545405848935
 20
7.105565781706925
 10
5.325273011498402
 20
7.108353459482836
 10
5.323487404643821
 20
7.111231167511377
 10
5.322202174831532
 20
7.11417700469684
 10
5.321427103436452
 20
7.117168551439498
 10
5.321168089219896
 20
7.120183040262298
 10
5.321427103436452
 20
7.123197529085096
 10
5.322202174831532
 20
7.126189075827756
 10
5.323487404643821
 20
7.129134913013218
 10
5.325273011498403
 20
7.132012621041758
 10
5.327545405848936
 20
7.13480029881767
 10
5.330287293402302
 20
7.137476730429833
 10
5.333477806738627
 20
7.140021546617607
 10
5.334276800509835
 20
7.140589102436996
  0
LWPOLYLINE
  5
ED
330
1F
100
AcDbEntity
  8
0
  6
Continuous
 62
     7
370
    15
100
AcDbPolyline
 90
       68
 70
   128
 43
0.0
 10
5.429999461821968
 20
7.149868819199227
 10
5.426003073186994
 20
7.151717506344714
 10
5.421683563257536
 20
7.153367910305337
 10
5.417078892042165
 20
7.15480552727175
 10
5.412229525557091
 20
7.156017723414359
 10
5.407178080209345
 20
7.156993845909878
 10
5.401968948282279
 20
7.15772531655872
 10
5.396647907814564
 20
7.158205707170519
 10
5.391261720301159
 20
7.158430796055308
 10
5.385857719751595
 20
7.158398605123873
 10
5.380483396717012
 20
7.158109417271277
 10
5.375185980941475
 20
7.157565773890767
 10
5.370012026305296
 20
7.156772452539918
 10
5.365007001707855
 20
7.155736424955287
 10
5.360214891485274
 20
7.154466795784537
 10
5.355677808874496
 20
7.152974722574474
 10
5.351435625920641
 20
7.151273317718117
 10
5.347525623080038
 20
7.149377533222518
 10
5.343982161598241
 20
7.147304029309991
 10
5.340836381542163
 20
7.145071028007475
 10
5.338115928140044
 20
7.142698153010706
 10
5.3358447088342
 20
7.140206257230474
 10
5.334042683181557
 20
7.137617239536498
 10
5.332725687448343
 20
7.134953852309361
 10
5.331905295440415
 20
7.132239501491782
 10
5.331588716792238
 20
7.129498040896342
 10
5.331778733608353
 20
7.126753562577327
 10
5.332473676014152
 20
7.124030185108887
 10
5.33366743683078
 20
7.121351841630136
 10
5.335349525245262
 20
7.118742069519867
 10
5.337505159004128
 20
7.116223803549224
 10
5.340115394320396
 20
7.113819174330103
 10
5.343157292352253
 20
7.111549313830546
 10
5.346604120790421
 20
7.109434169666235
 10
5.350425588782649
 20
7.10749232980014
 10
5.354588113130818
 20
7.105740859190825
 10
5.359055113421285
 20
7.104195149824983
 10
5.363787333494882
 20
7.102868785452097
 10
5.36874318643145
 20
7.101773422209967
 10
5.373879120017189
 20
7.100918686190149
 10
5.379149999483079
 20
7.10031208884352
 10
5.384509504150851
 20
7.099958960969372
 10
5.38991053450078
 20
7.099862405868162
 10
5.395305626083947
 20
7.10002327206959
 10
5.400647366641535
 20
7.100440145875692
 10
5.405888812765454
 20
7.101109363784473
 10
5.410983902438705
 20
7.102025044684888
 10
5.415887859830039
 20
7.103179141540259
 10
5.420557588785573
 20
7.104561512105923
 10
5.42495205155934
 20
7.106160008059646
 10
5.429032629454478
 20
7.107960581761511
 10
5.432763462205719
 20
7.109947409705083
 10
5.436111763120701
 20
7.112103031574956
 10
5.43904810721059
 20
7.114408503688627
 10
5.441546689777944
 20
7.116843565474269
 10
5.443585553189321
 20
7.119386817521351
 10
5.445146779839754
 20
7.12201590963944
 10
5.446216649613304
 20
7.124707737272469
 10
5.446785760455928
 20
7.127438644542411
 10
5.446849111001083
 20
7.130184632137984
 10
5.446406144521897
 20
7.132921568221464
 10
5.445460753823717
 20
7.135625400500138
 10
5.444021247033994
 20
7.138272367598724
 10
5.442100274590152
 20
7.140839207875183
 10
5.439714718067099
 20
7.143303363844871
 10
5.436885541821336
 20
7.145643180416525
 10
5.433637608755437
 20
7.147838095197984
 10
5.429999461821968
 20
7.149868819199227
  0
ARC
  5
EE
330
1F
100
AcDbEntity
  8
0
  6
Continuous
 62
     7
370
    15
100
AcDbCircle
 10
5.43797715840741
 20
7.120747616026993
 30
0.0
 40
0.0240468601724944
100
AcDbArc
 50
64.94604044571305
 51
89.59724732691118
  0
SPLINE
  5
EF
330
1F
100
AcDbEntity
  8
0
  6
Continuous
 62
     7
370
    15
100
AcDbSpline
210
0.0
220
0.0
230
1.0
 70
     8
 71
     3
 72
    28
 73
    24
 74
     0
 42
0.0000000001
 43
0.0000000001
 40
0.0
 40
0.0
 40
0.0
 40
0.0
 40
0.0492558902929941
 40
0.1003998120005691
 40
0.1513237507342914
 40
0.2013864411337972
 40
0.2500103054232198
 40
0.2986341697126423
 40
0.3486968601121481
 40
0.3996207988458704
 40
0.4507647205534455
 40
0.5014705688779753
 40
0.5511135135172851
 40
0.599359872613937
 40
0.6485219602241063
 40
0.6989399231833646
 40
0.7500103054232199
 40
0.801080687663075
 40
0.8514986506223332
 40
0.9006607382325025
 40
0.9489070973291545
 40
0.9985500419684642
 40
1.0
 40
1.0
 40
1.0
 40
1.0
 10
4.160915050901292
 20
6.752623828054973
 30
0.0
 10
4.160767613423731
 20
6.750654198058106
 30
0.0
 10
4.160467087031033
 20
6.74663944002166
 30
0.0
 10
4.157842127618034
 20
6.740706504245113
 30
0.0
 10
4.153681159164998
 20
6.735023753017252
 30
0.0
 10
4.148046435661378
 20
6.729844649245213
 30
0.0
 10
4.141190753205953
 20
6.725278002019948
 30
0.0
 10
4.133195775370825
 20
6.721289019190999
 30
0.0
 10
4.12409882460985
 20
6.717873115889529
 30
0.0
 10
4.114060513111101
 20
6.715162208742564
 30
0.0
 10
4.103437556492963
 20
6.713278665876452
 30
0.0
 10
4.092636338953076
 20
6.71229118855812
 30
0.0
 10
4.082048289834873
 20
6.712192379347816
 30
0.0
 10
4.071826093191253
 20
6.712955134248608
 30
0.0
 10
4.06204792787851
 20
6.714467466191908
 30
0.0
 10
4.052841167377572
 20
6.71674262470856
 30
0.0
 10
4.044535706774591
 20
6.719747419894622
 30
0.0
 10
4.037462269591468
 20
6.723380421513456
 30
0.0
 10
4.031882416032747
 20
6.727492192632332
 30
0.0
 10
4.02782879910989
 20
6.731935961539863
 30
0.0
 10
4.025519615649899
 20
6.736636681779241
 30
0.0
 10
4.024541368427626
 20
6.739883830573818
 30
0.0
 10
4.024821642659615
 20
6.741533637709193
 30
0.0
 10
4.024829596521159
 20
6.741580457345215
 30
0.0
  0
SPLINE
  5
F0
330
1F
100
AcDbEntity
  8
0
  6
Continuous
 62
     7
370
    15
100
AcDbSpline
210
0.0
220
0.0
230
1.0
 70
     8
 71
     3
 72
    20
 73
    16
 74
     0
 42
0.0000000001
 43
0.0000000001
 40
0.0
 40
0.0
 40
0.0
 40
0.0
 40
0.0592277066385104
 40
0.1378922661928055
 40
0.2188845844285417
 40
0.3012702456629905
 40
0.3840117992971992
 40
0.4660446299569324
 40
0.5463578759750831
 40
0.6244117008592168
 40
0.7039470077530565
 40
0.7855140923065888
 40
0.8681366724712374
 40
0.9507592526358838
 40
1.0
 40
1.0
 40
1.0
 40
1.0
 10
4.146095510477184
 20
6.706688434951175
 30
0.0
 10
4.144451257456651
 20
6.705529896777191
 30
0.0
 10
4.140623154224837
 20
6.702832621070458
 30
0.0
 10
4.133169698375875
 20
6.69921735322602
 30
0.0
 10
4.124106033395851
 20
6.695786879636789
 30
0.0
 10
4.114058553922599
 20
6.693079982082777
 30
0.0
 10
4.103438091522907
 20
6.691195361613893
 30
0.0
 10
4.092636149063753
 20
6.690208149138492
 30
0.0
 10
4.082048519678457
 20
6.690109346009395
 30
0.0
 10
4.071825372841984
 20
6.69087182642081
 30
0.0
 10
4.062050671903978
 20
6.692385273155733
 30
0.0
 10
4.05283059246463
 20
6.694656113057702
 30
0.0
 10
4.044575703797779
 20
6.69767731495981
 30
0.0
 10
4.038264998961657
 20
6.700781367921133
 30
0.0
 10
4.035375813372703
 20
6.703040772697354
 30
0.0
 10
4.034296926161681
 20
6.703884485516257
 30
0.0
  0
SPLINE
  5
F1
330
1F
100
AcDbEntity
  8
0
  6
Continuous
 62
     7
370
    15
100
AcDbSpline
210
0.0
220
0.0
230
1.0
 70
     8
 71
     3
 72
    20
 73
    16
 74
     0
 42
0.0000000001
 43
0.0000000001
 40
0.0
 40
0.0
 40
0.0
 40
0.0
 40
0.0592277066385053
 40
0.1378922661928009
 40
0.2188845844285377
 40
0.301270245662987
 40
0.3840117992971962
 40
0.4660446299569298
 40
0.5463578759750809
 40
0.6244117008592151
 40
0.703947007753055
 40
0.7855140923065875
 40
0.8681366724712365
 40
0.9507592526358836
 40
1.0
 40
1.0
 40
1.0
 40
1.0
 10
4.146095510477184
 20
6.684605353646275
 30
0.0
 10
4.14445125745665
 20
6.68344681547229
 30
0.0
 10
4.140623154224837
 20
6.680749539765558
 30
0.0
 10
4.133169698375875
 20
6.677134271921121
 30
0.0
 10
4.124106033395851
 20
6.67370379833189
 30
0.0
 10
4.114058553922599
 20
6.670996900777877
 30
0.0
 10
4.103438091522905
 20
6.669112280308993
 30
0.0
 10
4.092636149063753
 20
6.668125067833591
 30
0.0
 10
4.082048519678456
 20
6.668026264704495
 30
0.0
 10
4.071825372841984
 20
6.668788745115911
 30
0.0
 10
4.062050671903978
 20
6.670302191850835
 30
0.0
 10
4.05283059246463
 20
6.672573031752802
 30
0.0
 10
4.044575703797779
 20
6.675594233654911
 30
0.0
 10
4.038264998961657
 20
6.678698286616233
 30
0.0
 10
4.035375813372703
 20
6.680957691392454
 30
0.0
 10
4.034296926161681
 20
6.681801404211357
 30
0.0
  0
SPLINE
  5
F2
330
1F
100
AcDbEntity
  8
0
  6
Continuous
 62
     7
370
    15
100
AcDbSpline
210
0.0
220
0.0
230
1.0
 70
     8
 71
     3
 72
    20
 73
    16
 74
     0
 42
0.0000000001
 43
0.0000000001
 40
0.0
 40
0.0
 40
0.0
 40
0.0
 40
0.0592277066385079
 40
0.1378922661928062
 40
0.2188845844285429
 40
0.3012702456629897
 40
0.384011799297199
 40
0.466044629956934
 40
0.5463578759750832
 40
0.6244117008592171
 40
0.703947007753057
 40
0.7855140923065895
 40
0.8681366724712384
 40
0.9507592526358854
 40
1.0
 40
1.0
 40
1.0
 40
1.0
 10
4.146095510477184
 20
6.662522272341376
 30
0.0
 10
4.14445125745665
 20
6.661363734167391
 30
0.0
 10
4.140623154224838
 20
6.658666458460658
 30
0.0
 10
4.133169698375875
 20
6.65505119061622
 30
0.0
 10
4.124106033395851
 20
6.65162071702699
 30
0.0
 10
4.114058553922599
 20
6.648913819472977
 30
0.0
 10
4.103438091522906
 20
6.647029199004095
 30
0.0
 10
4.092636149063753
 20
6.646041986528692
 30
0.0
 10
4.082048519678457
 20
6.645943183399595
 30
0.0
 10
4.071825372841984
 20
6.646705663811011
 30
0.0
 10
4.062050671903978
 20
6.648219110545935
 30
0.0
 10
4.05283059246463
 20
6.650489950447903
 30
0.0
 10
4.044575703797779
 20
6.653511152350011
 30
0.0
 10
4.038264998961656
 20
6.656615205311333
 30
0.0
 10
4.035375813372704
 20
6.658874610087554
 30
0.0
 10
4.034296926161681
 20
6.659718322906457
 30
0.0
  0
SPLINE
  5
F3
330
1F
100
AcDbEntity
  8
0
  6
Continuous
 62
     7
370
    15
100
AcDbSpline
210
0.0
220
0.0
230
1.0
 70
     8
 71
     3
 72
    20
 73
    16
 74
     0
 42
0.0000000001
 43
0.0000000001
 40
0.0
 40
0.0
 40
0.0
 40
0.0
 40
0.0592277066385078
 40
0.1378922661928032
 40
0.2188845844285397
 40
0.3012702456629885
 40
0.3840117992971975
 40
0.4660446299569332
 40
0.5463578759750839
 40
0.6244117008592175
 40
0.7039470077530573
 40
0.7855140923065897
 40
0.8681366724712388
 40
0.9507592526358854
 40
0.9999999999999998
 40
0.9999999999999998
 40
0.9999999999999998
 40
0.9999999999999998
 10
4.146095510477184
 20
6.640439191036476
 30
0.0
 10
4.144451257456651
 20
6.639280652862491
 30
0.0
 10
4.140623154224839
 20
6.636583377155758
 30
0.0
 10
4.133169698375875
 20
6.632968109311321
 30
0.0
 10
4.124106033395851
 20
6.62953763572209
 30
0.0
 10
4.114058553922599
 20
6.626830738168077
 30
0.0
 10
4.103438091522906
 20
6.624946117699195
 30
0.0
 10
4.092636149063753
 20
6.623958905223792
 30
0.0
 10
4.082048519678456
 20
6.623860102094695
 30
0.0
 10
4.071825372841984
 20
6.624622582506111
 30
0.0
 10
4.062050671903978
 20
6.626136029241035
 30
0.0
 10
4.05283059246463
 20
6.628406869143003
 30
0.0
 10
4.04457570379778
 20
6.63142807104511
 30
0.0
 10
4.038264998961656
 20
6.634532124006433
 30
0.0
 10
4.035375813372704
 20
6.636791528782655
 30
0.0
 10
4.034296926161681
 20
6.637635241601557
 30
0.0
  0
LINE
  5
F4
330
1F
100
AcDbEntity
  8
0
  6
Continuous
 62
     7
370
    15
100
AcDbLine
 10
4.04334457256157
 20
6.78505621590365
 30
0.0
 11
4.033946758612346
 21
6.783222815043015
 31
0.0
  0
SPLINE
  5
F5
330
1F
100
AcDbEntity
  8
0
  6
Continuous
 62
     7
370
    15
100
AcDbSpline
210
0.0
220
0.0
230
1.0
 70
     8
 71
     3
 72
     9
 73
     5
 74
     0
 42
0.0000000001
 43
0.0000000001
 40
0.0
 40
0.0
 40
0.0
 40
0.0
 40
0.576520971672418
 40
0.9999999999999998
 40
0.9999999999999998
 40
0.9999999999999998
 40
0.9999999999999998
 10
4.033946758612346
 20
6.783222815043015
 30
0.0
 10
4.0365121355781
 20
6.784321530768207
 30
0.0
 10
4.040961890386345
 20
6.786227299645974
 30
0.0
 10
4.0461310910663
 20
6.787638760139636
 30
0.0
 10
4.048320139147477
 20
6.788236484058017
 30
0.0
  0
SPLINE
  5
F6
330
1F
100
AcDbEntity
  8
0
  6
Continuous
 62
     7
370
    15
100
AcDbSpline
210
0.0
220
0.0
230
1.0
 70
     8
 71
     3
 72
    42
 73
    38
 74
     0
 42
0.0000000001
 43
0.0000000001
 40
0.0
 40
0.0
 40
0.0
 40
0.0
 40
0.0240286761565123
 40
0.0534035906006293
 40
0.0822647524940204
 40
0.1103882057133346
 40
0.1385116589326494
 40
0.1673728208260399
 40
0.1967477352701572
 40
0.2263864667676902
 40
0.2560251982652242
 40
0.2854001127093408
 40
0.3142612746027317
 40
0.3423847278220464
 40
0.3705081810413611
 40
0.3993693429347519
 40
0.4287442573788696
 40
0.4583829888764026
 40
0.4880217203739356
 40
0.5173966348180529
 40
0.5462577967114441
 40
0.5743812499307582
 40
0.6025047031500727
 40
0.631365865043464
 40
0.6607407794875809
 40
0.6903795109851141
 40
0.7200182424826474
 40
0.7493931569267645
 40
0.7782543188201552
 40
0.8063777720394693
 40
0.8345012252587835
 40
0.8633623871521749
 40
0.8927373015962922
 40
0.9223760330938251
 40
0.9520147645913581
 40
0.9813896790354757
 40
1.0
 40
1.0
 40
1.0
 40
1.0
 10
4.153185848498464
 20
6.776802577165835
 30
0.0
 10
4.155227292684812
 20
6.775542608719591
 30
0.0
 10
4.159764390311484
 20
6.772742336301978
 30
0.0
 10
4.165387679805998
 20
6.767875955382359
 30
0.0
 10
4.170170136439598
 20
6.762476903242996
 30
0.0
 10
4.173581358417274
 20
6.75690791163464
 30
0.0
 10
4.175689994613029
 20
6.751164250324113
 30
0.0
 10
4.176445225707865
 20
6.745208553263742
 30
0.0
 10
4.175764145284464
 20
6.739130998836629
 30
0.0
 10
4.173606570078005
 20
6.733086680517213
 30
0.0
 10
4.170010709949796
 20
6.727238219710129
 30
0.0
 10
4.165090224167109
 20
6.721737804699144
 30
0.0
 10
4.159023310591621
 20
6.716711264847811
 30
0.0
 10
4.151956410768903
 20
6.712215876868052
 30
0.0
 10
4.143930062787641
 20
6.70820802286378
 30
0.0
 10
4.13493325635201
 20
6.704670277448737
 30
0.0
 10
4.12504831092139
 20
6.701692504255824
 30
0.0
 10
4.114505001815236
 20
6.699374309386969
 30
0.0
 10
4.103576293530228
 20
6.69778698684892
 30
0.0
 10
4.092555438021038
 20
6.696963357426379
 30
0.0
 10
4.081730517993487
 20
6.696892452942951
 30
0.0
 10
4.071246046874742
 20
6.697546192000095
 30
0.0
 10
4.061112758240137
 20
6.698865914713731
 30
0.0
 10
4.051360253168049
 20
6.700828741682527
 30
0.0
 10
4.042156516990507
 20
6.703451103446022
 30
0.0
 10
4.033770747809064
 20
6.706686219981168
 30
0.0
 10
4.026437910070873
 20
6.710456371767502
 30
0.0
 10
4.020337534081926
 20
6.714655677485292
 30
0.0
 10
4.01557954199044
 20
6.719156403636085
 30
0.0
 10
4.012161920800556
 20
6.723888665692374
 30
0.0
 10
4.010055166399297
 20
6.728799299905246
 30
0.0
 10
4.009298750697553
 20
6.733845203191993
 30
0.0
 10
4.009982704949465
 20
6.738966955065341
 30
0.0
 10
4.01212987601545
 20
6.744032687402764
 30
0.0
 10
4.0157643939756
 20
6.748886455657962
 30
0.0
 10
4.019985318843469
 20
6.752942984067844
 30
0.0
 10
4.023458599583589
 20
6.75519143298338
 30
0.0
 10
4.024805657044558
 20
6.756063458631148
 30
0.0
  0
SPLINE
  5
F7
330
1F
100
AcDbEntity
  8
0
  6
Continuous
 62
     7
370
    15
100
AcDbSpline
210
0.0
220
0.0
230
1.0
 70
     8
 71
     3
 72
    35
 73
    31
 74
     0
 42
0.0000000001
 43
0.0000000001
 40
0.0
 40
0.0
 40
0.0
 40
0.0
 40
0.0216573238937418
 40
0.0577808664336593
 40
0.0945474379060118
 40
0.1316442111417935
 40
0.1687409843775754
 40
0.2055075558499283
 40
0.2416310983898451
 40
0.2768313014339893
 40
0.3120315044781336
 40
0.3481550470180492
 40
0.384921618490402
 40
0.4220183917261838
 40
0.4591151649619655
 40
0.4958817364343183
 40
0.5320052789742355
 40
0.567205482018379
 40
0.6024056850625227
 40
0.6385292276024398
 40
0.675295799074792
 40
0.7123925723105753
 40
0.7494893455463573
 40
0.7862559170187095
 40
0.8223794595586259
 40
0.8575796626027695
 40
0.8927798656469132
 40
0.9289034081868308
 40
0.9656699796591833
 40
1.0
 40
1.0
 40
1.0
 40
1.0
 10
4.174167581014287
 20
6.732608531303467
 30
0.0
 10
4.174639065648772
 20
6.731446962541925
 30
0.0
 10
4.175896967632615
 20
6.728347943946947
 30
0.0
 10
4.176408294208408
 20
6.723121205917826
 30
0.0
 10
4.175774214650081
 20
6.717049080666923
 30
0.0
 10
4.173603860877146
 20
6.711003286266395
 30
0.0
 10
4.170011429157931
 20
6.705155221482587
 30
0.0
 10
4.165090035756762
 20
6.699654701630539
 30
0.0
 10
4.159023359271081
 20
6.694628189165984
 30
0.0
 10
4.151956397879972
 20
6.690132794074323
 30
0.0
 10
4.143930066340083
 20
6.686124941969231
 30
0.0
 10
4.134933255370973
 20
6.682587196030511
 30
0.0
 10
4.125048311188818
 20
6.679609422981829
 30
0.0
 10
4.114505001743479
 20
6.677291228073729
 30
0.0
 10
4.103576293548556
 20
6.67570390554633
 30
0.0
 10
4.09255543801889
 20
6.674880276120521
 30
0.0
 10
4.081730517984433
 20
6.674809371639579
 30
0.0
 10
4.071246046911942
 20
6.675463110690157
 30
0.0
 10
4.061112758098444
 20
6.676782833427724
 30
0.0
 10
4.0513602537168
 20
6.678745660304541
 30
0.0
 10
4.042156514895701
 20
6.681368022420093
 30
0.0
 10
4.033770755700057
 20
6.684603137625409
 30
0.0
 10
4.026437880742182
 20
6.688373294368358
 30
0.0
 10
4.020337641651017
 20
6.692572581855216
 30
0.0
 10
4.015579152476472
 20
6.697073374203483
 30
0.0
 10
4.01216333402939
 20
6.701805396185168
 30
0.0
 10
4.010049828856881
 20
6.706716929410772
 30
0.0
 10
4.009319409270834
 20
6.711759370746567
 30
0.0
 10
4.009889144465381
 20
6.716765202958932
 30
0.0
 10
4.011459381236343
 20
6.719982899011051
 30
0.0
 10
4.012217592831474
 20
6.721536610210176
 30
0.0
  0
SPLINE
  5
F8
330
1F
100
AcDbEntity
  8
0
  6
Continuous
 62
     7
370
    15
100
AcDbSpline
210
0.0
220
0.0
230
1.0
 70
     8
 71
     3
 72
    35
 73
    31
 74
     0
 42
0.0000000001
 43
0.0000000001
 40
0.0
 40
0.0
 40
0.0
 40
0.0
 40
0.0216573238937409
 40
0.0577808664336589
 40
0.0945474379060114
 40
0.1316442111417932
 40
0.1687409843775751
 40
0.2055075558499269
 40
0.2416310983898438
 40
0.2768313014339881
 40
0.3120315044781323
 40
0.3481550470180492
 40
0.3849216184904009
 40
0.4220183917261839
 40
0.4591151649619657
 40
0.4958817364343184
 40
0.5320052789742356
 40
0.5672054820183793
 40
0.6024056850625227
 40
0.6385292276024398
 40
0.6752957990747919
 40
0.7123925723105752
 40
0.7494893455463571
 40
0.7862559170187092
 40
0.8223794595586257
 40
0.8575796626027694
 40
0.892779865646913
 40
0.9289034081868305
 40
0.9656699796591832
 40
0.9999999999999998
 40
0.9999999999999998
 40
0.9999999999999998
 40
0.9999999999999998
 10
4.174167581014287
 20
6.710525449998567
 30
0.0
 10
4.174639065648772
 20
6.709363881237025
 30
0.0
 10
4.175896967632614
 20
6.706264862642047
 30
0.0
 10
4.176408294208408
 20
6.701038124612929
 30
0.0
 10
4.175774214650081
 20
6.694965999362023
 30
0.0
 10
4.173603860877146
 20
6.688920204961495
 30
0.0
 10
4.17001142915793
 20
6.683072140177688
 30
0.0
 10
4.165090035756763
 20
6.677571620325639
 30
0.0
 10
4.159023359271081
 20
6.672545107861086
 30
0.0
 10
4.151956397879973
 20
6.668049712769423
 30
0.0
 10
4.143930066340083
 20
6.664041860664331
 30
0.0
 10
4.134933255370974
 20
6.660504114725612
 30
0.0
 10
4.125048311188817
 20
6.65752634167693
 30
0.0
 10
4.114505001743479
 20
6.655208146768829
 30
0.0
 10
4.103576293548555
 20
6.653620824241431
 30
0.0
 10
4.092555438018891
 20
6.652797194815621
 30
0.0
 10
4.081730517984433
 20
6.652726290334679
 30
0.0
 10
4.071246046911942
 20
6.653380029385257
 30
0.0
 10
4.061112758098444
 20
6.654699752122824
 30
0.0
 10
4.0513602537168
 20
6.656662578999643
 30
0.0
 10
4.042156514895701
 20
6.659284941115193
 30
0.0
 10
4.033770755700057
 20
6.662520056320509
 30
0.0
 10
4.026437880742182
 20
6.666290213063459
 30
0.0
 10
4.020337641651017
 20
6.670489500550317
 30
0.0
 10
4.015579152476472
 20
6.674990292898583
 30
0.0
 10
4.01216333402939
 20
6.67972231488027
 30
0.0
 10
4.010049828856881
 20
6.684633848105872
 30
0.0
 10
4.009319409270835
 20
6.689676289441667
 30
0.0
 10
4.009889144465381
 20
6.694682121654034
 30
0.0
 10
4.011459381236344
 20
6.697899817706151
 30
0.0
 10
4.012217592831474
 20
6.699453528905276
 30
0.0
  0
SPLINE
  5
F9
330
1F
100
AcDbEntity
  8
0
  6
Continuous
 62
     7
370
    15
100
AcDbSpline
210
0.0
220
0.0
230
1.0
 70
     8
 71
     3
 72
    35
 73
    31
 74
     0
 42
0.0000000001
 43
0.0000000001
 40
0.0
 40
0.0
 40
0.0
 40
0.0
 40
0.0216573238937412
 40
0.0577808664336601
 40
0.0945474379060117
 40
0.1316442111417946
 40
0.1687409843775765
 40
0.2055075558499284
 40
0.2416310983898453
 40
0.2768313014339896
 40
0.3120315044781351
 40
0.3481550470180509
 40
0.3849216184904039
 40
0.4220183917261858
 40
0.4591151649619677
 40
0.4958817364343194
 40
0.5320052789742365
 40
0.5672054820183801
 40
0.6024056850625237
 40
0.6385292276024409
 40
0.6752957990747929
 40
0.7123925723105761
 40
0.7494893455463581
 40
0.7862559170187103
 40
0.8223794595586271
 40
0.8575796626027708
 40
0.8927798656469146
 40
0.9289034081868333
 40
0.9656699796591848
 40
1.0
 40
1.0
 40
1.0
 40
1.0
 10
4.174167581014287
 20
6.688442368693667
 30
0.0
 10
4.174639065648772
 20
6.687280799932125
 30
0.0
 10
4.175896967632614
 20
6.684181781337147
 30
0.0
 10
4.176408294208407
 20
6.678955043308029
 30
0.0
 10
4.175774214650082
 20
6.672882918057123
 30
0.0
 10
4.173603860877145
 20
6.666837123656595
 30
0.0
 10
4.170011429157931
 20
6.660989058872787
 30
0.0
 10
4.165090035756762
 20
6.65548853902074
 30
0.0
 10
4.159023359271081
 20
6.650462026556184
 30
0.0
 10
4.151956397879972
 20
6.645966631464523
 30
0.0
 10
4.143930066340082
 20
6.641958779359431
 30
0.0
 10
4.134933255370974
 20
6.638421033420712
 30
0.0
 10
4.125048311188817
 20
6.63544326037203
 30
0.0
 10
4.114505001743478
 20
6.633125065463929
 30
0.0
 10
4.103576293548556
 20
6.631537742936531
 30
0.0
 10
4.09255543801889
 20
6.630714113510721
 30
0.0
 10
4.081730517984433
 20
6.630643209029779
 30
0.0
 10
4.071246046911942
 20
6.631296948080358
 30
0.0
 10
4.061112758098444
 20
6.632616670817923
 30
0.0
 10
4.0513602537168
 20
6.634579497694744
 30
0.0
 10
4.042156514895702
 20
6.637201859810293
 30
0.0
 10
4.033770755700057
 20
6.640436975015609
 30
0.0
 10
4.026437880742183
 20
6.644207131758558
 30
0.0
 10
4.020337641651017
 20
6.648406419245417
 30
0.0
 10
4.015579152476472
 20
6.652907211593683
 30
0.0
 10
4.01216333402939
 20
6.65763923357537
 30
0.0
 10
4.010049828856881
 20
6.662550766800972
 30
0.0
 10
4.009319409270836
 20
6.667593208136767
 30
0.0
 10
4.00988914446538
 20
6.672599040349134
 30
0.0
 10
4.011459381236343
 20
6.675816736401251
 30
0.0
 10
4.012217592831474
 20
6.677370447600376
 30
0.0
  0
SPLINE
  5
FA
330
1F
100
AcDbEntity
  8
0
  6
Continuous
 62
     7
370
    15
100
AcDbSpline
210
0.0
220
0.0
230
1.0
 70
     8
 71
     3
 72
    10
 73
     6
 74
     0
 42
0.0000000001
 43
0.0000000001
 40
0.0
 40
0.0
 40
0.0
 40
0.0
 40
0.366795358695865
 40
0.9785952194867661
 40
1.0
 40
1.0
 40
1.0
 40
1.0
 10
4.174167581014287
 20
6.666359287388767
 30
0.0
 10
4.174625400115245
 20
6.665198050561675
 30
0.0
 10
4.175846843006943
 20
6.662099917554413
 30
0.0
 10
4.176427105978105
 20
6.658829490812508
 30
0.0
 10
4.176189410661686
 20
6.656769552863978
 30
0.0
 10
4.17618137563518
 20
6.656699918946626
 30
0.0
  0
LINE
  5
FB
330
1F
100
AcDbEntity
  8
0
  6
Continuous
 62
     7
370
    15
100
AcDbLine
 10
4.010628346288548
 20
6.651558363716005
 30
0.0
 11
4.012217592831475
 21
6.655287366295476
 31
0.0
  0
SPLINE
  5
FC
330
1F
100
AcDbEntity
  8
0
  6
Continuous
 62
     7
370
    15
100
AcDbSpline
210
0.0
220
0.0
230
1.0
 70
     8
 71
     3
 72
    32
 73
    28
 74
     0
 42
0.0000000001
 43
0.0000000001
 40
0.0
 40
0.0
 40
0.0
 40
0.0
 40
0.0407551530482661
 40
0.083340175772076
 40
0.1259251984958869
 40
0.1681311680468038
 40
0.2095989763154506
 40
0.2500068424387428
 40
0.2904147085620349
 40
0.3318825168306817
 40
0.3740884863815999
 40
0.4166735091054096
 40
0.4592585318292195
 40
0.5014645013801373
 40
0.5429323096487845
 40
0.5833401757720759
 40
0.6237480418953677
 40
0.665215850164015
 40
0.7074218197149323
 40
0.7500068424387424
 40
0.7925918651625526
 40
0.83479783471347
 40
0.8762656429821166
 40
0.916673509105408
 40
0.9570813752286996
 40
0.9985491834973473
 40
1.0
 40
1.0
 40
1.0
 40
1.0
 10
4.17618137563518
 20
6.742276165376222
 30
0.0
 10
4.176059577129189
 20
6.74031565274573
 30
0.0
 10
4.175810511473955
 20
6.736306602232898
 30
0.0
 10
4.173587203184999
 20
6.730330457816115
 30
0.0
 10
4.17001585125445
 20
6.724482179124023
 30
0.0
 10
4.165088877303873
 20
6.718981715900898
 30
0.0
 10
4.159023658579821
 20
6.71395518864363
 30
0.0
 10
4.151956318631546
 20
6.709459797393399
 30
0.0
 10
4.143930088182595
 20
6.705451944262478
 30
0.0
 10
4.134933249338623
 20
6.701914198606628
 30
0.0
 10
4.125048312834571
 20
6.698936425479998
 30
0.0
 10
4.114505001296787
 20
6.69661823059326
 30
0.0
 10
4.103576293681615
 20
6.695030908059499
 30
0.0
 10
4.092555437930933
 20
6.694207278637698
 30
0.0
 10
4.081730518199448
 20
6.694136374147271
 30
0.0
 10
4.071246046158566
 20
6.694790113230922
 30
0.0
 10
4.061112760936453
 20
6.696109835844997
 30
0.0
 10
4.051360242734581
 20
6.698072663197262
 30
0.0
 10
4.042156556816935
 20
6.700695023492754
 30
0.0
 10
4.033770597786202
 20
6.703930145573097
 30
0.0
 10
4.026438467665161
 20
6.707700276691045
 30
0.0
 10
4.020335488988539
 20
6.711899658429258
 30
0.0
 10
4.015586947393184
 20
6.71640010854588
 30
0.0
 10
4.012135052627632
 20
6.721133371679568
 30
0.0
 10
4.010156643250871
 20
6.726040257135544
 30
0.0
 10
4.009316773720374
 20
6.729438505978513
 30
0.0
 10
4.009555211657301
 20
6.731174418871675
 30
0.0
 10
4.00956327178727
 20
6.731233099481458
 30
0.0
  0
SPLINE
  5
FD
330
1F
100
AcDbEntity
  8
0
  6
Continuous
 62
     7
370
    15
100
AcDbSpline
210
0.0
220
0.0
230
1.0
 70
     8
 71
     3
 72
    32
 73
    28
 74
     0
 42
0.0000000001
 43
0.0000000001
 40
0.0
 40
0.0
 40
0.0
 40
0.0
 40
0.0407551530482661
 40
0.0833401757720759
 40
0.1259251984958857
 40
0.1681311680468039
 40
0.2095989763154508
 40
0.250006842438743
 40
0.2904147085620352
 40
0.3318825168306807
 40
0.3740884863815989
 40
0.4166735091054087
 40
0.4592585318292184
 40
0.5014645013801365
 40
0.5429323096487836
 40
0.5833401757720751
 40
0.6237480418953667
 40
0.6652158501640139
 40
0.7074218197149312
 40
0.7500068424387428
 40
0.7925918651625528
 40
0.83479783471347
 40
0.8762656429821165
 40
0.916673509105408
 40
0.9570813752286996
 40
0.9985491834973473
 40
1.0
 40
1.0
 40
1.0
 40
1.0
 10
4.17618137563518
 20
6.720193084071324
 30
0.0
 10
4.176059577129189
 20
6.71823257144083
 30
0.0
 10
4.175810511473956
 20
6.714223520927999
 30
0.0
 10
4.173587203184999
 20
6.708247376511214
 30
0.0
 10
4.17001585125445
 20
6.702399097819124
 30
0.0
 10
4.165088877303873
 20
6.696898634595998
 30
0.0
 10
4.159023658579822
 20
6.691872107338731
 30
0.0
 10
4.151956318631546
 20
6.687376716088499
 30
0.0
 10
4.143930088182595
 20
6.683368862957578
 30
0.0
 10
4.134933249338623
 20
6.67983111730173
 30
0.0
 10
4.125048312834571
 20
6.676853344175099
 30
0.0
 10
4.114505001296787
 20
6.67453514928836
 30
0.0
 10
4.103576293681615
 20
6.672947826754599
 30
0.0
 10
4.092555437930934
 20
6.672124197332799
 30
0.0
 10
4.081730518199448
 20
6.672053292842371
 30
0.0
 10
4.071246046158567
 20
6.672707031926022
 30
0.0
 10
4.061112760936452
 20
6.674026754540097
 30
0.0
 10
4.051360242734582
 20
6.675989581892362
 30
0.0
 10
4.042156556816934
 20
6.678611942187853
 30
0.0
 10
4.033770597786202
 20
6.681847064268197
 30
0.0
 10
4.026438467665161
 20
6.685617195386145
 30
0.0
 10
4.020335488988539
 20
6.689816577124359
 30
0.0
 10
4.015586947393184
 20
6.69431702724098
 30
0.0
 10
4.012135052627632
 20
6.699050290374668
 30
0.0
 10
4.010156643250871
 20
6.703957175830643
 30
0.0
 10
4.009316773720374
 20
6.707355424673616
 30
0.0
 10
4.009555211657301
 20
6.709091337566776
 30
0.0
 10
4.00956327178727
 20
6.709150018176556
 30
0.0
  0
SPLINE
  5
FE
330
1F
100
AcDbEntity
  8
0
  6
Continuous
 62
     7
370
    15
100
AcDbSpline
210
0.0
220
0.0
230
1.0
 70
     8
 71
     3
 72
    32
 73
    28
 74
     0
 42
0.0000000001
 43
0.0000000001
 40
0.0
 40
0.0
 40
0.0
 40
0.0
 40
0.040755153048265
 40
0.0833401757720749
 40
0.1259251984958848
 40
0.1681311680468018
 40
0.2095989763154487
 40
0.250006842438741
 40
0.2904147085620332
 40
0.3318825168306802
 40
0.3740884863815971
 40
0.4166735091054082
 40
0.459258531829218
 40
0.5014645013801361
 40
0.5429323096487834
 40
0.5833401757720749
 40
0.6237480418953664
 40
0.6652158501640136
 40
0.7074218197149309
 40
0.7500068424387424
 40
0.7925918651625523
 40
0.8347978347134697
 40
0.8762656429821163
 40
0.9166735091054079
 40
0.9570813752286994
 40
0.9985491834973471
 40
1.0
 40
1.0
 40
1.0
 40
1.0
 10
4.17618137563518
 20
6.698110002766422
 30
0.0
 10
4.176059577129189
 20
6.69614949013593
 30
0.0
 10
4.175810511473955
 20
6.692140439623099
 30
0.0
 10
4.173587203184999
 20
6.686164295206316
 30
0.0
 10
4.17001585125445
 20
6.680316016514223
 30
0.0
 10
4.165088877303873
 20
6.674815553291098
 30
0.0
 10
4.159023658579822
 20
6.669789026033831
 30
0.0
 10
4.151956318631546
 20
6.6652936347836
 30
0.0
 10
4.143930088182596
 20
6.661285781652678
 30
0.0
 10
4.134933249338622
 20
6.65774803599683
 30
0.0
 10
4.125048312834571
 20
6.6547702628702
 30
0.0
 10
4.114505001296788
 20
6.65245206798346
 30
0.0
 10
4.103576293681615
 20
6.650864745449699
 30
0.0
 10
4.092555437930934
 20
6.650041116027899
 30
0.0
 10
4.081730518199448
 20
6.649970211537472
 30
0.0
 10
4.071246046158567
 20
6.650623950621122
 30
0.0
 10
4.061112760936452
 20
6.651943673235197
 30
0.0
 10
4.051360242734581
 20
6.653906500587463
 30
0.0
 10
4.042156556816935
 20
6.656528860882954
 30
0.0
 10
4.033770597786202
 20
6.659763982963297
 30
0.0
 10
4.026438467665161
 20
6.663534114081245
 30
0.0
 10
4.02033548898854
 20
6.667733495819459
 30
0.0
 10
4.015586947393184
 20
6.672233945936081
 30
0.0
 10
4.012135052627631
 20
6.676967209069768
 30
0.0
 10
4.010156643250875
 20
6.681874094525745
 30
0.0
 10
4.009316773720365
 20
6.685272343368711
 30
0.0
 10
4.009555211657301
 20
6.687008256261876
 30
0.0
 10
4.00956327178727
 20
6.687066936871658
 30
0.0
  0
SPLINE
  5
FF
330
1F
100
AcDbEntity
  8
0
  6
Continuous
 62
     7
370
    15
100
AcDbSpline
210
0.0
220
0.0
230
1.0
 70
     8
 71
     3
 72
    32
 73
    28
 74
     0
 42
0.0000000001
 43
0.0000000001
 40
0.0
 40
0.0
 40
0.0
 40
0.0
 40
0.0407551530482653
 40
0.0833401757720764
 40
0.1259251984958862
 40
0.1681311680468032
 40
0.2095989763154502
 40
0.2500068424387424
 40
0.290414708562036
 40
0.3318825168306816
 40
0.3740884863815999
 40
0.4166735091054098
 40
0.4592585318292198
 40
0.5014645013801365
 40
0.5429323096487836
 40
0.583340175772075
 40
0.6237480418953665
 40
0.6652158501640137
 40
0.7074218197149309
 40
0.7500068424387424
 40
0.7925918651625525
 40
0.8347978347134697
 40
0.8762656429821165
 40
0.916673509105408
 40
0.9570813752286998
 40
0.9985491834973485
 40
1.0
 40
1.0
 40
1.0
 40
1.0
 10
4.17618137563518
 20
6.676026921461524
 30
0.0
 10
4.176059577129189
 20
6.67406640883103
 30
0.0
 10
4.175810511473955
 20
6.670057358318199
 30
0.0
 10
4.173587203184999
 20
6.664081213901414
 30
0.0
 10
4.17001585125445
 20
6.658232935209324
 30
0.0
 10
4.165088877303873
 20
6.652732471986198
 30
0.0
 10
4.159023658579821
 20
6.64770594472893
 30
0.0
 10
4.151956318631546
 20
6.643210553478699
 30
0.0
 10
4.143930088182594
 20
6.639202700347778
 30
0.0
 10
4.134933249338623
 20
6.63566495469193
 30
0.0
 10
4.12504831283457
 20
6.6326871815653
 30
0.0
 10
4.114505001296787
 20
6.63036898667856
 30
0.0
 10
4.103576293681615
 20
6.6287816641448
 30
0.0
 10
4.092555437930934
 20
6.627958034722998
 30
0.0
 10
4.081730518199448
 20
6.627887130232572
 30
0.0
 10
4.071246046158567
 20
6.628540869316222
 30
0.0
 10
4.061112760936453
 20
6.629860591930297
 30
0.0
 10
4.051360242734581
 20
6.631823419282563
 30
0.0
 10
4.042156556816935
 20
6.634445779578053
 30
0.0
 10
4.033770597786202
 20
6.637680901658397
 30
0.0
 10
4.026438467665161
 20
6.641451032776345
 30
0.0
 10
4.02033548898854
 20
6.645650414514559
 30
0.0
 10
4.015586947393184
 20
6.650150864631181
 30
0.0
 10
4.012135052627632
 20
6.654884127764868
 30
0.0
 10
4.010156643250873
 20
6.659791013220845
 30
0.0
 10
4.009316773720366
 20
6.663189262063814
 30
0.0
 10
4.009555211657301
 20
6.664925174956976
 30
0.0
 10
4.00956327178727
 20
6.664983855566758
 30
0.0
  0
LWPOLYLINE
  5
100
330
1F
100
AcDbEntity
  8
0
  6
Continuous
 62
     7
370
    15
100
AcDbPolyline
 90
       53
 70
   128
 43
0.0
 10
4.147830279087954
 20
6.781280025379095
 10
4.148629272859163
 20
6.780712469559704
 10
4.151819786195487
 20
6.778167653371931
 10
4.154561673748853
 20
6.775491221759768
 10
4.156834068099386
 20
6.772703543983856
 10
4.158619674953968
 20
6.769825835955316
 10
4.159904904766256
 20
6.766879998769854
 10
4.160679976161336
 20
6.763888452027194
 10
4.160938990377892
 20
6.760873963204396
 10
4.160679976161336
 20
6.757859474381596
 10
4.159904904766256
 20
6.754867927638938
 10
4.158619674953968
 20
6.751922090453474
 10
4.156834068099386
 20
6.749044382424934
 10
4.154561673748853
 20
6.746256704649023
 10
4.151819786195486
 20
6.74358027303686
 10
4.148629272859163
 20
6.741035456849087
 10
4.145014415472856
 20
6.738641623673495
 10
4.141002725283989
 20
6.736416992025987
 10
4.136624733677222
 20
6.734378492696671
 10
4.131913759812186
 20
6.73254163989632
 10
4.126905657044558
 20
6.730920413183868
 10
4.121638540060375
 20
6.729527151073521
 10
4.116152494800259
 20
6.728372457131213
 10
4.110489273381203
 20
6.727465119275065
 10
4.104691976337754
 20
6.726812042894033
 10
4.098804724600915
 20
6.726418198293713
 10
4.092872323711224
 20
6.726286582869323
 10
4.086939922821533
 20
6.726418198293713
 10
4.081052671084695
 20
6.726812042894033
 10
4.075255374041246
 20
6.727465119275067
 10
4.06959215262219
 20
6.728372457131213
 10
4.064106107362074
 20
6.729527151073522
 10
4.058838990377891
 20
6.730920413183869
 10
4.053830887610263
 20
6.732541639896321
 10
4.049119913745228
 20
6.734378492696671
 10
4.04474192213846
 20
6.736416992025989
 10
4.040730231949593
 20
6.738641623673496
 10
4.037115374563287
 20
6.741035456849087
 10
4.033924861226965
 20
6.74358027303686
 10
4.031182973673597
 20
6.746256704649023
 10
4.028910579323063
 20
6.749044382424935
 10
4.027124972468482
 20
6.751922090453475
 10
4.025839742656194
 20
6.754867927638938
 10
4.025064671261113
 20
6.757859474381596
 10
4.024805657044558
 20
6.760873963204397
 10
4.025064671261113
 20
6.763888452027194
 10
4.025839742656194
 20
6.766879998769854
 10
4.027124972468483
 20
6.769825835955318
 10
4.028910579323064
 20
6.772703543983856
 10
4.031182973673598
 20
6.775491221759768
 10
4.033924861226965
 20
6.778167653371933
 10
4.037115374563288
 20
6.780712469559706
 10
4.037914368334496
 20
6.781280025379094
  0
LWPOLYLINE
  5
101
330
1F
100
AcDbEntity
  8
0
  6
Continuous
 62
     7
370
    15
100
AcDbPolyline
 90
       68
 70
   128
 43
0.0
 10
4.052107617775821
 20
6.790559742141325
 10
4.048469470842352
 20
6.788529018140083
 10
4.045221537776453
 20
6.786334103358623
 10
4.04239236153069
 20
6.783994286786969
 10
4.040006805007637
 20
6.78153013081728
 10
4.038085832563795
 20
6.778963290540822
 10
4.036646325774071
 20
6.776316323442236
 10
4.035700935075891
 20
6.773612491163563
 10
4.035257968596706
 20
6.770875555080082
 10
4.03532131914186
 20
6.768129567484509
 10
4.035890429984485
 20
6.765398660214567
 10
4.036960299758034
 20
6.762706832581539
 10
4.038521526408467
 20
6.760077740463449
 10
4.040560389819845
 20
6.757534488416367
 10
4.0430589723872
 20
6.755099426630725
 10
4.045995316477089
 20
6.752793954517054
 10
4.04934361739207
 20
6.750638332647181
 10
4.053074450143312
 20
6.74865150470361
 10
4.057155028038448
 20
6.746850931001744
 10
4.061549490812216
 20
6.745252435048022
 10
4.06621921976775
 20
6.743870064482357
 10
4.071123177159083
 20
6.742715967626986
 10
4.076218266832335
 20
6.741800286726571
 10
4.081459712956254
 20
6.74113106881779
 10
4.086801453513842
 20
6.740714195011689
 10
4.09219654509701
 20
6.740553328810261
 10
4.097597575446938
 20
6.740649883911471
 10
4.102957080114711
 20
6.741003011785619
 10
4.1082279595806
 20
6.741609609132249
 10
4.113363893166339
 20
6.742464345152065
 10
4.118319746102907
 20
6.743559708394195
 10
4.123051966176505
 20
6.744886072767081
 10
4.127518966466972
 20
6.746431782132924
 10
4.13168149081514
 20
6.748183252742239
 10
4.135502958807368
 20
6.750125092608334
 10
4.138949787245535
 20
6.752240236772644
 10
4.141991685277393
 20
6.754510097272202
 10
4.144601920593661
 20
6.756914726491322
 10
4.146757554352527
 20
6.759432992461965
 10
4.148439642767008
 20
6.762042764572234
 10
4.149633403583638
 20
6.764721108050986
 10
4.150328345989435
 20
6.767444485519426
 10
4.150518362805551
 20
6.770188963838442
 10
4.150201784157373
 20
6.77293042443388
 10
4.149381392149446
 20
6.77564477525146
 10
4.148064396416232
 20
6.778308162478596
 10
4.146262370763587
 20
6.780897180172574
 10
4.143991151457744
 20
6.783389075952804
 10
4.141270698055626
 20
6.785761950949573
 10
4.138124917999546
 20
6.787994952252089
 10
4.13458145651775
 20
6.790068456164616
 10
4.130671453677148
 20
6.791964240660215
 10
4.126429270723292
 20
6.793665645516573
 10
4.121892188112513
 20
6.795157718726636
 10
4.117100077889933
 20
6.796427347897384
 10
4.112095053292492
 20
6.797463375482016
 10
4.106921098656313
 20
6.798256696832865
 10
4.101623682880776
 20
6.798800340213375
 10
4.096249359846193
 20
6.799089528065972
 10
4.090845359296629
 20
6.799121718997406
 10
4.085459171783224
 20
6.798896630112618
 10
4.08013813131551
 20
6.798416239500818
 10
4.074928999388442
 20
6.797684768851977
 10
4.069877554040698
 20
6.796708646356457
 10
4.065028187555622
 20
6.795496450213848
 10
4.060423516340252
 20
6.794058833247436
 10
4.056104006410794
 20
6.792408429286812
 10
4.052107617775821
 20
6.790559742141325
  0
LWPOLYLINE
  5
102
330
1F
100
AcDbEntity
  8
0
  6
Continuous
 62
     7
370
    15
100
AcDbPolyline
 90
        8
 70
   128
 43
0.0
 10
4.030590244676964
 20
6.774827131011809
 10
4.030332580597309
 20
6.775174303541943
 10
4.029646001191959
 20
6.776580378767554
 10
4.029485885349346
 20
6.778026803310927
 10
4.029857817038622
 20
6.779463133756189
 10
4.030748825306712
 20
6.780839278714668
 10
4.032127836634559
 20
6.78210724573991
 10
4.033946758612346
 20
6.783222815043015
  0
LWPOLYLINE
  5
103
330
1F
100
AcDbEntity
  8
0
  6
Continuous
 62
     7
370
    15
100
AcDbPolyline
 90
        3
 70
   128
 43
0.0
 10
4.029677252946005
 20
6.773723512335536
 10
4.029646001191959
 20
6.77382429997755
 10
4.029475255471794
 20
6.774981284343261
  0
LINE
  5
104
330
1F
100
AcDbEntity
  8
0
  6
Continuous
 62
     7
370
    15
100
AcDbLine
 10
5.212458060589925
 20
6.33304191778282
 30
0.0
 11
6.6855971880619
 21
7.081602494986781
 31
0.0
  0
LINE
  5
105
330
1F
100
AcDbEntity
  8
0
  6
Continuous
 62
     7
370
    15
100
AcDbLine
 10
4.387500149205621
 20
6.752235841017039
 30
0.0
 11
5.212458060589925
 21
6.33304191778282
 31
0.0
  0
LINE
  5
106
330
1F
100
AcDbEntity
  8
0
  6
Continuous
 62
     7
370
    15
100
AcDbLine
 10
5.919564841776477
 20
7.530738841309161
 30
0.0
 11
4.387500149205621
 21
6.752235841017039
 31
0.0
  0
LINE
  5
107
330
1F
100
AcDbEntity
  8
0
  6
Continuous
 62
     7
370
    15
100
AcDbLine
 10
5.919564841776477
 20
7.530738841309161
 30
0.0
 11
6.285157574984221
 21
7.344966633994837
 31
0.0
  0
LINE
  5
108
330
1F
100
AcDbEntity
  8
0
  6
Continuous
 62
     7
370
    15
100
AcDbLine
 10
6.285157574984221
 20
7.344966633994837
 30
0.0
 11
6.449894927666387
 21
7.381026725868367
 31
0.0
  0
LINE
  5
109
330
1F
100
AcDbEntity
  8
0
  6
Continuous
 62
     7
370
    15
100
AcDbLine
 10
6.449894927666387
 20
7.381026725868367
 30
0.0
 11
6.349269400658827
 21
7.252504019474982
 31
0.0
  0
LINE
  5
10A
330
1F
100
AcDbEntity
  8
0
  6
Continuous
 62
     7
370
    15
100
AcDbLine
 10
6.349269400658827
 20
7.252504019474982
 30
0.0
 11
6.6855971880619
 21
7.081602494986781
 31
0.0
  0
LINE
  5
10B
330
1F
100
AcDbEntity
  8
0
  6
Continuous
 62
     7
370
    15
100
AcDbLine
 10
5.212458060589925
 20
6.33304191778282
 30
0.0
 11
5.212458060589925
 21
5.902404606844834
 31
0.0
  0
LINE
  5
10C
330
1F
100
AcDbEntity
  8
0
  6
Continuous
 62
     7
370
    15
100
AcDbLine
 10
6.6855971880619
 20
6.650965184048795
 30
0.0
 11
6.6855971880619
 21
7.081602494986781
 31
0.0
  0
LINE
  5
10D
330
1F
100
AcDbEntity
  8
0
  6
Continuous
 62
     7
370
    15
100
AcDbLine
 10
5.212458060589925
 20
5.902404606844834
 30
0.0
 11
6.6855971880619
 21
6.650965184048795
 31
0.0
  0
LINE
  5
10E
330
1F
100
AcDbEntity
  8
0
  6
Continuous
 62
     7
370
    15
100
AcDbLine
 10
6.449894927666387
 20
7.201372187339416
 30
0.0
 11
6.449894927666387
 21
7.381026725868367
 31
0.0
  0
LINE
  5
10F
330
1F
100
AcDbEntity
  8
0
  6
Continuous
 62
     7
370
    15
100
AcDbLine
 10
4.387500149205618
 20
5.913847994548602
 30
0.0
 11
4.387500149205618
 21
5.483210683610615
 31
0.0
  0
LINE
  5
110
330
1F
100
AcDbEntity
  8
0
  6
Continuous
 62
     7
370
    15
100
AcDbLine
 10
4.387500149205618
 20
5.913847994548602
 30
0.0
 11
5.212458060589925
 21
6.33304191778282
 31
0.0
  0
LINE
  5
111
330
1F
100
AcDbEntity
  8
0
  6
Continuous
 62
     7
370
    15
100
AcDbLine
 10
4.387500149205618
 20
5.483210683610615
 30
0.0
 11
5.212458060589925
 21
5.902404606844835
 31
0.0
  0
LINE
  5
112
330
1F
100
AcDbEntity
  8
0
  6
Continuous
 62
     7
370
    15
100
AcDbLine
 10
1.67692415465719
 20
6.860562145665912
 30
0.0
 11
4.387500149205618
 21
5.483210683610615
 31
0.0
  0
LINE
  5
113
330
1F
100
AcDbEntity
  8
0
  6
Continuous
 62
     7
370
    15
100
AcDbLine
 10
1.67692415465719
 20
6.860562145665912
 30
0.0
 11
1.67692415465719
 21
7.291199456603896
 31
0.0
  0
LINE
  5
114
330
1F
100
AcDbEntity
  8
0
  6
Continuous
 62
     7
370
    15
100
AcDbLine
 10
1.67692415465719
 20
7.291199456603896
 30
0.0
 11
4.387500149205618
 21
5.913847994548602
 31
0.0
  0
LINE
  5
115
330
1F
100
AcDbEntity
  8
0
  6
Continuous
 62
     7
370
    15
100
AcDbLine
 10
5.212458060589925
 20
6.33304191778282
 30
0.0
 11
2.560807631140376
 21
7.680450956749957
 31
0.0
  0
LINE
  5
116
330
1F
100
AcDbEntity
  8
0
  6
Continuous
 62
     7
370
    15
100
AcDbLine
 10
1.67692415465719
 20
7.291199456603896
 30
0.0
 11
2.041181481406219
 21
7.476293090787618
 31
0.0
  0
LINE
  5
117
330
1F
100
AcDbEntity
  8
0
  6
Continuous
 62
     7
370
    15
100
AcDbLine
 10
2.041181481406219
 20
7.476293090787618
 30
0.0
 11
1.971551980151586
 21
7.560681264397323
 31
0.0
  0
LINE
  5
118
330
1F
100
AcDbEntity
  8
0
  6
Continuous
 62
     7
370
    15
100
AcDbLine
 10
1.971551980151586
 20
7.560681264397323
 30
0.0
 11
2.222446027328341
 21
7.508515969259772
 31
0.0
  0
LINE
  5
119
330
1F
100
AcDbEntity
  8
0
  6
Continuous
 62
     7
370
    15
100
AcDbLine
 10
2.222446027328341
 20
7.508515969259772
 30
0.0
 11
2.560807631140376
 21
7.680450956749957
 31
0.0
  0
LINE
  5
11A
330
1F
100
AcDbEntity
  8
0
  6
Continuous
 62
     7
370
    15
100
AcDbLine
 10
1.971551980151586
 20
7.440911572044689
 30
0.0
 11
1.971551980151586
 21
7.560681264397323
 31
0.0
  0
LINE
  5
11B
330
1F
100
AcDbEntity
  8
0
  6
Continuous
 62
     7
370
    15
100
AcDbLine
 10
7.215927273951813
 20
6.920446991842223
 30
0.0
 11
6.449894927666387
 21
7.309698491988285
 31
0.0
  0
LINE
  5
11C
330
1F
100
AcDbEntity
  8
0
  6
Continuous
 62
     7
370
    15
100
AcDbLine
 10
6.351786431350786
 20
7.359551320727311
 30
0.0
 11
5.919564841776479
 21
7.579180299781712
 31
0.0
  0
LINE
  5
11D
330
1F
100
AcDbEntity
  8
0
  6
Continuous
 62
     7
370
    15
100
AcDbLine
 10
7.215927273951813
 20
6.920446991842223
 30
0.0
 11
4.387500149205618
 21
5.483210683610615
 31
0.0
  0
LINE
  5
11E
330
1F
100
AcDbEntity
  8
0
  6
Continuous
 62
     7
370
    15
100
AcDbLine
 10
4.387500149205618
 20
5.483210683610615
 30
0.0
 11
1.20551963386616
 21
7.100101530371179
 31
0.0
  0
LINE
  5
11F
330
1F
100
AcDbEntity
  8
0
  6
Continuous
 62
     7
370
    15
100
AcDbLine
 10
1.20551963386616
 20
7.100101530371179
 30
0.0
 11
1.971551980151586
 21
7.489353030517239
 31
0.0
  0
LINE
  5
120
330
1F
100
AcDbEntity
  8
0
  6
Continuous
 62
     7
370
    15
100
AcDbLine
 10
2.071164433155441
 20
7.539970079461713
 30
0.0
 11
2.501882066041499
 21
7.758834838310666
 31
0.0
  0
LINE
  5
121
330
1F
100
AcDbEntity
  8
0
  6
Continuous
 62
     7
370
    15
100
AcDbLine
 10
2.501882066041499
 20
7.758834838310666
 30
0.0
 11
4.387500149205623
 21
6.800677299489591
 31
0.0
  0
LINE
  5
122
330
1F
100
AcDbEntity
  8
0
  6
Continuous
 62
     7
370
    15
100
AcDbLine
 10
5.919564841776478
 20
7.579180299781711
 30
0.0
 11
4.387500149205621
 21
6.80067729948959
 31
0.0
  0
LINE
  5
123
330
1F
100
AcDbEntity
  8
0
  6
Continuous
 62
     7
370
    15
100
AcDbLine
 10
4.387500149205618
 20
3.617115669546012
 30
0.0
 11
7.215927273951813
 21
5.054351977777619
 31
0.0
  0
LINE
  5
124
330
1F
100
AcDbEntity
  8
0
  6
Continuous
 62
     7
370
    15
100
AcDbLine
 10
4.387500149205618
 20
5.483210683610615
 30
0.0
 11
4.387500149205618
 21
3.617115669546012
 31
0.0
  0
LINE
  5
125
330
1F
100
AcDbEntity
  8
0
  6
Continuous
 62
     7
370
    15
100
AcDbLine
 10
7.215927273951813
 20
5.054351977777619
 30
0.0
 11
7.215927273951813
 21
6.920446991842223
 31
0.0
  0
LINE
  5
126
330
1F
100
AcDbEntity
  8
0
  6
Continuous
 62
     7
370
    15
100
AcDbLine
 10
4.387500149205618
 20
3.617115669546012
 30
0.0
 11
1.20551963386616
 21
5.234006516306576
 31
0.0
  0
LINE
  5
127
330
1F
100
AcDbEntity
  8
0
  6
Continuous
 62
     7
370
    15
100
AcDbLine
 10
1.20551963386616
 20
5.234006516306576
 30
0.0
 11
1.20551963386616
 21
7.100101530371179
 31
0.0
  0
ARC
  5
128
330
1F
100
AcDbEntity
  8
0
  6
Continuous
 62
     8
370
    15
100
AcDbCircle
 10
5.339527021939046
 20
6.975219770755283
 30
0.0
 40
0.1023627142715759
100
AcDbArc
 50
109.0761221804499
 51
138.7310499040438
  0
LINE
  5
129
330
1F
100
AcDbEntity
  8
0
  6
Continuous
 62
     8
370
    15
100
AcDbLine
 10
5.473632524383619
 20
7.071472416668454
 30
0.0
 11
5.471718499311155
 21
7.072224881062656
 31
0.0
  0
ARC
  5
12A
330
1F
100
AcDbEntity
  8
0
  6
Continuous
 62
     8
370
    15
100
AcDbCircle
 10
4.043085573826506
 20
6.61599881610186
 30
0.0
 40
0.1022452001051619
100
AcDbArc
 50
109.1687007669209
 51
138.738960308113
  0
LINE
  5
12B
330
1F
100
AcDbEntity
  8
0
  6
Continuous
 62
     8
370
    15
100
AcDbLine
 10
4.177270092208281
 20
6.712163339610553
 30
0.0
 11
4.175114115124308
 21
6.713008975370392
 31
0.0
  0
LINE
  5
12C
330
1F
100
AcDbEntity
  8
OBJ
  6
HIDDEN
 62
     7
100
AcDbLine
 10
4.009538990377893
 20
4.571442101510521
 30
0.0
 11
4.009538990377893
 21
6.467129478729681
 31
0.0
  0
LINE
  5
12D
330
1F
100
AcDbEntity
  8
OBJ
  6
HIDDEN
 62
     7
100
AcDbLine
 10
4.176205657044559
 20
4.571442101510521
 30
0.0
 11
4.176205657044559
 21
6.462907627689713
 31
0.0
  0
LINE
  5
12E
330
1F
100
AcDbEntity
  8
OBJ
  6
HIDDEN
 62
     7
100
AcDbLine
 10
3.71814415938523
 20
4.693842212400097
 30
0.0
 11
3.998040593604905
 21
4.551615702731344
 31
0.0
  0
LINE
  5
12F
330
1F
100
AcDbEntity
  8
OBJ
  6
HIDDEN
 62
     7
100
AcDbLine
 10
3.642642576652918
 20
4.545257930651677
 30
0.0
 11
3.92253897801189
 21
4.403031437680779
 31
0.0
  0
LINE
  5
130
330
1F
100
AcDbEntity
  8
OBJ
  6
HIDDEN
 62
     7
100
AcDbLine
 10
5.559568101585901
 20
4.762340514738681
 30
0.0
 11
5.839464502944873
 21
4.904567007709578
 31
0.0
  0
LINE
  5
131
330
1F
100
AcDbEntity
  8
OBJ
  6
HIDDEN
 62
     7
100
AcDbLine
 10
5.763962920212561
 20
5.053151289457997
 30
0.0
 11
5.484066485992886
 21
4.910924779789245
 31
0.0
  0
LINE
  5
132
330
1F
100
AcDbEntity
  8
OBJ
  6
HIDDEN
 62
     7
100
AcDbLine
 10
5.305901422553231
 20
4.930751178568423
 30
0.0
 11
5.305901422553231
 21
6.822105214855691
 31
0.0
  0
LINE
  5
133
330
1F
100
AcDbEntity
  8
OBJ
  6
HIDDEN
 62
     7
100
AcDbLine
 10
5.472568089219898
 20
4.930751178568423
 30
0.0
 11
5.472568089219898
 21
6.820138143463593
 31
0.0
  0
ARC
  5
134
330
1F
100
AcDbEntity
  8
OBJ
  6
HIDDEN
 62
     7
100
AcDbCircle
 10
4.007686553064922
 20
4.55002548614055
 30
0.0
 40
0.1698745414122004
100
AcDbArc
 50
239.9180608544959
 51
7.242731975052553
  0
ARC
  5
135
330
1F
100
AcDbEntity
  8
OBJ
  6
HIDDEN
 62
     7
100
AcDbCircle
 10
5.473545419023987
 20
4.908016442299654
 30
0.0
 40
0.1691785381952976
100
AcDbArc
 50
172.27705097639
 51
300.5621561940633
  0
ELLIPSE
  5
136
330
1F
100
AcDbEntity
  8
OBJ
  6
HIDDEN
 62
     7
100
AcDbEllipse
 10
3.680393368019074
 20
4.619550071525887
 30
0.0
 11
-0.0377507913661566
 21
-0.0742921408742099
 31
0.0
210
0.0
220
0.0
230
1.0
 40
0.6090131255923693
 41
0.0
 42
6.283185307179586
  0
ELLIPSE
  5
137
330
1F
100
AcDbEntity
  8
OBJ
  6
HIDDEN
 62
     7
100
AcDbEllipse
 10
5.801713711578718
 20
4.978859148583788
 30
0.0
 11
0.0377507913661557
 21
-0.0742921408742099
 31
0.0
210
0.0
220
0.0
230
0.9999999999999998
 40
0.609013125592372
 41
0.0
 42
6.283185307179586
  0
INSERT
  5
13E
102
{ACAD_REACTORS
330
148
102
}
330
1F
100
AcDbEntity
  8
OBJ
 62
     7
100
AcDbBlockReference
  2
SW_NOTE_0
 10
3.05398341329143
 20
8.186403770707206
 30
0.0
  0
LEADER
  5
148
330
1F
100
AcDbEntity
  8
OBJ
 62
     7
100
AcDbLeader
  3
SLDDIMSTYLE0
 73
     2
 76
     3
 10
3.840898627116066
 20
6.567727315431166
 30
0.0
 10
3.30398341329143
 20
8.186403770707206
 30
0.0
 10
3.05398341329143
 20
8.186403770707206
 30
0.0
340
13E
  0
INSERT
  5
14E
102
{ACAD_REACTORS
330
14F
102
}
330
1F
100
AcDbEntity
  8
OBJ
 62
     7
100
AcDbBlockReference
  2
SW_NOTE_1
 10
5.770978233905126
 20
8.319628074495369
 30
0.0
  0
LEADER
  5
14F
330
1F
100
AcDbEntity
  8
OBJ
 62
     7
100
AcDbLeader
  3
SLDDIMSTYLE0
 73
     2
 76
     3
 10
4.957956610844541
 20
6.854152439464098
 30
0.0
 10
5.520978233905126
 20
8.319628074495369
 30
0.0
 10
5.770978233905126
 20
8.319628074495369
 30
0.0
340
14E
  0
TEXT
  5
17A
330
1F
100
AcDbEntity
  8
0
100
AcDbText
 10
3.501598548835325
 20
3.060891764062347
 30
0.0
 40
0.25
  1
USP  LBP
100
AcDbText
  0
TEXT
  5
17B
330
1F
100
AcDbEntity
  8
0
100
AcDbText
 10
2.590915252636627
 20
2.152183372436248
 30
0.0
 40
0.25
  1
SIMPSON  LBP
100
AcDbText
  0
TEXT
  5
17C
330
1F
100
AcDbEntity
  8
0
100
AcDbText
 10
4.752588811172124
 20
2.703938021281668
 30
0.0
 40
0.25
  1
LBPS
100
AcDbText
  0
TEXT
  5
17D
330
1F
100
AcDbEntity
  8
0
100
AcDbText
 10
4.762707375837678
 20
1.762036704003829
 30
0.0
 40
0.25
  1
LBPS
100
AcDbText
  0
ENDSEC
  0
SECTION
  2
OBJECTS
  0
DICTIONARY
  5
C
330
0
100
AcDbDictionary
281
     1
  3
ACAD_COLOR
350
177
  3
ACAD_GROUP
350
D
  3
ACAD_LAYOUT
350
1A
  3
ACAD_MATERIAL
350
176
  3
ACAD_MLINESTYLE
350
17
  3
ACAD_PLOTSETTINGS
350
19
  3
ACAD_PLOTSTYLENAME
350
E
  3
ACAD_SCALELIST
350
151
  3
AcDbVariableDictionary
350
173
  0
DICTIONARY
  5
177
102
{ACAD_REACTORS
330
C
102
}
330
C
100
AcDbDictionary
281
     1
  0
DICTIONARY
  5
D
102
{ACAD_REACTORS
330
C
102
}
330
C
100
AcDbDictionary
281
     1
  0
DICTIONARY
  5
1A
102
{ACAD_REACTORS
330
C
102
}
330
C
100
AcDbDictionary
281
     1
  3
Layout1
350
1E
  3
Layout2
350
26
  3
Model
350
22
  0
DICTIONARY
  5
176
102
{ACAD_REACTORS
330
C
102
}
330
C
100
AcDbDictionary
281
     1
  0
DICTIONARY
  5
17
102
{ACAD_REACTORS
330
C
102
}
330
C
100
AcDbDictionary
281
     1
  3
Standard
350
18
  0
DICTIONARY
  5
19
102
{ACAD_REACTORS
330
C
102
}
330
C
100
AcDbDictionary
281
     1
  0
ACDBDICTIONARYWDFLT
  5
E
102
{ACAD_REACTORS
330
C
102
}
330
C
100
AcDbDictionary
281
     1
  3
Normal
350
F
100
AcDbDictionaryWithDefault
340
F
  0
DICTIONARY
  5
151
102
{ACAD_REACTORS
330
C
102
}
330
C
100
AcDbDictionary
281
     1
  3
A0
350
152
  3
A1
350
153
  3
A2
350
154
  3
A3
350
155
  3
A4
350
156
  3
A5
350
157
  3
A6
350
158
  3
A7
350
159
  3
A8
350
15A
  3
A9
350
15B
  3
B0
350
15C
  3
B1
350
15D
  3
B2
350
15E
  3
B3
350
15F
  3
B4
350
160
  3
B5
350
161
  3
B6
350
162
  3
B7
350
163
  3
B8
350
164
  3
B9
350
165
  3
C0
350
166
  3
C1
350
167
  3
C2
350
168
  3
C3
350
169
  3
C4
350
16A
  3
C5
350
16B
  3
C6
350
16C
  3
C7
350
16D
  3
C8
350
16E
  3
C9
350
16F
  3
D0
350
170
  3
D1
350
171
  3
D2
350
172
  0
DICTIONARY
  5
173
102
{ACAD_REACTORS
330
C
102
}
330
C
100
AcDbDictionary
281
     1
  3
CANNOSCALE
350
174
  0
LAYOUT
  5
1E
102
{ACAD_REACTORS
330
1A
102
}
330
1A
100
AcDbPlotSettings
  1

  2
none_device
  4

  6

 40
0.0
 41
0.0
 42
0.0
 43
0.0
 44
0.0
 45
0.0
 46
0.0
 47
0.0
 48
0.0
 49
0.0
140
0.0
141
0.0
142
1.0
143
1.0
 70
   688
 72
     0
 73
     0
 74
     5
  7

 75
    16
147
1.0
 76
     0
 77
     2
 78
   300
148
0.0
149
0.0
100
AcDbLayout
  1
Layout1
 70
     1
 71
     1
 10
0.0
 20
0.0
 11
12.0
 21
9.0
 12
0.0
 22
0.0
 32
0.0
 14
1.000000000000000E+20
 24
1.000000000000000E+20
 34
1.000000000000000E+20
 15
-1.000000000000000E+20
 25
-1.000000000000000E+20
 35
-1.000000000000000E+20
146
0.0
 13
0.0
 23
0.0
 33
0.0
 16
1.0
 26
0.0
 36
0.0
 17
0.0
 27
1.0
 37
0.0
 76
     0
330
1B
  0
LAYOUT
  5
26
102
{ACAD_REACTORS
330
1A
102
}
330
1A
100
AcDbPlotSettings
  1

  2
none_device
  4

  6

 40
0.0
 41
0.0
 42
0.0
 43
0.0
 44
0.0
 45
0.0
 46
0.0
 47
0.0
 48
0.0
 49
0.0
140
0.0
141
0.0
142
1.0
143
1.0
 70
   688
 72
     0
 73
     0
 74
     5
  7

 75
    16
147
1.0
 76
     0
 77
     2
 78
   300
148
0.0
149
0.0
100
AcDbLayout
  1
Layout2
 70
     1
 71
     2
 10
0.0
 20
0.0
 11
0.0
 21
0.0
 12
0.0
 22
0.0
 32
0.0
 14
0.0
 24
0.0
 34
0.0
 15
0.0
 25
0.0
 35
0.0
146
0.0
 13
0.0
 23
0.0
 33
0.0
 16
1.0
 26
0.0
 36
0.0
 17
0.0
 27
1.0
 37
0.0
 76
     0
330
23
  0
LAYOUT
  5
22
102
{ACAD_REACTORS
330
1A
102
}
330
1A
100
AcDbPlotSettings
  1

  2
none_device
  4

  6

 40
0.0
 41
0.0
 42
0.0
 43
0.0
 44
0.0
 45
0.0
 46
0.0
 47
0.0
 48
0.0
 49
0.0
140
0.0
141
0.0
142
1.0
143
1.0
 70
  1712
 72
     0
 73
     0
 74
     0
  7

 75
     0
147
1.0
 76
     0
 77
     2
 78
   300
148
0.0
149
0.0
100
AcDbLayout
  1
Model
 70
     1
 71
     0
 10
0.0
 20
0.0
 11
8.5
 21
11.0
 12
0.0
 22
0.0
 32
0.0
 14
0.0
 24
0.0
 34
0.0
 15
8.5
 25
11.0
 35
0.0
146
0.0
 13
0.0
 23
0.0
 33
0.0
 16
1.0
 26
0.0
 36
0.0
 17
0.0
 27
1.0
 37
0.0
 76
     0
330
1F
  0
MLINESTYLE
  5
18
102
{ACAD_REACTORS
330
17
102
}
330
17
100
AcDbMlineStyle
  2
STANDARD
 70
     0
  3

 62
   256
 51
90.0
 52
90.0
 71
     2
 49
0.5
 62
   256
  6
BYLAYER
 49
-0.5
 62
   256
  6
BYLAYER
  0
ACDBPLACEHOLDER
  5
F
102
{ACAD_REACTORS
330
E
102
}
330
E
  0
ACAD_PROXY_OBJECT
  5
152
102
{ACAD_REACTORS
330
151
102
}
330
151
100
AcDbProxyObject
 90
      499
 91
      503
 95
   393239
 70
     0
 93
       41
310
903313A31580
 94
        0
  0
ACAD_PROXY_OBJECT
  5
153
102
{ACAD_REACTORS
330
151
102
}
330
151
100
AcDbProxyObject
 90
      499
 91
      503
 95
   393239
 70
     0
 93
      105
310
903313A324000000000000004000
 94
        0
  0
ACAD_PROXY_OBJECT
  5
154
102
{ACAD_REACTORS
330
151
102
}
330
151
100
AcDbProxyObject
 90
      499
 91
      503
 95
   393239
 70
     0
 93
      105
310
903313A344000000000000104000
 94
        0
  0
ACAD_PROXY_OBJECT
  5
155
102
{ACAD_REACTORS
330
151
102
}
330
151
100
AcDbProxyObject
 90
      499
 91
      503
 95
   393239
 70
     0
 93
      105
310
903313A354000000000000144000
 94
        0
  0
ACAD_PROXY_OBJECT
  5
156
102
{ACAD_REACTORS
330
151
102
}
330
151
100
AcDbProxyObject
 90
      499
 91
      503
 95
   393239
 70
     0
 93
      105
310
903313A384000000000000204000
 94
        0
  0
ACAD_PROXY_OBJECT
  5
157
102
{ACAD_REACTORS
330
151
102
}
330
151
100
AcDbProxyObject
 90
      499
 91
      503
 95
   393239
 70
     0
 93
      113
310
904313A31304000000000000244000
 94
        0
  0
ACAD_PROXY_OBJECT
  5
158
102
{ACAD_REACTORS
330
151
102
}
330
151
100
AcDbProxyObject
 90
      499
 91
      503
 95
   393239
 70
     0
 93
      113
310
904313A31364000000000000304000
 94
        0
  0
ACAD_PROXY_OBJECT
  5
159
102
{ACAD_REACTORS
330
151
102
}
330
151
100
AcDbProxyObject
 90
      499
 91
      503
 95
   393239
 70
     0
 93
      113
310
904313A32304000000000000344000
 94
        0
  0
ACAD_PROXY_OBJECT
  5
15A
102
{ACAD_REACTORS
330
151
102
}
330
151
100
AcDbProxyObject
 90
      499
 91
      503
 95
   393239
 70
     0
 93
      113
310
904313A333040000000000003E4000
 94
        0
  0
ACAD_PROXY_OBJECT
  5
15B
102
{ACAD_REACTORS
330
151
102
}
330
151
100
AcDbProxyObject
 90
      499
 91
      503
 95
   393239
 70
     0
 93
      113
310
904313A34304000000000000444000
 94
        0
  0
ACAD_PROXY_OBJECT
  5
15C
102
{ACAD_REACTORS
330
151
102
}
330
151
100
AcDbProxyObject
 90
      499
 91
      503
 95
   393239
 70
     0
 93
      113
310
904313A35304000000000000494000
 94
        0
  0
ACAD_PROXY_OBJECT
  5
15D
102
{ACAD_REACTORS
330
151
102
}
330
151
100
AcDbProxyObject
 90
      499
 91
      503
 95
   393239
 70
     0
 93
      121
310
905313A3130304000000000000594000
 94
        0
  0
ACAD_PROXY_OBJECT
  5
15E
102
{ACAD_REACTORS
330
151
102
}
330
151
100
AcDbProxyObject
 90
      499
 91
      503
 95
   393239
 70
     0
 93
      105
310
903323A310000000000000010159
 94
        0
  0
ACAD_PROXY_OBJECT
  5
15F
102
{ACAD_REACTORS
330
151
102
}
330
151
100
AcDbProxyObject
 90
      499
 91
      503
 95
   393239
 70
     0
 93
      105
310
903343A310000000000000410100
 94
        0
  0
ACAD_PROXY_OBJECT
  5
160
102
{ACAD_REACTORS
330
151
102
}
330
151
100
AcDbProxyObject
 90
      499
 91
      503
 95
   393239
 70
     0
 93
      105
310
903383A310000000000000810159
 94
        0
  0
ACAD_PROXY_OBJECT
  5
161
102
{ACAD_REACTORS
330
151
102
}
330
151
100
AcDbProxyObject
 90
      499
 91
      503
 95
   393239
 70
     0
 93
      113
310
90431303A310000000000000910100
 94
        0
  0
ACAD_PROXY_OBJECT
  5
162
102
{ACAD_REACTORS
330
151
102
}
330
151
100
AcDbProxyObject
 90
      499
 91
      503
 95
   393239
 70
     0
 93
      121
310
9053130303A310000000000001650100
 94
        0
  0
ACAD_PROXY_OBJECT
  5
163
102
{ACAD_REACTORS
330
151
102
}
330
151
100
AcDbProxyObject
 90
      499
 91
      503
 95
   393239
 70
     0
 93
      257
310
90E312F31323822203D2031272D3022000000000000200FC000000000000284000
 94
        0
  0
ACAD_PROXY_OBJECT
  5
164
102
{ACAD_REACTORS
330
151
102
}
330
151
100
AcDbProxyObject
 90
      499
 91
      503
 95
   393239
 70
     0
 93
      249
310
90D312F363422203D2031272D3022000000000000240FC000000000000284000
 94
        0
  0
ACAD_PROXY_OBJECT
  5
165
102
{ACAD_REACTORS
330
151
102
}
330
151
100
AcDbProxyObject
 90
      499
 91
      503
 95
   393239
 70
     0
 93
      249
310
90D312F333222203D2031272D3022000000000000280FC000000000000284040
 94
        0
  0
ACAD_PROXY_OBJECT
  5
166
102
{ACAD_REACTORS
330
151
102
}
330
151
100
AcDbProxyObject
 90
      499
 91
      503
 95
   393239
 70
     0
 93
      249
310
90D312F313622203D2031272D30220000000000002C0FC000000000000284000
 94
        0
  0
ACAD_PROXY_OBJECT
  5
167
102
{ACAD_REACTORS
330
151
102
}
330
151
100
AcDbProxyObject
 90
      499
 91
      503
 95
   393239
 70
     0
 93
      249
310
90D332F333222203D2031272D30220000000000002E0FC000000000000284040
 94
        0
  0
ACAD_PROXY_OBJECT
  5
168
102
{ACAD_REACTORS
330
151
102
}
330
151
100
AcDbProxyObject
 90
      499
 91
      503
 95
   393239
 70
     0
 93
      241
310
90C312F3822203D2031272D3022000000000000300FC000000000000284040
 94
        0
  0
ACAD_PROXY_OBJECT
  5
169
102
{ACAD_REACTORS
330
151
102
}
330
151
100
AcDbProxyObject
 90
      499
 91
      503
 95
   393239
 70
     0
 93
      249
310
90D332F313622203D2031272D3022000000000000320FC000000000000284040
 94
        0
  0
ACAD_PROXY_OBJECT
  5
16A
102
{ACAD_REACTORS
330
151
102
}
330
151
100
AcDbProxyObject
 90
      499
 91
      503
 95
   393239
 70
     0
 93
      241
310
90C312F3422203D2031272D3022000000000000340FC000000000000284040
 94
        0
  0
ACAD_PROXY_OBJECT
  5
16B
102
{ACAD_REACTORS
330
151
102
}
330
151
100
AcDbProxyObject
 90
      499
 91
      503
 95
   393239
 70
     0
 93
      241
310
90C332F3822203D2031272D3022000000000000360FC000000000000284040
 94
        0
  0
ACAD_PROXY_OBJECT
  5
16C
102
{ACAD_REACTORS
330
151
102
}
330
151
100
AcDbProxyObject
 90
      499
 91
      503
 95
   393239
 70
     0
 93
      241
310
90C312F3222203D2031272D3022000000000000380FC000000000000284040
 94
        0
  0
ACAD_PROXY_OBJECT
  5
16D
102
{ACAD_REACTORS
330
151
102
}
330
151
100
AcDbProxyObject
 90
      499
 91
      503
 95
   393239
 70
     0
 93
      241
310
90C332F3422203D2031272D30220000000000003A0FC000000000000284040
 94
        0
  0
ACAD_PROXY_OBJECT
  5
16E
102
{ACAD_REACTORS
330
151
102
}
330
151
100
AcDbProxyObject
 90
      499
 91
      503
 95
   393239
 70
     0
 93
      161
310
90A3122203D2031272D30224000000000000284000
 94
        0
  0
ACAD_PROXY_OBJECT
  5
16F
102
{ACAD_REACTORS
330
151
102
}
330
151
100
AcDbProxyObject
 90
      499
 91
      503
 95
   393239
 70
     0
 93
      257
310
90E312D312F3222203D2031272D30220000000000003E0FC000000000000284000
 94
        0
  0
ACAD_PROXY_OBJECT
  5
170
102
{ACAD_REACTORS
330
151
102
}
330
151
100
AcDbProxyObject
 90
      499
 91
      503
 95
   393239
 70
     0
 93
      225
310
90A3322203D2031272D302200000000000002100000000000000284028
 94
        0
  0
ACAD_PROXY_OBJECT
  5
171
102
{ACAD_REACTORS
330
151
102
}
330
151
100
AcDbProxyObject
 90
      499
 91
      503
 95
   393239
 70
     0
 93
      225
310
90A3622203D2031272D302200000000000006100000000000000284000
 94
        0
  0
ACAD_PROXY_OBJECT
  5
172
102
{ACAD_REACTORS
330
151
102
}
330
151
100
AcDbProxyObject
 90
      499
 91
      503
 95
   393239
 70
     0
 93
      249
310
90D31272D3022203D2031272D30220000000000000A100000000000000284000
 94
        0
  0
DICTIONARYVAR
  5
174
102
{ACAD_REACTORS
330
173
102
}
330
173
100
DictionaryVariables
280
     0
  1
1:1
  0
ENDSEC
  0
EOF
