  0
SECTION
  2
HEADER
  9
$ACADVER
  1
AC1018
  9
$ACADMAINTVER
 70
     0
  9
$DWGCODEPAGE
  3
ANSI_1252
  9
$INSBASE
 10
0.0
 20
0.0
 30
0.0
  9
$EXTMIN
 10
1.962605529774069
 20
2.144724726578882
 30
0.0
  9
$EXTMAX
 10
7.404345018076457
 20
9.200120257456321
 30
0.0
  9
$LIMMIN
 10
0.0
 20
0.0
  9
$LIMMAX
 10
8.5
 20
11.0
  9
$ORTHOMODE
 70
     0
  9
$REGENMODE
 70
     1
  9
$FILLMODE
 70
     1
  9
$QTEXTMODE
 70
     0
  9
$MIRRTEXT
 70
     1
  9
$LTSCALE
 40
1.0
  9
$ATTMODE
 70
     1
  9
$TEXTSIZE
 40
0.25
  9
$TRACEWID
 40
0.05
  9
$TEXTSTYLE
  7
Standard
  9
$CLAYER
  8
0
  9
$CELTYPE
  6
ByLayer
  9
$CECOLOR
 62
   256
  9
$CELTSCALE
 40
1.0
  9
$DISPSILH
 70
     0
  9
$DIMSCALE
 40
1.0
  9
$DIMASZ
 40
0.156
  9
$DIMEXO
 40
0.05
  9
$DIMDLI
 40
0.38
  9
$DIMRND
 40
0.0
  9
$DIMDLE
 40
0.0
  9
$DIMEXE
 40
0.125
  9
$DIMTP
 40
0.0
  9
$DIMTM
 40
0.0
  9
$DIMTXT
 40
0.125
  9
$DIMCEN
 40
0.09
  9
$DIMTSZ
 40
0.0
  9
$DIMTOL
 70
     0
  9
$DIMLIM
 70
     0
  9
$DIMTIH
 70
     1
  9
$DIMTOH
 70
     1
  9
$DIMSE1
 70
     0
  9
$DIMSE2
 70
     0
  9
$DIMTAD
 70
     0
  9
$DIMZIN
 70
     0
  9
$DIMBLK
  1

  9
$DIMASO
 70
     1
  9
$DIMSHO
 70
     1
  9
$DIMPOST
  1

  9
$DIMAPOST
  1

  9
$DIMALT
 70
     0
  9
$DIMALTD
 70
     2
  9
$DIMALTF
 40
25.4
  9
$DIMLFAC
 40
8.0
  9
$DIMTOFL
 70
     0
  9
$DIMTVP
 40
0.0
  9
$DIMTIX
 70
     0
  9
$DIMSOXD
 70
     0
  9
$DIMSAH
 70
     0
  9
$DIMBLK1
  1

  9
$DIMBLK2
  1

  9
$DIMSTYLE
  2
Standard
  9
$DIMCLRD
 70
     0
  9
$DIMCLRE
 70
     0
  9
$DIMCLRT
 70
     0
  9
$DIMTFAC
 40
1.0
  9
$DIMGAP
 40
0.06
  9
$DIMJUST
 70
     0
  9
$DIMSD1
 70
     0
  9
$DIMSD2
 70
     0
  9
$DIMTOLJ
 70
     1
  9
$DIMTZIN
 70
     0
  9
$DIMALTZ
 70
     0
  9
$DIMALTTZ
 70
     0
  9
$DIMUPT
 70
     0
  9
$DIMDEC
 70
     3
  9
$DIMTDEC
 70
     3
  9
$DIMALTU
 70
     2
  9
$DIMALTTD
 70
     2
  9
$DIMTXSTY
  7
Standard
  9
$DIMAUNIT
 70
     0
  9
$DIMADEC
 70
     0
  9
$DIMALTRND
 40
0.0
  9
$DIMAZIN
 70
     0
  9
$DIMDSEP
 70
    46
  9
$DIMATFIT
 70
     3
  9
$DIMFRAC
 70
     0
  9
$DIMLDRBLK
  1

  9
$DIMLUNIT
 70
     2
  9
$DIMLWD
 70
    -2
  9
$DIMLWE
 70
    -2
  9
$DIMTMOVE
 70
     0
  9
$LUNITS
 70
     2
  9
$LUPREC
 70
     3
  9
$SKETCHINC
 40
0.1
  9
$FILLETRAD
 40
0.5
  9
$AUNITS
 70
     0
  9
$AUPREC
 70
     0
  9
$MENU
  1
.
  9
$ELEVATION
 40
0.0
  9
$PELEVATION
 40
0.0
  9
$THICKNESS
 40
0.0
  9
$LIMCHECK
 70
     0
  9
$CHAMFERA
 40
0.5
  9
$CHAMFERB
 40
0.5
  9
$CHAMFERC
 40
1.0
  9
$CHAMFERD
 40
0.0
  9
$SKPOLY
 70
     0
  9
$TDCREATE
 40
2456562.518995498
  9
$TDUCREATE
 40
2456562.727328831
  9
$TDUPDATE
 40
2456562.520248287
  9
$TDUUPDATE
 40
2456562.728581621
  9
$TDINDWG
 40
0.0010987153
  9
$TDUSRTIMER
 40
0.0010987153
  9
$USRTIMER
 70
     1
  9
$ANGBASE
 50
0.0
  9
$ANGDIR
 70
     0
  9
$PDMODE
 70
     0
  9
$PDSIZE
 40
-1.0
  9
$PLINEWID
 40
0.0
  9
$SPLFRAME
 70
     0
  9
$SPLINETYPE
 70
     6
  9
$SPLINESEGS
 70
     8
  9
$HANDSEED
  5
FB
  9
$SURFTAB1
 70
     6
  9
$SURFTAB2
 70
     6
  9
$SURFTYPE
 70
     6
  9
$SURFU
 70
     6
  9
$SURFV
 70
     6
  9
$UCSBASE
  2

  9
$UCSNAME
  2

  9
$UCSORG
 10
0.0
 20
0.0
 30
0.0
  9
$UCSXDIR
 10
1.0
 20
0.0
 30
0.0
  9
$UCSYDIR
 10
0.0
 20
1.0
 30
0.0
  9
$UCSORTHOREF
  2

  9
$UCSORTHOVIEW
 70
     0
  9
$UCSORGTOP
 10
0.0
 20
0.0
 30
0.0
  9
$UCSORGBOTTOM
 10
0.0
 20
0.0
 30
0.0
  9
$UCSORGLEFT
 10
0.0
 20
0.0
 30
0.0
  9
$UCSORGRIGHT
 10
0.0
 20
0.0
 30
0.0
  9
$UCSORGFRONT
 10
0.0
 20
0.0
 30
0.0
  9
$UCSORGBACK
 10
0.0
 20
0.0
 30
0.0
  9
$PUCSBASE
  2

  9
$PUCSNAME
  2

  9
$PUCSORG
 10
0.0
 20
0.0
 30
0.0
  9
$PUCSXDIR
 10
1.0
 20
0.0
 30
0.0
  9
$PUCSYDIR
 10
0.0
 20
1.0
 30
0.0
  9
$PUCSORTHOREF
  2

  9
$PUCSORTHOVIEW
 70
     0
  9
$PUCSORGTOP
 10
0.0
 20
0.0
 30
0.0
  9
$PUCSORGBOTTOM
 10
0.0
 20
0.0
 30
0.0
  9
$PUCSORGLEFT
 10
0.0
 20
0.0
 30
0.0
  9
$PUCSORGRIGHT
 10
0.0
 20
0.0
 30
0.0
  9
$PUCSORGFRONT
 10
0.0
 20
0.0
 30
0.0
  9
$PUCSORGBACK
 10
0.0
 20
0.0
 30
0.0
  9
$USERI1
 70
     0
  9
$USERI2
 70
     0
  9
$USERI3
 70
     0
  9
$USERI4
 70
     0
  9
$USERI5
 70
     0
  9
$USERR1
 40
0.0
  9
$USERR2
 40
0.0
  9
$USERR3
 40
0.0
  9
$USERR4
 40
0.0
  9
$USERR5
 40
0.0
  9
$WORLDVIEW
 70
     1
  9
$SHADEDGE
 70
     3
  9
$SHADEDIF
 70
    70
  9
$TILEMODE
 70
     1
  9
$MAXACTVP
 70
    64
  9
$PINSBASE
 10
0.0
 20
0.0
 30
0.0
  9
$PLIMCHECK
 70
     0
  9
$PEXTMIN
 10
1.000000000000000E+20
 20
1.000000000000000E+20
 30
1.000000000000000E+20
  9
$PEXTMAX
 10
-1.000000000000000E+20
 20
-1.000000000000000E+20
 30
-1.000000000000000E+20
  9
$PLIMMIN
 10
0.0
 20
0.0
  9
$PLIMMAX
 10
12.0
 20
9.0
  9
$UNITMODE
 70
     0
  9
$VISRETAIN
 70
     1
  9
$PLINEGEN
 70
     0
  9
$PSLTSCALE
 70
     1
  9
$TREEDEPTH
 70
  3020
  9
$CMLSTYLE
  2
Standard
  9
$CMLJUST
 70
     0
  9
$CMLSCALE
 40
1.0
  9
$PROXYGRAPHICS
 70
     1
  9
$MEASUREMENT
 70
     0
  9
$CELWEIGHT
370
    -1
  9
$ENDCAPS
280
     0
  9
$JOINSTYLE
280
     0
  9
$LWDISPLAY
290
     1
  9
$INSUNITS
 70
     1
  9
$HYPERLINKBASE
  1

  9
$STYLESHEET
  1

  9
$XEDIT
290
     1
  9
$CEPSNTYPE
380
     0
  9
$PSTYLEMODE
290
     1
  9
$FINGERPRINTGUID
  2
{9AA6E2D6-64D2-4637-AD69-242A2ADDDF17}
  9
$VERSIONGUID
  2
{6D688032-E4A1-4C5E-831A-1BD6EB63E877}
  9
$EXTNAMES
290
     1
  9
$PSVPSCALE
 40
0.0
  9
$OLESTARTUP
290
     0
  9
$SORTENTS
280
   127
  9
$INDEXCTL
280
     0
  9
$HIDETEXT
280
     0
  9
$XCLIPFRAME
290
     0
  9
$HALOGAP
280
     0
  9
$OBSCOLOR
 70
   257
  9
$OBSLTYPE
280
     0
  9
$INTERSECTIONDISPLAY
280
     0
  9
$INTERSECTIONCOLOR
 70
   257
  9
$DIMASSOC
280
     1
  9
$PROJECTNAME
  1

  0
ENDSEC
  0
SECTION
  2
CLASSES
  0
CLASS
  1
ACDBDICTIONARYWDFLT
  2
AcDbDictionaryWithDefault
  3
ObjectDBX Classes
 90
        0
 91
        1
280
     0
281
     0
  0
CLASS
  1
VISUALSTYLE
  2
AcDbVisualStyle
  3
ObjectDBX Classes
 90
     4095
 91
        0
280
     0
281
     0
  0
CLASS
  1
MATERIAL
  2
AcDbMaterial
  3
ObjectDBX Classes
 90
        0
 91
        0
280
     0
281
     0
  0
ENDSEC
  0
SECTION
  2
TABLES
  0
TABLE
  2
VPORT
  5
8
330
0
100
AcDbSymbolTable
 70
     4
  0
VPORT
  5
FA
330
8
100
AcDbSymbolTableRecord
100
AcDbViewportTableRecord
  2
*Active
 70
     0
 10
0.0
 20
0.0
 11
1.0
 21
1.0
 12
4.759674261636309
 22
5.500742537668667
 13
0.0
 23
0.0
 14
0.5
 24
0.5
 15
0.5
 25
0.5
 16
0.0
 26
0.0
 36
1.0
 17
0.0
 27
0.0
 37
0.0
 40
8.491880575653084
 41
2.234582829504232
 42
50.0
 43
0.0
 44
0.0
 50
0.0
 51
0.0
 71
     0
 72
  2000
 73
     1
 74
     3
 75
     0
 76
     0
 77
     0
 78
     0
281
     0
 65
     1
110
0.0
120
0.0
130
0.0
111
1.0
121
0.0
131
0.0
112
0.0
122
1.0
132
0.0
 79
     0
146
0.0
  0
ENDTAB
  0
TABLE
  2
LTYPE
  5
5
330
0
100
AcDbSymbolTable
 70
     6
  0
LTYPE
  5
14
330
5
100
AcDbSymbolTableRecord
100
AcDbLinetypeTableRecord
  2
ByBlock
 70
     0
  3

 72
    65
 73
     0
 40
0.0
  0
LTYPE
  5
15
330
5
100
AcDbSymbolTableRecord
100
AcDbLinetypeTableRecord
  2
ByLayer
 70
     0
  3

 72
    65
 73
     0
 40
0.0
  0
LTYPE
  5
16
330
5
100
AcDbSymbolTableRecord
100
AcDbLinetypeTableRecord
  2
Continuous
 70
     0
  3
Solid line
 72
    65
 73
     0
 40
0.0
  0
LTYPE
  5
3F
330
5
100
AcDbSymbolTableRecord
100
AcDbLinetypeTableRecord
  2
HIDDEN
 70
     0
  3
Hidden __ __ __ __ __ __ __ __ __ __ __ __ __ __
 72
    65
 73
     2
 40
0.075
 49
0.05
 74
     0
 49
-0.025
 74
     0
  0
LTYPE
  5
40
330
5
100
AcDbSymbolTableRecord
100
AcDbLinetypeTableRecord
  2
PHANTOM
 70
     0
  3
Phantom ______  __  __  ______  __  __  ______
 72
    65
 73
     6
 40
0.5
 49
0.25
 74
     0
 49
-0.05
 74
     0
 49
0.05
 74
     0
 49
-0.05
 74
     0
 49
0.05
 74
     0
 49
-0.05
 74
     0
  0
LTYPE
  5
41
330
5
100
AcDbSymbolTableRecord
100
AcDbLinetypeTableRecord
  2
CENTER
 70
     0
  3
Center ____ _ ____ _ ____ _ ____ _ ____ _ ____
 72
    65
 73
     4
 40
0.4
 49
0.25
 74
     0
 49
-0.05
 74
     0
 49
0.05
 74
     0
 49
-0.05
 74
     0
  0
LTYPE
  5
42
330
5
100
AcDbSymbolTableRecord
100
AcDbLinetypeTableRecord
  2
CENTERX2
 70
     0
  3
Center (2x) ________  __  ________  __  _____
 72
    65
 73
     4
 40
0.8
 49
0.5
 74
     0
 49
-0.1
 74
     0
 49
0.1
 74
     0
 49
-0.1
 74
     0
  0
LTYPE
  5
43
330
5
100
AcDbSymbolTableRecord
100
AcDbLinetypeTableRecord
  2
DOT2
 70
     0
  3
Dot (.5x) ........................................
 72
    65
 73
     2
 40
0.025
 49
0.0
 74
     0
 49
-0.025
 74
     0
  0
ENDTAB
  0
TABLE
  2
LAYER
  5
2
330
0
100
AcDbSymbolTable
 70
     8
  0
LAYER
  5
10
330
2
100
AcDbSymbolTableRecord
100
AcDbLayerTableRecord
  2
0
 70
     0
 62
     7
  6
Continuous
370
    -3
390
F
  0
LAYER
  5
44
330
2
100
AcDbSymbolTableRecord
100
AcDbLayerTableRecord
  2
SLD-0
 70
     0
 62
   179
  6
Continuous
370
    -3
390
F
  0
LAYER
  5
45
330
2
100
AcDbSymbolTableRecord
100
AcDbLayerTableRecord
  2
SLD-DEFPOINTS
 70
     0
 62
   179
  6
Continuous
370
    -3
390
F
  0
LAYER
  5
46
330
2
100
AcDbSymbolTableRecord
100
AcDbLayerTableRecord
  2
OBJ
 70
     0
 62
   179
  6
Continuous
370
    -3
390
F
  0
LAYER
  5
47
330
2
100
AcDbSymbolTableRecord
100
AcDbLayerTableRecord
  2
FORMAT
 70
     0
 62
     7
  6
Continuous
370
    -3
390
F
  0
LAYER
  5
48
330
2
100
AcDbSymbolTableRecord
100
AcDbLayerTableRecord
  2
BLANK-SIZE-1
 70
     0
 62
     7
  6
Continuous
370
    -3
390
F
  0
LAYER
  5
49
330
2
100
AcDbSymbolTableRecord
100
AcDbLayerTableRecord
  2
TOLERANCES
 70
     0
 62
     7
  6
Continuous
370
    -3
390
F
  0
LAYER
  5
4A
330
2
100
AcDbSymbolTableRecord
100
AcDbLayerTableRecord
  2
QTY-BLANK-SIZE-1
 70
     0
 62
     7
  6
Continuous
370
    -3
390
F
  0
ENDTAB
  0
TABLE
  2
STYLE
  5
3
330
0
100
AcDbSymbolTable
 70
     2
  0
STYLE
  5
11
330
3
100
AcDbSymbolTableRecord
100
AcDbTextStyleTableRecord
  2
Standard
 70
     0
 40
0.0
 41
1.0
 50
0.0
 71
     0
 42
0.25
  3
txt
  4

  0
STYLE
  5
EF
330
3
100
AcDbSymbolTableRecord
100
AcDbTextStyleTableRecord
  2
SLDTEXTSTYLE0
 70
     0
 40
0.0
 41
0.7
 50
0.0
 71
     0
 42
0.2
  3
TXT
  4

  0
ENDTAB
  0
TABLE
  2
VIEW
  5
6
330
0
100
AcDbSymbolTable
 70
     0
  0
ENDTAB
  0
TABLE
  2
UCS
  5
7
330
0
100
AcDbSymbolTable
 70
     0
  0
ENDTAB
  0
TABLE
  2
APPID
  5
9
330
0
100
AcDbSymbolTable
 70
     1
  0
APPID
  5
12
330
9
100
AcDbSymbolTableRecord
100
AcDbRegAppTableRecord
  2
ACAD
 70
     0
  0
ENDTAB
  0
TABLE
  2
DIMSTYLE
  5
A
330
0
100
AcDbSymbolTable
 70
     1
100
AcDbDimStyleTable
 71
     0
  0
DIMSTYLE
105
27
330
A
100
AcDbSymbolTableRecord
100
AcDbDimStyleTableRecord
  2
Standard
 70
     0
340
11
  0
ENDTAB
  0
TABLE
  2
BLOCK_RECORD
  5
1
330
0
100
AcDbSymbolTable
 70
     1
  0
BLOCK_RECORD
  5
1F
330
1
100
AcDbSymbolTableRecord
100
AcDbBlockTableRecord
  2
*Model_Space
340
22
  0
BLOCK_RECORD
  5
1B
330
1
100
AcDbSymbolTableRecord
100
AcDbBlockTableRecord
  2
*Paper_Space
340
1E
  0
BLOCK_RECORD
  5
23
330
1
100
AcDbSymbolTableRecord
100
AcDbBlockTableRecord
  2
*Paper_Space0
340
26
  0
ENDTAB
  0
ENDSEC
  0
SECTION
  2
BLOCKS
  0
BLOCK
  5
20
330
1F
100
AcDbEntity
  8
0
100
AcDbBlockBegin
  2
*Model_Space
 70
     0
 10
0.0
 20
0.0
 30
0.0
  3
*Model_Space
  1

  0
ENDBLK
  5
21
330
1F
100
AcDbEntity
  8
0
100
AcDbBlockEnd
  0
BLOCK
  5
1C
330
1B
100
AcDbEntity
 67
     1
  8
0
100
AcDbBlockBegin
  2
*Paper_Space
 70
     0
 10
0.0
 20
0.0
 30
0.0
  3
*Paper_Space
  1

  0
ENDBLK
  5
1D
330
1B
100
AcDbEntity
 67
     1
  8
0
100
AcDbBlockEnd
  0
BLOCK
  5
24
330
23
100
AcDbEntity
  8
0
100
AcDbBlockBegin
  2
*Paper_Space0
 70
     0
 10
0.0
 20
0.0
 30
0.0
  3
*Paper_Space0
  1

  0
ENDBLK
  5
25
330
23
100
AcDbEntity
  8
0
100
AcDbBlockEnd
  0
ENDSEC
  0
SECTION
  2
ENTITIES
  0
SPLINE
  5
4B
330
1F
100
AcDbEntity
  8
0
  6
Continuous
 62
     7
370
    15
100
AcDbSpline
210
0.0
220
0.0
230
1.0
 70
     8
 71
     3
 72
    42
 73
    38
 74
     0
 42
0.0000000001
 43
0.0000000001
 40
0.0
 40
0.0
 40
0.0
 40
0.0
 40
0.007092327092032
 40
0.036723770306444
 40
0.0664371635725403
 40
0.0962429696244293
 40
0.1261369264581771
 40
0.1561087195565306
 40
0.1861405763548511
 40
0.216214676574219
 40
0.2463169573123904
 40
0.2764341364748665
 40
0.3065570152819912
 40
0.3366786979561524
 40
0.3667969311203838
 40
0.3969103860018963
 40
0.4270188775296341
 40
0.4571240418317495
 40
0.4872272550099494
 40
0.5173301608274738
 40
0.5474350815196278
 40
0.5775434886946134
 40
0.6076573466600759
 40
0.6377787450612658
 40
0.6679091294049338
 40
0.6980494849936633
 40
0.7281998605948623
 40
0.7583587113673615
 40
0.7885227935246461
 40
0.8186835755658641
 40
0.8488310275717079
 40
0.8789505510864906
 40
0.9090246243305626
 40
0.9390339406442189
 40
0.9689592892254388
 40
0.9987881130558156
 40
1.0
 40
1.0
 40
1.0
 40
1.0
 10
4.132119773374504
 20
7.508363316350247
 30
0.0
 10
4.132406828780275
 20
7.508364498068789
 30
0.0
 10
4.133893189554383
 20
7.508370616957515
 30
0.0
 10
4.136619018913146
 20
7.508785121941852
 30
0.0
 10
4.140270160399805
 20
7.509619939360133
 30
0.0
 10
4.143917286544056
 20
7.51088811135331
 30
0.0
 10
4.147532160886463
 20
7.512539935993902
 30
0.0
 10
4.151091425225537
 20
7.514576505544258
 30
0.0
 10
4.154570476086869
 20
7.516981352327106
 30
0.0
 10
4.157945433875398
 20
7.519739068422849
 30
0.0
 10
4.161193332856036
 20
7.522830244514178
 30
0.0
 10
4.164292337876451
 20
7.526233743925313
 30
0.0
 10
4.167221779457527
 20
7.52992605560483
 30
0.0
 10
4.169962453029594
 20
7.533882035059219
 30
0.0
 10
4.172496628449637
 20
7.538074917293296
 30
0.0
 10
4.174807989266734
 20
7.542476689670822
 30
0.0
 10
4.17688152943659
 20
7.547058229911041
 30
0.0
 10
4.178704093523373
 20
7.551789128993764
 30
0.0
 10
4.180263855530224
 20
7.556638299128867
 30
0.0
 10
4.181550546080756
 20
7.561573912789588
 30
0.0
 10
4.182555778493449
 20
7.56656353787527
 30
0.0
 10
4.183272898841226
 20
7.571574481923949
 30
0.0
 10
4.183696675797071
 20
7.576573920365588
 30
0.0
 10
4.183824105333906
 20
7.581529141840467
 30
0.0
 10
4.183653822506818
 20
7.586407716906578
 30
0.0
 10
4.183186187604348
 20
7.591177625871989
 30
0.0
 10
4.182423254144301
 20
7.595807364722205
 30
0.0
 10
4.181369341442368
 20
7.600266361376827
 30
0.0
 10
4.180030025603992
 20
7.604524443163161
 30
0.0
 10
4.178413485967097
 20
7.608552823799525
 30
0.0
 10
4.176529375267425
 20
7.612323212776952
 30
0.0
 10
4.174390405852006
 20
7.61581027351545
 30
0.0
 10
4.172009150905746
 20
7.618985128156158
 30
0.0
 10
4.16940885048998
 20
7.621839995920633
 30
0.0
 10
4.166584380040633
 20
7.624298632599796
 30
0.0
 10
4.16458268700788
 20
7.625834403141417
 30
0.0
 10
4.16348477762612
 20
7.626437204019009
 30
0.0
 10
4.163441913206703
 20
7.626460738483758
 30
0.0
  0
LINE
  5
4C
330
1F
100
AcDbEntity
  8
0
  6
Continuous
 62
     7
370
    15
100
AcDbLine
 10
4.107972035198641
 20
7.513308401373492
 30
0.0
 11
4.122821280483482
 21
7.509330124449806
 31
0.0
  0
LINE
  5
4D
330
1F
100
AcDbEntity
  8
0
  6
Continuous
 62
     7
370
    15
100
AcDbLine
 10
4.15516940154678
 20
7.630072010662403
 30
0.0
 11
4.140320156261939
 21
7.634050287586089
 31
0.0
  0
SPLINE
  5
4E
330
1F
100
AcDbEntity
  8
0
  6
Continuous
 62
     7
370
    15
100
AcDbSpline
210
0.0
220
0.0
230
1.0
 70
     8
 71
     3
 72
    29
 73
    25
 74
     0
 42
0.0000000001
 43
0.0000000001
 40
0.0
 40
0.0
 40
0.0
 40
0.0
 40
0.0376151745515159
 40
0.0842459490624801
 40
0.1310158510453703
 40
0.177931478731436
 40
0.2249767032300003
 40
0.2721300594024872
 40
0.3193625267237563
 40
0.3666479850034114
 40
0.4139661513007324
 40
0.4612992316446852
 40
0.5086353025197107
 40
0.555966586325482
 40
0.6032911025174759
 40
0.6506079316119581
 40
0.6979180584641464
 40
0.7452242960297579
 40
0.7925284187141967
 40
0.8398344475048581
 40
0.8871444826767465
 40
0.9344618889240003
 40
0.9817897088818583
 40
1.0
 40
1.0
 40
1.0
 40
1.0
 10
4.131114025534509
 20
7.635026525257506
 30
0.0
 10
4.130140015423513
 20
7.634974383269513
 30
0.0
 10
4.127958544589582
 20
7.634857601908883
 30
0.0
 10
4.124538268483509
 20
7.634190363902654
 30
0.0
 10
4.120886361056974
 20
7.633120618054375
 30
0.0
 10
4.117253761400481
 20
7.631642483274029
 30
0.0
 10
4.113666063107736
 20
7.629780099018847
 30
0.0
 10
4.110147381674136
 20
7.627541479544817
 30
0.0
 10
4.106722012547059
 20
7.624942654825747
 30
0.0
 10
4.103413348462184
 20
7.622001126754735
 30
0.0
 10
4.100243761684429
 20
7.61873743835593
 30
0.0
 10
4.097234508939199
 20
7.615173867561734
 30
0.0
 10
4.094405333929584
 20
7.611335069237757
 30
0.0
 10
4.091774805226034
 20
7.607246887877736
 30
0.0
 10
4.089359832874372
 20
7.602936896918662
 30
0.0
 10
4.087175948390114
 20
7.598433738835974
 30
0.0
 10
4.085237322778181
 20
7.593767156475627
 30
0.0
 10
4.083556168920409
 20
7.588968104335506
 30
0.0
 10
4.082143714793632
 20
7.584067905699149
 30
0.0
 10
4.081009196362296
 20
7.579098972198527
 30
0.0
 10
4.080159251102468
 20
7.574093469052425
 30
0.0
 10
4.079603631590663
 20
7.569085525422743
 30
0.0
 10
4.079386912282539
 20
7.565125271395403
 30
0.0
 10
4.079370622219614
 20
7.5628502439325
 30
0.0
 10
4.07936609589465
 20
7.562218109259696
 30
0.0
  0
SPLINE
  5
4F
330
1F
100
AcDbEntity
  8
0
  6
Continuous
 62
     7
370
    15
100
AcDbSpline
210
0.0
220
0.0
230
1.0
 70
     8
 71
     3
 72
    20
 73
    16
 74
     0
 42
0.0000000001
 43
0.0000000001
 40
0.0
 40
0.0
 40
0.0
 40
0.0
 40
0.0443277827196921
 40
0.1281872237019397
 40
0.2120927825476393
 40
0.2960243373263043
 40
0.3799769100442953
 40
0.463933517125303
 40
0.5478704545714219
 40
0.6317523715694034
 40
0.7155354473657792
 40
0.7991678672924876
 40
0.8825948615420784
 40
0.9657690218846008
 40
1.0
 40
1.0
 40
1.0
 40
1.0
 10
4.07936609589465
 20
7.562218109259696
 30
0.0
 10
4.079374468290763
 20
7.561353053709997
 30
0.0
 10
4.079398679612588
 20
7.558851483307415
 30
0.0
 10
4.079666760205633
 20
7.554780157779399
 30
0.0
 10
4.080266497136764
 20
7.55007008608829
 30
0.0
 10
4.081163586149308
 20
7.545514624802949
 30
0.0
 10
4.082348525960799
 20
7.541143731782216
 30
0.0
 10
4.083815406824663
 20
7.536986866605403
 30
0.0
 10
4.085555541814117
 20
7.533072982677838
 30
0.0
 10
4.087557536121289
 20
7.529428567945024
 30
0.0
 10
4.089809269677326
 20
7.526081573615345
 30
0.0
 10
4.092291714353444
 20
7.523048111347872
 30
0.0
 10
4.095000587083885
 20
7.520379166751819
 30
0.0
 10
4.097306783104462
 20
7.518451657721185
 30
0.0
 10
4.098765321809025
 20
7.517554125559269
 30
0.0
 10
4.099190577527234
 20
7.517292438513915
 30
0.0
  0
SPLINE
  5
50
330
1F
100
AcDbEntity
  8
0
  6
Continuous
 62
     7
370
    15
100
AcDbSpline
210
0.0
220
0.0
230
1.0
 70
     8
 71
     3
 72
    42
 73
    38
 74
     0
 42
0.0000000001
 43
0.0000000001
 40
0.0
 40
0.0
 40
0.0
 40
0.0
 40
0.0070923273544019
 40
0.036723771664984
 40
0.066437166030282
 40
0.0962426274552813
 40
0.1261372707960713
 40
0.1561087275942982
 40
0.1861402556107158
 40
0.2162149973461727
 40
0.2463169707998023
 40
0.2764338565222963
 40
0.3065570152045796
 40
0.3366789601110376
 40
0.3667969526467604
 40
0.3969101878796728
 40
0.4270190771464821
 40
0.457124068017697
 40
0.4872271326905166
 40
0.5173301633187043
 40
0.5474350851245441
 40
0.5775434238373888
 40
0.6076573246516159
 40
0.6377787377946654
 40
0.6679091378175257
 40
0.6980494945212518
 40
0.7281998712378181
 40
0.7583588209220944
 40
0.788522779701006
 40
0.818683562857976
 40
0.8488308406909574
 40
0.8789505643883213
 40
0.9090246387449381
 40
0.9390339561687433
 40
0.9689595679895399
 40
0.9987881130109837
 40
1.0
 40
1.0
 40
1.0
 40
1.0
 10
4.733160548268241
 20
7.66938878256666
 30
0.0
 10
4.733447603673551
 20
7.669389964277296
 30
0.0
 10
4.734933964445279
 20
7.669396083125092
 30
0.0
 10
4.73765979386665
 20
7.66981058918567
 30
0.0
 10
4.741310920918393
 20
7.670645398627953
 30
0.0
 10
4.74495806202661
 20
7.671913590523518
 30
0.0
 10
4.748572936267231
 20
7.673565384498906
 30
0.0
 10
4.752132202299861
 20
7.675601968402619
 30
0.0
 10
4.755611240779981
 20
7.678006853874047
 30
0.0
 10
4.758986221526433
 20
7.680764495609303
 30
0.0
 10
4.762234108945013
 20
7.683855713072706
 30
0.0
 10
4.765333084151079
 20
7.687259232460251
 30
0.0
 10
4.768262552518114
 20
7.690951520916035
 30
0.0
 10
4.771003263332902
 20
7.694907478765626
 30
0.0
 10
4.773537409746285
 20
7.699100382612664
 30
0.0
 10
4.77584870878878
 20
7.703502195699993
 30
0.0
 10
4.77792236281949
 20
7.708083658038155
 30
0.0
 10
4.779744867162643
 20
7.712814600954162
 30
0.0
 10
4.78130457342538
 20
7.717663774463711
 30
0.0
 10
4.782591330145764
 20
7.72259936832677
 30
0.0
 10
4.783596565838512
 20
7.72758900120368
 30
0.0
 10
4.784313609607224
 20
7.732599942750913
 30
0.0
 10
4.784737450087688
 20
7.737599382101743
 30
0.0
 10
4.784864946739688
 20
7.742554626748288
 30
0.0
 10
4.784694580831323
 20
7.747433177546358
 30
0.0
 10
4.784226962588883
 20
7.75220309030275
 30
0.0
 10
4.783464044510651
 20
7.756832847903463
 30
0.0
 10
4.782410050045422
 20
7.76129178493736
 30
0.0
 10
4.781070818875704
 20
7.765549932070209
 30
0.0
 10
4.779454245831622
 20
7.76957826355521
 30
0.0
 10
4.777570205583745
 20
7.773348730357009
 30
0.0
 10
4.775431173037603
 20
7.776835717655128
 30
0.0
 10
4.773049927330363
 20
7.780010594467196
 30
0.0
 10
4.770449624588827
 20
7.782865485047171
 30
0.0
 10
4.767625118399355
 20
7.785324046725246
 30
0.0
 10
4.765623452193914
 20
7.786859875223171
 30
0.0
 10
4.764525552527102
 20
7.787462670251562
 30
0.0
 10
4.76448268810044
 20
7.787486204700171
 30
0.0
  0
LINE
  5
51
330
1F
100
AcDbEntity
  8
0
  6
Continuous
 62
     7
370
    15
100
AcDbLine
 10
4.709012810092378
 20
7.674333867589904
 30
0.0
 11
4.723862055377219
 21
7.670355590666219
 31
0.0
  0
LINE
  5
52
330
1F
100
AcDbEntity
  8
0
  6
Continuous
 62
     7
370
    15
100
AcDbLine
 10
4.756210134957398
 20
7.791097465765032
 30
0.0
 11
4.741360889672557
 21
7.795075742688716
 31
0.0
  0
SPLINE
  5
53
330
1F
100
AcDbEntity
  8
0
  6
Continuous
 62
     7
370
    15
100
AcDbSpline
210
0.0
220
0.0
230
1.0
 70
     8
 71
     3
 72
    29
 73
    25
 74
     0
 42
0.0000000001
 43
0.0000000001
 40
0.0
 40
0.0
 40
0.0
 40
0.0
 40
0.0376151897944931
 40
0.0842454394375139
 40
0.1310159046387705
 40
0.1779304690452028
 40
0.2249762470542338
 40
0.2721290981122679
 40
0.3193615845737757
 40
0.3666480490064117
 40
0.4139657612899763
 40
0.4612993105641023
 40
0.5086354006213504
 40
0.5559667036074043
 40
0.6032912389769385
 40
0.6506077592387769
 40
0.6979181968349916
 40
0.7452239471574499
 40
0.7925283021590715
 40
0.8398343501197814
 40
0.8871445335390209
 40
0.9344618733385672
 40
0.981789712475304
 40
1.0
 40
1.0
 40
1.0
 40
1.0
 10
4.732154758945128
 20
7.796051980360133
 30
0.0
 10
4.731180748945503
 20
7.795999838417353
 30
0.0
 10
4.728999292441275
 20
7.795883057911747
 30
0.0
 10
4.725579014282702
 20
7.795215822136807
 30
0.0
 10
4.721927137236901
 20
7.794146093371415
 30
0.0
 10
4.718294536417021
 20
7.792667932207741
 30
0.0
 10
4.714706864084882
 20
7.790805588902725
 30
0.0
 10
4.711188184359259
 20
7.788566946303489
 30
0.0
 10
4.70776281157817
 20
7.785968097745802
 30
0.0
 10
4.704454105160063
 20
7.783026638049912
 30
0.0
 10
4.701284526026649
 20
7.779762862712908
 30
0.0
 10
4.69827524578252
 20
7.776199345633253
 30
0.0
 10
4.695446067836543
 20
7.772360522116901
 30
0.0
 10
4.692815542178144
 20
7.768272341065042
 30
0.0
 10
4.690400557205573
 20
7.763962371860967
 30
0.0
 10
4.68821674222268
 20
7.75945916811928
 30
0.0
 10
4.686278025447422
 20
7.754792658249204
 30
0.0
 10
4.684597019117768
 20
7.749993540142757
 30
0.0
 10
4.683184466263998
 20
7.745093386903605
 30
0.0
 10
4.68204999484138
 20
7.740124431386321
 30
0.0
 10
4.681199951741793
 20
7.735118931679875
 30
0.0
 10
4.680644437357391
 20
7.730110991781028
 30
0.0
 10
4.68042765371085
 20
7.72615073030002
 30
0.0
 10
4.680411422298087
 20
7.723875717040979
 30
0.0
 10
4.680406912271505
 20
7.723243586589894
 30
0.0
  0
SPLINE
  5
54
330
1F
100
AcDbEntity
  8
0
  6
Continuous
 62
     7
370
    15
100
AcDbSpline
210
0.0
220
0.0
230
1.0
 70
     8
 71
     3
 72
    20
 73
    16
 74
     0
 42
0.0000000001
 43
0.0000000001
 40
0.0
 40
0.0
 40
0.0
 40
0.0
 40
0.0443277190430102
 40
0.1281870706062973
 40
0.2120923857894765
 40
0.296024082105937
 40
0.3799762589242632
 40
0.4639331561869103
 40
0.547869553552776
 40
0.6317513811078312
 40
0.7155349506975895
 40
0.7991672814474088
 40
0.8825941867391554
 40
0.9657682583934292
 40
1.0
 40
1.0
 40
1.0
 40
1.0
 10
4.680406912271505
 20
7.723243586589894
 30
0.0
 10
4.680415267610809
 20
7.722378526249395
 30
0.0
 10
4.680439429613556
 20
7.719876941386912
 30
0.0
 10
4.680707562570667
 20
7.715805639807818
 30
0.0
 10
4.681307195771644
 20
7.711095513958523
 30
0.0
 10
4.68220439543544
 20
7.706540124894366
 30
0.0
 10
4.683389228603626
 20
7.70216914864685
 30
0.0
 10
4.684856205333662
 20
7.698012371378646
 30
0.0
 10
4.686596264608674
 20
7.694098418842248
 30
0.0
 10
4.688598269300131
 20
7.69045400628643
 30
0.0
 10
4.690850047427765
 20
7.687107059081439
 30
0.0
 10
4.693332486208747
 20
7.684073572450461
 30
0.0
 10
4.696041365518629
 20
7.681404641233762
 30
0.0
 10
4.698347558951637
 20
7.679477095463405
 30
0.0
 10
4.699806123585149
 20
7.678579597307112
 30
0.0
 10
4.700231393904089
 20
7.678317915844114
 30
0.0
  0
SPLINE
  5
55
330
1F
100
AcDbEntity
  8
0
  6
Continuous
 62
     7
370
    15
100
AcDbSpline
210
0.0
220
0.0
230
1.0
 70
     8
 71
     3
 72
    42
 73
    38
 74
     0
 42
0.0000000001
 43
0.0000000001
 40
0.0
 40
0.0
 40
0.0
 40
0.0
 40
0.0070923197843661
 40
0.0367237562146318
 40
0.0664371524815137
 40
0.0962429776289805
 40
0.1261369424077199
 40
0.1561086628280477
 40
0.186140541063897
 40
0.2162146345103651
 40
0.2463169760876156
 40
0.2764341796060657
 40
0.3065570084357877
 40
0.3366787781108514
 40
0.3667969506947446
 40
0.396910373693345
 40
0.4270188312049969
 40
0.4571240718933211
 40
0.4872272084244156
 40
0.5173301562363908
 40
0.5474351200463291
 40
0.5775434438495269
 40
0.6076573893597715
 40
0.6377787892813815
 40
0.667909218434828
 40
0.6980494465523202
 40
0.7281998236754019
 40
0.7583586759702118
 40
0.7885227596500712
 40
0.8186836212804488
 40
0.8488310000629379
 40
0.8789505960192538
 40
0.9090246707813573
 40
0.9390339886097763
 40
0.9689593387015204
 40
0.9987881129946437
 40
1.0
 40
1.0
 40
1.0
 40
1.0
 10
4.432640160821372
 20
7.058982016123065
 30
0.0
 10
4.432927216250523
 20
7.058983200220725
 30
0.0
 10
4.434413578106831
 20
7.058989331432395
 30
0.0
 10
4.437139406659845
 20
7.059403855820557
 30
0.0
 10
4.440790548910208
 20
7.060238622342048
 30
0.0
 10
4.44443767397771
 20
7.061506866737888
 30
0.0
 10
4.448052541532224
 20
7.063158703501885
 30
0.0
 10
4.45161182066008
 20
7.065195186771774
 30
0.0
 10
4.455090859893834
 20
7.067600072060628
 30
0.0
 10
4.458465826541297
 20
7.070357769461579
 30
0.0
 10
4.461713718061155
 20
7.073448974878276
 30
0.0
 10
4.464812719968264
 20
7.07685247999007
 30
0.0
 10
4.467742176397717
 20
7.080544775362167
 30
0.0
 10
4.470482831057298
 20
7.084500776853171
 30
0.0
 10
4.473017018885884
 20
7.088693644087746
 30
0.0
 10
4.475328375365741
 20
7.093095411505561
 30
0.0
 10
4.477401922190532
 20
7.097676947843927
 30
0.0
 10
4.479224474621025
 20
7.102407850561956
 30
0.0
 10
4.480784247285148
 20
7.107257018461722
 30
0.0
 10
4.482070933105031
 20
7.112192634143402
 30
0.0
 10
4.483076163704309
 20
7.117182258865152
 30
0.0
 10
4.483793288582379
 20
7.122193205337307
 30
0.0
 10
4.484217062450637
 20
7.127192643653099
 30
0.0
 10
4.484344492684583
 20
7.132147872138221
 30
0.0
 10
4.484174211264088
 20
7.137026443099262
 30
0.0
 10
4.483706573410189
 20
7.141796346183393
 30
0.0
 10
4.482943641591599
 20
7.146426078539453
 30
0.0
 10
4.481889729440958
 20
7.15088507581829
 30
0.0
 10
4.480550409687721
 20
7.155143158672536
 30
0.0
 10
4.478933880116173
 20
7.159171548957118
 30
0.0
 10
4.47704975554371
 20
7.162941928278732
 30
0.0
 10
4.474910797445153
 20
7.166429001592012
 30
0.0
 10
4.472529537903105
 20
7.169603855835241
 30
0.0
 10
4.469929237469123
 20
7.172458722843916
 30
0.0
 10
4.467104771402004
 20
7.174917364007953
 30
0.0
 10
4.465103072599196
 20
7.17645311793291
 30
0.0
 10
4.464005165071104
 20
7.177055917918305
 30
0.0
 10
4.463962300653571
 20
7.177079452386919
 30
0.0
  0
LINE
  5
56
330
1F
100
AcDbEntity
  8
0
  6
Continuous
 62
     7
370
    15
100
AcDbLine
 10
4.408492422645509
 20
7.063927097613723
 30
0.0
 11
4.423341667930351
 21
7.059948820690039
 31
0.0
  0
LINE
  5
57
330
1F
100
AcDbEntity
  8
0
  6
Continuous
 62
     7
370
    15
100
AcDbLine
 10
4.455689788993648
 20
7.18069073869591
 30
0.0
 11
4.440840543708807
 21
7.184669015619594
 31
0.0
  0
SPLINE
  5
58
330
1F
100
AcDbEntity
  8
0
  6
Continuous
 62
     7
370
    15
100
AcDbSpline
210
0.0
220
0.0
230
1.0
 70
     8
 71
     3
 72
    29
 73
    25
 74
     0
 42
0.0000000001
 43
0.0000000001
 40
0.0
 40
0.0
 40
0.0
 40
0.0
 40
0.0376141440110739
 40
0.0842449564631028
 40
0.1310149006550999
 40
0.1779305512993647
 40
0.2249758140762104
 40
0.2721292086149599
 40
0.3193617617844987
 40
0.3666472009244903
 40
0.4139654057221714
 40
0.4612994240793062
 40
0.5086346868083781
 40
0.5559667033424618
 40
0.6032906352151885
 40
0.6506075028089429
 40
0.6979175531349241
 40
0.7452239497555033
 40
0.7925281109288757
 40
0.8398341782100215
 40
0.8871441195814828
 40
0.9344616315681308
 40
0.9817895579212013
 40
1.0
 40
1.0
 40
1.0
 40
1.0
 10
4.431634330015141
 20
7.185645216933097
 30
0.0
 10
4.430660347558202
 20
7.185593088213307
 30
0.0
 10
4.428478904597372
 20
7.185476334746108
 30
0.0
 10
4.425058655516185
 20
7.184809095042542
 30
0.0
 10
4.421406749607935
 20
7.183739322784202
 30
0.0
 10
4.417774147853502
 20
7.182261217682618
 30
0.0
 10
4.41418645119224
 20
7.180398823884394
 30
0.0
 10
4.410667765993903
 20
7.178160212918582
 30
0.0
 10
4.407242406276727
 20
7.175561360883051
 30
0.0
 10
4.40393372887442
 20
7.172619864870461
 30
0.0
 10
4.400764144146628
 20
7.16935612071762
 30
0.0
 10
4.397754822038903
 20
7.165792659317829
 30
0.0
 10
4.394925727471953
 20
7.161953709075601
 30
0.0
 10
4.39229509447572
 20
7.157865689016229
 30
0.0
 10
4.389880233882791
 20
7.153555581528954
 30
0.0
 10
4.387696333323717
 20
7.149052475778844
 30
0.0
 10
4.385757705615138
 20
7.144385890792179
 30
0.0
 10
4.384076559289346
 20
7.13958683597669
 30
0.0
 10
4.382664101569338
 20
7.134686633892159
 30
0.0
 10
4.381529585829302
 20
7.129717704781179
 30
0.0
 10
4.380679636418864
 20
7.124712204234093
 30
0.0
 10
4.380124019413051
 20
7.119704260473022
 30
0.0
 10
4.379907299464178
 20
7.115743996993514
 30
0.0
 10
4.379891009624264
 20
7.113468962536938
 30
0.0
 10
4.379886483341518
 20
7.112836823162858
 30
0.0
  0
SPLINE
  5
59
330
1F
100
AcDbEntity
  8
0
  6
Continuous
 62
     7
370
    15
100
AcDbSpline
210
0.0
220
0.0
230
1.0
 70
     8
 71
     3
 72
    20
 73
    16
 74
     0
 42
0.0000000001
 43
0.0000000001
 40
0.0
 40
0.0
 40
0.0
 40
0.0
 40
0.0443276532493052
 40
0.1281868369745066
 40
0.212092070612191
 40
0.296024304801935
 40
0.379976860680707
 40
0.4639333400662546
 40
0.5478693595268643
 40
0.6317513613782211
 40
0.7155354905940044
 40
0.7991680732583064
 40
0.8825948850912176
 40
0.9657690287506552
 40
0.9999999999999998
 40
0.9999999999999998
 40
0.9999999999999998
 40
0.9999999999999998
 10
4.379886483341519
 20
7.112836823162858
 30
0.0
 10
4.379894854577068
 20
7.111971769372354
 30
0.0
 10
4.379919062540449
 20
7.109470204297529
 30
0.0
 10
4.380187185615309
 20
7.105398913688619
 30
0.0
 10
4.380786746603561
 20
7.100688748631539
 30
0.0
 10
4.381684007998623
 20
7.096133380394833
 30
0.0
 10
4.382868896738696
 20
7.091762442840513
 30
0.0
 10
4.384335814572123
 20
7.08760563085088
 30
0.0
 10
4.386075835826633
 20
7.083691657773984
 30
0.0
 10
4.3880778337277
 20
7.080047231100514
 30
0.0
 10
4.390329669292516
 20
7.076700341201024
 30
0.0
 10
4.392812089320657
 20
7.073666816383024
 30
0.0
 10
4.395520980275406
 20
7.07099789900926
 30
0.0
 10
4.39782717021142
 20
7.069070385240313
 30
0.0
 10
4.39928570917916
 20
7.068172853476657
 30
0.0
 10
4.399710964974103
 20
7.067911166547419
 30
0.0
  0
SPLINE
  5
5A
330
1F
100
AcDbEntity
  8
0
  6
Continuous
 62
     7
370
    15
100
AcDbSpline
210
0.0
220
0.0
230
1.0
 70
     8
 71
     3
 72
    42
 73
    38
 74
     0
 42
0.0000000001
 43
0.0000000001
 40
0.0
 40
0.0
 40
0.0
 40
0.0
 40
0.00709232191771
 40
0.0367237672610036
 40
0.0664371724655666
 40
0.0962426608491021
 40
0.1261371486707245
 40
0.1561085406966076
 40
0.1861402630195039
 40
0.2162148458148707
 40
0.2463168880491767
 40
0.2764339533496379
 40
0.306556930620707
 40
0.3366789704736211
 40
0.366797031245064
 40
0.3969103529199177
 40
0.4270190177996647
 40
0.4571241802710551
 40
0.4872271762376247
 40
0.5173301949524837
 40
0.5474351678178853
 40
0.5775434658889913
 40
0.6076574621920429
 40
0.6377788779873467
 40
0.6679093234856927
 40
0.6980495819962398
 40
0.7281999329582565
 40
0.7583588921208662
 40
0.7885228603796853
 40
0.8186837310823401
 40
0.848831031288374
 40
0.878950735838195
 40
0.9090249304289198
 40
0.9390341359656895
 40
0.9689597571914864
 40
0.9987882605440242
 40
1.0
 40
1.0
 40
1.0
 40
1.0
 10
5.033680935715109
 20
7.220007482339479
 30
0.0
 10
5.033967991143811
 20
7.220008666430021
 30
0.0
 10
5.035454352997799
 20
7.220014797604836
 30
0.0
 10
5.038180181611835
 20
7.220429322962038
 30
0.0
 10
5.041831309434273
 20
7.22126408197972
 30
0.0
 10
5.045478442450523
 20
7.2225323420952
 30
0.0
 10
5.049093303215218
 20
7.224184150513049
 30
0.0
 10
5.052652582626513
 20
7.226220651324799
 30
0.0
 10
5.056131613659496
 20
7.228625558639347
 30
0.0
 10
5.059506598866552
 20
7.231383198970804
 30
0.0
 10
5.062754476179448
 20
7.234474447219393
 30
0.0
 10
5.065853461157725
 20
7.237877949465084
 30
0.0
 10
5.068782930399881
 20
7.241570245576175
 30
0.0
 10
5.071523623213534
 20
7.245526221535511
 30
0.0
 10
5.07405779600775
 20
7.249719111029248
 30
0.0
 10
5.076369123247984
 20
7.254120897153515
 30
0.0
 10
5.07844272460478
 20
7.258702395741394
 30
0.0
 10
5.080265253599491
 20
7.263433313304119
 30
0.0
 10
5.081824968043932
 20
7.268282490138649
 30
0.0
 10
5.083111692927204
 20
7.273218088771045
 30
0.0
 10
5.084116925705391
 20
7.278207718479989
 30
0.0
 10
5.084834003257391
 20
7.28321866355446
 30
0.0
 10
5.085257845164341
 20
7.288218107603374
 30
0.0
 10
5.085385296162902
 20
7.29317334621736
 30
0.0
 10
5.085214988369282
 20
7.298051912493831
 30
0.0
 10
5.08474731078615
 20
7.302821794099028
 30
0.0
 10
5.08398444140509
 20
7.307451568422621
 30
0.0
 10
5.082930435880815
 20
7.311910498588416
 30
0.0
 10
5.081591201751428
 20
7.316168645773853
 30
0.0
 10
5.079974645407849
 20
7.320197000626126
 30
0.0
 10
5.078090557410489
 20
7.323967418681577
 30
0.0
 10
5.075951570891524
 20
7.327454468331073
 30
0.0
 10
5.073570291433624
 20
7.330629297863612
 30
0.0
 10
5.070970008322722
 20
7.333484210106518
 30
0.0
 10
5.068145526564733
 20
7.335942827279387
 30
0.0
 10
5.066143802042079
 20
7.337478472177467
 30
0.0
 10
5.065045953752868
 20
7.338081387728308
 30
0.0
 10
5.065003096288868
 20
7.338104924160226
 30
0.0
  0
LINE
  5
5B
330
1F
100
AcDbEntity
  8
0
  6
Continuous
 62
     7
370
    15
100
AcDbLine
 10
5.009533197539246
 20
7.224952563830137
 30
0.0
 11
5.024382442824087
 21
7.220974286906453
 31
0.0
  0
LINE
  5
5C
330
1F
100
AcDbEntity
  8
0
  6
Continuous
 62
     7
370
    15
100
AcDbLine
 10
5.056730522404266
 20
7.341716193798537
 30
0.0
 11
5.041881277119425
 21
7.345694470722222
 31
0.0
  0
SPLINE
  5
5D
330
1F
100
AcDbEntity
  8
0
  6
Continuous
 62
     7
370
    15
100
AcDbSpline
210
0.0
220
0.0
230
1.0
 70
     8
 71
     3
 72
    29
 73
    25
 74
     0
 42
0.0000000001
 43
0.0000000001
 40
0.0
 40
0.0
 40
0.0
 40
0.0
 40
0.0376149383273806
 40
0.0842451882930092
 40
0.131015657972635
 40
0.1779304780615891
 40
0.2249762563961028
 40
0.2721291077803603
 40
0.3193616419862618
 40
0.3666475556370595
 40
0.4139657414367147
 40
0.4612992910383142
 40
0.5086351697569872
 40
0.5559665761270268
 40
0.6032910323832026
 40
0.6506077169754328
 40
0.6979178940926169
 40
0.7452238919090682
 40
0.7925281406633432
 40
0.8398341889513362
 40
0.8871441758653698
 40
0.93446166885427
 40
0.9817895762054114
 40
1.0
 40
1.0
 40
1.0
 40
1.0
 10
5.032675125650436
 20
7.346670688706402
 30
0.0
 10
5.031701122659502
 20
7.346618554170919
 30
0.0
 10
5.02951967377196
 20
7.346501789822663
 30
0.0
 10
5.026099401276833
 20
7.345834555071912
 30
0.0
 10
5.022447518690862
 20
7.344764794386501
 30
0.0
 10
5.018814909190815
 20
7.343286665367171
 30
0.0
 10
5.015227231070931
 20
7.341424308760659
 30
0.0
 10
5.011708549185028
 20
7.339185671174446
 30
0.0
 10
5.008283191855485
 20
7.336586818556678
 30
0.0
 10
5.004974493952314
 20
7.333645339714685
 30
0.0
 10
5.001804900546279
 20
7.330381603307349
 30
0.0
 10
4.998795612830109
 20
7.32681807787867
 30
0.0
 10
4.995966459578277
 20
7.322979229387527
 30
0.0
 10
4.993335898093837
 20
7.318891097416939
 30
0.0
 10
4.990920954757513
 20
7.314581080154628
 30
0.0
 10
4.988737102817037
 20
7.310077912916598
 30
0.0
 10
4.986798418251025
 20
7.30541137725133
 30
0.0
 10
4.985117376638179
 20
7.300612279674755
 30
0.0
 10
4.983704863522564
 20
7.295712108391524
 30
0.0
 10
4.982570371367434
 20
7.290743167269768
 30
0.0
 10
4.981720379752053
 20
7.285737667211391
 30
0.0
 10
4.981164787303052
 20
7.280729723692303
 30
0.0
 10
4.980948021568918
 20
7.276769450389364
 30
0.0
 10
4.980931789269453
 20
7.274494430098976
 30
0.0
 10
4.980927278976815
 20
7.273862294936163
 30
0.0
  0
SPLINE
  5
5E
330
1F
100
AcDbEntity
  8
0
  6
Continuous
 62
     7
370
    15
100
AcDbSpline
210
0.0
220
0.0
230
1.0
 70
     8
 71
     3
 72
    20
 73
    16
 74
     0
 42
0.0000000001
 43
0.0000000001
 40
0.0
 40
0.0
 40
0.0
 40
0.0
 40
0.0443276294436422
 40
0.1281868218114982
 40
0.212092025924763
 40
0.2960241150574905
 40
0.3799763350136355
 40
0.4639331645616354
 40
0.5478693797710183
 40
0.6317513521061303
 40
0.7155348687011739
 40
0.7991677439317746
 40
0.8825945264086126
 40
0.9657686408008849
 40
1.0
 40
1.0
 40
1.0
 40
1.0
 10
4.980927278976815
 20
7.273862294936163
 30
0.0
 10
4.980935641142275
 20
7.272997238593092
 30
0.0
 10
4.980959822886871
 20
7.270495665089203
 30
0.0
 10
4.981227992250306
 20
7.266424390034289
 30
0.0
 10
4.98182754147259
 20
7.261714222446488
 30
0.0
 10
4.982724792513888
 20
7.257158858474083
 30
0.0
 10
4.983909610439586
 20
7.252787867851464
 30
0.0
 10
4.985376599192859
 20
7.248631107884706
 30
0.0
 10
4.987116628540625
 20
7.244717131408574
 30
0.0
 10
4.98911863461604
 20
7.241072724672088
 30
0.0
 10
4.991370418704438
 20
7.237725771980393
 30
0.0
 10
4.99385286705861
 20
7.234692294845909
 30
0.0
 10
4.996561754796129
 20
7.232023366253674
 30
0.0
 10
4.99886794577142
 20
7.230095837494204
 30
0.0
 10
5.000326497556901
 20
7.229198322520801
 30
0.0
 10
5.000751760609398
 20
7.228936638320726
 30
0.0
  0
SPLINE
  5
5F
330
1F
100
AcDbEntity
  8
0
  6
Continuous
 62
     7
370
    15
100
AcDbSpline
210
0.0
220
0.0
230
1.0
 70
     8
 71
     3
 72
    42
 73
    38
 74
     0
 42
0.0000000001
 43
0.0000000001
 40
0.0
 40
0.0
 40
0.0
 40
0.0
 40
0.0070923203313261
 40
0.0367237590467693
 40
0.0664371576051494
 40
0.0962429615969588
 40
0.1261368771944227
 40
0.1561086790632496
 40
0.1861405596151585
 40
0.2162147880374723
 40
0.2463169737515281
 40
0.2764341795926181
 40
0.3065571137413785
 40
0.3366787717655387
 40
0.3667971950752876
 40
0.3969104867847534
 40
0.4270190887619229
 40
0.4571238825732297
 40
0.4872271777591532
 40
0.517329965992848
 40
0.5474350985173273
 40
0.5775432854939936
 40
0.6076573167998242
 40
0.6377787190443977
 40
0.667909150521504
 40
0.6980495529535795
 40
0.7281997627151151
 40
0.7583589498595659
 40
0.7885230358656804
 40
0.8186834314222231
 40
0.8488312610012116
 40
0.8789505755959931
 40
0.9090247859068078
 40
0.9390338586610567
 40
0.9689593243559066
 40
0.9987882030354093
 40
1.0
 40
1.0
 40
1.0
 40
1.0
 10
6.218084786370565
 20
6.453448306832002
 30
0.0
 10
6.218371841799368
 20
6.453449490958698
 30
0.0
 10
6.219858203653872
 20
6.453455622320708
 30
0.0
 10
6.222584032254318
 20
6.453870142755918
 30
0.0
 10
6.226235173335284
 20
6.454704926462173
 30
0.0
 10
6.229882296126901
 20
6.455973105026777
 30
0.0
 10
6.233497178222739
 20
6.457624849538663
 30
0.0
 10
6.237056437291845
 20
6.459661446848098
 30
0.0
 10
6.240535498573477
 20
6.462066283888844
 30
0.0
 10
6.24391042981674
 20
6.464824082857451
 30
0.0
 10
6.247158355517508
 20
6.467915197270707
 30
0.0
 10
6.2502573521698
 20
6.471318715814171
 30
0.0
 10
6.253186785869041
 20
6.475011040215095
 30
0.0
 10
6.255927480941275
 20
6.478967012108316
 30
0.0
 10
6.258461619923473
 20
6.483159930492362
 30
0.0
 10
6.260773020138425
 20
6.487561677940511
 30
0.0
 10
6.262846518857155
 20
6.492143217763436
 30
0.0
 10
6.264669125747539
 20
6.496874081016055
 30
0.0
 10
6.266228861345711
 20
6.5017232390385
 30
0.0
 10
6.267515559062395
 20
6.506658856285397
 30
0.0
 10
6.26852082033896
 20
6.511648477284475
 30
0.0
 10
6.269237774383379
 20
6.516659426725204
 30
0.0
 10
6.269661725143397
 20
6.521658876219605
 30
0.0
 10
6.26978910871347
 20
6.526614105744943
 30
0.0
 10
6.269618837293801
 20
6.53149268593495
 30
0.0
 10
6.269151204085063
 20
6.536262592580682
 30
0.0
 10
6.268388257299684
 20
6.540892335284962
 30
0.0
 10
6.267334360684627
 20
6.545351350289716
 30
0.0
 10
6.265995054173649
 20
6.549609438879787
 30
0.0
 10
6.264378466337542
 20
6.55363777295673
 30
0.0
 10
6.26249441886308
 20
6.557408212907581
 30
0.0
 10
6.260355396338216
 20
6.560895231912891
 30
0.0
 10
6.257974186638003
 20
6.564070121085423
 30
0.0
 10
6.255373849170998
 20
6.566924943196561
 30
0.0
 10
6.252549364539694
 20
6.569383515612639
 30
0.0
 10
6.25054778203187
 20
6.570919562119146
 30
0.0
 10
6.249449790687839
 20
6.571522161689316
 30
0.0
 10
6.249406926202765
 20
6.571545686574483
 30
0.0
  0
LINE
  5
60
330
1F
100
AcDbEntity
  8
0
  6
Continuous
 62
     7
370
    15
100
AcDbLine
 10
6.193937048194703
 20
6.458393331801286
 30
0.0
 11
6.208786293479544
 21
6.454415054877601
 31
0.0
  0
LINE
  5
61
330
1F
100
AcDbEntity
  8
0
  6
Continuous
 62
     7
370
    15
100
AcDbLine
 10
6.241134414542841
 20
6.575157029404847
 30
0.0
 11
6.226285169258
 21
6.579135306328533
 31
0.0
  0
SPLINE
  5
62
330
1F
100
AcDbEntity
  8
0
  6
Continuous
 62
     7
370
    15
100
AcDbSpline
210
0.0
220
0.0
230
1.0
 70
     8
 71
     3
 72
    29
 73
    25
 74
     0
 42
0.0000000001
 43
0.0000000001
 40
0.0
 40
0.0
 40
0.0
 40
0.0
 40
0.0376141158216301
 40
0.0842449102943734
 40
0.1310148643947752
 40
0.1779304336986727
 40
0.2249757587534269
 40
0.2721290894633807
 40
0.3193617474756616
 40
0.366647427088892
 40
0.4139657767731296
 40
0.461299190704381
 40
0.5086344634616228
 40
0.5559668660002682
 40
0.6032910112803299
 40
0.6506081063242311
 40
0.6979185197870008
 40
0.7452239377553149
 40
0.7925288608354225
 40
0.8398346796748324
 40
0.8871443664807655
 40
0.9344618884918228
 40
0.9817892817754277
 40
1.0
 40
1.0
 40
1.0
 40
1.0
 10
6.217078955564335
 20
6.580111507642034
 30
0.0
 10
6.216104973108969
 20
6.580059371338581
 30
0.0
 10
6.213923529712301
 20
6.579942600862619
 30
0.0
 10
6.210503278977536
 20
6.57927529134861
 30
0.0
 10
6.206851380798344
 20
6.578205501246356
 30
0.0
 10
6.203218765008748
 20
6.57672754775851
 30
0.0
 10
6.199631084477541
 20
6.574865060352
 30
0.0
 10
6.19611238335489
 20
6.57262651979872
 30
0.0
 10
6.19268702772845
 20
6.570027620582322
 30
0.0
 10
6.189378354646492
 20
6.567086074077946
 30
0.0
 10
6.186208801789049
 20
6.563822288707721
 30
0.0
 10
6.183199422243483
 20
6.560258957064712
 30
0.0
 10
6.180370342260568
 20
6.556419990896512
 30
0.0
 10
6.177739728766506
 20
6.552331923140605
 30
0.0
 10
6.175324849482911
 20
6.548021792822765
 30
0.0
 10
6.173140989173129
 20
6.543518629931066
 30
0.0
 10
6.171202224247959
 20
6.538852141867789
 30
0.0
 10
6.169521181720886
 20
6.534053029603472
 30
0.0
 10
6.168108739655751
 20
6.529152846912591
 30
0.0
 10
6.166974210536372
 20
6.524183911096879
 30
0.0
 10
6.166124259589506
 20
6.519178429062122
 30
0.0
 10
6.16556864831026
 20
6.5141705140175
 30
0.0
 10
6.165351923799335
 20
6.510210259155287
 30
0.0
 10
6.16533563497707
 20
6.507935234363657
 30
0.0
 10
6.165331108890712
 20
6.507303085611107
 30
0.0
  0
SPLINE
  5
63
330
1F
100
AcDbEntity
  8
0
  6
Continuous
 62
     7
370
    15
100
AcDbSpline
210
0.0
220
0.0
230
1.0
 70
     8
 71
     3
 72
    20
 73
    16
 74
     0
 42
0.0000000001
 43
0.0000000001
 40
0.0
 40
0.0
 40
0.0
 40
0.0
 40
0.0443271671205499
 40
0.1281877862525381
 40
0.2120930126740624
 40
0.2960243029739347
 40
0.3799773090255779
 40
0.4639328943481475
 40
0.5478697595836883
 40
0.631751754220883
 40
0.7155358762309216
 40
0.7991680926776607
 40
0.8825952287016599
 40
0.9657687624713627
 40
1.0
 40
1.0
 40
1.0
 40
1.0
 10
6.165331108890712
 20
6.507303085611107
 30
0.0
 10
6.165339480502235
 20
6.506438041344562
 30
0.0
 10
6.165363689997633
 20
6.503936457852042
 30
0.0
 10
6.165631807586361
 20
6.499865147017265
 30
0.0
 10
6.166231365093095
 20
6.495154968975613
 30
0.0
 10
6.167128647412319
 20
6.490599623692902
 30
0.0
 10
6.168313504571472
 20
6.486228691311829
 30
0.0
 10
6.169780464271063
 20
6.482071905189177
 30
0.0
 10
6.171520446331093
 20
6.478157896488085
 30
0.0
 10
6.173522462959942
 20
6.474513469654996
 30
0.0
 10
6.175774285150961
 20
6.471166570539797
 30
0.0
 10
6.17825673302844
 20
6.46813308908913
 30
0.0
 10
6.180965579339035
 20
6.465464112954894
 30
0.0
 10
6.183271816527782
 20
6.463536690117382
 30
0.0
 10
6.184730335891566
 20
6.46263912767214
 30
0.0
 10
6.185155590523295
 20
6.462377428995671
 30
0.0
  0
SPLINE
  5
64
330
1F
100
AcDbEntity
  8
0
  6
Continuous
 62
     7
370
    15
100
AcDbSpline
210
0.0
220
0.0
230
1.0
 70
     8
 71
     3
 72
    42
 73
    38
 74
     0
 42
0.0000000001
 43
0.0000000001
 40
0.0
 40
0.0
 40
0.0
 40
0.0
 40
0.0070919843871074
 40
0.0367234441270254
 40
0.0664368637680335
 40
0.0962423900913381
 40
0.1261369093429356
 40
0.1561085533560853
 40
0.1861399128303637
 40
0.2162145376885437
 40
0.24631706912634
 40
0.2764336364117103
 40
0.3065572826810208
 40
0.3366792231959295
 40
0.3667969293256181
 40
0.3969102424014491
 40
0.4270184954834891
 40
0.4571243339843738
 40
0.4872275009108355
 40
0.5173304342010931
 40
0.5474349225147649
 40
0.5775438795613556
 40
0.6076572022980559
 40
0.6377786395423248
 40
0.6679091069625127
 40
0.6980495307801894
 40
0.728199761934285
 40
0.7583583054299327
 40
0.7885230597761839
 40
0.8186834767325137
 40
0.8488305544508499
 40
0.8789510251624134
 40
0.9090249454648883
 40
0.9390345342908506
 40
0.9689598301765986
 40
0.9987888584631466
 40
1.0
 40
1.0
 40
1.0
 40
1.0
 10
5.829177396655881
 20
5.12086504194421
 30
0.0
 10
5.829464438284854
 20
5.120866222100597
 30
0.0
 10
5.830950786343215
 20
5.120872333141575
 30
0.0
 10
5.833676600106142
 20
5.121286888504563
 30
0.0
 10
5.837327733531894
 20
5.122121588353754
 30
0.0
 10
5.8409748506966
 20
5.12339004447128
 30
0.0
 10
5.844589770995952
 20
5.125041467547112
 30
0.0
 10
5.848148981476052
 20
5.127078344316403
 30
0.0
 10
5.851628047628361
 20
5.129483043291796
 30
0.0
 10
5.85500308180148
 20
5.132240596930133
 30
0.0
 10
5.858250846075467
 20
5.13533209692408
 30
0.0
 10
5.861349953101105
 20
5.138735427004954
 30
0.0
 10
5.864279323249755
 20
5.14242788967662
 30
0.0
 10
5.86702006240746
 20
5.146383809479755
 30
0.0
 10
5.869554221808828
 20
5.150576680414671
 30
0.0
 10
5.871865545072127
 20
5.154978406341435
 30
0.0
 10
5.873939218009059
 20
5.159559876041027
 30
0.0
 10
5.875761644144225
 20
5.164290874592682
 30
0.0
 10
5.877321380542598
 20
5.169140080889453
 30
0.0
 10
5.878608126441497
 20
5.174075648398414
 30
0.0
 10
5.879613393973233
 20
5.179065278713177
 30
0.0
 10
5.880330399157974
 20
5.184076195324632
 30
0.0
 10
5.880754263463066
 20
5.189075635437943
 30
0.0
 10
5.880881752430584
 20
5.194030849217168
 30
0.0
 10
5.880711386895131
 20
5.198909403842674
 30
0.0
 10
5.880243775098632
 20
5.203679316067566
 30
0.0
 10
5.879480842156683
 20
5.208309032617048
 30
0.0
 10
5.878426894504135
 20
5.212768012252913
 30
0.0
 10
5.877087642710615
 20
5.217026138613134
 30
0.0
 10
5.8754710595487
 20
5.221054475982176
 30
0.0
 10
5.873586946893814
 20
5.22482486251738
 30
0.0
 10
5.871448105593701
 20
5.228312110730263
 30
0.0
 10
5.869066670396479
 20
5.231486773872562
 30
0.0
 10
5.866466519616476
 20
5.234341913085303
 30
0.0
 10
5.863641723907706
 20
5.236799899312271
 30
0.0
 10
5.861640605606909
 20
5.238336897289572
 30
0.0
 10
5.860542387341207
 20
5.238938931213041
 30
0.0
 10
5.860499536488081
 20
5.23896242168669
 30
0.0
  0
LINE
  5
65
330
1F
100
AcDbEntity
  8
0
  6
Continuous
 62
     7
370
    15
100
AcDbLine
 10
5.8050296169969
 20
5.125810055799709
 30
0.0
 11
5.819878862281742
 21
5.121831778876023
 31
0.0
  0
LINE
  5
66
330
1F
100
AcDbEntity
  8
0
  6
Continuous
 62
     7
370
    15
100
AcDbLine
 10
5.852226983345039
 20
5.242573753403269
 30
0.0
 11
5.837377738060197
 21
5.246552030326955
 31
0.0
  0
SPLINE
  5
67
330
1F
100
AcDbEntity
  8
0
  6
Continuous
 62
     7
370
    15
100
AcDbSpline
210
0.0
220
0.0
230
1.0
 70
     8
 71
     3
 72
    29
 73
    25
 74
     0
 42
0.0000000001
 43
0.0000000001
 40
0.0
 40
0.0
 40
0.0
 40
0.0
 40
0.0376151618177023
 40
0.084245427054768
 40
0.1310158841031008
 40
0.1779304513792665
 40
0.2249760600856377
 40
0.2721294155104804
 40
0.3193612731452018
 40
0.3666478654000009
 40
0.4139656338418966
 40
0.4612991706601322
 40
0.5086359337285616
 40
0.555966754284145
 40
0.6032907687583798
 40
0.6506074939959984
 40
0.6979175740850222
 40
0.7452239147873679
 40
0.7925280067142277
 40
0.8398348176176957
 40
0.8871434042778481
 40
0.9344619603217685
 40
0.9817903979867075
 40
0.9999999999999998
 40
0.9999999999999998
 40
0.9999999999999998
 40
0.9999999999999998
 10
5.828171565849649
 20
5.247528242754242
 30
0.0
 10
5.827197555515857
 20
5.247476090243988
 30
0.0
 10
5.825016096961355
 20
5.247359286001069
 30
0.0
 10
5.821595823434956
 20
5.246692149815418
 30
0.0
 10
5.817943940716301
 20
5.245622391112484
 30
0.0
 10
5.814311357872566
 20
5.244144158315106
 30
0.0
 10
5.810723629541578
 20
5.24228205180578
 30
0.0
 10
5.807205056615567
 20
5.240042987696038
 30
0.0
 10
5.803779558017539
 20
5.237444560975219
 30
0.0
 10
5.800470991798489
 20
5.234502745804214
 30
0.0
 10
5.797301318763845
 20
5.231239182226883
 30
0.0
 10
5.794292027094206
 20
5.227675615081408
 30
0.0
 10
5.791462917111097
 20
5.223836691835645
 30
0.0
 10
5.788832347743216
 20
5.219748581969531
 30
0.0
 10
5.786417340958498
 20
5.215438662500609
 30
0.0
 10
5.784233570081644
 20
5.210935454657755
 30
0.0
 10
5.78229480474981
 20
5.206268953592508
 30
0.0
 10
5.780613848656695
 20
5.201469811812956
 30
0.0
 10
5.77920125390317
 20
5.196569631133495
 30
0.0
 10
5.778066819081678
 20
5.19160070430495
 30
0.0
 10
5.777216799007559
 20
5.186595191530158
 30
0.0
 10
5.776661233425113
 20
5.181587239660783
 30
0.0
 10
5.776444463549857
 20
5.177626939146493
 30
0.0
 10
5.77642822971249
 20
5.175351927710717
 30
0.0
 10
5.776423719176028
 20
5.174719820723317
 30
0.0
  0
SPLINE
  5
68
330
1F
100
AcDbEntity
  8
0
  6
Continuous
 62
     7
370
    15
100
AcDbSpline
210
0.0
220
0.0
230
1.0
 70
     8
 71
     3
 72
    20
 73
    16
 74
     0
 42
0.0000000001
 43
0.0000000001
 40
0.0
 40
0.0
 40
0.0
 40
0.0
 40
0.0443291235313742
 40
0.128186054378683
 40
0.2120913632399698
 40
0.2960225049587677
 40
0.3799752871168498
 40
0.4639331083183114
 40
0.5478705065909038
 40
0.631752583645035
 40
0.7155346681085579
 40
0.7991669667268181
 40
0.8825941847208396
 40
0.9657690056923012
 40
1.0
 40
1.0
 40
1.0
 40
1.0
 10
5.776423719176028
 20
5.174719820723317
 30
0.0
 10
5.776432071406047
 20
5.173854733312131
 30
0.0
 10
5.776456223460638
 20
5.171353169259008
 30
0.0
 10
5.776724451769139
 20
5.167281932455582
 30
0.0
 10
5.777323978138803
 20
5.162571825039612
 30
0.0
 10
5.778221216633637
 20
5.158016463477431
 30
0.0
 10
5.77940603599148
 20
5.153645469170224
 30
0.0
 10
5.78087301365544
 20
5.14948864742475
 30
0.0
 10
5.782613065469495
 20
5.145574651075278
 30
0.0
 10
5.784615046633009
 20
5.141930224261704
 30
0.0
 10
5.786866882886719
 20
5.138583392735444
 30
0.0
 10
5.789349292115784
 20
5.135549907632857
 30
0.0
 10
5.792058191999716
 20
5.132881000123179
 30
0.0
 10
5.794364325028887
 20
5.130953332141872
 30
0.0
 10
5.79582292846697
 20
5.130055926053131
 30
0.0
 10
5.796248200808611
 20
5.129794277150627
 30
0.0
  0
SPLINE
  5
69
330
1F
100
AcDbEntity
  8
0
  6
Continuous
 62
     7
370
    15
100
AcDbSpline
210
0.0
220
0.0
230
1.0
 70
     8
 71
     3
 72
    42
 73
    38
 74
     0
 42
0.0000000001
 43
0.0000000001
 40
0.0
 40
0.0
 40
0.0
 40
0.0
 40
0.0070919829225336
 40
0.0367234365432253
 40
0.0664368500480814
 40
0.0962422764059681
 40
0.1261369954183321
 40
0.1561086332420035
 40
0.1861399865144718
 40
0.2162146051619069
 40
0.2463171303831954
 40
0.2764336914491592
 40
0.3065565075345145
 40
0.3366784418289071
 40
0.3667971353638741
 40
0.3969104422209706
 40
0.4270186890853213
 40
0.4571245213690151
 40
0.4872276820788377
 40
0.5173306091525044
 40
0.5474350912492642
 40
0.57754404207802
 40
0.6076573585959839
 40
0.6377787896198406
 40
0.6679092508177515
 40
0.6980496684110952
 40
0.7281998933388323
 40
0.7583590956540004
 40
0.7885231968332965
 40
0.8186836075611642
 40
0.8488312770191036
 40
0.8789506067645456
 40
0.909025053767902
 40
0.9390341416173574
 40
0.9689598844970552
 40
0.9987884982690308
 40
1.0
 40
1.0
 40
1.0
 40
1.0
 10
5.829177396655881
 20
5.939792159964671
 30
0.0
 10
5.829464438270791
 20
5.939793340338255
 30
0.0
 10
5.830950786256337
 20
5.939799452503902
 30
0.0
 10
5.833676601933936
 20
5.940213978294209
 30
0.0
 10
5.837327723087654
 20
5.941048807469742
 30
0.0
 10
5.840974876138303
 20
5.942316781227943
 30
0.0
 10
5.844589752562233
 20
5.943968681962719
 30
0.0
 10
5.848148984112948
 20
5.946005435372654
 30
0.0
 10
5.851628047394229
 20
5.94841016779426
 30
0.0
 10
5.855003080091448
 20
5.951167716054515
 30
0.0
 10
5.858250853158296
 20
5.954259204023577
 30
0.0
 10
5.861349898201511
 20
5.957662556588115
 30
0.0
 10
5.864279370074919
 20
5.961354779528374
 30
0.0
 10
5.867020114394462
 20
5.965310726013685
 30
0.0
 10
5.869554167201519
 20
5.969503779601137
 30
0.0
 10
5.871865552890329
 20
5.97390551643808
 30
0.0
 10
5.873939215914487
 20
5.978486996184321
 30
0.0
 10
5.875761644705467
 20
5.983217992044457
 30
0.0
 10
5.877321380391934
 20
5.988067199062099
 30
0.0
 10
5.878608126482943
 20
5.993002766378793
 30
0.0
 10
5.879613393958119
 20
5.997992396741782
 30
0.0
 10
5.880330399176982
 20
6.003003313352614
 30
0.0
 10
5.880754263402136
 20
6.008002753420169
 30
0.0
 10
5.880881752655389
 20
6.012957967383108
 30
0.0
 10
5.880711386056481
 20
6.017836521319222
 30
0.0
 10
5.880243778229877
 20
6.022606436119131
 30
0.0
 10
5.879480824855572
 20
6.027236177094673
 30
0.0
 10
5.878426929126796
 20
6.031695191624745
 30
0.0
 10
5.877087625662977
 20
6.035953283843661
 30
0.0
 10
5.875471027886749
 20
6.039981596078449
 30
0.0
 10
5.873587034049476
 20
6.043752081946831
 30
0.0
 10
5.871448006796449
 20
6.047239101868686
 30
0.0
 10
5.869066754294128
 20
6.050413947340063
 30
0.0
 10
5.866466410441807
 20
6.053268784716445
 30
0.0
 10
5.863641932636307
 20
6.055727407521151
 30
0.0
 10
5.861640269639828
 20
6.057263174293128
 30
0.0
 10
5.860542387058267
 20
6.057866010878262
 30
0.0
 10
5.860499536488081
 20
6.057889539707152
 30
0.0
  0
LINE
  5
6A
330
1F
100
AcDbEntity
  8
0
  6
Continuous
 62
     7
370
    15
100
AcDbLine
 10
5.8050296169969
 20
5.944737173820169
 30
0.0
 11
5.819878862281742
 21
5.940758896896485
 31
0.0
  0
LINE
  5
6B
330
1F
100
AcDbEntity
  8
0
  6
Continuous
 62
     7
370
    15
100
AcDbLine
 10
5.852226983345039
 20
6.06150087142373
 30
0.0
 11
5.837377738060197
 21
6.065479148347415
 31
0.0
  0
SPLINE
  5
6C
330
1F
100
AcDbEntity
  8
0
  6
Continuous
 62
     7
370
    15
100
AcDbSpline
210
0.0
220
0.0
230
1.0
 70
     8
 71
     3
 72
    29
 73
    25
 74
     0
 42
0.0000000001
 43
0.0000000001
 40
0.0
 40
0.0
 40
0.0
 40
0.0
 40
0.0376151729193508
 40
0.0842453961953686
 40
0.1310158670474217
 40
0.1779303264577941
 40
0.2249761582821877
 40
0.2721289370292449
 40
0.3193615672554327
 40
0.3666477125446624
 40
0.4139654949518106
 40
0.4612990457399526
 40
0.5086351373112979
 40
0.5559667237989433
 40
0.6032915657494437
 40
0.6506074352464037
 40
0.6979184494539485
 40
0.7452238395933662
 40
0.7925279454814419
 40
0.8398347703469287
 40
0.8871433709696237
 40
0.934461940979029
 40
0.9817903926123694
 40
0.9999999999999998
 40
0.9999999999999998
 40
0.9999999999999998
 40
0.9999999999999998
 10
5.828171565849649
 20
6.066455360774702
 30
0.0
 10
5.827197555979275
 20
6.066403216730678
 30
0.0
 10
5.825016099905583
 20
6.066286431526539
 30
0.0
 10
5.821595818621114
 20
6.065619127301851
 30
0.0
 10
5.817943950860728
 20
6.064549351945268
 30
0.0
 10
5.814311334103581
 20
6.063071372246939
 30
0.0
 10
5.810723678707039
 20
6.061208927459062
 30
0.0
 10
5.80720498241025
 20
6.058970356908397
 30
0.0
 10
5.803779623390163
 20
6.056371468783838
 30
0.0
 10
5.800470964035307
 20
6.053429907254689
 30
0.0
 10
5.797301319151403
 20
6.050166291727889
 30
0.0
 10
5.794292057559165
 20
6.046602730312455
 30
0.0
 10
5.791462864871446
 20
6.042763915746439
 30
0.0
 10
5.788832345311638
 20
6.038675693377635
 30
0.0
 10
5.786417397242322
 20
6.03436569808163
 30
0.0
 10
5.784233509646602
 20
6.029862537875249
 30
0.0
 10
5.782294859903304
 20
6.025196003923556
 30
0.0
 10
5.780613820833057
 20
6.020396905617107
 30
0.0
 10
5.779201258786327
 20
6.015496746718897
 30
0.0
 10
5.77806681777299
 20
6.010527822978007
 30
0.0
 10
5.777216799358953
 20
6.00552230937539
 30
0.0
 10
5.776661233328518
 20
6.000514357729413
 30
0.0
 10
5.776444463557774
 20
5.996554057163008
 30
0.0
 10
5.776428229714211
 20
5.99427904573032
 30
0.0
 10
5.776423719176028
 20
5.993646938743777
 30
0.0
  0
SPLINE
  5
6D
330
1F
100
AcDbEntity
  8
0
  6
Continuous
 62
     7
370
    15
100
AcDbSpline
210
0.0
220
0.0
230
1.0
 70
     8
 71
     3
 72
    20
 73
    16
 74
     0
 42
0.0000000001
 43
0.0000000001
 40
0.0
 40
0.0
 40
0.0
 40
0.0
 40
0.0443290143644194
 40
0.1281857387017623
 40
0.2120908409339454
 40
0.2960255226541691
 40
0.3799744389213243
 40
0.4639320533643629
 40
0.5478692449288266
 40
0.6317511154110658
 40
0.7155329935489432
 40
0.7991679584397411
 40
0.8825923200983844
 40
0.9657669362396756
 40
0.9999999999999998
 40
0.9999999999999998
 40
0.9999999999999998
 40
0.9999999999999998
 10
5.776423719176028
 20
5.993646938743777
 30
0.0
 10
5.776432071583986
 20
5.99278185143983
 30
0.0
 10
5.776456224153119
 20
5.990280287696807
 30
0.0
 10
5.776724445927515
 20
5.986209046955486
 30
0.0
 10
5.777324008535949
 20
5.981498885886341
 30
0.0
 10
5.778221152431236
 20
5.976943465032378
 30
0.0
 10
5.779406078655071
 20
5.972572541251786
 30
0.0
 10
5.780873007230368
 20
5.968415760550667
 30
0.0
 10
5.782613069821714
 20
5.964501774217239
 30
0.0
 10
5.784615035657931
 20
5.960857326706341
 30
0.0
 10
5.786866948097481
 20
5.957510529574172
 30
0.0
 10
5.78934917756709
 20
5.95447677788582
 30
0.0
 10
5.792058241517903
 20
5.951808110767112
 30
0.0
 10
5.794364404008234
 20
5.949880550969218
 30
0.0
 10
5.795822931620255
 20
5.948982900814059
 30
0.0
 10
5.796248200808611
 20
5.94872116908559
 30
0.0
  0
SPLINE
  5
6E
330
1F
100
AcDbEntity
  8
0
  6
Continuous
 62
     7
370
    15
100
AcDbSpline
210
0.0
220
0.0
230
1.0
 70
     8
 71
     3
 72
    42
 73
    38
 74
     0
 42
0.0000000001
 43
0.0000000001
 40
0.0
 40
0.0
 40
0.0
 40
0.0
 40
0.0070923178837539
 40
0.0367237463733355
 40
0.0664371346775695
 40
0.0962429752959072
 40
0.1261369835542214
 40
0.1561086168094234
 40
0.1861406995025193
 40
0.2162146522366044
 40
0.2463168275623431
 40
0.2764343883882268
 40
0.3065569001616629
 40
0.336678547790786
 40
0.3667964639024438
 40
0.3969097452197596
 40
0.4270189053836761
 40
0.4571236888057657
 40
0.487226973602989
 40
0.5173297514481588
 40
0.5474355391552345
 40
0.5775430366064994
 40
0.6076577457159026
 40
0.6377791375655272
 40
0.6679095586445687
 40
0.6980499506751383
 40
0.7282001500317836
 40
0.7583586617212145
 40
0.7885220903826584
 40
0.8186837246003614
 40
0.8488309458139541
 40
0.8789502500145072
 40
0.909023917031704
 40
0.9390334742085423
 40
0.9689593827626998
 40
0.9987878428083577
 40
0.9999999999999998
 40
0.9999999999999998
 40
0.9999999999999998
 40
0.9999999999999998
 10
6.218084786370565
 20
5.634521075768792
 30
0.0
 10
6.218371841799751
 20
5.634522259838725
 30
0.0
 10
6.219858203656235
 20
5.63452839090682
 30
0.0
 10
6.222584032204598
 20
5.634942919070056
 30
0.0
 10
6.226235175436171
 20
5.635777669189985
 30
0.0
 10
6.22988230347897
 20
5.637045976510522
 30
0.0
 10
6.233497153871184
 20
5.638697916412917
 30
0.0
 10
6.237056471289473
 20
5.640734249677438
 30
0.0
 10
6.240535459624124
 20
5.643139342814839
 30
0.0
 10
6.243910448670437
 20
5.645896936905697
 30
0.0
 10
6.247158382560825
 20
5.648988071810411
 30
0.0
 10
6.250257297840858
 20
5.652391727343151
 30
0.0
 10
6.253186820484632
 20
5.65608390664244
 30
0.0
 10
6.255927447023005
 20
5.660039895271739
 30
0.0
 10
6.258461645895674
 20
5.664232707572342
 30
0.0
 10
6.260773044022569
 20
5.668634470155936
 30
0.0
 10
6.262846493618461
 20
5.673216078698537
 30
0.0
 10
6.264669130039509
 20
5.677946960593494
 30
0.0
 10
6.266228857941101
 20
5.682796121889293
 30
0.0
 10
6.267515577871977
 20
5.687731773556198
 30
0.0
 10
6.268520792651184
 20
5.692721398944451
 30
0.0
 10
6.269237794845102
 20
5.697732384463523
 30
0.0
 10
6.269661717528336
 20
5.702731833117238
 30
0.0
 10
6.269789110422573
 20
5.707687100841931
 30
0.0
 10
6.26961883710501
 20
5.712565681045921
 30
0.0
 10
6.269151203129826
 20
5.717335587173294
 30
0.0
 10
6.268388266921083
 20
5.721965297897039
 30
0.0
 10
6.267334369686677
 20
5.726424242410248
 30
0.0
 10
6.265994986532555
 20
5.730682262204864
 30
0.0
 10
6.264378543803885
 20
5.734710727497523
 30
0.0
 10
6.262494380511512
 20
5.73848109353456
 30
0.0
 10
6.260355430273258
 20
5.74196811724894
 30
0.0
 10
6.257974141470585
 20
5.745142912732996
 30
0.0
 10
6.255373812468717
 20
5.74799772584191
 30
0.0
 10
6.252549561550244
 20
5.750456883263985
 30
0.0
 10
6.250547446210562
 20
5.751991716917784
 30
0.0
 10
6.249449790407601
 20
5.752595118360491
 30
0.0
 10
6.249406926202765
 20
5.752618681596771
 30
0.0
  0
LINE
  5
6F
330
1F
100
AcDbEntity
  8
0
  6
Continuous
 62
     7
370
    15
100
AcDbLine
 10
6.193937048194703
 20
5.639466326823574
 30
0.0
 11
6.208786293479544
 21
5.63548804989989
 31
0.0
  0
LINE
  5
70
330
1F
100
AcDbEntity
  8
0
  6
Continuous
 62
     7
370
    15
100
AcDbLine
 10
6.241134414542841
 20
5.756229798341637
 30
0.0
 11
6.226285169258
 21
5.760208075265322
 31
0.0
  0
SPLINE
  5
71
330
1F
100
AcDbEntity
  8
0
  6
Continuous
 62
     7
370
    15
100
AcDbSpline
210
0.0
220
0.0
230
1.0
 70
     8
 71
     3
 72
    29
 73
    25
 74
     0
 42
0.0000000001
 43
0.0000000001
 40
0.0
 40
0.0
 40
0.0
 40
0.0
 40
0.0376141555030487
 40
0.0842450548922875
 40
0.1310150583331586
 40
0.177930798840582
 40
0.2249759642904957
 40
0.2721293447453661
 40
0.3193620525862509
 40
0.3666473211774371
 40
0.4139662602410822
 40
0.4613003385616687
 40
0.5086349757895842
 40
0.5559666763103892
 40
0.6032916850496234
 40
0.6506088300112062
 40
0.6979192933846088
 40
0.7452257257846782
 40
0.79252969625551
 40
0.8398345311462895
 40
0.8871453262170671
 40
0.9344618223107435
 40
0.9817903517162386
 40
1.0
 40
1.0
 40
1.0
 40
1.0
 10
6.217078955564335
 20
5.761184276578823
 30
0.0
 10
6.216104972671931
 20
5.761132131701947
 30
0.0
 10
6.213923526853535
 20
5.761015341946706
 30
0.0
 10
6.210503283351753
 20
5.760348202614966
 30
0.0
 10
6.206851372298235
 20
5.759278420650485
 30
0.0
 10
6.203218782615322
 20
5.757800245968663
 30
0.0
 10
6.199631073416925
 20
5.755937985087385
 30
0.0
 10
6.196112381467624
 20
5.753699398288969
 30
0.0
 10
6.192687052322921
 20
5.751100478704144
 30
0.0
 10
6.189378311382329
 20
5.748159097480078
 30
0.0
 10
6.18620879943933
 20
5.74489516189923
 30
0.0
 10
6.183199468751242
 20
5.741331729655632
 30
0.0
 10
6.180370345395805
 20
5.737492878047042
 30
0.0
 10
6.177739675572407
 20
5.733404896872225
 30
0.0
 10
6.175324879480191
 20
5.729094683404245
 30
0.0
 10
6.173140987971383
 20
5.72459151500956
 30
0.0
 10
6.171202198404665
 20
5.719924996940877
 30
0.0
 10
6.169521223489713
 20
5.715125857482375
 30
0.0
 10
6.168108737376186
 20
5.710225732936886
 30
0.0
 10
6.166974182703963
 20
5.705256833292937
 30
0.0
 10
6.166124283842293
 20
5.70025138611884
 30
0.0
 10
6.165568632109067
 20
5.69524343235927
 30
0.0
 10
6.165351927997051
 20
5.69128321745579
 30
0.0
 10
6.165335635678121
 20
5.689008191836684
 30
0.0
 10
6.165331108890712
 20
5.688376080633395
 30
0.0
  0
SPLINE
  5
72
330
1F
100
AcDbEntity
  8
0
  6
Continuous
 62
     7
370
    15
100
AcDbSpline
210
0.0
220
0.0
230
1.0
 70
     8
 71
     3
 72
    20
 73
    16
 74
     0
 42
0.0000000001
 43
0.0000000001
 40
0.0
 40
0.0
 40
0.0
 40
0.0
 40
0.0443290096636812
 40
0.1281894647362639
 40
0.2120945270111159
 40
0.2960256531133262
 40
0.3799784949248242
 40
0.4639356896852729
 40
0.5478689787584907
 40
0.6317508092944621
 40
0.7155363041234165
 40
0.7991683569575822
 40
0.8825953297702138
 40
0.9657699063020462
 40
1.0
 40
1.0
 40
1.0
 40
1.0
 10
6.165331108890712
 20
5.688376080633395
 30
0.0
 10
6.16533948001151
 20
5.687510998561203
 30
0.0
 10
6.165363687398556
 20
5.685009376967836
 30
0.0
 10
6.165631807284985
 20
5.68093802865714
 30
0.0
 10
6.166231366433563
 20
5.67622785212989
 30
0.0
 10
6.167128642349834
 20
5.671672501311489
 30
0.0
 10
6.168313531830842
 20
5.667301558780676
 30
0.0
 10
6.16978039546388
 20
5.663144724960952
 30
0.0
 10
6.171520497016162
 20
5.659230862911047
 30
0.0
 10
6.173522482882822
 20
5.655586453975337
 30
0.0
 10
6.175774259290074
 20
5.65223945863819
 30
0.0
 10
6.178256729021475
 20
5.649205960642877
 30
0.0
 10
6.180965618927798
 20
5.646537035988409
 30
0.0
 10
6.18327175533683
 20
5.644609405626018
 30
0.0
 10
6.184730332796941
 20
5.643711965476289
 30
0.0
 10
6.185155590523295
 20
5.643450310975209
 30
0.0
  0
LINE
  5
73
330
1F
100
AcDbEntity
  8
0
  6
Continuous
 62
     7
370
    15
100
AcDbLine
 10
6.274669118730948
 20
8.267674457937628
 30
0.0
 11
6.253540770826456
 21
8.273334975848921
 31
0.0
  0
ARC
  5
74
330
1F
100
AcDbEntity
  8
0
  6
Continuous
 62
     7
370
    15
100
AcDbCircle
 10
4.147536945806206
 20
7.601596716959278
 30
0.0
 40
0.0294758881461865
100
AcDbArc
 50
57.98739457519578
 51
93.42426060302257
  0
ARC
  5
75
330
1F
100
AcDbEntity
  8
0
  6
Continuous
 62
     7
370
    15
100
AcDbCircle
 10
4.130469762882987
 20
7.537884764920232
 30
0.0
 40
0.0295531447414936
100
AcDbArc
 50
236.6250699881291
 51
272.5793098120085
  0
ARC
  5
76
330
1F
100
AcDbEntity
  8
0
  6
Continuous
 62
     7
370
    15
100
AcDbCircle
 10
4.115726122356798
 20
7.542033352594971
 30
0.0
 40
0.0297531290847315
100
AcDbArc
 50
236.8778477488596
 51
254.8934918359697
  0
ARC
  5
77
330
1F
100
AcDbEntity
  8
0
  6
Continuous
 62
     7
370
    15
100
AcDbCircle
 10
4.13269110088564
 20
7.605422491625914
 30
0.0
 40
0.0296268997276473
100
AcDbArc
 50
75.07796988164535
 51
92.4384847980411
  0
ARC
  5
78
330
1F
100
AcDbEntity
  8
0
  6
Continuous
 62
     7
370
    15
100
AcDbCircle
 10
4.748577651104024
 20
7.762621852689592
 30
0.0
 40
0.0294762052691884
100
AcDbArc
 50
57.98762040568171
 51
93.42416897548403
  0
ARC
  5
79
330
1F
100
AcDbEntity
  8
0
  6
Continuous
 62
     7
370
    15
100
AcDbCircle
 10
4.731510537776732
 20
7.698910231136672
 30
0.0
 40
0.0295531447415196
100
AcDbArc
 50
236.6250699881437
 51
272.5793098119906
  0
ARC
  5
7A
330
1F
100
AcDbEntity
  8
0
  6
Continuous
 62
     7
370
    15
100
AcDbCircle
 10
4.716767076797781
 20
7.703059469862333
 30
0.0
 40
0.0297538044298926
100
AcDbArc
 50
236.878188031314
 51
254.8934847696899
  0
ARC
  5
7B
330
1F
100
AcDbEntity
  8
0
  6
Continuous
 62
     7
370
    15
100
AcDbCircle
 10
4.733731952072666
 20
7.766449023566079
 30
0.0
 40
0.0296258288766641
100
AcDbArc
 50
75.07765370348038
 51
92.43880097619367
  0
ARC
  5
7C
330
1F
100
AcDbEntity
  8
0
  6
Continuous
 62
     7
370
    15
100
AcDbCircle
 10
4.448057492415056
 20
7.152215861159771
 30
0.0
 40
0.0294754508925226
100
AcDbArc
 50
57.98722807671321
 51
93.42478296305859
  0
ARC
  5
7D
330
1F
100
AcDbEntity
  8
0
  6
Continuous
 62
     7
370
    15
100
AcDbCircle
 10
4.430990576752912
 20
7.088504883509792
 30
0.0
 40
0.0295545464638862
100
AcDbArc
 50
236.6258701676194
 51
272.5783598759506
  0
ARC
  5
7E
330
1F
100
AcDbEntity
  8
0
  6
Continuous
 62
     7
370
    15
100
AcDbCircle
 10
4.416247098770945
 20
7.092653110214397
 30
0.0
 40
0.0297543072805341
100
AcDbArc
 50
236.877973814456
 51
254.8929295445808
  0
ARC
  5
7F
330
1F
100
AcDbEntity
  8
0
  6
Continuous
 62
     7
370
    15
100
AcDbCircle
 10
4.433211576261841
 20
7.156042023603148
 30
0.0
 40
0.0296261002532661
100
AcDbArc
 50
75.07773383199832
 51
92.43872084768701
  0
ARC
  5
80
330
1F
100
AcDbEntity
  8
0
  6
Continuous
 62
     7
370
    15
100
AcDbCircle
 10
5.049098169793676
 20
7.313240973307576
 30
0.0
 40
0.0294758028116587
100
AcDbArc
 50
57.98743219520289
 51
93.4245117435168
  0
ARC
  5
81
330
1F
100
AcDbEntity
  8
0
  6
Continuous
 62
     7
370
    15
100
AcDbCircle
 10
5.0320312938857
 20
7.249530139996156
 30
0.0
 40
0.0295543395446531
100
AcDbArc
 50
236.6257400112513
 51
272.5784900323122
  0
ARC
  5
82
330
1F
100
AcDbEntity
  8
0
  6
Continuous
 62
     7
370
    15
100
AcDbCircle
 10
5.017288053237728
 20
7.253679227542164
 30
0.0
 40
0.0297549826907729
100
AcDbArc
 50
236.8783141025225
 51
254.892922473693
  0
ARC
  5
83
330
1F
100
AcDbEntity
  8
0
  6
Continuous
 62
     7
370
    15
100
AcDbCircle
 10
5.034252368556476
 20
7.317068017086254
 30
0.0
 40
0.0296255648660748
100
AcDbArc
 50
75.07757574848461
 51
92.43887893119557
  0
ARC
  5
84
330
1F
100
AcDbEntity
  8
0
  6
Continuous
 62
     7
370
    15
100
AcDbCircle
 10
6.233502076999215
 20
6.546682122277157
 30
0.0
 40
0.029475449773864
100
AcDbArc
 50
57.98713280641124
 51
93.42470332094739
  0
ARC
  5
85
330
1F
100
AcDbEntity
  8
0
  6
Continuous
 62
     7
370
    15
100
AcDbCircle
 10
6.216435180716203
 20
6.482971183319691
 30
0.0
 40
0.0295546129908498
100
AcDbArc
 50
236.62600523604
 51
272.5783959579019
  0
ARC
  5
86
330
1F
100
AcDbEntity
  8
0
  6
Continuous
 62
     7
370
    15
100
AcDbCircle
 10
6.20169204259351
 20
6.487120240442694
 30
0.0
 40
0.029755255304186
100
AcDbArc
 50
236.8784330696911
 51
254.8927875443287
  0
ARC
  5
87
330
1F
100
AcDbEntity
  8
0
  6
Continuous
 62
     7
370
    15
100
AcDbCircle
 10
6.218655940533528
 20
6.550505064992493
 30
0.0
 40
0.0296293072799583
100
AcDbArc
 50
75.07886364811341
 51
92.43795102098451
  0
ARC
  5
88
330
1F
100
AcDbEntity
  8
0
  6
Continuous
 62
     7
370
    15
100
AcDbCircle
 10
5.844593947983885
 20
5.214096915684595
 30
0.0
 40
0.0294774567010812
100
AcDbArc
 50
57.98797195731435
 51
93.42303031799172
  0
ARC
  5
89
330
1F
100
AcDbEntity
  8
0
  6
Continuous
 62
     7
370
    15
100
AcDbCircle
 10
5.827527264335398
 20
5.150386834631188
 30
0.0
 40
0.0295534502930961
100
AcDbArc
 50
236.6256467443772
 51
272.5794390524735
  0
ARC
  5
8A
330
1F
100
AcDbEntity
  8
0
  6
Continuous
 62
     7
370
    15
100
AcDbCircle
 10
5.812782901602531
 20
5.154532654700594
 30
0.0
 40
0.0297506488970755
100
AcDbArc
 50
236.8764814335246
 51
254.8938033846685
  0
ARC
  5
8B
330
1F
100
AcDbEntity
  8
0
  6
Continuous
 62
     7
370
    15
100
AcDbCircle
 10
5.829749002438283
 20
5.217922571243662
 30
0.0
 40
0.0296284244365271
100
AcDbArc
 50
75.0793955506646
 51
92.43905843370646
  0
ARC
  5
8C
330
1F
100
AcDbEntity
  8
0
  6
Continuous
 62
     7
370
    15
100
AcDbCircle
 10
5.844594639886388
 20
6.033025998410807
 30
0.0
 40
0.0294754239825825
100
AcDbArc
 50
57.98708790331864
 51
93.42461402149897
  0
ARC
  5
8D
330
1F
100
AcDbEntity
  8
0
  6
Continuous
 62
     7
370
    15
100
AcDbCircle
 10
5.827525684939216
 20
5.969308217695819
 30
0.0
 40
0.0295477922849813
100
AcDbArc
 50
236.6220867823252
 51
272.5829990145284
  0
ARC
  5
8E
330
1F
100
AcDbEntity
  8
0
  6
Continuous
 62
     7
370
    15
100
AcDbCircle
 10
5.812782901602565
 20
5.97345977272113
 30
0.0
 40
0.0297506488971572
100
AcDbArc
 50
236.8764814335496
 51
254.8938033846436
  0
ARC
  5
8F
330
1F
100
AcDbEntity
  8
0
  6
Continuous
 62
     7
370
    15
100
AcDbCircle
 10
5.829748659864109
 20
6.03684999875132
 30
0.0
 40
0.0296282135930885
100
AcDbArc
 50
75.07860130816038
 51
92.43841272222923
  0
ARC
  5
90
330
1F
100
AcDbEntity
  8
0
  6
Continuous
 62
     7
370
    15
100
AcDbCircle
 10
6.233501583109709
 20
5.727752427944618
 30
0.0
 40
0.0294779919888119
100
AcDbArc
 50
57.98908983900006
 51
93.42344593880298
  0
ARC
  5
91
330
1F
100
AcDbEntity
  8
0
  6
Continuous
 62
     7
370
    15
100
AcDbCircle
 10
6.216435271381263
 20
5.66404381850637
 30
0.0
 40
0.0295543623692634
100
AcDbArc
 50
236.6254747023539
 51
272.5782418909262
  0
ARC
  5
92
330
1F
100
AcDbEntity
  8
0
  6
Continuous
 62
     7
370
    15
100
AcDbCircle
 10
6.201690150910905
 20
5.668189749371851
 30
0.0
 40
0.0297513966834304
100
AcDbArc
 50
236.8779346988433
 51
254.894554942903
  0
ARC
  5
93
330
1F
100
AcDbEntity
  8
0
  6
Continuous
 62
     7
370
    15
100
AcDbCircle
 10
6.218657004403127
 20
5.731591001584435
 30
0.0
 40
0.0296163097821189
100
AcDbArc
 50
75.07429308688742
 51
92.44108162602001
  0
LINE
  5
94
330
1F
100
AcDbEntity
  8
0
  6
Continuous
 62
     7
370
    15
100
AcDbLine
 10
6.629510239575618
 20
7.12492662367447
 30
0.0
 11
6.297085268569663
 21
7.035866300025587
 31
0.0
  0
LINE
  5
95
330
1F
100
AcDbEntity
  8
0
  6
Continuous
 62
     7
370
    15
100
AcDbLine
 10
5.710271461069234
 20
6.878652395608384
 30
0.0
 11
5.356718074748719
 21
6.783931535988307
 31
0.0
  0
LINE
  5
96
330
1F
100
AcDbEntity
  8
0
  6
Continuous
 62
     7
370
    15
100
AcDbLine
 10
6.629510239575618
 20
4.23459580508443
 30
0.0
 11
6.629510239575618
 21
7.12492662367447
 31
0.0
  0
LINE
  5
97
330
1F
100
AcDbEntity
  8
0
  6
Continuous
 62
     7
370
    15
100
AcDbLine
 10
6.629510239575618
 20
4.23459580508443
 30
0.0
 11
6.062229671102768
 21
4.082615071281466
 31
0.0
  0
LINE
  5
98
330
1F
100
AcDbEntity
  8
0
  6
Continuous
 62
     7
370
    15
100
AcDbLine
 10
6.062229671102768
 20
4.082615071281466
 30
0.0
 11
5.993114190867203
 21
3.8714092174399
 31
0.0
  0
LINE
  5
99
330
1F
100
AcDbEntity
  8
0
  6
Continuous
 62
     7
370
    15
100
AcDbLine
 10
5.993114190867203
 20
3.8714092174399
 30
0.0
 11
5.9202604179147
 21
4.140924013571859
 31
0.0
  0
LINE
  5
9A
330
1F
100
AcDbEntity
  8
0
  6
Continuous
 62
     7
370
    15
100
AcDbLine
 10
5.9202604179147
 20
4.140924013571859
 30
0.0
 11
5.356718074748719
 21
3.989944791642971
 31
0.0
  0
LINE
  5
9B
330
1F
100
AcDbEntity
  8
0
  6
Continuous
 62
     7
370
    15
100
AcDbLine
 10
5.356718074748719
 20
3.989944791642971
 30
0.0
 11
5.356718074748719
 21
6.783931535988307
 31
0.0
  0
LINE
  5
9C
330
1F
100
AcDbEntity
  8
0
  6
Continuous
 62
     7
370
    15
100
AcDbLine
 10
4.083925873624097
 20
4.330939889053698
 30
0.0
 11
5.356718074748719
 21
3.989944791642971
 31
0.0
  0
LINE
  5
9D
330
1F
100
AcDbEntity
  8
0
  6
Continuous
 62
     7
370
    15
100
AcDbLine
 10
4.083925873624097
 20
4.330939889053698
 30
0.0
 11
4.083925873624097
 21
6.442936449543436
 31
0.0
  0
LINE
  5
9E
330
1F
100
AcDbEntity
  8
0
  6
Continuous
 62
     7
370
    15
100
AcDbLine
 10
5.453694327843241
 20
4.015925760340313
 30
0.0
 11
5.993114190867203
 21
3.8714092174399
 31
0.0
  0
LINE
  5
9F
330
1F
100
AcDbEntity
  8
0
  6
Continuous
 62
     7
370
    15
100
AcDbLine
 10
6.629510239575618
 20
7.12492662367447
 30
0.0
 11
6.629510239575618
 21
8.859125160045593
 31
0.0
  0
LINE
  5
A0
330
1F
100
AcDbEntity
  8
0
  6
Continuous
 62
     7
370
    15
100
AcDbLine
 10
3.376819158022354
 20
6.253494734618881
 30
0.0
 11
5.710271461069234
 21
6.878652395608384
 31
0.0
  0
LINE
  5
A1
330
1F
100
AcDbEntity
  8
0
  6
Continuous
 62
     7
370
    15
100
AcDbLine
 10
3.376819158022354
 20
6.253494734618881
 30
0.0
 11
3.376819158022354
 21
7.058347465156547
 31
0.0
  0
LINE
  5
A2
330
1F
100
AcDbEntity
  8
0
  6
Continuous
 62
     7
370
    15
100
AcDbLine
 10
3.376819158022354
 20
7.058347465156547
 30
0.0
 11
3.235397730898691
 21
7.082705639507286
 31
0.0
  0
LINE
  5
A3
330
1F
100
AcDbEntity
  8
0
  6
Continuous
 62
     7
370
    15
100
AcDbLine
 10
3.235397730898691
 20
7.082705639507286
 30
0.0
 11
3.447529788617948
 21
7.287427135397742
 31
0.0
  0
LINE
  5
A4
330
1F
100
AcDbEntity
  8
0
  6
Continuous
 62
     7
370
    15
100
AcDbLine
 10
3.447529788617948
 20
7.287427135397742
 30
0.0
 11
3.447529788617948
 21
8.006637430411011
 31
0.0
  0
LINE
  5
A5
330
1F
100
AcDbEntity
  8
0
  6
Continuous
 62
     7
370
    15
100
AcDbLine
 10
3.447529788617948
 20
8.006637430411011
 30
0.0
 11
6.629510239575618
 21
8.859125160045593
 31
0.0
  0
LINE
  5
A6
330
1F
100
AcDbEntity
  8
0
  6
Continuous
 62
     7
370
    15
100
AcDbLine
 10
1.962605529774069
 20
7.423700736918014
 30
0.0
 11
3.235397730898691
 21
7.082705639507286
 31
0.0
  0
LINE
  5
A7
330
1F
100
AcDbEntity
  8
0
  6
Continuous
 62
     7
370
    15
100
AcDbLine
 10
1.962605529774069
 20
7.423700736918014
 30
0.0
 11
2.174737587493325
 21
7.628422232808468
 31
0.0
  0
LINE
  5
A8
330
1F
100
AcDbEntity
  8
0
  6
Continuous
 62
     7
370
    15
100
AcDbLine
 10
2.174737587493325
 20
7.628422232808468
 30
0.0
 11
3.447529788617948
 21
7.287427135397742
 31
0.0
  0
LINE
  5
A9
330
1F
100
AcDbEntity
  8
0
  6
Continuous
 62
     7
370
    15
100
AcDbLine
 10
2.174737587493325
 20
7.628422232808468
 30
0.0
 11
2.174737587493325
 21
8.347632527821739
 31
0.0
  0
LINE
  5
AA
330
1F
100
AcDbEntity
  8
0
  6
Continuous
 62
     7
370
    15
100
AcDbLine
 10
2.174737587493325
 20
8.347632527821739
 30
0.0
 11
3.447529788617948
 21
8.006637430411011
 31
0.0
  0
LINE
  5
AB
330
1F
100
AcDbEntity
  8
0
  6
Continuous
 62
     7
370
    15
100
AcDbLine
 10
6.629510239575618
 20
8.859125160045593
 30
0.0
 11
5.356718038450996
 21
9.200120257456321
 31
0.0
  0
LINE
  5
AC
330
1F
100
AcDbEntity
  8
0
  6
Continuous
 62
     7
370
    15
100
AcDbLine
 10
2.174737587493325
 20
8.347632527821739
 30
0.0
 11
5.356718038450996
 21
9.200120257456321
 31
0.0
  0
LINE
  5
AD
330
1F
100
AcDbEntity
  8
0
  6
Continuous
 62
     7
370
    15
100
AcDbLine
 10
2.104026956897731
 20
6.594489832029609
 30
0.0
 11
3.376819158022354
 21
6.253494734618881
 31
0.0
  0
LINE
  5
AE
330
1F
100
AcDbEntity
  8
0
  6
Continuous
 62
     7
370
    15
100
AcDbLine
 10
2.104026956897731
 20
6.594489832029609
 30
0.0
 11
2.104026956897731
 21
7.385812405269913
 31
0.0
  0
LINE
  5
AF
330
1F
100
AcDbEntity
  8
0
  6
Continuous
 62
     7
370
    15
100
AcDbLine
 10
4.034343513152141
 20
7.670808464259488
 30
0.0
 11
6.261729870305629
 21
8.267549886117482
 31
0.0
  0
LINE
  5
B0
330
1F
100
AcDbEntity
  8
0
  6
Continuous
 62
     7
370
    15
100
AcDbLine
 10
4.034343513152141
 20
7.670808464259488
 30
0.0
 11
4.01321516524765
 21
7.67646898217078
 31
0.0
  0
LINE
  5
B1
330
1F
100
AcDbEntity
  8
0
  6
Continuous
 62
     7
370
    15
100
AcDbLine
 10
4.01321516524765
 20
7.67646898217078
 30
0.0
 11
6.240601522401139
 21
8.273210404028773
 31
0.0
  0
LWPOLYLINE
  5
B2
330
1F
100
AcDbEntity
  8
0
  6
Continuous
 62
     7
370
    15
100
AcDbPolyline
 90
       17
 70
   128
 43
0.0
 10
5.731399808973724
 20
7.306541511789872
 10
5.731229562254936
 20
7.31121758340157
 10
5.730720481423316
 20
7.315757434424532
 10
5.729877420003742
 20
7.320117261114805
 10
5.728708550170582
 20
7.324255166216048
 10
5.727225113848977
 20
7.328131261840953
 10
5.725441381231733
 20
7.331708223571194
 10
5.723374526329954
 20
7.334951539722943
 10
5.721044461040577
 20
7.337830088626854
 10
5.718473669213887
 20
7.340316037651536
 10
5.715686833305459
 20
7.342385534478729
 10
5.712710875859275
 20
7.344018605174341
 10
5.709574378744059
 20
7.34519950728781
 10
5.706307583153279
 20
7.345916899416238
 10
5.702941974773962
 20
7.346163899630643
 10
5.699509910438626
 20
7.345938041973267
 10
5.696044493675927
 20
7.34524158224447
  0
LINE
  5
B3
330
1F
100
AcDbEntity
  8
0
  6
Continuous
 62
     7
370
    15
100
AcDbLine
 10
5.696044493675927
 20
7.34524158224447
 30
0.0
 11
4.034343513152141
 21
6.900053524664815
 31
0.0
  0
LINE
  5
B4
330
1F
100
AcDbEntity
  8
0
  6
Continuous
 62
     7
370
    15
100
AcDbLine
 10
4.034343513152141
 20
6.900053524664815
 30
0.0
 11
4.034343513152141
 21
7.670808464259488
 31
0.0
  0
LWPOLYLINE
  5
B5
330
1F
100
AcDbEntity
  8
0
  6
Continuous
 62
     7
370
    15
100
AcDbPolyline
 90
       17
 70
   128
 43
0.0
 10
6.261729870305629
 20
8.267549886117482
 10
6.265195287068329
 20
8.268246345846279
 10
6.268627351403663
 20
8.268472175242967
 10
6.271993042749218
 20
8.268225225516822
 10
6.275259838339997
 20
8.26750781925805
 10
6.278396293972097
 20
8.266326891900451
 10
6.2813722929014
 20
8.264693832318625
 10
6.284159128809825
 20
8.262624349621773
 10
6.286729920636516
 20
8.260138372336406
 10
6.289059944442776
 20
8.257259840579397
 10
6.291126799344554
 20
8.254016496166959
 10
6.29291049047868
 20
8.250439537453276
 10
6.294394009766521
 20
8.246563478186288
 10
6.295562838116563
 20
8.2424255761016
 10
6.296405858053018
 20
8.238065710036856
 10
6.296915021850875
 20
8.23352589537181
 10
6.297085268569663
 20
8.228849809629767
  0
LINE
  5
B6
330
1F
100
AcDbEntity
  8
0
  6
Continuous
 62
     7
370
    15
100
AcDbLine
 10
6.297085268569663
 20
8.228849809629767
 30
0.0
 11
6.297085268569663
 21
5.194002201416179
 31
0.0
  0
LINE
  5
B7
330
1F
100
AcDbEntity
  8
0
  6
Continuous
 62
     7
370
    15
100
AcDbLine
 10
6.297085268569663
 20
5.194002201416179
 30
0.0
 11
5.731399808973724
 21
5.042448814910268
 31
0.0
  0
LINE
  5
B8
330
1F
100
AcDbEntity
  8
0
  6
Continuous
 62
     7
370
    15
100
AcDbLine
 10
5.731399808973724
 20
5.042448814910268
 30
0.0
 11
5.731399808973724
 21
7.306541511789872
 31
0.0
  0
LWPOLYLINE
  5
B9
330
1F
100
AcDbEntity
  8
0
  6
Continuous
 62
     7
370
    15
100
AcDbPolyline
 90
       99
 70
   128
 43
0.0
 10
6.014242538771694
 20
5.335096665892575
 10
6.009145756886416
 20
5.33395387591238
 10
6.004069965459155
 20
5.333261193597525
 10
5.999035947532339
 20
5.33302147392879
 10
5.994064444665273
 20
5.333235752089176
 10
5.989175825069195
 20
5.333902928468134
 10
5.984390208056634
 20
5.335020254173905
 10
5.97972729810893
 20
5.336583512663884
 10
5.975206177460646
 20
5.338585833748195
 10
5.970845472032038
 20
5.341019320643321
 10
5.966663144013466
 20
5.343874090061189
 10
5.9626762844498
 20
5.347137764469233
 10
5.958901320656011
 20
5.350797562428816
 10
5.955353767318457
 20
5.354838197143025
 10
5.95204822649489
 20
5.359243232969667
 10
5.948998221681983
 20
5.363994362709624
 10
5.94621632226467
 20
5.369071893119211
 10
5.943713977583692
 20
5.374455378711522
 10
5.941501433969345
 20
5.380122695186876
 10
5.939587817707723
 20
5.386050061660373
 10
5.937980969108245
 20
5.392213578805256
 10
5.93668748398677
 20
5.398587883453693
 10
5.9357127136656
 20
5.405146600767777
 10
5.935060599041002
 20
5.411862751955389
 10
5.934733877998806
 20
5.418709035924608
 10
5.934733877998806
 20
5.425656869372804
 10
5.935060599041002
 20
5.432678217698186
 10
5.9357127136656
 20
5.439743786315824
 10
5.93668748398677
 20
5.446824807114055
 10
5.937980969108245
 20
5.453892189681428
 10
5.939587817707723
 20
5.460916691823263
 10
5.941501433969345
 20
5.4678694161878
 10
5.943713977583692
 20
5.474722036351696
 10
5.94621632226467
 20
5.481446333535235
 10
5.948998221681983
 20
5.488014693228477
 10
5.95204822649489
 20
5.494400082963681
 10
5.955353767318457
 20
5.500576074542883
 10
5.958901320656011
 20
5.506517792835024
 10
5.9626762844498
 20
5.512200073750613
 10
5.966663144013466
 20
5.517600221722847
 10
5.970845472032038
 20
5.522695748852627
 10
5.975206177460646
 20
5.52746579810427
 10
5.97972729810893
 20
5.531890861651073
 10
5.984390208056634
 20
5.535952610358749
 10
5.989175825069195
 20
5.539634175439851
 10
5.994064444665273
 20
5.542920782255127
 10
5.999035947532339
 20
5.545798901540461
 10
6.004069965459155
 20
5.548256293862002
 10
6.009145756886416
 20
5.550283332787811
 10
6.014242538771694
 20
5.551871511199653
 10
6.019339279173853
 20
5.553014290066063
 10
6.024415070601112
 20
5.553706972380918
 10
6.029449130011047
 20
5.553946929248938
 10
6.034420632878114
 20
5.553732651088551
 10
6.039309252474192
 20
5.553065474709595
 10
6.044094828003635
 20
5.551948137890037
 10
6.048757779434458
 20
5.550384890513844
 10
6.053278858599623
 20
5.548382332230249
 10
6.05763956402823
 20
5.545948845335122
 10
6.061821892046801
 20
5.543094302002752
 10
6.065808751610468
 20
5.539830401509211
 10
6.069583715404259
 20
5.536170829635127
 10
6.073131268741812
 20
5.532129968835418
 10
6.076436809565377
 20
5.527725159094273
 10
6.079486814378286
 20
5.522974029354317
 10
6.082268755278716
 20
5.517896283973018
 10
6.084771099959695
 20
5.512512798380706
 10
6.086983643574042
 20
5.506845707990852
 10
6.088897259835664
 20
5.500918341517355
 10
6.090504066952023
 20
5.494754813258685
 10
6.091797593556615
 20
5.488380519724036
 10
6.092772363877787
 20
5.48182180240995
 10
6.093424478502384
 20
5.475105651222338
 10
6.093751199544581
 20
5.468259367253119
 10
6.093751199544581
 20
5.461311533804924
 10
6.093424478502384
 20
5.454290185479541
 10
6.092772363877787
 20
5.447224616861904
 10
6.091797593556615
 20
5.440143596063673
 10
6.090504066952023
 20
5.433076202382514
 10
6.088897259835664
 20
5.426051711354465
 10
6.086983643574042
 20
5.419098986989926
 10
6.084771099959695
 20
5.412246140740533
 10
6.082268755278716
 20
5.405521843556995
 10
6.079486814378286
 20
5.398953698835465
 10
6.076436809565377
 20
5.39256830910026
 10
6.073131268741812
 20
5.386392091435561
 10
6.069583715404259
 20
5.380450599228917
 10
6.065808751610468
 20
5.37476809222783
 10
6.061821892046801
 20
5.369368170341095
 10
6.05763956402823
 20
5.364272417125817
 10
6.053278858599623
 20
5.359502367874173
 10
6.048757779434458
 20
5.355077541526654
 10
6.044094828003635
 20
5.351015781705193
 10
6.039309252474192
 20
5.347334227737878
 10
6.034420632878114
 20
5.344047620922599
 10
6.029449130011047
 20
5.341169501637267
 10
6.024415070601112
 20
5.338711872116442
 10
6.019339279173853
 20
5.336684833190632
 10
6.014242538771694
 20
5.335096665892575
  0
LWPOLYLINE
  5
BA
330
1F
100
AcDbEntity
  8
0
  6
Continuous
 62
     7
370
    15
100
AcDbPolyline
 90
       99
 70
   128
 43
0.0
 10
4.273062765320423
 20
7.240999111888135
 10
4.267966066401381
 20
7.239856344135512
 10
4.262890192007884
 20
7.239163639593085
 10
4.257856215564187
 20
7.238923874516761
 10
4.25288471269712
 20
7.239138011373711
 10
4.247996093101042
 20
7.239805187752669
 10
4.243210517571601
 20
7.240922665875662
 10
4.238547566140778
 20
7.242485828469793
 10
4.234026404009375
 20
7.244488279743754
 10
4.229665781547004
 20
7.246921788866453
 10
4.225483370562196
 20
7.249776338231939
 10
4.221496510998529
 20
7.253040210464793
 10
4.217721547204739
 20
7.256699980163688
 10
4.214173993867185
 20
7.260740629008241
 10
4.21086845304362
 20
7.265145537661791
 10
4.207818448230711
 20
7.269896610880373
 10
4.205036590296518
 20
7.274974336098212
 10
4.20253424561554
 20
7.280357835820868
 10
4.200321702001192
 20
7.286024968601753
 10
4.19840808573957
 20
7.29195249050903
 10
4.196801195656974
 20
7.298115996540128
 10
4.195507752018619
 20
7.304490213389945
 10
4.194532981697448
 20
7.311048916573687
 10
4.19388086707285
 20
7.317765138413016
 10
4.193554146030654
 20
7.324611309339486
 10
4.193554146030654
 20
7.331559284091118
 10
4.19388086707285
 20
7.338580505243408
 10
4.194532981697448
 20
7.345646144512763
 10
4.195507752018619
 20
7.352727151180652
 10
4.196801195656974
 20
7.359794423721833
 10
4.19840808573957
 20
7.366818936977454
 10
4.200321702001192
 20
7.3737718097106
 10
4.20253424561554
 20
7.380624486395869
 10
4.205036590296518
 20
7.38734879064458
 10
4.207818448230711
 20
7.393917096833005
 10
4.21086845304362
 20
7.400302430046835
 10
4.214173993867185
 20
7.406478527603614
 10
4.217721547204739
 20
7.412420026875429
 10
4.221496510998529
 20
7.418102512681
 10
4.225483370562196
 20
7.423502632392546
 10
4.229665781547004
 20
7.428598195880243
 10
4.234026404009375
 20
7.433368237034658
 10
4.238547566140778
 20
7.43779320571767
 10
4.243210517571601
 20
7.44185488782224
 10
4.247996093101042
 20
7.445536583092993
 10
4.25288471269712
 20
7.44882318990827
 10
4.257856215564187
 20
7.451701182020511
 10
4.262890192007884
 20
7.454158736324975
 10
4.267966066401381
 20
7.456185783348013
 10
4.273062765320423
 20
7.457773939532284
 10
4.2781595472057
 20
7.458916729512479
 10
4.283235338632961
 20
7.459609425957676
 10
4.288269398042895
 20
7.459849209728988
 10
4.293240900909961
 20
7.459635058741694
 10
4.298129520506039
 20
7.458967882362737
 10
4.302915096035482
 20
7.457850404239742
 10
4.307578047466305
 20
7.45628723458044
 10
4.31209912663147
 20
7.454284782274422
 10
4.316459832060078
 20
7.451851281248951
 10
4.320642160078649
 20
7.448996723786239
 10
4.324629019642316
 20
7.445732851553384
 10
4.328403983436106
 20
7.442073074789316
 10
4.33195153677366
 20
7.438032433009935
 10
4.335257077597225
 20
7.433627517291213
 10
4.338307082410133
 20
7.428876444072631
 10
4.341088940344326
 20
7.423798718854792
 10
4.343591367991542
 20
7.41841524842488
 10
4.345803828639652
 20
7.412748079286079
 10
4.347717527867511
 20
7.406820586671545
 10
4.349324334983871
 20
7.400657058412876
 10
4.350617861588464
 20
7.394282863790631
 10
4.351592631909634
 20
7.387724160606889
 10
4.352244746534232
 20
7.38100793876756
 10
4.352571467576428
 20
7.374161781971434
 10
4.352571467576428
 20
7.367213807219801
 10
4.352244746534232
 20
7.360192571937168
 10
4.351592631909634
 20
7.353126932667812
 10
4.350617861588464
 20
7.346045925999924
 10
4.349324334983871
 20
7.338978631231173
 10
4.347717527867511
 20
7.331954140203122
 10
4.345803828639652
 20
7.325001238177232
 10
4.343591367991542
 20
7.318148597849878
 10
4.341088940344326
 20
7.311424264308425
 10
4.338307082410133
 20
7.30485595812
 10
4.335257077597225
 20
7.298470624906169
 10
4.33195153677366
 20
7.292294534414561
 10
4.328403983436106
 20
7.286353028077575
 10
4.324629019642316
 20
7.280670549337177
 10
4.320642160078649
 20
7.27527042962563
 10
4.316459832060078
 20
7.270174874235162
 10
4.31209912663147
 20
7.265404824983518
 10
4.307578047466305
 20
7.260979857332563
 10
4.302915096035482
 20
7.256918182293164
 10
4.298129520506039
 20
7.253236487022412
 10
4.293240900909961
 20
7.249949880207133
 10
4.288269398042895
 20
7.247071902225238
 10
4.283235338632961
 20
7.244614329225787
 10
4.2781595472057
 20
7.242587290299977
 10
4.273062765320423
 20
7.240999111888135
  0
LINE
  5
BB
330
1F
100
AcDbEntity
  8
0
  6
Continuous
 62
     7
370
    15
100
AcDbLine
 10
4.034343513152141
 20
6.900053524664815
 30
0.0
 11
4.01321516524765
 21
6.905714042576108
 31
0.0
  0
LINE
  5
BC
330
1F
100
AcDbEntity
  8
0
  6
Continuous
 62
     7
370
    15
100
AcDbLine
 10
4.01321516524765
 20
6.905714042576108
 30
0.0
 11
4.01321516524765
 21
7.67646898217078
 31
0.0
  0
ARC
  5
BD
330
1F
100
AcDbEntity
  8
0
  6
Continuous
 62
     7
370
    15
100
AcDbCircle
 10
4.236547230062821
 20
7.302846340276044
 30
0.0
 40
0.0582555745729348
100
AcDbArc
 50
267.1820753650278
 51
285.3154089259303
  0
LWPOLYLINE
  5
BE
330
1F
100
AcDbEntity
  8
0
  6
Continuous
 62
     7
370
    15
100
AcDbPolyline
 90
       42
 70
   128
 43
0.0
 10
4.291313927084146
 20
7.459772374261774
 10
4.295331484155587
 20
7.457511799160244
 10
4.299513812174158
 20
7.454657241697531
 10
4.303500671737825
 20
7.451393369464677
 10
4.307275635531615
 20
7.447733592700609
 10
4.310823188869169
 20
7.443692950921228
 10
4.314128729692733
 20
7.439288035202507
 10
4.317178734505643
 20
7.434536961983924
 10
4.319960592439836
 20
7.429459236766085
 10
4.322463020087051
 20
7.424075766336173
 10
4.324675480735161
 20
7.418408597197372
 10
4.32658917996302
 20
7.412481104582837
 10
4.32819598707938
 20
7.406317576324169
 10
4.329489513683973
 20
7.399943381701923
 10
4.330464284005143
 20
7.393384678518182
 10
4.331116398629741
 20
7.386668456678853
 10
4.331443119671938
 20
7.379822299882726
 10
4.331443119671938
 20
7.372874325131094
 10
4.331116398629741
 20
7.365853089848461
 10
4.330464284005143
 20
7.358787450579105
 10
4.329489513683973
 20
7.351706443911217
 10
4.32819598707938
 20
7.344639149142464
 10
4.32658917996302
 20
7.337614658114415
 10
4.324675480735161
 20
7.330661756088526
 10
4.322463020087051
 20
7.323809115761171
 10
4.319960592439836
 20
7.317084782219717
 10
4.317178734505643
 20
7.310516476031293
 10
4.314128729692733
 20
7.304131142817462
 10
4.310823188869169
 20
7.297955052325854
 10
4.307275635531615
 20
7.292013545988869
 10
4.303500671737825
 20
7.286331067248468
 10
4.299513812174158
 20
7.280930947536923
 10
4.295331484155587
 20
7.275835392146454
 10
4.290970778726979
 20
7.271065342894811
 10
4.286449699561813
 20
7.266640375243856
 10
4.281786748130992
 20
7.262578700204457
 10
4.277001172601549
 20
7.258897004933705
 10
4.272112553005471
 20
7.255610398118427
 10
4.267141050138405
 20
7.25273242013653
 10
4.26210699072847
 20
7.250274847137079
 10
4.257031199301209
 20
7.24824780821127
 10
4.251934417415932
 20
7.246659629799428
  0
ARC
  5
BF
330
1F
100
AcDbEntity
  8
0
  6
Continuous
 62
     7
370
    15
100
AcDbCircle
 10
5.666399785975198
 20
7.31482168373346
 30
0.0
 40
0.0439498175514485
100
AcDbArc
 50
356.582826789106
 51
44.52339367268701
  0
LINE
  5
C0
330
1F
100
AcDbEntity
  8
0
  6
Continuous
 62
     7
370
    15
100
AcDbLine
 10
5.731399808973724
 20
5.042448814910268
 30
0.0
 11
5.710271461069234
 21
5.04810933282156
 31
0.0
  0
LINE
  5
C1
330
1F
100
AcDbEntity
  8
0
  6
Continuous
 62
     7
370
    15
100
AcDbLine
 10
5.710271461069234
 20
5.04810933282156
 30
0.0
 11
5.710271461069234
 21
7.312202029701166
 31
0.0
  0
ARC
  5
C2
330
1F
100
AcDbEntity
  8
0
  6
Continuous
 62
     7
370
    15
100
AcDbCircle
 10
6.247301778713477
 20
8.249316982869151
 30
0.0
 40
0.0248150964004194
100
AcDbArc
 50
75.438489951416
 51
105.6646991676267
  0
ARC
  5
C3
330
1F
100
AcDbEntity
  8
0
  6
Continuous
 62
     7
370
    15
100
AcDbCircle
 10
5.977728226031712
 20
5.396936842909254
 30
0.0
 40
0.0582484507185925
100
AcDbArc
 50
267.1805264715239
 51
285.3160811430919
  0
LWPOLYLINE
  5
C4
330
1F
100
AcDbEntity
  8
0
  6
Continuous
 62
     7
370
    15
100
AcDbPolyline
 90
       42
 70
   128
 43
0.0
 10
6.032493659052299
 20
5.55387003726035
 10
6.036511216123739
 20
5.551609363246415
 10
6.04069354414231
 20
5.548754819914045
 10
6.044680403705976
 20
5.545490919420503
 10
6.048455367499768
 20
5.541831347546419
 10
6.052002920837321
 20
5.537790486746711
 10
6.055308461660886
 20
5.533385677005567
 10
6.058358466473794
 20
5.528634547265609
 10
6.061140407374226
 20
5.523556801884311
 10
6.063642752055204
 20
5.518173316291999
 10
6.065855295669551
 20
5.512506225902146
 10
6.067768911931174
 20
5.506578859428647
 10
6.069375719047533
 20
5.500415331169978
 10
6.070669245652125
 20
5.494041037635327
 10
6.071644015973295
 20
5.487482320321242
 10
6.072296130597894
 20
5.480766169133631
 10
6.072622851640089
 20
5.473919885164412
 10
6.072622851640089
 20
5.466972051716217
 10
6.072296130597894
 20
5.459950703390834
 10
6.071644015973295
 20
5.452885134773197
 10
6.070669245652125
 20
5.445804113974965
 10
6.069375719047533
 20
5.438736720293807
 10
6.067768911931174
 20
5.431712229265758
 10
6.065855295669551
 20
5.424759504901219
 10
6.063642752055204
 20
5.417906658651825
 10
6.061140407374226
 20
5.411182361468288
 10
6.058358466473794
 20
5.404614216746758
 10
6.055308461660886
 20
5.398228827011553
 10
6.052002920837321
 20
5.392052609346853
 10
6.048455367499768
 20
5.38611111714021
 10
6.044680403705976
 20
5.380428610139123
 10
6.04069354414231
 20
5.375028688252388
 10
6.036511216123739
 20
5.369932935037108
 10
6.032150510695132
 20
5.365162885785466
 10
6.027629431529966
 20
5.360738059437947
 10
6.022966480099143
 20
5.356676299616486
 10
6.018180904569701
 20
5.35299474564917
 10
6.013292284973624
 20
5.349708138833892
 10
6.008320782106557
 20
5.346830019548559
 10
6.003286722696622
 20
5.344372390027734
 10
5.998210931269362
 20
5.342345351101925
 10
5.993114190867203
 20
5.340757183803868
  0
ARC
  5
C5
330
1F
100
AcDbEntity
  8
0
  6
Continuous
 62
     8
370
    15
100
AcDbCircle
 10
4.16296532342258
 20
7.564704620592731
 30
0.0
 40
0.0685068365594609
100
AcDbArc
 50
104.531276292219
 51
185.7332666691979
  0
ARC
  5
C6
330
1F
100
AcDbEntity
  8
0
  6
Continuous
 62
     8
370
    15
100
AcDbCircle
 10
4.14640507953189
 20
7.553745534653427
 30
0.0
 40
0.0517677464720026
100
AcDbArc
 50
175.4402957177527
 51
231.5469699628469
  0
LWPOLYLINE
  5
C7
330
1F
100
AcDbEntity
  8
0
  6
Continuous
 62
     8
370
    15
100
AcDbPolyline
 90
       73
 70
   128
 43
0.0
 10
4.097629629998501
 20
7.557860968930129
 10
4.097792409755939
 20
7.552824417083896
 10
4.098279504534693
 20
7.547913413436369
 10
4.099087263820328
 20
7.543165350922548
 10
4.100209548111286
 20
7.538616369241021
 10
4.101637728918897
 20
7.534301065181904
 10
4.103361020632322
 20
7.530252305995444
 10
4.105366231619841
 20
7.52650087303725
 10
4.107638179060042
 20
7.523075346820657
 10
4.110159523009346
 20
7.520001787019878
 10
4.112911098266952
 20
7.517303588229624
 10
4.11587199734108
 20
7.51500129023752
 10
4.119019570448966
 20
7.513112387264467
 10
4.12232992331429
 20
7.51165127410302
 10
4.125777917167172
 20
7.510629083618437
 10
4.129337251710412
 20
7.510053578270568
 10
4.132980879950673
 20
7.509929151741554
 10
4.136681008198487
 20
7.510256730023424
 10
4.140409593865668
 20
7.511033855327319
 10
4.144138096566612
 20
7.512254566411989
 10
4.147838224814424
 20
7.513909598631944
 10
4.151481853054687
 20
7.515986361709876
 10
4.155041187597927
 20
7.518469037180593
 10
4.158489181450809
 20
7.521338738985086
 10
4.161799534316133
 20
7.524573612382929
 10
4.164947107424019
 20
7.528149054600302
 10
4.167908006498147
 20
7.532037867763246
 10
4.170659581755753
 20
7.536210421396611
 10
4.173180925705056
 20
7.54063497301654
 10
4.175452873145258
 20
7.545277858890113
 10
4.177458084132777
 20
7.550103728218066
 10
4.179181375846201
 20
7.555075865195759
 10
4.180609556653813
 20
7.56015642009972
 10
4.181731840944771
 20
7.565306746511017
 10
4.182539600230406
 20
7.570487624304576
 10
4.183026695009161
 20
7.575659624101173
 10
4.183189474766598
 20
7.580783396939481
 10
4.183026695009161
 20
7.585819948785715
 10
4.182539600230406
 20
7.590730952433243
 10
4.181731840944771
 20
7.595479014947063
 10
4.180609556653813
 20
7.600028003693763
 10
4.179181375846201
 20
7.60434330775288
 10
4.177458084132777
 20
7.608392066939338
 10
4.175452873145258
 20
7.612143492832361
 10
4.173180925705056
 20
7.615569026114125
 10
4.170659581755753
 20
7.618642578849733
 10
4.167908006498147
 20
7.62134078470516
 10
4.164947107424019
 20
7.623643075632092
 10
4.161799534316133
 20
7.625531978605145
 10
4.158489181450809
 20
7.626993095299177
 10
4.155041187597927
 20
7.62801528578376
 10
4.151481853054687
 20
7.628590787599043
 10
4.147838224814424
 20
7.628715217660642
 10
4.144138096566612
 20
7.628387642911358
 10
4.140409593865668
 20
7.627610539835036
 10
4.136681008198487
 20
7.626389806522793
 10
4.132980879950673
 20
7.624734770770253
 10
4.129337251710412
 20
7.622658004159736
 10
4.125777917167172
 20
7.620175332221604
 10
4.12232992331429
 20
7.617305630417111
 10
4.119019570448966
 20
7.614070753486682
 10
4.11587199734108
 20
7.61049531126931
 10
4.112911098266952
 20
7.606606505171537
 10
4.110159523009346
 20
7.602433944473
 10
4.107638179060042
 20
7.598009399918243
 10
4.105366231619841
 20
7.593366506979497
 10
4.103361020632322
 20
7.588540644716716
 10
4.101637728918897
 20
7.583568507739023
 10
4.100209548111286
 20
7.578487952835062
 10
4.099087263820328
 20
7.573337619358593
 10
4.098279504534693
 20
7.568156741565036
 10
4.097792409755939
 20
7.562984741768438
 10
4.097629629998501
 20
7.557860968930129
  0
ARC
  5
C8
330
1F
100
AcDbEntity
  8
0
  6
Continuous
 62
     8
370
    15
100
AcDbCircle
 10
4.131498936055002
 20
7.557712411114411
 30
0.0
 40
0.0517119371139229
100
AcDbArc
 50
175.4226925050398
 51
231.7272194934755
  0
ARC
  5
C9
330
1F
100
AcDbEntity
  8
0
  6
Continuous
 62
     8
370
    15
100
AcDbCircle
 10
4.148321309351751
 20
7.568444049869327
 30
0.0
 40
0.0686876660009033
100
AcDbArc
 50
104.235405329998
 51
185.5179263515832
  0
ARC
  5
CA
330
1F
100
AcDbEntity
  8
0
  6
Continuous
 62
     8
370
    15
100
AcDbCircle
 10
4.764006002763893
 20
7.725730153059873
 30
0.0
 40
0.0685067481033374
100
AcDbArc
 50
104.5312487525896
 51
185.7333297843359
  0
ARC
  5
CB
330
1F
100
AcDbEntity
  8
0
  6
Continuous
 62
     8
370
    15
100
AcDbCircle
 10
4.747445602418983
 20
7.714770891327531
 30
0.0
 40
0.0517675039714923
100
AcDbArc
 50
175.4401526876586
 51
231.5471129929415
  0
LWPOLYLINE
  5
CC
330
1F
100
AcDbEntity
  8
0
  6
Continuous
 62
     8
370
    15
100
AcDbPolyline
 90
       73
 70
   128
 43
0.0
 10
4.698670363409119
 20
7.718886424032756
 10
4.698833143166558
 20
7.713849872186523
 10
4.69932027942843
 20
7.708938879652782
 10
4.700128038714065
 20
7.704190817138962
 10
4.701250323005023
 20
7.699641835457434
 10
4.702678503812634
 20
7.695326531398317
 10
4.704401795526059
 20
7.691277772211857
 10
4.706407006513578
 20
7.687526339253664
 10
4.708678953953779
 20
7.684100813037071
 10
4.711200297903083
 20
7.681027253236291
 10
4.713951873160689
 20
7.678329054446037
 10
4.716912730751698
 20
7.676026745340146
 10
4.720060345342703
 20
7.67413785348088
 10
4.723370739691145
 20
7.67267675143322
 10
4.726818692060909
 20
7.67165454983485
 10
4.730378068087269
 20
7.671079055600768
 10
4.73402165484441
 20
7.670954617957968
 10
4.737721783092224
 20
7.671282196239838
 10
4.741450327276287
 20
7.672059310429947
 10
4.745178829977231
 20
7.673280021514617
 10
4.748878999708161
 20
7.674935064848358
 10
4.752522586465305
 20
7.677011816812503
 10
4.756081921008545
 20
7.679494492283221
 10
4.759529914861428
 20
7.682364194087714
 10
4.76284030920987
 20
7.685599078599342
 10
4.765987882317756
 20
7.689174520816715
 10
4.768948739908766
 20
7.693063322865874
 10
4.771700315166371
 20
7.697235876499238
 10
4.774221659115674
 20
7.701660428119168
 10
4.776493606555876
 20
7.70630331399274
 10
4.778498859026514
 20
7.711129194434479
 10
4.78022210925682
 20
7.716101320298386
 10
4.78165033154755
 20
7.721181886316133
 10
4.782772574355389
 20
7.726332201613645
 10
4.783580333641023
 20
7.731513079407203
 10
4.784067469902897
 20
7.736685090317586
 10
4.784230291143453
 20
7.74180887426968
 10
4.784067469902897
 20
7.746845415002129
 10
4.783580333641023
 20
7.75175640753587
 10
4.782772574355389
 20
7.75650447004969
 10
4.78165033154755
 20
7.761053469910176
 10
4.78022210925682
 20
7.765368762855507
 10
4.778498859026514
 20
7.769417533155752
 10
4.776493606555876
 20
7.773168947934988
 10
4.774221659115674
 20
7.776594481216752
 10
4.771700315166371
 20
7.77966803395236
 10
4.768948739908766
 20
7.782366239807787
 10
4.765987882317756
 20
7.784668541848505
 10
4.76284030920987
 20
7.786557444821558
 10
4.759529914861428
 20
7.788018550401804
 10
4.756081921008545
 20
7.789040740886387
 10
4.752522586465305
 20
7.78961624270167
 10
4.748878999708161
 20
7.789740683877055
 10
4.745178829977231
 20
7.789413098013986
 10
4.741450327276287
 20
7.788635994937664
 10
4.737721783092224
 20
7.787415272739206
 10
4.73402165484441
 20
7.785760236986666
 10
4.730378068087269
 20
7.783683481489934
 10
4.726818692060909
 20
7.781200798438018
 10
4.723370739691145
 20
7.77833110774731
 10
4.720060345342703
 20
7.775096219703096
 10
4.716912730751698
 20
7.771520766371936
 10
4.713951873160689
 20
7.767631971387951
 10
4.711200297903083
 20
7.763459410689414
 10
4.708678953953779
 20
7.759034866134657
 10
4.706407006513578
 20
7.754391973195911
 10
4.704401795526059
 20
7.749566110933129
 10
4.702678503812634
 20
7.744593973955437
 10
4.701250323005023
 20
7.739513419051475
 10
4.700128038714065
 20
7.734363085575006
 10
4.69932027942843
 20
7.729182207781449
 10
4.698833143166558
 20
7.724010196871065
 10
4.698670363409119
 20
7.718886424032756
  0
ARC
  5
CD
330
1F
100
AcDbEntity
  8
0
  6
Continuous
 62
     8
370
    15
100
AcDbCircle
 10
4.73253966843507
 20
7.718737818981547
 30
0.0
 40
0.0517118993924003
100
AcDbArc
 50
175.4226243022517
 51
231.7271879726487
  0
ARC
  5
CE
330
1F
100
AcDbEntity
  8
0
  6
Continuous
 62
     8
370
    15
100
AcDbCircle
 10
4.749362016213617
 20
7.729469563404279
 30
0.0
 40
0.0686876028343193
100
AcDbArc
 50
104.2353958501701
 51
185.5179710962563
  0
ARC
  5
CF
330
1F
100
AcDbEntity
  8
0
  6
Continuous
 62
     8
370
    15
100
AcDbCircle
 10
4.463485617999183
 20
7.115323398550206
 30
0.0
 40
0.0685067505526609
100
AcDbArc
 50
104.5312863800062
 51
185.7333277324517
  0
ARC
  5
D0
330
1F
100
AcDbEntity
  8
0
  6
Continuous
 62
     8
370
    15
100
AcDbCircle
 10
4.446925494846518
 20
7.104364267084207
 30
0.0
 40
0.0517677727786596
100
AcDbArc
 50
175.4403186109372
 51
231.5469536980195
  0
LWPOLYLINE
  5
D1
330
1F
100
AcDbEntity
  8
0
  6
Continuous
 62
     8
370
    15
100
AcDbPolyline
 90
       73
 70
   128
 43
0.0
 10
4.398149934479132
 20
7.10847966060572
 10
4.398312797202807
 20
7.103443152182573
 10
4.398799891981562
 20
7.098532141469874
 10
4.399607651267196
 20
7.093784078956055
 10
4.400729935558155
 20
7.089235104339698
 10
4.402158116365765
 20
7.084919786150237
 10
4.403881408079191
 20
7.080871041094121
 10
4.40588661906671
 20
7.077119586940413
 10
4.408158566506911
 20
7.073694081919335
 10
4.410679910456215
 20
7.070620515053383
 10
4.413431485713821
 20
7.067922323328301
 10
4.416392384787948
 20
7.065620018271024
 10
4.419539957895834
 20
7.063731101167629
 10
4.422850310761159
 20
7.06226999860394
 10
4.426298304614041
 20
7.061247836380045
 10
4.429857639157281
 20
7.06067229217373
 10
4.433501267397542
 20
7.060547876242474
 10
4.437201395645356
 20
7.060875450991757
 10
4.4409298983463
 20
7.061652568198424
 10
4.444658484013481
 20
7.062873287380324
 10
4.448358612261293
 20
7.064528323132864
 10
4.452002240501555
 20
7.066605075613038
 10
4.455561575044795
 20
7.0690877899422
 10
4.459009568897678
 20
7.071957463486006
 10
4.462319921763001
 20
7.07519232628609
 10
4.465467494870888
 20
7.078767782633808
 10
4.468428393945015
 20
7.082656602861923
 10
4.471179969202621
 20
7.086829149430116
 10
4.473701313151924
 20
7.091253708115218
 10
4.475973260592126
 20
7.095896572793274
 10
4.477978471579645
 20
7.100722463316745
 10
4.47970176329307
 20
7.105694586164092
 10
4.481129944100682
 20
7.110775155198399
 10
4.482252228391639
 20
7.115925474544523
 10
4.483059987677274
 20
7.12110635233808
 10
4.483547082456029
 20
7.12627835919985
 10
4.483709862213467
 20
7.131402110842643
 10
4.483547082456029
 20
7.136438669754048
 10
4.483059987677274
 20
7.141349680466748
 10
4.482252228391639
 20
7.146097742980567
 10
4.481129944100682
 20
7.150646717596925
 10
4.47970176329307
 20
7.154962035786386
 10
4.477978471579645
 20
7.159010780842501
 10
4.475973260592126
 20
7.162762234996209
 10
4.473701313151924
 20
7.166187740017287
 10
4.471179969202621
 20
7.169261306883239
 10
4.468428393945015
 20
7.171959498608322
 10
4.465467494870888
 20
7.174261803665598
 10
4.462319921763001
 20
7.176150692508307
 10
4.459009568897678
 20
7.177611823332682
 10
4.455561575044795
 20
7.178634013817265
 10
4.452002240501555
 20
7.179209501502206
 10
4.448358612261293
 20
7.179333945694148
 10
4.444658484013481
 20
7.179006370944864
 10
4.4409298983463
 20
7.178229231510626
 10
4.437201395645356
 20
7.177008534556299
 10
4.433501267397542
 20
7.175353498803758
 10
4.429857639157281
 20
7.173276718062897
 10
4.426298304614041
 20
7.17079406025511
 10
4.422850310761159
 20
7.167924358450616
 10
4.419539957895834
 20
7.164689467389845
 10
4.416392384787948
 20
7.161114039302815
 10
4.413431485713821
 20
7.1572252190747
 10
4.410679910456215
 20
7.153052672506506
 10
4.408158566506911
 20
7.148628113821406
 10
4.40588661906671
 20
7.143985249143348
 10
4.403881408079191
 20
7.139159358619878
 10
4.402158116365765
 20
7.13418723577253
 10
4.400729935558155
 20
7.129106666738224
 10
4.399607651267196
 20
7.123956347392099
 10
4.398799891981562
 20
7.118775469598541
 10
4.398312797202807
 20
7.113603462736772
 10
4.398149934479132
 20
7.10847966060572
  0
ARC
  5
D2
330
1F
100
AcDbEntity
  8
0
  6
Continuous
 62
     8
370
    15
100
AcDbCircle
 10
4.432019282848258
 20
7.108331126517353
 30
0.0
 40
0.0517118964702853
100
AcDbArc
 50
175.4226905668161
 51
231.7272413387555
  0
ARC
  5
D3
330
1F
100
AcDbEntity
  8
0
  6
Continuous
 62
     8
370
    15
100
AcDbCircle
 10
4.448841700502017
 20
7.119062774022519
 30
0.0
 40
0.0686876706727554
100
AcDbArc
 50
104.2354075283874
 51
185.5179345649718
  0
ARC
  5
D4
330
1F
100
AcDbEntity
  8
0
  6
Continuous
 62
     8
370
    15
100
AcDbCircle
 10
5.064526373205027
 20
7.276348858803122
 30
0.0
 40
0.0685067515604378
100
AcDbArc
 50
104.5312512308701
 51
185.7333273060548
  0
ARC
  5
D5
330
1F
100
AcDbEntity
  8
0
  6
Continuous
 62
     8
370
    15
100
AcDbCircle
 10
5.047966098126246
 20
7.265389682160056
 30
0.0
 40
0.0517676260075291
100
AcDbArc
 50
175.4402550443687
 51
231.5470672445869
  0
LWPOLYLINE
  5
D6
330
1F
100
AcDbEntity
  8
0
  6
Continuous
 62
     8
370
    15
100
AcDbPolyline
 90
       73
 70
   128
 43
0.0
 10
4.999190730114429
 20
7.269505132379027
 10
4.999353530613425
 20
7.264468607285202
 10
4.999840666875299
 20
7.259557607686287
 10
5.000648426160933
 20
7.254809545172468
 10
5.001770689710332
 20
7.250260564999218
 10
5.003198891259502
 20
7.24594525236665
 10
5.004922162231368
 20
7.241896501753641
 10
5.006927414702006
 20
7.238145058713719
 10
5.009199341400648
 20
7.234719548135749
 10
5.011720706091511
 20
7.23164598682669
 10
5.014472281349116
 20
7.228947795101608
 10
5.017433118198566
 20
7.226645473373652
 10
5.020580712048012
 20
7.224756561827149
 10
5.023891106396455
 20
7.223295470377247
 10
5.027339100249337
 20
7.222273308153351
 10
5.030898434792577
 20
7.221697763947036
 10
5.034542042291279
 20
7.221573342458888
 10
5.038242170539092
 20
7.221900917208171
 10
5.041970693981595
 20
7.222678039971731
 10
5.045699217424099
 20
7.223898742482951
 10
5.049399366413471
 20
7.225553783792385
 10
5.053042973912173
 20
7.227630530715665
 10
5.056602308455413
 20
7.230113245044828
 10
5.060050302308295
 20
7.232982918588633
 10
5.06336067591518
 20
7.236217786945611
 10
5.066508269764624
 20
7.239793248850221
 10
5.069469127355634
 20
7.243682057964551
 10
5.07222070261324
 20
7.247854604532744
 10
5.074742046562543
 20
7.252279163217845
 10
5.077013994002745
 20
7.256922027895902
 10
5.079019225731823
 20
7.261747923976265
 10
5.080742517445248
 20
7.266720046823612
 10
5.082170718994419
 20
7.271800621414812
 10
5.083292961802258
 20
7.276950929647151
 10
5.084100741829451
 20
7.282131812997602
 10
5.084587878091324
 20
7.287303830973157
 10
5.084750657848762
 20
7.292427582615951
 10
5.084587878091324
 20
7.297464141527355
 10
5.084100741829451
 20
7.302375141126268
 10
5.083292961802258
 20
7.307123198083195
 10
5.082170718994419
 20
7.311672183813339
 10
5.080742517445248
 20
7.315987496445906
 10
5.079019225731823
 20
7.320036241502021
 10
5.077013994002745
 20
7.323787690098837
 10
5.074742046562543
 20
7.327213195119915
 10
5.07222070261324
 20
7.330286761985866
 10
5.069469127355634
 20
7.332984953710949
 10
5.066508269764624
 20
7.335287269882011
 10
5.06336067591518
 20
7.337176153167827
 10
5.060050302308295
 20
7.33863727843531
 10
5.056602308455413
 20
7.339659468919893
 10
5.053042973912173
 20
7.340234956604833
 10
5.049399366413471
 20
7.34035940635367
 10
5.045699217424099
 20
7.340031826047492
 10
5.041970693981595
 20
7.339254703283932
 10
5.038242170539092
 20
7.338034000772712
 10
5.034542042291279
 20
7.336378965020172
 10
5.030898434792577
 20
7.334302189836204
 10
5.027339100249337
 20
7.331819532028416
 10
5.023891106396455
 20
7.328949830223923
 10
5.020580712048012
 20
7.325714928049364
 10
5.017433118198566
 20
7.322139494405442
 10
5.014472281349116
 20
7.318250690848006
 10
5.011720706091511
 20
7.314078144279813
 10
5.009199341400648
 20
7.309653580037819
 10
5.006927414702006
 20
7.305010720916655
 10
5.004922162231368
 20
7.300184819279398
 10
5.003198891259502
 20
7.295212701988943
 10
5.001770689710332
 20
7.290132127397745
 10
5.000648426160933
 20
7.284981813608513
 10
4.999840666875299
 20
7.279800935814955
 10
4.999353530613425
 20
7.2746289178394
 10
4.999190730114429
 20
7.269505132379027
  0
ARC
  5
D7
330
1F
100
AcDbEntity
  8
0
  6
Continuous
 62
     8
370
    15
100
AcDbCircle
 10
5.033060095168623
 20
7.269356592660812
 30
0.0
 40
0.0517119540153082
100
AcDbArc
 50
175.4227017668379
 51
231.7271802769083
  0
ARC
  5
D8
330
1F
100
AcDbEntity
  8
0
  6
Continuous
 62
     8
370
    15
100
AcDbCircle
 10
5.049882435558643
 20
7.280088247846014
 30
0.0
 40
0.0686876529315028
100
AcDbArc
 50
104.235412699319
 51
185.5179470264591
  0
ARC
  5
D9
330
1F
100
AcDbEntity
  8
0
  6
Continuous
 62
     8
370
    15
100
AcDbCircle
 10
6.248930275840758
 20
6.509789638498038
 30
0.0
 40
0.0685067804357497
100
AcDbArc
 50
104.5313078021778
 51
185.7333063102803
  0
ARC
  5
DA
330
1F
100
AcDbEntity
  8
0
  6
Continuous
 62
     8
370
    15
100
AcDbCircle
 10
6.232370056278668
 20
6.498830450349664
 30
0.0
 40
0.0517677151594423
100
AcDbArc
 50
175.4402256084582
 51
231.5469936736757
  0
LWPOLYLINE
  5
DB
330
1F
100
AcDbEntity
  8
0
  6
Continuous
 62
     8
370
    15
100
AcDbPolyline
 90
       73
 70
   128
 43
0.0
 10
6.183594560028326
 20
6.50294592305397
 10
6.183757422752001
 20
6.497909414630823
 10
6.184244517530756
 20
6.492998432178811
 10
6.18505227681639
 20
6.488250341404305
 10
6.186174561107348
 20
6.483701366787948
 10
6.187602741914959
 20
6.479386048598487
 10
6.189326033628384
 20
6.47533721876031
 10
6.191331244615903
 20
6.471585821127976
 10
6.193603192056104
 20
6.468160344367585
 10
6.196124536005408
 20
6.465086777501634
 10
6.198876111263014
 20
6.462388585776551
 10
6.201837010337141
 20
6.460086280719275
 10
6.204984583445028
 20
6.458197307094504
 10
6.208294936310352
 20
6.456736289312877
 10
6.211742930163235
 20
6.455714014046233
 10
6.215302264706473
 20
6.455138582882668
 10
6.218945892946736
 20
6.455014166951412
 10
6.222646021194549
 20
6.455341685179321
 10
6.226374523895493
 20
6.456118802385987
 10
6.230103109562675
 20
6.457339521567887
 10
6.233803237810486
 20
6.458994613841801
 10
6.237446866050748
 20
6.461071366321975
 10
6.241006200593989
 20
6.463553967608389
 10
6.244454111480633
 20
6.466423731967371
 10
6.247764547312195
 20
6.469658532212966
 10
6.250912120420081
 20
6.473234045082057
 10
6.253873019494209
 20
6.477122865310174
 10
6.256624594751815
 20
6.481295411878367
 10
6.259145938701118
 20
6.485719970563468
 10
6.26141788614132
 20
6.490362806980837
 10
6.263423097128839
 20
6.495188640982933
 10
6.265146388842263
 20
6.500160848612343
 10
6.266574569649876
 20
6.505241417646648
 10
6.267696853940833
 20
6.510391736992773
 10
6.268504613226467
 20
6.515572643047019
 10
6.268991708005222
 20
6.520744621648101
 10
6.269154487762659
 20
6.525868373290894
 10
6.268991708005222
 20
6.530904903941611
 10
6.268504613226467
 20
6.535815886393623
 10
6.267696853940833
 20
6.54056397716813
 10
6.266574569649876
 20
6.545112951784488
 10
6.265146388842263
 20
6.549428269973948
 10
6.263423097128839
 20
6.553476986769377
 10
6.26141788614132
 20
6.557228497444461
 10
6.259145938701118
 20
6.56065397420485
 10
6.256624594751815
 20
6.563727541070802
 10
6.253873019494209
 20
6.566425732795885
 10
6.250912120420081
 20
6.568728037853161
 10
6.247764547312195
 20
6.570616898435183
 10
6.244454111480633
 20
6.572078007031985
 10
6.241006200593989
 20
6.573100304526204
 10
6.237446866050748
 20
6.573675735689769
 10
6.233803237810486
 20
6.573800151621023
 10
6.230103109562675
 20
6.573472633393114
 10
6.226374523895493
 20
6.572695493958875
 10
6.222646021194549
 20
6.571474797004549
 10
6.218945892946736
 20
6.569819704730634
 10
6.215302264706473
 20
6.56774295225046
 10
6.211742930163235
 20
6.565260350964047
 10
6.208294936310352
 20
6.562390564377492
 10
6.204984583445028
 20
6.55915567331672
 10
6.201837010337141
 20
6.555580273490378
 10
6.198876111263014
 20
6.551691453262262
 10
6.196124536005408
 20
6.54751890669407
 10
6.193603192056104
 20
6.543094348008968
 10
6.191331244615903
 20
6.538451511591599
 10
6.189326033628384
 20
6.533625564546754
 10
6.187602741914959
 20
6.528653469960093
 10
6.186174561107348
 20
6.523572900925787
 10
6.18505227681639
 20
6.518422581579662
 10
6.184244517530756
 20
6.513241675525417
 10
6.183757422752001
 20
6.508069696924335
 10
6.183594560028326
 20
6.50294592305397
  0
ARC
  5
DC
330
1F
100
AcDbEntity
  8
0
  6
Continuous
 62
     8
370
    15
100
AcDbCircle
 10
6.217463843849217
 20
6.502797309492808
 30
0.0
 40
0.051711838470252
100
AcDbArc
 50
175.4225970857864
 51
231.7272817343344
  0
ARC
  5
DD
330
1F
100
AcDbEntity
  8
0
  6
Continuous
 62
     8
370
    15
100
AcDbCircle
 10
6.23428635790082
 20
6.513529014067112
 30
0.0
 40
0.0686877002205063
100
AcDbArc
 50
104.2354286844233
 51
185.5179134089372
  0
ARC
  5
DE
330
1F
100
AcDbEntity
  8
0
  6
Continuous
 62
     8
370
    15
100
AcDbCircle
 10
5.86002291600973
 20
5.17720641556573
 30
0.0
 40
0.0685068567470609
100
AcDbArc
 50
104.531317078368
 51
185.733344510103
  0
ARC
  5
DF
330
1F
100
AcDbEntity
  8
0
  6
Continuous
 62
     8
370
    15
100
AcDbCircle
 10
5.843463281859302
 20
5.166247459836381
 30
0.0
 40
0.0517683471641687
100
AcDbArc
 50
175.4405983671994
 51
231.5466209149348
  0
LWPOLYLINE
  5
E0
330
1F
100
AcDbEntity
  8
0
  6
Continuous
 62
     8
370
    15
100
AcDbPolyline
 90
       73
 70
   128
 43
0.0
 10
5.794687170313641
 20
5.170362658166179
 10
5.794849950071079
 20
5.16532612751546
 10
5.795337086332953
 20
5.160415156177234
 10
5.796144845618586
 20
5.155667178445477
 10
5.797267129909545
 20
5.15111809078637
 10
5.798695310717157
 20
5.146802885639659
 10
5.800418602430582
 20
5.142753942758733
 10
5.802423854901219
 20
5.139002556240184
 10
5.804695802341421
 20
5.135576966437044
 10
5.807217146290724
 20
5.132503512613842
 10
5.809968721548329
 20
5.129805320888759
 10
5.81292953765622
 20
5.127502993603911
 10
5.816077152247226
 20
5.125614031092926
 10
5.819387546595668
 20
5.124153024425085
 10
5.822835540448551
 20
5.12313086220119
 10
5.826394874991791
 20
5.122555204952127
 10
5.830038461748934
 20
5.122430777907085
 10
5.833738631479865
 20
5.122758533334279
 10
5.837467134180808
 20
5.123535650540945
 10
5.841195636881752
 20
5.124756347495272
 10
5.844895806612684
 20
5.126411224797474
 10
5.848539393369827
 20
5.128487966163863
 10
5.852098727913068
 20
5.130970793535775
 10
5.855546721765949
 20
5.133840467079579
 10
5.858857116114392
 20
5.137075256211388
 10
5.862004730705397
 20
5.140650780194265
 10
5.864965546813287
 20
5.14453957819481
 10
5.867717122070893
 20
5.148712124763003
 10
5.870238466020197
 20
5.153136570405354
 10
5.872510413460398
 20
5.157779519865473
 10
5.874515665931037
 20
5.162605364981355
 10
5.876238957644461
 20
5.167577685653514
 10
5.877667138452071
 20
5.172658141645071
 10
5.878789381259912
 20
5.177808562920159
 10
5.879597182028665
 20
5.182989367045441
 10
5.880084318290538
 20
5.188161356760309
 10
5.880247098047975
 20
5.193285108403102
 10
5.880084318290538
 20
5.198321639053821
 10
5.879597182028665
 20
5.203232610392046
 10
5.878789381259912
 20
5.207980803095517
 10
5.877667138452071
 20
5.21252967578291
 10
5.876238957644461
 20
5.216845107015119
 10
5.874515665931037
 20
5.220893823810548
 10
5.872510413460398
 20
5.224645210329097
 10
5.870238466020197
 20
5.228070800132235
 10
5.867717122070893
 20
5.231144253955438
 10
5.864965546813287
 20
5.23384244568052
 10
5.862004730705397
 20
5.236144772965369
 10
5.858857116114392
 20
5.238033735476354
 10
5.855546721765949
 20
5.239494742144194
 10
5.852098727913068
 20
5.24051690436809
 10
5.848539393369827
 20
5.241092561617153
 10
5.844895806612684
 20
5.241216988662196
 10
5.841195636881752
 20
5.240889233235002
 10
5.837467134180808
 20
5.240112342113833
 10
5.833738631479865
 20
5.238891419074008
 10
5.830038461748934
 20
5.237236541771805
 10
5.826394874991791
 20
5.235159800405418
 10
5.822835540448551
 20
5.232676973033505
 10
5.819387546595668
 20
5.229807299489701
 10
5.816077152247226
 20
5.226572510357892
 10
5.81292953765622
 20
5.222996986375014
 10
5.809968721548329
 20
5.21910818837447
 10
5.807217146290724
 20
5.214935641806277
 10
5.804695802341421
 20
5.210511196163925
 10
5.802423854901219
 20
5.205868246703807
 10
5.800418602430582
 20
5.201042401587925
 10
5.798695310717157
 20
5.196070307001264
 10
5.797267129909545
 20
5.190989624924209
 10
5.796144845618586
 20
5.185839418620833
 10
5.795337086332953
 20
5.180658399523839
 10
5.794849950071079
 20
5.175486409808971
 10
5.794687170313641
 20
5.170362658166179
  0
ARC
  5
E1
330
1F
100
AcDbEntity
  8
0
  6
Continuous
 62
     8
370
    15
100
AcDbCircle
 10
5.828556723312575
 20
5.170214231868295
 30
0.0
 40
0.0517121323093776
100
AcDbArc
 50
175.4228436512243
 51
231.7270416161545
  0
ARC
  5
E2
330
1F
100
AcDbEntity
  8
0
  6
Continuous
 62
     8
370
    15
100
AcDbCircle
 10
5.845378300187767
 20
5.180946075392304
 30
0.0
 40
0.0686871090458696
100
AcDbArc
 50
104.2350503228788
 51
185.5182437410242
  0
ARC
  5
E3
330
1F
100
AcDbEntity
  8
0
  6
Continuous
 62
     8
370
    15
100
AcDbCircle
 10
5.860022814196842
 20
5.996133502058473
 30
0.0
 40
0.0685067522939029
100
AcDbArc
 50
104.5312517566674
 51
185.7333267802566
  0
ARC
  5
E4
330
1F
100
AcDbEntity
  8
0
  6
Continuous
 62
     8
370
    15
100
AcDbCircle
 10
5.843462701088802
 20
5.985174325407659
 30
0.0
 40
0.0517677883002445
100
AcDbArc
 50
175.4402687477064
 51
231.5469505344264
  0
LWPOLYLINE
  5
E5
330
1F
100
AcDbEntity
  8
0
  6
Continuous
 62
     8
370
    15
100
AcDbPolyline
 90
       73
 70
   128
 43
0.0
 10
5.794687170313641
 20
5.989289776186639
 10
5.794849950071079
 20
5.984253245535922
 10
5.795337086332953
 20
5.979342274197695
 10
5.796144845618586
 20
5.974594070380438
 10
5.797267129909545
 20
5.970045208806831
 10
5.798695310717157
 20
5.965729777574622
 10
5.800418602430582
 20
5.961681060779193
 10
5.802423854901219
 20
5.957929674260645
 10
5.804695802341421
 20
5.954504084457505
 10
5.807217146290724
 20
5.951430630634303
 10
5.809968721548329
 20
5.94873243890922
 10
5.81292953765622
 20
5.946430111624372
 10
5.816077152247226
 20
5.944541149113387
 10
5.819387546595668
 20
5.943080142445547
 10
5.822835540448551
 20
5.942057980221651
 10
5.826394874991791
 20
5.941482322972587
 10
5.830038461748934
 20
5.941357895927546
 10
5.833738631479865
 20
5.941685651354739
 10
5.837467134180808
 20
5.942462768561406
 10
5.841195636881752
 20
5.943683465515734
 10
5.844895806612684
 20
5.945338342817937
 10
5.848539393369827
 20
5.947415084184323
 10
5.852098727913068
 20
5.949897911556235
 10
5.855546721765949
 20
5.952767585100041
 10
5.858857116114392
 20
5.956002374231849
 10
5.862004730705397
 20
5.959577898214727
 10
5.864965546813287
 20
5.96346669621527
 10
5.867717122070893
 20
5.967639242783463
 10
5.870238466020197
 20
5.972063688425816
 10
5.872510413460398
 20
5.976706637885935
 10
5.874515665931037
 20
5.981532483001815
 10
5.876238957644461
 20
5.986504577588476
 10
5.877667138452071
 20
5.991585259665532
 10
5.878789381259912
 20
5.996735454855121
 10
5.879597182028665
 20
6.001916485065902
 10
5.880084318290538
 20
6.007088474780769
 10
5.880247098047975
 20
6.012212226423563
 10
5.880084318290538
 20
6.017248757074281
 10
5.879597182028665
 20
6.022159728412506
 10
5.878789381259912
 20
6.026907921115977
 10
5.877667138452071
 20
6.031456793803371
 10
5.876238957644461
 20
6.035772111992831
 10
5.874515665931037
 20
6.039820828788259
 10
5.872510413460398
 20
6.043572328349557
 10
5.870238466020197
 20
6.046997805109947
 10
5.867717122070893
 20
6.050071371975899
 10
5.864965546813287
 20
6.052769563700982
 10
5.862004730705397
 20
6.05507189098583
 10
5.858857116114392
 20
6.056960740454066
 10
5.855546721765949
 20
6.058421860164655
 10
5.852098727913068
 20
6.0594441354313
 10
5.848539393369827
 20
6.060019566594865
 10
5.844895806612684
 20
6.060143993639908
 10
5.841195636881752
 20
6.059816464298212
 10
5.837467134180808
 20
6.059039347091546
 10
5.833738631479865
 20
6.057818650137218
 10
5.830038461748934
 20
6.056163546749517
 10
5.826394874991791
 20
6.05408680538313
 10
5.822835540448551
 20
6.051604204096716
 10
5.819387546595668
 20
6.048734417510162
 10
5.816077152247226
 20
6.045499515335604
 10
5.81292953765622
 20
6.041924104395475
 10
5.809968721548329
 20
6.038035306394931
 10
5.807217146290724
 20
6.033862759826739
 10
5.804695802341421
 20
6.029438201141637
 10
5.802423854901219
 20
6.024795364724267
 10
5.800418602430582
 20
6.019969406565637
 10
5.798695310717157
 20
6.014997311978976
 10
5.797267129909545
 20
6.009916742944671
 10
5.796144845618586
 20
6.004766536641295
 10
5.795337086332953
 20
5.9995855175443
 10
5.794849950071079
 20
5.994413527829433
 10
5.794687170313641
 20
5.989289776186639
  0
ARC
  5
E6
330
1F
100
AcDbEntity
  8
0
  6
Continuous
 62
     8
370
    15
100
AcDbCircle
 10
5.828556151678053
 20
5.989141100445428
 30
0.0
 40
0.0517115824047169
100
AcDbArc
 50
175.4225176092222
 51
231.7273676581545
  0
ARC
  5
E7
330
1F
100
AcDbEntity
  8
0
  6
Continuous
 62
     8
370
    15
100
AcDbCircle
 10
5.845378858671033
 20
5.999872903404619
 30
0.0
 40
0.0686876370538053
100
AcDbArc
 50
104.2354192045473
 51
185.517958153656
  0
ARC
  5
E8
330
1F
100
AcDbEntity
  8
0
  6
Continuous
 62
     8
370
    15
100
AcDbCircle
 10
6.248930359910591
 20
5.690862472474585
 30
0.0
 40
0.068506847997071
100
AcDbArc
 50
104.5313657915151
 51
185.7331652692317
  0
ARC
  5
E9
330
1F
100
AcDbEntity
  8
0
  6
Continuous
 62
     8
370
    15
100
AcDbCircle
 10
6.232369529794478
 20
5.67990321651993
 30
0.0
 40
0.0517672085358409
100
AcDbArc
 50
175.4399267924659
 51
231.5472924896671
  0
LWPOLYLINE
  5
EA
330
1F
100
AcDbEntity
  8
0
  6
Continuous
 62
     8
370
    15
100
AcDbPolyline
 90
       73
 70
   128
 43
0.0
 10
6.183594560028326
 20
5.684018918076258
 10
6.183757422752001
 20
5.678982183567614
 10
6.184244517530756
 20
5.674071201115602
 10
6.18505227681639
 20
5.669323223383844
 10
6.186174561107348
 20
5.664774135724737
 10
6.187602741914959
 20
5.660458930578027
 10
6.189326033628384
 20
5.656410213782598
 10
6.191331244615903
 20
5.652658816150264
 10
6.193603192056104
 20
5.649233226347124
 10
6.196124536005408
 20
5.646159546438424
 10
6.198876111263014
 20
5.64346135471334
 10
6.201837010337141
 20
5.641159049656065
 10
6.204984583445028
 20
5.639270302116793
 10
6.208294936310352
 20
5.637809058249668
 10
6.211742930163235
 20
5.636786896025772
 10
6.215302264706473
 20
5.636211464862207
 10
6.218945892946736
 20
5.636087048930951
 10
6.222646021194549
 20
5.63641456715886
 10
6.226374523895493
 20
5.637191684365527
 10
6.230103109562675
 20
5.638412403547426
 10
6.233803237810486
 20
5.640067495821341
 10
6.237446866050748
 20
5.642144248301515
 10
6.241006200593989
 20
5.644626849587928
 10
6.244454111480633
 20
5.647496500904161
 10
6.247764547312195
 20
5.650731527235254
 10
6.250912120420081
 20
5.654306814018847
 10
6.253873019494209
 20
5.658195634246964
 10
6.256624594751815
 20
5.662368180815156
 10
6.259145938701118
 20
5.666792852543007
 10
6.26141788614132
 20
5.671435802003125
 10
6.263423097128839
 20
5.676261636005221
 10
6.265146388842263
 20
5.681233730591881
 10
6.266574569649876
 20
5.686314186583438
 10
6.267696853940833
 20
5.691464618972312
 10
6.268504613226467
 20
5.696645411983809
 10
6.268991708005222
 20
5.70181739058489
 10
6.269154487762659
 20
5.706941368313182
 10
6.268991708005222
 20
5.711977898963899
 10
6.268504613226467
 20
5.716888881415911
 10
6.267696853940833
 20
5.72163685914767
 10
6.266574569649876
 20
5.726185946806777
 10
6.265146388842263
 20
5.730501151953488
 10
6.263423097128839
 20
5.734549868748916
 10
6.26141788614132
 20
5.738301266381251
 10
6.259145938701118
 20
5.741726856184389
 10
6.256624594751815
 20
5.74480053609309
 10
6.253873019494209
 20
5.747498727818173
 10
6.250912120420081
 20
5.749801032875449
 10
6.247764547312195
 20
5.751689780414722
 10
6.244454111480633
 20
5.753151002054273
 10
6.241006200593989
 20
5.754173186505742
 10
6.237446866050748
 20
5.754748617669307
 10
6.233803237810486
 20
5.754873033600564
 10
6.230103109562675
 20
5.754545515372654
 10
6.226374523895493
 20
5.753768375938415
 10
6.222646021194549
 20
5.752547678984089
 10
6.218945892946736
 20
5.750892586710173
 10
6.215302264706473
 20
5.748815834230001
 10
6.211742930163235
 20
5.746333232943586
 10
6.208294936310352
 20
5.74346355939978
 10
6.204984583445028
 20
5.740228555296259
 10
6.201837010337141
 20
5.736653268512666
 10
6.198876111263014
 20
5.732764448284551
 10
6.196124536005408
 20
5.728591901716358
 10
6.193603192056104
 20
5.724167229988507
 10
6.191331244615903
 20
5.719524280528388
 10
6.189326033628384
 20
5.714698446526293
 10
6.187602741914959
 20
5.709726351939632
 10
6.186174561107348
 20
5.704645895948075
 10
6.18505227681639
 20
5.699495463559202
 10
6.184244517530756
 20
5.694314670547705
 10
6.183757422752001
 20
5.689142691946623
 10
6.183594560028326
 20
5.684018918076258
  0
ARC
  5
EB
330
1F
100
AcDbEntity
  8
0
  6
Continuous
 62
     8
370
    15
100
AcDbCircle
 10
6.217463870121885
 20
5.683870213367922
 30
0.0
 40
0.05171187193327
100
AcDbArc
 50
175.422498741664
 51
231.7272739079042
  0
ARC
  5
EC
330
1F
100
AcDbEntity
  8
0
  6
Continuous
 62
     8
370
    15
100
AcDbCircle
 10
6.234286433433067
 20
5.6946018531177
 30
0.0
 40
0.0686877604051791
100
AcDbArc
 50
104.2354809491486
 51
185.5177778499038
  0
LINE
  5
ED
330
1F
100
AcDbEntity
  8
0
  6
Continuous
 62
     8
370
    15
100
AcDbLine
 10
6.261729870305629
 20
8.267549886117482
 30
0.0
 11
6.240601522401139
 21
8.273210404028773
 31
0.0
  0
LINE
  5
EE
330
1F
100
AcDbEntity
  8
0
  6
Continuous
 62
     8
370
    15
100
AcDbLine
 10
5.731399808973724
 20
7.306541511789872
 30
0.0
 11
5.710271461069234
 21
7.312202029701166
 31
0.0
  0
TEXT
  5
F6
330
1F
100
AcDbEntity
  8
0
100
AcDbText
 10
4.224474112686358
 20
2.575596932159353
 30
0.0
 40
0.25
  1
USP  L
100
AcDbText
  0
TEXT
  5
F7
330
1F
100
AcDbEntity
  8
0
100
AcDbText
 10
3.324977878872743
 20
2.144724726578882
 30
0.0
 40
0.25
  1
SIMPSON  L
100
AcDbText
  0
ENDSEC
  0
SECTION
  2
OBJECTS
  0
DICTIONARY
  5
C
330
0
100
AcDbDictionary
281
     1
  3
ACAD_COLOR
350
F3
  3
ACAD_GROUP
350
D
  3
ACAD_LAYOUT
350
1A
  3
ACAD_MATERIAL
350
F2
  3
ACAD_MLINESTYLE
350
17
  3
ACAD_PLOTSETTINGS
350
19
  3
ACAD_PLOTSTYLENAME
350
E
  0
DICTIONARY
  5
F3
102
{ACAD_REACTORS
330
C
102
}
330
C
100
AcDbDictionary
281
     1
  0
DICTIONARY
  5
D
102
{ACAD_REACTORS
330
C
102
}
330
C
100
AcDbDictionary
281
     1
  0
DICTIONARY
  5
1A
102
{ACAD_REACTORS
330
C
102
}
330
C
100
AcDbDictionary
281
     1
  3
Layout1
350
1E
  3
Layout2
350
26
  3
Model
350
22
  0
DICTIONARY
  5
F2
102
{ACAD_REACTORS
330
C
102
}
330
C
100
AcDbDictionary
281
     1
  0
DICTIONARY
  5
17
102
{ACAD_REACTORS
330
C
102
}
330
C
100
AcDbDictionary
281
     1
  3
Standard
350
18
  0
DICTIONARY
  5
19
102
{ACAD_REACTORS
330
C
102
}
330
C
100
AcDbDictionary
281
     1
  0
ACDBDICTIONARYWDFLT
  5
E
102
{ACAD_REACTORS
330
C
102
}
330
C
100
AcDbDictionary
281
     1
  3
Normal
350
F
100
AcDbDictionaryWithDefault
340
F
  0
LAYOUT
  5
1E
102
{ACAD_REACTORS
330
1A
102
}
330
1A
100
AcDbPlotSettings
  1

  2
none_device
  4

  6

 40
0.0
 41
0.0
 42
0.0
 43
0.0
 44
0.0
 45
0.0
 46
0.0
 47
0.0
 48
0.0
 49
0.0
140
0.0
141
0.0
142
1.0
143
1.0
 70
   688
 72
     0
 73
     0
 74
     5
  7

 75
    16
147
1.0
 76
     0
 77
     2
 78
   300
148
0.0
149
0.0
100
AcDbLayout
  1
Layout1
 70
     1
 71
     1
 10
0.0
 20
0.0
 11
12.0
 21
9.0
 12
0.0
 22
0.0
 32
0.0
 14
1.000000000000000E+20
 24
1.000000000000000E+20
 34
1.000000000000000E+20
 15
-1.000000000000000E+20
 25
-1.000000000000000E+20
 35
-1.000000000000000E+20
146
0.0
 13
0.0
 23
0.0
 33
0.0
 16
1.0
 26
0.0
 36
0.0
 17
0.0
 27
1.0
 37
0.0
 76
     0
330
1B
  0
LAYOUT
  5
26
102
{ACAD_REACTORS
330
1A
102
}
330
1A
100
AcDbPlotSettings
  1

  2
none_device
  4

  6

 40
0.0
 41
0.0
 42
0.0
 43
0.0
 44
0.0
 45
0.0
 46
0.0
 47
0.0
 48
0.0
 49
0.0
140
0.0
141
0.0
142
1.0
143
1.0
 70
   688
 72
     0
 73
     0
 74
     5
  7

 75
    16
147
1.0
 76
     0
 77
     2
 78
   300
148
0.0
149
0.0
100
AcDbLayout
  1
Layout2
 70
     1
 71
     2
 10
0.0
 20
0.0
 11
0.0
 21
0.0
 12
0.0
 22
0.0
 32
0.0
 14
0.0
 24
0.0
 34
0.0
 15
0.0
 25
0.0
 35
0.0
146
0.0
 13
0.0
 23
0.0
 33
0.0
 16
1.0
 26
0.0
 36
0.0
 17
0.0
 27
1.0
 37
0.0
 76
     0
330
23
  0
LAYOUT
  5
22
102
{ACAD_REACTORS
330
1A
102
}
330
1A
100
AcDbPlotSettings
  1

  2
none_device
  4

  6

 40
0.0
 41
0.0
 42
0.0
 43
0.0
 44
0.0
 45
0.0
 46
0.0
 47
0.0
 48
0.0
 49
0.0
140
0.0
141
0.0
142
1.0
143
1.0
 70
  1712
 72
     0
 73
     0
 74
     0
  7

 75
     0
147
1.0
 76
     0
 77
     2
 78
   300
148
0.0
149
0.0
100
AcDbLayout
  1
Model
 70
     1
 71
     0
 10
0.0
 20
0.0
 11
8.5
 21
11.0
 12
0.0
 22
0.0
 32
0.0
 14
0.0
 24
0.0
 34
0.0
 15
8.5
 25
11.0
 35
0.0
146
0.0
 13
0.0
 23
0.0
 33
0.0
 16
1.0
 26
0.0
 36
0.0
 17
0.0
 27
1.0
 37
0.0
 76
     0
330
1F
  0
MLINESTYLE
  5
18
102
{ACAD_REACTORS
330
17
102
}
330
17
100
AcDbMlineStyle
  2
STANDARD
 70
     0
  3

 62
   256
 51
90.0
 52
90.0
 71
     2
 49
0.5
 62
   256
  6
BYLAYER
 49
-0.5
 62
   256
  6
BYLAYER
  0
ACDBPLACEHOLDER
  5
F
102
{ACAD_REACTORS
330
E
102
}
330
E
  0
ENDSEC
  0
EOF
