  0
SECTION
  2
HEADER
  9
$ACADVER
  1
AC1018
  9
$ACADMAINTVER
 70
     0
  9
$DWGCODEPAGE
  3
ANSI_1252
  9
$INSBASE
 10
0.0
 20
0.0
 30
0.0
  9
$EXTMIN
 10
1.918049658860658
 20
1.438823765319593
 30
0.0
  9
$EXTMAX
 10
6.492446222196837
 20
10.62238796903298
 30
0.0
  9
$LIMMIN
 10
0.0
 20
0.0
  9
$LIMMAX
 10
8.5
 20
11.0
  9
$ORTHOMODE
 70
     0
  9
$REGENMODE
 70
     1
  9
$FILLMODE
 70
     1
  9
$QTEXTMODE
 70
     0
  9
$MIRRTEXT
 70
     1
  9
$LTSCALE
 40
1.0
  9
$ATTMODE
 70
     1
  9
$TEXTSIZE
 40
0.25
  9
$TRACEWID
 40
0.05
  9
$TEXTSTYLE
  7
Standard
  9
$CLAYER
  8
0
  9
$CELTYPE
  6
ByLayer
  9
$CECOLOR
 62
   256
  9
$CELTSCALE
 40
1.0
  9
$DISPSILH
 70
     0
  9
$DIMSCALE
 40
1.0
  9
$DIMASZ
 40
0.156
  9
$DIMEXO
 40
0.05
  9
$DIMDLI
 40
0.38
  9
$DIMRND
 40
0.0
  9
$DIMDLE
 40
0.0
  9
$DIMEXE
 40
0.125
  9
$DIMTP
 40
0.0
  9
$DIMTM
 40
0.0
  9
$DIMTXT
 40
0.125
  9
$DIMCEN
 40
0.09
  9
$DIMTSZ
 40
0.0
  9
$DIMTOL
 70
     0
  9
$DIMLIM
 70
     0
  9
$DIMTIH
 70
     1
  9
$DIMTOH
 70
     1
  9
$DIMSE1
 70
     0
  9
$DIMSE2
 70
     0
  9
$DIMTAD
 70
     0
  9
$DIMZIN
 70
     0
  9
$DIMBLK
  1

  9
$DIMASO
 70
     1
  9
$DIMSHO
 70
     1
  9
$DIMPOST
  1

  9
$DIMAPOST
  1

  9
$DIMALT
 70
     0
  9
$DIMALTD
 70
     2
  9
$DIMALTF
 40
25.4
  9
$DIMLFAC
 40
8.0
  9
$DIMTOFL
 70
     0
  9
$DIMTVP
 40
0.0
  9
$DIMTIX
 70
     0
  9
$DIMSOXD
 70
     0
  9
$DIMSAH
 70
     0
  9
$DIMBLK1
  1

  9
$DIMBLK2
  1

  9
$DIMSTYLE
  2
Standard
  9
$DIMCLRD
 70
     0
  9
$DIMCLRE
 70
     0
  9
$DIMCLRT
 70
     0
  9
$DIMTFAC
 40
1.0
  9
$DIMGAP
 40
0.06
  9
$DIMJUST
 70
     0
  9
$DIMSD1
 70
     0
  9
$DIMSD2
 70
     0
  9
$DIMTOLJ
 70
     1
  9
$DIMTZIN
 70
     0
  9
$DIMALTZ
 70
     0
  9
$DIMALTTZ
 70
     0
  9
$DIMUPT
 70
     0
  9
$DIMDEC
 70
     3
  9
$DIMTDEC
 70
     3
  9
$DIMALTU
 70
     2
  9
$DIMALTTD
 70
     2
  9
$DIMTXSTY
  7
Standard
  9
$DIMAUNIT
 70
     0
  9
$DIMADEC
 70
     0
  9
$DIMALTRND
 40
0.0
  9
$DIMAZIN
 70
     0
  9
$DIMDSEP
 70
    46
  9
$DIMATFIT
 70
     3
  9
$DIMFRAC
 70
     0
  9
$DIMLDRBLK
  1

  9
$DIMLUNIT
 70
     2
  9
$DIMLWD
 70
    -2
  9
$DIMLWE
 70
    -2
  9
$DIMTMOVE
 70
     0
  9
$LUNITS
 70
     2
  9
$LUPREC
 70
     3
  9
$SKETCHINC
 40
0.1
  9
$FILLETRAD
 40
0.5
  9
$AUNITS
 70
     0
  9
$AUPREC
 70
     0
  9
$MENU
  1
.
  9
$ELEVATION
 40
0.0
  9
$PELEVATION
 40
0.0
  9
$THICKNESS
 40
0.0
  9
$LIMCHECK
 70
     0
  9
$CHAMFERA
 40
0.5
  9
$CHAMFERB
 40
0.5
  9
$CHAMFERC
 40
1.0
  9
$CHAMFERD
 40
0.0
  9
$SKPOLY
 70
     0
  9
$TDCREATE
 40
2456534.711007453
  9
$TDUCREATE
 40
2456534.919340787
  9
$TDUPDATE
 40
2456536.354794734
  9
$TDUUPDATE
 40
2456536.563128068
  9
$TDINDWG
 40
0.0009330208
  9
$TDUSRTIMER
 40
0.0009330208
  9
$USRTIMER
 70
     1
  9
$ANGBASE
 50
0.0
  9
$ANGDIR
 70
     0
  9
$PDMODE
 70
     0
  9
$PDSIZE
 40
-1.0
  9
$PLINEWID
 40
0.0
  9
$SPLFRAME
 70
     0
  9
$SPLINETYPE
 70
     6
  9
$SPLINESEGS
 70
     8
  9
$HANDSEED
  5
1CD
  9
$SURFTAB1
 70
     6
  9
$SURFTAB2
 70
     6
  9
$SURFTYPE
 70
     6
  9
$SURFU
 70
     6
  9
$SURFV
 70
     6
  9
$UCSBASE
  2

  9
$UCSNAME
  2

  9
$UCSORG
 10
0.0
 20
0.0
 30
0.0
  9
$UCSXDIR
 10
1.0
 20
0.0
 30
0.0
  9
$UCSYDIR
 10
0.0
 20
1.0
 30
0.0
  9
$UCSORTHOREF
  2

  9
$UCSORTHOVIEW
 70
     0
  9
$UCSORGTOP
 10
0.0
 20
0.0
 30
0.0
  9
$UCSORGBOTTOM
 10
0.0
 20
0.0
 30
0.0
  9
$UCSORGLEFT
 10
0.0
 20
0.0
 30
0.0
  9
$UCSORGRIGHT
 10
0.0
 20
0.0
 30
0.0
  9
$UCSORGFRONT
 10
0.0
 20
0.0
 30
0.0
  9
$UCSORGBACK
 10
0.0
 20
0.0
 30
0.0
  9
$PUCSBASE
  2

  9
$PUCSNAME
  2

  9
$PUCSORG
 10
0.0
 20
0.0
 30
0.0
  9
$PUCSXDIR
 10
1.0
 20
0.0
 30
0.0
  9
$PUCSYDIR
 10
0.0
 20
1.0
 30
0.0
  9
$PUCSORTHOREF
  2

  9
$PUCSORTHOVIEW
 70
     0
  9
$PUCSORGTOP
 10
0.0
 20
0.0
 30
0.0
  9
$PUCSORGBOTTOM
 10
0.0
 20
0.0
 30
0.0
  9
$PUCSORGLEFT
 10
0.0
 20
0.0
 30
0.0
  9
$PUCSORGRIGHT
 10
0.0
 20
0.0
 30
0.0
  9
$PUCSORGFRONT
 10
0.0
 20
0.0
 30
0.0
  9
$PUCSORGBACK
 10
0.0
 20
0.0
 30
0.0
  9
$USERI1
 70
     0
  9
$USERI2
 70
     0
  9
$USERI3
 70
     0
  9
$USERI4
 70
     0
  9
$USERI5
 70
     0
  9
$USERR1
 40
0.0
  9
$USERR2
 40
0.0
  9
$USERR3
 40
0.0
  9
$USERR4
 40
0.0
  9
$USERR5
 40
0.0
  9
$WORLDVIEW
 70
     1
  9
$SHADEDGE
 70
     3
  9
$SHADEDIF
 70
    70
  9
$TILEMODE
 70
     1
  9
$MAXACTVP
 70
    64
  9
$PINSBASE
 10
0.0
 20
0.0
 30
0.0
  9
$PLIMCHECK
 70
     0
  9
$PEXTMIN
 10
1.000000000000000E+20
 20
1.000000000000000E+20
 30
1.000000000000000E+20
  9
$PEXTMAX
 10
-1.000000000000000E+20
 20
-1.000000000000000E+20
 30
-1.000000000000000E+20
  9
$PLIMMIN
 10
0.0
 20
0.0
  9
$PLIMMAX
 10
12.0
 20
9.0
  9
$UNITMODE
 70
     0
  9
$VISRETAIN
 70
     1
  9
$PLINEGEN
 70
     0
  9
$PSLTSCALE
 70
     1
  9
$TREEDEPTH
 70
  3020
  9
$CMLSTYLE
  2
Standard
  9
$CMLJUST
 70
     0
  9
$CMLSCALE
 40
1.0
  9
$PROXYGRAPHICS
 70
     1
  9
$MEASUREMENT
 70
     0
  9
$CELWEIGHT
370
    -1
  9
$ENDCAPS
280
     0
  9
$JOINSTYLE
280
     0
  9
$LWDISPLAY
290
     1
  9
$INSUNITS
 70
     1
  9
$HYPERLINKBASE
  1

  9
$STYLESHEET
  1

  9
$XEDIT
290
     1
  9
$CEPSNTYPE
380
     0
  9
$PSTYLEMODE
290
     1
  9
$FINGERPRINTGUID
  2
{CE1A2BB9-18D9-4DBE-A1B1-C9A778756BDA}
  9
$VERSIONGUID
  2
{EF673095-F48B-4E94-ACA3-D086D96D1B1F}
  9
$EXTNAMES
290
     1
  9
$PSVPSCALE
 40
0.0
  9
$OLESTARTUP
290
     0
  9
$SORTENTS
280
   127
  9
$INDEXCTL
280
     0
  9
$HIDETEXT
280
     0
  9
$XCLIPFRAME
290
     0
  9
$HALOGAP
280
     0
  9
$OBSCOLOR
 70
   257
  9
$OBSLTYPE
280
     0
  9
$INTERSECTIONDISPLAY
280
     0
  9
$INTERSECTIONCOLOR
 70
   257
  9
$DIMASSOC
280
     1
  9
$PROJECTNAME
  1

  0
ENDSEC
  0
SECTION
  2
CLASSES
  0
CLASS
  1
ACDBDICTIONARYWDFLT
  2
AcDbDictionaryWithDefault
  3
ObjectDBX Classes
 90
        0
 91
        1
280
     0
281
     0
  0
CLASS
  1
VISUALSTYLE
  2
AcDbVisualStyle
  3
ObjectDBX Classes
 90
     4095
 91
        0
280
     0
281
     0
  0
CLASS
  1
MATERIAL
  2
AcDbMaterial
  3
ObjectDBX Classes
 90
        0
 91
        0
280
     0
281
     0
  0
ENDSEC
  0
SECTION
  2
TABLES
  0
TABLE
  2
VPORT
  5
8
330
0
100
AcDbSymbolTable
 70
     3
  0
VPORT
  5
1CC
330
8
100
AcDbSymbolTableRecord
100
AcDbViewportTableRecord
  2
*Active
 70
     0
 10
0.0
 20
0.0
 11
1.0
 21
1.0
 12
2.422402163399333
 22
5.960839865692744
 13
0.0
 23
0.0
 14
0.5
 24
0.5
 15
0.5
 25
0.5
 16
0.0
 26
0.0
 36
1.0
 17
0.0
 27
0.0
 37
0.0
 40
9.698364359511437
 41
2.247298919567827
 42
50.0
 43
0.0
 44
0.0
 50
0.0
 51
0.0
 71
     0
 72
  2000
 73
     1
 74
     3
 75
     0
 76
     0
 77
     0
 78
     0
281
     0
 65
     1
110
0.0
120
0.0
130
0.0
111
1.0
121
0.0
131
0.0
112
0.0
122
1.0
132
0.0
 79
     0
146
0.0
  0
ENDTAB
  0
TABLE
  2
LTYPE
  5
5
330
0
100
AcDbSymbolTable
 70
     6
  0
LTYPE
  5
14
330
5
100
AcDbSymbolTableRecord
100
AcDbLinetypeTableRecord
  2
ByBlock
 70
     0
  3

 72
    65
 73
     0
 40
0.0
  0
LTYPE
  5
15
330
5
100
AcDbSymbolTableRecord
100
AcDbLinetypeTableRecord
  2
ByLayer
 70
     0
  3

 72
    65
 73
     0
 40
0.0
  0
LTYPE
  5
16
330
5
100
AcDbSymbolTableRecord
100
AcDbLinetypeTableRecord
  2
Continuous
 70
     0
  3
Solid line
 72
    65
 73
     0
 40
0.0
  0
LTYPE
  5
3F
330
5
100
AcDbSymbolTableRecord
100
AcDbLinetypeTableRecord
  2
HIDDEN
 70
     0
  3
Hidden __ __ __ __ __ __ __ __ __ __ __ __ __ __
 72
    65
 73
     2
 40
0.075
 49
0.05
 74
     0
 49
-0.025
 74
     0
  0
LTYPE
  5
40
330
5
100
AcDbSymbolTableRecord
100
AcDbLinetypeTableRecord
  2
PHANTOM
 70
     0
  3
Phantom ______  __  __  ______  __  __  ______
 72
    65
 73
     6
 40
0.5
 49
0.25
 74
     0
 49
-0.05
 74
     0
 49
0.05
 74
     0
 49
-0.05
 74
     0
 49
0.05
 74
     0
 49
-0.05
 74
     0
  0
LTYPE
  5
41
330
5
100
AcDbSymbolTableRecord
100
AcDbLinetypeTableRecord
  2
CENTER
 70
     0
  3
Center ____ _ ____ _ ____ _ ____ _ ____ _ ____
 72
    65
 73
     4
 40
0.4
 49
0.25
 74
     0
 49
-0.05
 74
     0
 49
0.05
 74
     0
 49
-0.05
 74
     0
  0
LTYPE
  5
42
330
5
100
AcDbSymbolTableRecord
100
AcDbLinetypeTableRecord
  2
CENTERX2
 70
     0
  3
Center (2x) ________  __  ________  __  _____
 72
    65
 73
     4
 40
0.8
 49
0.5
 74
     0
 49
-0.1
 74
     0
 49
0.1
 74
     0
 49
-0.1
 74
     0
  0
LTYPE
  5
43
330
5
100
AcDbSymbolTableRecord
100
AcDbLinetypeTableRecord
  2
DOT2
 70
     0
  3
Dot (.5x) ........................................
 72
    65
 73
     2
 40
0.025
 49
0.0
 74
     0
 49
-0.025
 74
     0
  0
ENDTAB
  0
TABLE
  2
LAYER
  5
2
330
0
100
AcDbSymbolTable
 70
     7
  0
LAYER
  5
10
330
2
100
AcDbSymbolTableRecord
100
AcDbLayerTableRecord
  2
0
 70
     0
 62
     7
  6
Continuous
370
    -3
390
F
  0
LAYER
  5
44
330
2
100
AcDbSymbolTableRecord
100
AcDbLayerTableRecord
  2
SLD-0
 70
     0
 62
   179
  6
Continuous
370
    -3
390
F
  0
LAYER
  5
45
330
2
100
AcDbSymbolTableRecord
100
AcDbLayerTableRecord
  2
SLD-DEFPOINTS
 70
     0
 62
   179
  6
Continuous
370
    -3
390
F
  0
LAYER
  5
46
330
2
100
AcDbSymbolTableRecord
100
AcDbLayerTableRecord
  2
OBJ
 70
     0
 62
   179
  6
Continuous
370
    -3
390
F
  0
LAYER
  5
47
330
2
100
AcDbSymbolTableRecord
100
AcDbLayerTableRecord
  2
FORMAT
 70
     0
 62
     7
  6
Continuous
370
    -3
390
F
  0
LAYER
  5
48
330
2
100
AcDbSymbolTableRecord
100
AcDbLayerTableRecord
  2
TOLERANCES
 70
     0
 62
     7
  6
Continuous
370
    -3
390
F
  0
LAYER
  5
49
330
2
100
AcDbSymbolTableRecord
100
AcDbLayerTableRecord
  2
QTY-BLANK-SIZE-1
 70
     0
 62
     7
  6
Continuous
370
    -3
390
F
  0
ENDTAB
  0
TABLE
  2
STYLE
  5
3
330
0
100
AcDbSymbolTable
 70
     2
  0
STYLE
  5
11
330
3
100
AcDbSymbolTableRecord
100
AcDbTextStyleTableRecord
  2
Standard
 70
     0
 40
0.0
 41
1.0
 50
0.0
 71
     0
 42
0.25
  3
txt
  4

  0
STYLE
  5
1C2
330
3
100
AcDbSymbolTableRecord
100
AcDbTextStyleTableRecord
  2
SLDTEXTSTYLE0
 70
     0
 40
0.0
 41
0.7
 50
0.0
 71
     0
 42
0.2
  3
TXT
  4

  0
ENDTAB
  0
TABLE
  2
VIEW
  5
6
330
0
100
AcDbSymbolTable
 70
     0
  0
ENDTAB
  0
TABLE
  2
UCS
  5
7
330
0
100
AcDbSymbolTable
 70
     0
  0
ENDTAB
  0
TABLE
  2
APPID
  5
9
330
0
100
AcDbSymbolTable
 70
     1
  0
APPID
  5
12
330
9
100
AcDbSymbolTableRecord
100
AcDbRegAppTableRecord
  2
ACAD
 70
     0
  0
ENDTAB
  0
TABLE
  2
DIMSTYLE
  5
A
330
0
100
AcDbSymbolTable
 70
     1
100
AcDbDimStyleTable
 71
     0
  0
DIMSTYLE
105
27
330
A
100
AcDbSymbolTableRecord
100
AcDbDimStyleTableRecord
  2
Standard
 70
     0
340
11
  0
ENDTAB
  0
TABLE
  2
BLOCK_RECORD
  5
1
330
0
100
AcDbSymbolTable
 70
     1
  0
BLOCK_RECORD
  5
1F
330
1
100
AcDbSymbolTableRecord
100
AcDbBlockTableRecord
  2
*Model_Space
340
22
  0
BLOCK_RECORD
  5
1B
330
1
100
AcDbSymbolTableRecord
100
AcDbBlockTableRecord
  2
*Paper_Space
340
1E
  0
BLOCK_RECORD
  5
23
330
1
100
AcDbSymbolTableRecord
100
AcDbBlockTableRecord
  2
*Paper_Space0
340
26
  0
ENDTAB
  0
ENDSEC
  0
SECTION
  2
BLOCKS
  0
BLOCK
  5
20
330
1F
100
AcDbEntity
  8
0
100
AcDbBlockBegin
  2
*Model_Space
 70
     0
 10
0.0
 20
0.0
 30
0.0
  3
*Model_Space
  1

  0
ENDBLK
  5
21
330
1F
100
AcDbEntity
  8
0
100
AcDbBlockEnd
  0
BLOCK
  5
1C
330
1B
100
AcDbEntity
 67
     1
  8
0
100
AcDbBlockBegin
  2
*Paper_Space
 70
     0
 10
0.0
 20
0.0
 30
0.0
  3
*Paper_Space
  1

  0
ENDBLK
  5
1D
330
1B
100
AcDbEntity
 67
     1
  8
0
100
AcDbBlockEnd
  0
BLOCK
  5
24
330
23
100
AcDbEntity
  8
0
100
AcDbBlockBegin
  2
*Paper_Space0
 70
     0
 10
0.0
 20
0.0
 30
0.0
  3
*Paper_Space0
  1

  0
ENDBLK
  5
25
330
23
100
AcDbEntity
  8
0
100
AcDbBlockEnd
  0
ENDSEC
  0
SECTION
  2
ENTITIES
  0
LINE
  5
4A
330
1F
100
AcDbEntity
  8
0
  6
Continuous
 62
     7
370
    15
100
AcDbLine
 10
1.988760289456252
 20
8.757203681017664
 30
0.0
 11
3.29846348505134
 21
8.406319720252916
 31
0.0
  0
LINE
  5
4B
330
1F
100
AcDbEntity
  8
0
  6
Continuous
 62
     7
370
    15
100
AcDbLine
 10
4.180791340143301
 20
8.16993433650415
 30
0.0
 11
5.524294225256829
 21
7.809995065367759
 31
0.0
  0
LINE
  5
4C
330
1F
100
AcDbEntity
  8
0
  6
Continuous
 62
     7
370
    15
100
AcDbLine
 10
1.988760289456252
 20
8.757203681017664
 30
0.0
 11
1.988760289456252
 21
9.53998718868172
 31
0.0
  0
LINE
  5
4D
330
1F
100
AcDbEntity
  8
0
  6
Continuous
 62
     7
370
    15
100
AcDbLine
 10
1.988760289456252
 20
9.53998718868172
 30
0.0
 11
1.918049658860658
 21
9.595074958459131
 31
0.0
  0
LINE
  5
4E
330
1F
100
AcDbEntity
  8
0
  6
Continuous
 62
     7
370
    15
100
AcDbLine
 10
1.918049658860658
 20
9.595074958459131
 30
0.0
 11
2.024115687720286
 21
9.6323250039952
 31
0.0
  0
LINE
  5
4F
330
1F
100
AcDbEntity
  8
0
  6
Continuous
 62
     7
370
    15
100
AcDbLine
 10
2.024115687720286
 20
9.6323250039952
 30
0.0
 11
2.024115687720286
 21
10.38558581512051
 31
0.0
  0
LINE
  5
50
330
1F
100
AcDbEntity
  8
0
  6
Continuous
 62
     7
370
    15
100
AcDbLine
 10
5.488938909959032
 20
9.457321381119182
 30
0.0
 11
2.024115687720286
 21
10.38558581512051
 31
0.0
  0
LINE
  5
51
330
1F
100
AcDbEntity
  8
0
  6
Continuous
 62
     7
370
    15
100
AcDbLine
 10
5.488938909959032
 20
9.457321381119182
 30
0.0
 11
5.488938909959032
 21
8.704060569993874
 31
0.0
  0
LINE
  5
52
330
1F
100
AcDbEntity
  8
0
  6
Continuous
 62
     7
370
    15
100
AcDbLine
 10
5.488938909959032
 20
8.704060569993874
 30
0.0
 11
5.59500493881866
 21
8.609978001739641
 31
0.0
  0
LINE
  5
53
330
1F
100
AcDbEntity
  8
0
  6
Continuous
 62
     7
370
    15
100
AcDbLine
 10
5.59500493881866
 20
8.609978001739641
 30
0.0
 11
5.524294225256829
 21
8.592778573031816
 31
0.0
  0
LINE
  5
54
330
1F
100
AcDbEntity
  8
0
  6
Continuous
 62
     7
370
    15
100
AcDbLine
 10
5.524294225256829
 20
8.592778573031816
 30
0.0
 11
5.524294225256829
 21
7.809995065367759
 31
0.0
  0
LINE
  5
55
330
1F
100
AcDbEntity
  8
0
  6
Continuous
 62
     7
370
    15
100
AcDbLine
 10
5.665715610897374
 20
9.504681813013057
 30
0.0
 11
5.488938909959032
 21
9.457321381119182
 31
0.0
  0
LINE
  5
56
330
1F
100
AcDbEntity
  8
0
  6
Continuous
 62
     7
370
    15
100
AcDbLine
 10
5.665715610897374
 20
9.504681813013057
 30
0.0
 11
5.665715610897374
 21
8.751421001887749
 31
0.0
  0
LINE
  5
57
330
1F
100
AcDbEntity
  8
0
  6
Continuous
 62
     7
370
    15
100
AcDbLine
 10
5.665715610897374
 20
8.751421001887749
 30
0.0
 11
5.488938909959032
 21
8.704060569993874
 31
0.0
  0
LINE
  5
58
330
1F
100
AcDbEntity
  8
0
  6
Continuous
 62
     7
370
    15
100
AcDbLine
 10
2.200892388658627
 20
10.43294624701438
 30
0.0
 11
2.024115687720286
 21
10.38558581512051
 31
0.0
  0
LINE
  5
59
330
1F
100
AcDbEntity
  8
0
  6
Continuous
 62
     7
370
    15
100
AcDbLine
 10
5.665715610897374
 20
9.504681813013057
 30
0.0
 11
2.200892388658627
 21
10.43294624701438
 31
0.0
  0
LINE
  5
5A
330
1F
100
AcDbEntity
  8
0
  6
Continuous
 62
     7
370
    15
100
AcDbLine
 10
5.771781639757001
 20
8.657338433633514
 30
0.0
 11
5.59500493881866
 21
8.609978001739641
 31
0.0
  0
LINE
  5
5B
330
1F
100
AcDbEntity
  8
0
  6
Continuous
 62
     7
370
    15
100
AcDbLine
 10
5.665715610897374
 20
8.751421001887749
 30
0.0
 11
5.771781639757001
 21
8.657338433633514
 31
0.0
  0
LINE
  5
5C
330
1F
100
AcDbEntity
  8
0
  6
Continuous
 62
     7
370
    15
100
AcDbLine
 10
5.70107092619517
 20
7.857355497261631
 30
0.0
 11
5.524294225256829
 21
7.809995065367759
 31
0.0
  0
LINE
  5
5D
330
1F
100
AcDbEntity
  8
0
  6
Continuous
 62
     7
370
    15
100
AcDbLine
 10
5.70107092619517
 20
8.638394303135324
 30
0.0
 11
5.70107092619517
 21
7.857355497261631
 31
0.0
  0
LINE
  5
5E
330
1F
100
AcDbEntity
  8
0
  6
Continuous
 62
     7
370
    15
100
AcDbLine
 10
5.842492311835714
 20
9.55204224490693
 30
0.0
 11
2.377669089596968
 21
10.48030667890825
 31
0.0
  0
LINE
  5
5F
330
1F
100
AcDbEntity
  8
0
  6
Continuous
 62
     7
370
    15
100
AcDbLine
 10
5.842492311835714
 20
9.55204224490693
 30
0.0
 11
5.842492311835714
 21
8.79878143378162
 31
0.0
  0
LINE
  5
60
330
1F
100
AcDbEntity
  8
0
  6
Continuous
 62
     7
370
    15
100
AcDbLine
 10
5.842492311835714
 20
8.79878143378162
 30
0.0
 11
5.948558340695342
 21
8.704698865527388
 31
0.0
  0
LINE
  5
61
330
1F
100
AcDbEntity
  8
0
  6
Continuous
 62
     7
370
    15
100
AcDbLine
 10
5.877847627133511
 20
8.685754735029197
 30
0.0
 11
5.877847627133511
 21
7.904715929155505
 31
0.0
  0
LINE
  5
62
330
1F
100
AcDbEntity
  8
0
  6
Continuous
 62
     7
370
    15
100
AcDbLine
 10
2.55444579053531
 20
10.52766711080213
 30
0.0
 11
2.377669089596968
 21
10.48030667890825
 31
0.0
  0
LINE
  5
63
330
1F
100
AcDbEntity
  8
0
  6
Continuous
 62
     7
370
    15
100
AcDbLine
 10
6.019269012774056
 20
9.599402676800805
 30
0.0
 11
2.55444579053531
 21
10.52766711080213
 31
0.0
  0
LINE
  5
64
330
1F
100
AcDbEntity
  8
0
  6
Continuous
 62
     7
370
    15
100
AcDbLine
 10
6.019269012774056
 20
9.599402676800805
 30
0.0
 11
5.842492311835714
 21
9.55204224490693
 31
0.0
  0
LINE
  5
65
330
1F
100
AcDbEntity
  8
0
  6
Continuous
 62
     7
370
    15
100
AcDbLine
 10
6.019269012774056
 20
9.599402676800805
 30
0.0
 11
6.019269012774056
 21
8.846141865675495
 31
0.0
  0
LINE
  5
66
330
1F
100
AcDbEntity
  8
0
  6
Continuous
 62
     7
370
    15
100
AcDbLine
 10
6.019269012774056
 20
8.846141865675495
 30
0.0
 11
5.842492311835714
 21
8.79878143378162
 31
0.0
  0
LINE
  5
67
330
1F
100
AcDbEntity
  8
0
  6
Continuous
 62
     7
370
    15
100
AcDbLine
 10
6.125335041633683
 20
8.752059297421261
 30
0.0
 11
5.948558340695342
 21
8.704698865527388
 31
0.0
  0
LINE
  5
68
330
1F
100
AcDbEntity
  8
0
  6
Continuous
 62
     7
370
    15
100
AcDbLine
 10
6.019269012774056
 20
8.846141865675495
 30
0.0
 11
6.125335041633683
 21
8.752059297421261
 31
0.0
  0
LINE
  5
69
330
1F
100
AcDbEntity
  8
0
  6
Continuous
 62
     7
370
    15
100
AcDbLine
 10
6.054624328071852
 20
7.952076361049379
 30
0.0
 11
5.877847627133511
 21
7.904715929155505
 31
0.0
  0
LINE
  5
6A
330
1F
100
AcDbEntity
  8
0
  6
Continuous
 62
     7
370
    15
100
AcDbLine
 10
6.054624328071852
 20
8.733115166923072
 30
0.0
 11
6.054624328071852
 21
7.952076361049379
 31
0.0
  0
LINE
  5
6B
330
1F
100
AcDbEntity
  8
0
  6
Continuous
 62
     7
370
    15
100
AcDbLine
 10
2.377669089596968
 20
10.48030667890825
 30
0.0
 11
2.200892388658627
 21
10.43294624701438
 31
0.0
  0
LINE
  5
6C
330
1F
100
AcDbEntity
  8
0
  6
Continuous
 62
     7
370
    15
100
AcDbLine
 10
5.842492311835714
 20
9.55204224490693
 30
0.0
 11
5.665715610897374
 21
9.504681813013057
 31
0.0
  0
LINE
  5
6D
330
1F
100
AcDbEntity
  8
0
  6
Continuous
 62
     7
370
    15
100
AcDbLine
 10
5.842492311835714
 20
8.79878143378162
 30
0.0
 11
5.665715610897374
 21
8.751421001887749
 31
0.0
  0
LINE
  5
6E
330
1F
100
AcDbEntity
  8
0
  6
Continuous
 62
     7
370
    15
100
AcDbLine
 10
5.948558340695342
 20
8.704698865527388
 30
0.0
 11
5.771781639757001
 21
8.657338433633514
 31
0.0
  0
LINE
  5
6F
330
1F
100
AcDbEntity
  8
0
  6
Continuous
 62
     7
370
    15
100
AcDbLine
 10
5.877847627133511
 20
7.904715929155505
 30
0.0
 11
5.70107092619517
 21
7.857355497261631
 31
0.0
  0
LINE
  5
70
330
1F
100
AcDbEntity
  8
0
  6
Continuous
 62
     7
370
    15
100
AcDbLine
 10
6.19604570723066
 20
9.646763106958148
 30
0.0
 11
6.019269012774056
 21
9.599402676800805
 31
0.0
  0
LINE
  5
71
330
1F
100
AcDbEntity
  8
0
  6
Continuous
 62
     7
370
    15
100
AcDbLine
 10
6.19604570723066
 20
9.646763106958148
 30
0.0
 11
6.19604570723066
 21
8.89350229583284
 31
0.0
  0
LINE
  5
72
330
1F
100
AcDbEntity
  8
0
  6
Continuous
 62
     7
370
    15
100
AcDbLine
 10
6.19604570723066
 20
8.89350229583284
 30
0.0
 11
6.019269012774056
 21
8.846141865675495
 31
0.0
  0
LINE
  5
73
330
1F
100
AcDbEntity
  8
0
  6
Continuous
 62
     7
370
    15
100
AcDbLine
 10
2.731222484991914
 20
10.57502754095947
 30
0.0
 11
2.55444579053531
 21
10.52766711080213
 31
0.0
  0
LINE
  5
74
330
1F
100
AcDbEntity
  8
0
  6
Continuous
 62
     7
370
    15
100
AcDbLine
 10
6.19604570723066
 20
9.646763106958148
 30
0.0
 11
2.731222484991914
 21
10.57502754095947
 31
0.0
  0
LINE
  5
75
330
1F
100
AcDbEntity
  8
0
  6
Continuous
 62
     7
370
    15
100
AcDbLine
 10
6.302111736090288
 20
8.799419727578605
 30
0.0
 11
6.125335041633683
 21
8.752059297421261
 31
0.0
  0
LINE
  5
76
330
1F
100
AcDbEntity
  8
0
  6
Continuous
 62
     7
370
    15
100
AcDbLine
 10
6.19604570723066
 20
8.89350229583284
 30
0.0
 11
6.302111736090288
 21
8.799419727578605
 31
0.0
  0
LINE
  5
77
330
1F
100
AcDbEntity
  8
0
  6
Continuous
 62
     7
370
    15
100
AcDbLine
 10
6.231401022528457
 20
7.999436791206724
 30
0.0
 11
6.054624328071852
 21
7.952076361049379
 31
0.0
  0
LINE
  5
78
330
1F
100
AcDbEntity
  8
0
  6
Continuous
 62
     7
370
    15
100
AcDbLine
 10
6.231401022528457
 20
8.780475597080416
 30
0.0
 11
6.231401022528457
 21
7.999436791206724
 31
0.0
  0
LINE
  5
79
330
1F
100
AcDbEntity
  8
0
  6
Continuous
 62
     7
370
    15
100
AcDbLine
 10
6.372822393909179
 20
9.694123535031659
 30
0.0
 11
6.19604570723066
 21
9.646763106958148
 31
0.0
  0
LINE
  5
7A
330
1F
100
AcDbEntity
  8
0
  6
Continuous
 62
     7
370
    15
100
AcDbLine
 10
6.372822393909179
 20
9.694123535031659
 30
0.0
 11
6.372822393909179
 21
8.940862723906349
 31
0.0
  0
LINE
  5
7B
330
1F
100
AcDbEntity
  8
0
  6
Continuous
 62
     7
370
    15
100
AcDbLine
 10
6.372822393909179
 20
8.940862723906349
 30
0.0
 11
6.19604570723066
 21
8.89350229583284
 31
0.0
  0
LINE
  5
7C
330
1F
100
AcDbEntity
  8
0
  6
Continuous
 62
     7
370
    15
100
AcDbLine
 10
2.907999171670433
 20
10.62238796903298
 30
0.0
 11
2.731222484991914
 21
10.57502754095947
 31
0.0
  0
LINE
  5
7D
330
1F
100
AcDbEntity
  8
0
  6
Continuous
 62
     7
370
    15
100
AcDbLine
 10
6.372822393909179
 20
9.694123535031659
 30
0.0
 11
2.907999171670433
 21
10.62238796903298
 31
0.0
  0
LINE
  5
7E
330
1F
100
AcDbEntity
  8
0
  6
Continuous
 62
     7
370
    15
100
AcDbLine
 10
6.478888422768807
 20
8.846780155652115
 30
0.0
 11
6.302111736090288
 21
8.799419727578605
 31
0.0
  0
LINE
  5
7F
330
1F
100
AcDbEntity
  8
0
  6
Continuous
 62
     7
370
    15
100
AcDbLine
 10
6.372822393909179
 20
8.940862723906349
 30
0.0
 11
6.478888422768807
 21
8.846780155652115
 31
0.0
  0
LINE
  5
80
330
1F
100
AcDbEntity
  8
0
  6
Continuous
 62
     7
370
    15
100
AcDbLine
 10
6.408177709206976
 20
8.046797219280234
 30
0.0
 11
6.231401022528457
 21
7.999436791206724
 31
0.0
  0
LINE
  5
81
330
1F
100
AcDbEntity
  8
0
  6
Continuous
 62
     7
370
    15
100
AcDbLine
 10
6.408177709206976
 20
8.827836025153924
 30
0.0
 11
6.408177709206976
 21
8.046797219280234
 31
0.0
  0
SPLINE
  5
82
330
1F
100
AcDbEntity
  8
0
  6
Continuous
 62
     7
370
    15
100
AcDbSpline
210
0.0
220
0.0
230
1.0
 70
     8
 71
     3
 72
    10
 73
     6
 74
     0
 42
0.0000000001
 43
0.0000000001
 40
0.0
 40
0.0
 40
0.0
 40
0.0
 40
0.0701026773382547
 40
0.5307911173972748
 40
1.0
 40
1.0
 40
1.0
 40
1.0
 10
3.925924412246223
 20
5.801160828803692
 30
0.0
 10
3.925191226369124
 20
5.802447956055965
 30
0.0
 10
3.919639818552164
 20
5.812193599709058
 30
0.0
 10
3.910603441469287
 20
5.830951502663169
 30
0.0
 10
3.904715528534997
 20
5.848437299637679
 30
0.0
 10
3.901744597248893
 20
5.857260307361094
 30
0.0
  0
LINE
  5
83
330
1F
100
AcDbEntity
  8
0
  6
Continuous
 62
     7
370
    15
100
AcDbLine
 10
3.901744597248893
 20
5.857260307361094
 30
0.0
 11
3.961814724953993
 21
5.873353758460321
 31
0.0
  0
LINE
  5
84
330
1F
100
AcDbEntity
  8
0
  6
Continuous
 62
     7
370
    15
100
AcDbLine
 10
4.024384490566583
 20
5.764961876429875
 30
0.0
 11
3.961814724953993
 21
5.873353758460321
 31
0.0
  0
LINE
  5
85
330
1F
100
AcDbEntity
  8
0
  6
Continuous
 62
     7
370
    15
100
AcDbLine
 10
3.964314362861482
 20
5.748868425330649
 30
0.0
 11
4.024384490566583
 21
5.764961876429875
 31
0.0
  0
SPLINE
  5
86
330
1F
100
AcDbEntity
  8
0
  6
Continuous
 62
     7
370
    15
100
AcDbSpline
210
0.0
220
0.0
230
1.0
 70
     8
 71
     3
 72
     9
 73
     5
 74
     0
 42
0.0000000001
 43
0.0000000001
 40
0.0
 40
0.0
 40
0.0
 40
0.0
 40
0.4954581484830888
 40
1.0
 40
1.0
 40
1.0
 40
1.0
 10
3.964314362861482
 20
5.748868425330649
 30
0.0
 10
3.95724770623186
 20
5.757138056774072
 30
0.0
 10
3.942984833270223
 20
5.773828934638815
 30
0.0
 10
3.931645553470994
 20
5.791995191787009
 30
0.0
 10
3.925924412246223
 20
5.801160828803692
 30
0.0
  0
ARC
  5
87
330
1F
100
AcDbEntity
  8
0
  6
Continuous
 62
     7
370
    15
100
AcDbCircle
 10
3.791513194192075
 20
5.722842130643388
 30
0.0
 40
0.1555641154647325
100
AcDbArc
 50
348.0958710261393
 51
30.22849008933324
  0
SPLINE
  5
88
330
1F
100
AcDbEntity
  8
0
  6
Continuous
 62
     7
370
    15
100
AcDbSpline
210
0.0
220
0.0
230
1.0
 70
     8
 71
     3
 72
    10
 73
     6
 74
     0
 42
0.0000000001
 43
0.0000000001
 40
0.0
 40
0.0
 40
0.0
 40
0.0
 40
0.0701025674929524
 40
0.5307909609508893
 40
1.0
 40
1.0
 40
1.0
 40
1.0
 10
3.943731766865465
 20
5.690753189345791
 30
0.0
 10
3.944059787230923
 20
5.692088101940468
 30
0.0
 10
3.946543437277124
 20
5.702195571099649
 30
0.0
 10
3.952656504207141
 20
5.721635702257917
 30
0.0
 10
3.960404744281497
 20
5.739735567979603
 30
0.0
 10
3.964314362861482
 20
5.748868425330649
 30
0.0
  0
LINE
  5
89
330
1F
100
AcDbEntity
  8
0
  6
Continuous
 62
     7
370
    15
100
AcDbLine
 10
3.997429423821698
 20
5.652538439931933
 30
0.0
 11
4.024384490566583
 21
5.764961876429875
 31
0.0
  0
LINE
  5
8A
330
1F
100
AcDbEntity
  8
0
  6
Continuous
 62
     7
370
    15
100
AcDbLine
 10
3.937359296116598
 20
5.636444988832706
 30
0.0
 11
3.997429423821698
 21
5.652538439931933
 31
0.0
  0
SPLINE
  5
8B
330
1F
100
AcDbEntity
  8
0
  6
Continuous
 62
     7
370
    15
100
AcDbSpline
210
0.0
220
0.0
230
1.0
 70
     8
 71
     3
 72
     9
 73
     5
 74
     0
 42
0.0000000001
 43
0.0000000001
 40
0.0
 40
0.0
 40
0.0
 40
0.0
 40
0.4954579487920303
 40
1.0
 40
1.0
 40
1.0
 40
1.0
 10
3.937359296116598
 20
5.636444988832706
 30
0.0
 10
3.937562251020292
 20
5.64504198724157
 30
0.0
 10
3.937971881957063
 20
5.662393607958977
 30
0.0
 10
3.941800212912504
 20
5.681242919192282
 30
0.0
 10
3.943731766865465
 20
5.690753189345791
 30
0.0
  0
LWPOLYLINE
  5
8C
330
1F
100
AcDbEntity
  8
0
  6
Continuous
 62
     7
370
    15
100
AcDbPolyline
 90
        9
 70
   128
 43
0.0
 10
3.885491801758116
 20
5.63252569803074
 10
3.895459261790672
 20
5.633925960595493
 10
3.904951491216396
 20
5.6371913912657
 10
3.913806052513579
 20
5.642266087750787
 10
3.921871470074606
 20
5.649063232861832
 10
3.929009729563851
 20
5.65746651619682
 10
3.935098704680117
 20
5.667332154619113
 10
3.940034200200226
 20
5.678491354666688
 10
3.943731766865465
 20
5.690753189345791
  0
LWPOLYLINE
  5
8D
330
1F
100
AcDbEntity
  8
0
  6
Continuous
 62
     7
370
    15
100
AcDbPolyline
 90
        9
 70
   128
 43
0.0
 10
3.809444492402305
 20
5.684705857525488
 10
3.817015576380379
 20
5.672951480141184
 10
3.825453616054348
 20
5.662394529783991
 10
3.834614229429879
 20
5.653215613157435
 10
3.844340672543292
 20
5.645571801220335
 10
3.854466556605831
 20
5.639593866464331
 10
3.864818585889489
 20
5.635384093978618
 10
3.875219668960907
 20
5.633014522378499
 10
3.885491801758116
 20
5.63252569803074
  0
ARC
  5
8E
330
1F
100
AcDbEntity
  8
0
  6
Continuous
 62
     7
370
    15
100
AcDbCircle
 10
3.943855713592157
 20
5.76302452598018
 30
0.0
 40
0.15556410321878
100
AcDbArc
 50
168.0958609856372
 51
210.2284800547166
  0
LWPOLYLINE
  5
8F
330
1F
100
AcDbEntity
  8
0
  6
Continuous
 62
     7
370
    15
100
AcDbPolyline
 90
        9
 70
   128
 43
0.0
 10
3.849877113261191
 20
5.853340985519995
 10
3.839909653228636
 20
5.851940737085587
 10
3.830417423802911
 20
5.84867530641538
 10
3.821562872876508
 20
5.843600593021502
 10
3.813497455315481
 20
5.836803476171144
 10
3.806359185455456
 20
5.828400181484258
 10
3.800270210339191
 20
5.818534528931622
 10
3.795334714819081
 20
5.807375328884046
 10
3.791637158524622
 20
5.795113491426498
  0
LWPOLYLINE
  5
90
330
1F
100
AcDbEntity
  8
0
  6
Continuous
 62
     7
370
    15
100
AcDbPolyline
 90
        9
 70
   128
 43
0.0
 10
3.925924412246223
 20
5.801160828803692
 10
3.918353338638929
 20
5.812915203409549
 10
3.909915309335739
 20
5.823472165118641
 10
3.900754685589429
 20
5.832651084523643
 10
3.891028242476015
 20
5.8402948823304
 10
3.880902358413476
 20
5.846272817086405
 10
3.870550329129819
 20
5.850482589572117
 10
3.860149246058401
 20
5.852852168237407
 10
3.849877113261191
 20
5.853340985519995
  0
SPLINE
  5
91
330
1F
100
AcDbEntity
  8
0
  6
Continuous
 62
     7
370
    15
100
AcDbSpline
210
0.0
220
0.0
230
1.0
 70
     8
 71
     3
 72
    10
 73
     6
 74
     0
 42
0.0000000001
 43
0.0000000001
 40
0.0
 40
0.0
 40
0.0
 40
0.0
 40
0.2318983661076579
 40
0.6135118252110537
 40
1.0
 40
1.0
 40
1.0
 40
1.0
 10
3.901744597248893
 20
5.857260307361094
 30
0.0
 10
3.897408992870191
 20
5.856853651909161
 30
0.0
 10
3.885938689735174
 20
5.855777801601392
 30
0.0
 10
3.868067784522971
 20
5.854316195954892
 30
0.0
 10
3.855966270883482
 20
5.853667428121674
 30
0.0
 10
3.849877113261191
 20
5.853340985519995
 30
0.0
  0
SPLINE
  5
92
330
1F
100
AcDbEntity
  8
0
  6
Continuous
 62
     7
370
    15
100
AcDbSpline
210
0.0
220
0.0
230
1.0
 70
     8
 71
     3
 72
    10
 73
     6
 74
     0
 42
0.0000000001
 43
0.0000000001
 40
0.0
 40
0.0
 40
0.0
 40
0.0
 40
0.3813026271979826
 40
0.7681019396046115
 40
1.0
 40
1.0
 40
1.0
 40
1.0
 10
3.885491801758116
 20
5.63252569803074
 30
0.0
 10
3.891496400600025
 20
5.632846998237308
 30
0.0
 10
3.90359215784909
 20
5.633494230368055
 30
0.0
 10
3.92145645042961
 20
5.634953395304324
 30
0.0
 10
3.933023699044654
 20
5.636038335290223
 30
0.0
 10
3.937359296116598
 20
5.636444988832706
 30
0.0
  0
SPLINE
  5
93
330
1F
100
AcDbEntity
  8
0
  6
Continuous
 62
     7
370
    15
100
AcDbSpline
210
0.0
220
0.0
230
1.0
 70
     8
 71
     3
 72
    10
 73
     6
 74
     0
 42
0.0000000001
 43
0.0000000001
 40
0.0
 40
0.0
 40
0.0
 40
0.0
 40
0.2483175088606951
 40
0.6221449990995513
 40
1.0
 40
1.0
 40
1.0
 40
1.0
 10
3.849877113261191
 20
5.853340985519995
 30
0.0
 10
3.846215928730836
 20
5.853198284090539
 30
0.0
 10
3.837043044962825
 20
5.852840754002916
 30
0.0
 10
3.824266540257186
 20
5.852769610606512
 30
0.0
 10
3.816249667885542
 20
5.853075152199911
 30
0.0
 10
3.812219754520639
 20
5.853228741541701
 30
0.0
  0
LINE
  5
94
330
1F
100
AcDbEntity
  8
0
  6
Continuous
 62
     7
370
    15
100
AcDbLine
 10
3.812219754520639
 20
5.853228741541701
 30
0.0
 11
3.872289882225739
 21
5.869322192640926
 31
0.0
  0
LINE
  5
95
330
1F
100
AcDbEntity
  8
0
  6
Continuous
 62
     7
370
    15
100
AcDbLine
 10
3.961814724953993
 20
5.873353758460321
 30
0.0
 11
3.872289882225739
 21
5.869322192640926
 31
0.0
  0
SPLINE
  5
96
330
1F
100
AcDbEntity
  8
0
  6
Continuous
 62
     7
370
    15
100
AcDbSpline
210
0.0
220
0.0
230
1.0
 70
     8
 71
     3
 72
     9
 73
     5
 74
     0
 42
0.0000000001
 43
0.0000000001
 40
0.0
 40
0.0
 40
0.0
 40
0.0
 40
0.4954580131665095
 40
1.0
 40
1.0
 40
1.0
 40
1.0
 10
3.812219754520639
 20
5.853228741541701
 30
0.0
 10
3.808045083935904
 20
5.843567679935244
 30
0.0
 10
3.799619202279345
 20
5.824068426013178
 30
0.0
 10
3.794313904172296
 20
5.804823410028201
 30
0.0
 10
3.791637158524622
 20
5.795113491426498
 30
0.0
  0
SPLINE
  5
97
330
1F
100
AcDbEntity
  8
0
  6
Continuous
 62
     7
370
    15
100
AcDbSpline
210
0.0
220
0.0
230
1.0
 70
     8
 71
     3
 72
    10
 73
     6
 74
     0
 42
0.0000000001
 43
0.0000000001
 40
0.0
 40
0.0
 40
0.0
 40
0.0
 40
0.0701026779044824
 40
0.5307912612570354
 40
1.0
 40
1.0
 40
1.0
 40
1.0
 10
3.809444492402305
 20
5.684705857525488
 30
0.0
 10
3.810194678904805
 20
5.683423284870133
 30
0.0
 10
3.81587481055944
 20
5.673712124359011
 30
0.0
 10
3.828014668044098
 20
5.655785696396472
 30
0.0
 10
3.841187619107806
 20
5.640251635530621
 30
0.0
 10
3.847834443017564
 20
5.632413439922102
 30
0.0
  0
SPLINE
  5
98
330
1F
100
AcDbEntity
  8
0
  6
Continuous
 62
     7
370
    15
100
AcDbSpline
210
0.0
220
0.0
230
1.0
 70
     8
 71
     3
 72
    10
 73
     6
 74
     0
 42
0.0000000001
 43
0.0000000001
 40
0.0
 40
0.0
 40
0.0
 40
0.0
 40
0.3741462761187704
 40
0.7516824461932418
 40
1.0
 40
1.0
 40
1.0
 40
1.0
 10
3.847834443017564
 20
5.632413439922102
 30
0.0
 10
3.851823414887488
 20
5.632261078352822
 30
0.0
 10
3.859837500084554
 20
5.631954974766038
 30
0.0
 10
3.872603205987731
 20
5.632023327148071
 30
0.0
 10
3.881830660451608
 20
5.632382994293072
 30
0.0
 10
3.885491801758116
 20
5.63252569803074
 30
0.0
  0
SPLINE
  5
99
330
1F
100
AcDbEntity
  8
0
  6
Continuous
 62
     7
370
    15
100
AcDbSpline
210
0.0
220
0.0
230
1.0
 70
     8
 71
     3
 72
     9
 73
     5
 74
     0
 42
0.0000000001
 43
0.0000000001
 40
0.0
 40
0.0
 40
0.0
 40
0.0
 40
0.495458366881029
 40
1.0
 40
1.0
 40
1.0
 40
1.0
 10
3.785264667034195
 20
5.740805324730994
 30
0.0
 10
3.788359622208703
 20
5.731471628481583
 30
0.0
 10
3.794606272545827
 20
5.712633120801982
 30
0.0
 10
3.804468558527051
 20
5.694071146402777
 30
0.0
 10
3.809444492402305
 20
5.684705857525488
 30
0.0
  0
SPLINE
  5
9A
330
1F
100
AcDbEntity
  8
0
  6
Continuous
 62
     7
370
    15
100
AcDbSpline
210
0.0
220
0.0
230
1.0
 70
     8
 71
     3
 72
    10
 73
     6
 74
     0
 42
0.0000000001
 43
0.0000000001
 40
0.0
 40
0.0
 40
0.0
 40
0.0
 40
0.0701023604405701
 40
0.5307910029366942
 40
1.0
 40
1.0
 40
1.0
 40
1.0
 10
3.791637158524622
 20
5.795113491426498
 30
0.0
 10
3.791326138812426
 20
5.793783138305989
 30
0.0
 10
3.788971204343285
 20
5.783710161267025
 30
0.0
 10
3.785961612846059
 20
5.76510146870911
 30
0.0
 10
3.7854983970708
 20
5.74895335937687
 30
0.0
 10
3.785264667034195
 20
5.740805324730994
 30
0.0
  0
SPLINE
  5
9B
330
1F
100
AcDbEntity
  8
0
  6
Continuous
 62
     7
370
    15
100
AcDbSpline
210
0.0
220
0.0
230
1.0
 70
     8
 71
     3
 72
    10
 73
     6
 74
     0
 42
0.0000000001
 43
0.0000000001
 40
0.0
 40
0.0
 40
0.0
 40
0.0
 40
0.0701027000710341
 40
0.5307909652429997
 40
1.0
 40
1.0
 40
1.0
 40
1.0
 10
3.925924412246223
 20
5.223094659433547
 30
0.0
 10
3.925191226406673
 20
5.224381786732444
 30
0.0
 10
3.919639822265563
 20
5.234127424784611
 30
0.0
 10
3.910603435612875
 20
5.252885306971129
 30
0.0
 10
3.904715527259559
 20
5.270371100612091
 30
0.0
 10
3.901744597248893
 20
5.279194109730262
 30
0.0
  0
LINE
  5
9C
330
1F
100
AcDbEntity
  8
0
  6
Continuous
 62
     7
370
    15
100
AcDbLine
 10
3.901744597248893
 20
5.279194109730262
 30
0.0
 11
3.961814724953993
 21
5.295287560829488
 31
0.0
  0
LINE
  5
9D
330
1F
100
AcDbEntity
  8
0
  6
Continuous
 62
     7
370
    15
100
AcDbLine
 10
4.024384490566583
 20
5.186895678799043
 30
0.0
 11
3.961814724953993
 21
5.295287560829488
 31
0.0
  0
LINE
  5
9E
330
1F
100
AcDbEntity
  8
0
  6
Continuous
 62
     7
370
    15
100
AcDbLine
 10
3.964314362861482
 20
5.170802227699816
 30
0.0
 11
4.024384490566583
 21
5.186895678799043
 31
0.0
  0
SPLINE
  5
9F
330
1F
100
AcDbEntity
  8
0
  6
Continuous
 62
     7
370
    15
100
AcDbSpline
210
0.0
220
0.0
230
1.0
 70
     8
 71
     3
 72
     9
 73
     5
 74
     0
 42
0.0000000001
 43
0.0000000001
 40
0.0
 40
0.0
 40
0.0
 40
0.0
 40
0.4954579875587342
 40
1.0
 40
1.0
 40
1.0
 40
1.0
 10
3.964314362861482
 20
5.170802227699816
 30
0.0
 10
3.957247705374754
 20
5.179071858306577
 30
0.0
 10
3.942984826050621
 20
5.195762739903838
 30
0.0
 10
3.931645552262768
 20
5.213929011967827
 30
0.0
 10
3.925924412246223
 20
5.223094659433547
 30
0.0
  0
ARC
  5
A0
330
1F
100
AcDbEntity
  8
0
  6
Continuous
 62
     7
370
    15
100
AcDbCircle
 10
3.791513153138092
 20
5.144775950544904
 30
0.0
 40
0.1555641563375619
100
AcDbArc
 50
348.0958729190876
 51
30.2284858909477
  0
SPLINE
  5
A1
330
1F
100
AcDbEntity
  8
0
  6
Continuous
 62
     7
370
    15
100
AcDbSpline
210
0.0
220
0.0
230
1.0
 70
     8
 71
     3
 72
    10
 73
     6
 74
     0
 42
0.0000000001
 43
0.0000000001
 40
0.0
 40
0.0
 40
0.0
 40
0.0
 40
0.0701023696740899
 40
0.5307908611351514
 40
1.0
 40
1.0
 40
1.0
 40
1.0
 10
3.943731766865465
 20
5.112687005845302
 30
0.0
 10
3.944059787330436
 20
5.114021913688266
 30
0.0
 10
3.946543444671574
 20
5.124129373490228
 30
0.0
 10
3.952656501802977
 20
5.14356950625016
 30
0.0
 10
3.960404743475228
 20
5.161669370893091
 30
0.0
 10
3.964314362861482
 20
5.170802227699816
 30
0.0
  0
LINE
  5
A2
330
1F
100
AcDbEntity
  8
0
  6
Continuous
 62
     7
370
    15
100
AcDbLine
 10
3.997429423821698
 20
5.074472256431444
 30
0.0
 11
4.024384490566583
 21
5.186895678799043
 31
0.0
  0
LINE
  5
A3
330
1F
100
AcDbEntity
  8
0
  6
Continuous
 62
     7
370
    15
100
AcDbLine
 10
3.937359296116598
 20
5.058378805332217
 30
0.0
 11
3.997429423821698
 21
5.074472256431444
 31
0.0
  0
SPLINE
  5
A4
330
1F
100
AcDbEntity
  8
0
  6
Continuous
 62
     7
370
    15
100
AcDbSpline
210
0.0
220
0.0
230
1.0
 70
     8
 71
     3
 72
     9
 73
     5
 74
     0
 42
0.0000000001
 43
0.0000000001
 40
0.0
 40
0.0
 40
0.0
 40
0.0
 40
0.4954579487920303
 40
1.0
 40
1.0
 40
1.0
 40
1.0
 10
3.937359296116598
 20
5.058378805332217
 30
0.0
 10
3.937562251020292
 20
5.066975803741081
 30
0.0
 10
3.937971881957063
 20
5.084327424458488
 30
0.0
 10
3.941800212912504
 20
5.103176735691793
 30
0.0
 10
3.943731766865465
 20
5.112687005845302
 30
0.0
  0
LWPOLYLINE
  5
A5
330
1F
100
AcDbEntity
  8
0
  6
Continuous
 62
     7
370
    15
100
AcDbPolyline
 90
        9
 70
   128
 43
0.0
 10
3.885491801758116
 20
5.05445951453025
 10
3.895459261790672
 20
5.05585976296466
 10
3.904951491216396
 20
5.059125193634867
 10
3.913806052513579
 20
5.064199904250298
 10
3.921871470074606
 20
5.070997049361343
 10
3.929009729563851
 20
5.079400318565988
 10
3.935098704680117
 20
5.089265971118624
 10
3.940034200200226
 20
5.100425171166198
 10
3.943731766865465
 20
5.112687005845302
  0
LWPOLYLINE
  5
A6
330
1F
100
AcDbEntity
  8
0
  6
Continuous
 62
     7
370
    15
100
AcDbPolyline
 90
        9
 70
   128
 43
0.0
 10
3.809444492402305
 20
5.106639674024999
 10
3.817015576380379
 20
5.094885296640695
 10
3.825453616054348
 20
5.084328332153159
 10
3.834614229429879
 20
5.075149415526602
 10
3.844340672543292
 20
5.067505617719846
 10
3.854466556605831
 20
5.061527682963841
 10
3.864818585889489
 20
5.057317910478129
 10
3.875219668960907
 20
5.054948331812838
 10
3.885491801758116
 20
5.05445951453025
  0
ARC
  5
A7
330
1F
100
AcDbEntity
  8
0
  6
Continuous
 62
     7
370
    15
100
AcDbCircle
 10
3.94385574018273
 20
5.184958350875263
 30
0.0
 40
0.1555641304204377
100
AcDbArc
 50
168.0958609390559
 51
210.2284777958625
  0
LWPOLYLINE
  5
A8
330
1F
100
AcDbEntity
  8
0
  6
Continuous
 62
     7
370
    15
100
AcDbPolyline
 90
        9
 70
   128
 43
0.0
 10
3.849877113261191
 20
5.275274816149849
 10
3.839909653228636
 20
5.273874539454753
 10
3.830417423802911
 20
5.270609108784547
 10
3.821562872876508
 20
5.265534423651357
 10
3.813497455315481
 20
5.25873727854031
 10
3.806359185455456
 20
5.250333983853425
 10
3.800270210339191
 20
5.240468331300789
 10
3.795334714819081
 20
5.229309131253215
 10
3.791637158524622
 20
5.217047322056353
  0
LWPOLYLINE
  5
A9
330
1F
100
AcDbEntity
  8
0
  6
Continuous
 62
     7
370
    15
100
AcDbPolyline
 90
        9
 70
   128
 43
0.0
 10
3.925924412246223
 20
5.223094659433547
 10
3.918353338638929
 20
5.234849005778717
 10
3.909915309335739
 20
5.245405967487807
 10
3.900754685589429
 20
5.254584886892811
 10
3.891028242476015
 20
5.262228712960255
 10
3.880902358413476
 20
5.26820664771626
 10
3.870550329129819
 20
5.27241642020197
 10
3.860149246058401
 20
5.274785970606576
 10
3.849877113261191
 20
5.275274816149849
  0
SPLINE
  5
AA
330
1F
100
AcDbEntity
  8
0
  6
Continuous
 62
     7
370
    15
100
AcDbSpline
210
0.0
220
0.0
230
1.0
 70
     8
 71
     3
 72
    10
 73
     6
 74
     0
 42
0.0000000001
 43
0.0000000001
 40
0.0
 40
0.0
 40
0.0
 40
0.0
 40
0.2318983891603459
 40
0.6135118861993948
 40
1.0
 40
1.0
 40
1.0
 40
1.0
 10
3.901744597248893
 20
5.279194109730262
 30
0.0
 10
3.897408992823455
 20
5.278787454563661
 30
0.0
 10
3.885938689564793
 20
5.277711605010773
 30
0.0
 10
3.868067787527136
 20
5.276249990974335
 30
0.0
 10
3.855966271371442
 20
5.275601246803525
 30
0.0
 10
3.849877113261191
 20
5.275274816149849
 30
0.0
  0
SPLINE
  5
AB
330
1F
100
AcDbEntity
  8
0
  6
Continuous
 62
     7
370
    15
100
AcDbSpline
210
0.0
220
0.0
230
1.0
 70
     8
 71
     3
 72
    10
 73
     6
 74
     0
 42
0.0000000001
 43
0.0000000001
 40
0.0
 40
0.0
 40
0.0
 40
0.0
 40
0.3813025777606454
 40
0.768101939440835
 40
1.0
 40
1.0
 40
1.0
 40
1.0
 10
3.885491801758116
 20
5.05445951453025
 30
0.0
 10
3.891496401151739
 20
5.054780807162582
 30
0.0
 10
3.903592161077868
 20
5.05542802411944
 30
0.0
 10
3.921456448951379
 20
5.056887214853952
 30
0.0
 10
3.933023698891405
 20
5.057972152644714
 30
0.0
 10
3.937359296116598
 20
5.058378805332217
 30
0.0
  0
SPLINE
  5
AC
330
1F
100
AcDbEntity
  8
0
  6
Continuous
 62
     7
370
    15
100
AcDbSpline
210
0.0
220
0.0
230
1.0
 70
     8
 71
     3
 72
    10
 73
     6
 74
     0
 42
0.0000000001
 43
0.0000000001
 40
0.0
 40
0.0
 40
0.0
 40
0.0
 40
0.2483175841330222
 40
0.6221449392406764
 40
1.0
 40
1.0
 40
1.0
 40
1.0
 10
3.84987711326119
 20
5.275274816149849
 30
0.0
 10
3.846215929249949
 20
5.275132101248583
 30
0.0
 10
3.837043050445672
 20
5.27477453755092
 30
0.0
 10
3.824266535204762
 20
5.274703462359908
 30
0.0
 10
3.816249666888796
 20
5.275008971062758
 30
0.0
 10
3.812219754520639
 20
5.275162543910868
 30
0.0
  0
LINE
  5
AD
330
1F
100
AcDbEntity
  8
0
  6
Continuous
 62
     7
370
    15
100
AcDbLine
 10
3.812219754520639
 20
5.275162543910868
 30
0.0
 11
3.872289882225739
 21
5.291255995010093
 31
0.0
  0
LINE
  5
AE
330
1F
100
AcDbEntity
  8
0
  6
Continuous
 62
     7
370
    15
100
AcDbLine
 10
3.961814724953993
 20
5.295287560829488
 30
0.0
 11
3.872289882225739
 21
5.291255995010093
 31
0.0
  0
SPLINE
  5
AF
330
1F
100
AcDbEntity
  8
0
  6
Continuous
 62
     7
370
    15
100
AcDbSpline
210
0.0
220
0.0
230
1.0
 70
     8
 71
     3
 72
     9
 73
     5
 74
     0
 42
0.0000000001
 43
0.0000000001
 40
0.0
 40
0.0
 40
0.0
 40
0.0
 40
0.4954578038676089
 40
1.0
 40
1.0
 40
1.0
 40
1.0
 10
3.812219754520639
 20
5.275162543910868
 30
0.0
 10
3.808045083444637
 20
5.26550149208498
 30
0.0
 10
3.799619197237147
 20
5.246002249666205
 30
0.0
 10
3.794313903219443
 20
5.226757240995604
 30
0.0
 10
3.791637158524622
 20
5.217047322056353
 30
0.0
  0
SPLINE
  5
B0
330
1F
100
AcDbEntity
  8
0
  6
Continuous
 62
     7
370
    15
100
AcDbSpline
210
0.0
220
0.0
230
1.0
 70
     8
 71
     3
 72
    10
 73
     6
 74
     0
 42
0.0000000001
 43
0.0000000001
 40
0.0
 40
0.0
 40
0.0
 40
0.0
 40
0.0701026665381037
 40
0.5307913373340752
 40
1.0
 40
1.0
 40
1.0
 40
1.0
 10
3.809444492402305
 20
5.106639674024999
 30
0.0
 10
3.81019467893391
 20
5.105357101395723
 30
0.0
 10
3.815874812544007
 20
5.095645938115629
 30
0.0
 10
3.828014663420995
 20
5.07771949928095
 30
0.0
 10
3.841187618327671
 20
5.062185437164254
 30
0.0
 10
3.847834443017564
 20
5.054347242291269
 30
0.0
  0
SPLINE
  5
B1
330
1F
100
AcDbEntity
  8
0
  6
Continuous
 62
     7
370
    15
100
AcDbSpline
210
0.0
220
0.0
230
1.0
 70
     8
 71
     3
 72
    10
 73
     6
 74
     0
 42
0.0000000001
 43
0.0000000001
 40
0.0
 40
0.0
 40
0.0
 40
0.0
 40
0.3741463063087767
 40
0.7516824333807597
 40
1.0
 40
1.0
 40
1.0
 40
1.0
 10
3.847834443017564
 20
5.054347242291269
 30
0.0
 10
3.851823414559022
 20
5.054194887801389
 30
0.0
 10
3.859837498312918
 20
5.053888798467459
 30
0.0
 10
3.872603207393782
 20
5.053957131551803
 30
0.0
 10
3.881830660589328
 20
5.054316807346449
 30
0.0
 10
3.885491801758116
 20
5.05445951453025
 30
0.0
  0
SPLINE
  5
B2
330
1F
100
AcDbEntity
  8
0
  6
Continuous
 62
     7
370
    15
100
AcDbSpline
210
0.0
220
0.0
230
1.0
 70
     8
 71
     3
 72
     9
 73
     5
 74
     0
 42
0.0000000001
 43
0.0000000001
 40
0.0
 40
0.0
 40
0.0
 40
0.0
 40
0.4954584473433054
 40
1.0
 40
1.0
 40
1.0
 40
1.0
 10
3.785264667034195
 20
5.16273912710016
 30
0.0
 10
3.788359621795052
 20
5.153405430436412
 30
0.0
 10
3.794606270282836
 20
5.134566924979904
 30
0.0
 10
3.804468558295598
 20
5.116004957777609
 30
0.0
 10
3.809444492402305
 20
5.106639674024999
 30
0.0
  0
SPLINE
  5
B3
330
1F
100
AcDbEntity
  8
0
  6
Continuous
 62
     7
370
    15
100
AcDbSpline
210
0.0
220
0.0
230
1.0
 70
     8
 71
     3
 72
    10
 73
     6
 74
     0
 42
0.0000000001
 43
0.0000000001
 40
0.0
 40
0.0
 40
0.0
 40
0.0
 40
0.070102756393651
 40
0.5307909932419303
 40
1.0
 40
1.0
 40
1.0
 40
1.0
 10
3.791637158524622
 20
5.217047322056353
 30
0.0
 10
3.791326138907375
 20
5.21571695938775
 30
0.0
 10
3.788971218501261
 20
5.205643967132291
 30
0.0
 10
3.785961606505265
 20
5.187035282820482
 30
0.0
 10
3.785498395013687
 20
5.170887168101765
 30
0.0
 10
3.785264667034195
 20
5.16273912710016
 30
0.0
  0
SPLINE
  5
B4
330
1F
100
AcDbEntity
  8
0
  6
Continuous
 62
     7
370
    15
100
AcDbSpline
210
0.0
220
0.0
230
1.0
 70
     8
 71
     3
 72
    10
 73
     6
 74
     0
 42
0.0000000001
 43
0.0000000001
 40
0.0
 40
0.0
 40
0.0
 40
0.0
 40
0.0701024073623276
 40
0.5307910429342138
 40
1.0
 40
1.0
 40
1.0
 40
1.0
 10
3.501660327920049
 20
5.336759696534533
 30
0.0
 10
3.500927149377148
 20
5.338046822324931
 30
0.0
 10
3.495375776491591
 20
5.347792491074092
 30
0.0
 10
3.486339338305209
 20
5.366550320382517
 30
0.0
 10
3.480451444524168
 20
5.384036130738643
 30
0.0
 10
3.477480523293499
 20
5.392859144052803
 30
0.0
  0
LINE
  5
B5
330
1F
100
AcDbEntity
  8
0
  6
Continuous
 62
     7
370
    15
100
AcDbLine
 10
3.477480523293499
 20
5.392859144052803
 30
0.0
 11
3.537550650998599
 21
5.408952595152029
 31
0.0
  0
LINE
  5
B6
330
1F
100
AcDbEntity
  8
0
  6
Continuous
 62
     7
370
    15
100
AcDbLine
 10
3.600120426981968
 20
5.300560710343137
 30
0.0
 11
3.537550650998599
 21
5.408952595152029
 31
0.0
  0
LINE
  5
B7
330
1F
100
AcDbEntity
  8
0
  6
Continuous
 62
     7
370
    15
100
AcDbLine
 10
3.540050299276868
 20
5.28446725924391
 30
0.0
 11
3.600120426981968
 21
5.300560710343137
 31
0.0
  0
SPLINE
  5
B8
330
1F
100
AcDbEntity
  8
0
  6
Continuous
 62
     7
370
    15
100
AcDbSpline
210
0.0
220
0.0
230
1.0
 70
     8
 71
     3
 72
     9
 73
     5
 74
     0
 42
0.0000000001
 43
0.0000000001
 40
0.0
 40
0.0
 40
0.0
 40
0.0
 40
0.4954578378331777
 40
1.0
 40
1.0
 40
1.0
 40
1.0
 10
3.540050299276868
 20
5.28446725924391
 30
0.0
 10
3.532983642674604
 20
5.292736890753797
 30
0.0
 10
3.518720760825427
 20
5.309427779217795
 30
0.0
 10
3.507381475470467
 20
5.327594048003095
 30
0.0
 10
3.501660327920049
 20
5.336759696534533
 30
0.0
  0
ARC
  5
B9
330
1F
100
AcDbEntity
  8
0
  6
Continuous
 62
     7
370
    15
100
AcDbCircle
 10
3.367249289764681
 20
5.258440993071439
 30
0.0
 40
0.1555639626974834
100
AcDbArc
 50
348.0958537504784
 51
30.22852513467218
  0
SPLINE
  5
BA
330
1F
100
AcDbEntity
  8
0
  6
Continuous
 62
     7
370
    15
100
AcDbSpline
210
0.0
220
0.0
230
1.0
 70
     8
 71
     3
 72
    10
 73
     6
 74
     0
 42
0.0000000001
 43
0.0000000001
 40
0.0
 40
0.0
 40
0.0
 40
0.0
 40
0.0701023696740899
 40
0.5307908611351514
 40
1.0
 40
1.0
 40
1.0
 40
1.0
 10
3.519467703280851
 20
5.226352037389395
 30
0.0
 10
3.519795723745823
 20
5.227686945232359
 30
0.0
 10
3.522279381086959
 20
5.237794405034323
 30
0.0
 10
3.528392438218362
 20
5.257234537794253
 30
0.0
 10
3.536140679890614
 20
5.275334402437183
 30
0.0
 10
3.540050299276868
 20
5.28446725924391
 30
0.0
  0
LINE
  5
BB
330
1F
100
AcDbEntity
  8
0
  6
Continuous
 62
     7
370
    15
100
AcDbLine
 10
3.573165360237084
 20
5.188137287975536
 30
0.0
 11
3.600120426981968
 21
5.300560710343137
 31
0.0
  0
LINE
  5
BC
330
1F
100
AcDbEntity
  8
0
  6
Continuous
 62
     7
370
    15
100
AcDbLine
 10
3.513095232531983
 20
5.17204383687631
 30
0.0
 11
3.573165360237084
 21
5.188137287975536
 31
0.0
  0
SPLINE
  5
BD
330
1F
100
AcDbEntity
  8
0
  6
Continuous
 62
     7
370
    15
100
AcDbSpline
210
0.0
220
0.0
230
1.0
 70
     8
 71
     3
 72
     9
 73
     5
 74
     0
 42
0.0000000001
 43
0.0000000001
 40
0.0
 40
0.0
 40
0.0
 40
0.0
 40
0.4954580131665095
 40
1.0
 40
1.0
 40
1.0
 40
1.0
 10
3.513095232531983
 20
5.17204383687631
 30
0.0
 10
3.513298192450769
 20
5.180640833300543
 30
0.0
 10
3.51370783345645
 20
5.197992447757818
 30
0.0
 10
3.51753615455005
 20
5.216841765277539
 30
0.0
 10
3.519467703280851
 20
5.226352037389395
 30
0.0
  0
LWPOLYLINE
  5
BE
330
1F
100
AcDbEntity
  8
0
  6
Continuous
 62
     7
370
    15
100
AcDbPolyline
 90
        9
 70
   128
 43
0.0
 10
3.461227727802723
 20
5.16812454885279
 10
3.471195208576837
 20
5.169524791730307
 10
3.480687417261002
 20
5.172790227957406
 10
3.489541988928965
 20
5.17786493579439
 10
3.497607385748432
 20
5.18466208646233
 10
3.504745676350016
 20
5.193065347331635
 10
3.510834651466281
 20
5.202930999884271
 10
3.515770146986392
 20
5.214090199931846
 10
3.519467703280851
 20
5.226352037389395
  0
LWPOLYLINE
  5
BF
330
1F
100
AcDbEntity
  8
0
  6
Continuous
 62
     7
370
    15
100
AcDbPolyline
 90
        9
 70
   128
 43
0.0
 10
3.385180418446911
 20
5.22030470834754
 10
3.392751502424985
 20
5.208550330963237
 10
3.401189542098954
 20
5.197993366475698
 10
3.410350176216044
 20
5.188814444292249
 10
3.420076598587898
 20
5.181170652042386
 10
3.430202503391996
 20
5.175192711729487
 10
3.440554532675654
 20
5.170982939243777
 10
3.450955595005513
 20
5.168613366135379
 10
3.461227727802723
 20
5.16812454885279
  0
ARC
  5
C0
330
1F
100
AcDbEntity
  8
0
  6
Continuous
 62
     7
370
    15
100
AcDbCircle
 10
3.519591877774224
 20
5.298623479740403
 30
0.0
 40
0.1555643607995924
100
AcDbArc
 50
168.0959102292578
 51
210.2284686558924
  0
LWPOLYLINE
  5
C1
330
1F
100
AcDbEntity
  8
0
  6
Continuous
 62
     7
370
    15
100
AcDbPolyline
 90
        9
 70
   128
 43
0.0
 10
3.425613018564237
 20
5.388939856029282
 10
3.415645579273242
 20
5.387539573777293
 10
3.406153370589077
 20
5.384274137550194
 10
3.397298798921114
 20
5.379199457973896
 10
3.389233360618528
 20
5.372402318419744
 10
3.382095152983182
 20
5.363999007062179
 10
3.376006177866915
 20
5.354133354509543
 10
3.371070682346805
 20
5.342974154461968
 10
3.367373043086109
 20
5.330712367492678
  0
LWPOLYLINE
  5
C2
330
1F
100
AcDbEntity
  8
0
  6
Continuous
 62
     7
370
    15
100
AcDbPolyline
 90
        9
 70
   128
 43
0.0
 10
3.501660327920049
 20
5.336759696534533
 10
3.494089285425094
 20
5.348514034544364
 10
3.485651245751125
 20
5.359070999031902
 10
3.476490611634035
 20
5.368249921215351
 10
3.466764147779061
 20
5.375893752839687
 10
3.456638284458082
 20
5.381871682038799
 10
3.446286255174424
 20
5.386081454524512
 10
3.435885192844566
 20
5.388450999372222
 10
3.425613018564237
 20
5.388939856029282
  0
SPLINE
  5
C3
330
1F
100
AcDbEntity
  8
0
  6
Continuous
 62
     7
370
    15
100
AcDbSpline
210
0.0
220
0.0
230
1.0
 70
     8
 71
     3
 72
    10
 73
     6
 74
     0
 42
0.0000000001
 43
0.0000000001
 40
0.0
 40
0.0
 40
0.0
 40
0.0
 40
0.231898287357743
 40
0.6135111902451657
 40
1.0
 40
1.0
 40
1.0
 40
1.0
 10
3.477480523293499
 20
5.392859144052803
 30
0.0
 10
3.473144918926099
 20
5.39245248939246
 30
0.0
 10
3.461674623797219
 20
5.391376641927059
 30
0.0
 10
3.443803711604335
 20
5.389915011902128
 30
0.0
 10
3.431702189716523
 20
5.389266280701328
 30
0.0
 10
3.425613018564237
 20
5.388939856029282
 30
0.0
  0
SPLINE
  5
C4
330
1F
100
AcDbEntity
  8
0
  6
Continuous
 62
     7
370
    15
100
AcDbSpline
210
0.0
220
0.0
230
1.0
 70
     8
 71
     3
 72
    10
 73
     6
 74
     0
 42
0.0000000001
 43
0.0000000001
 40
0.0
 40
0.0
 40
0.0
 40
0.0
 40
0.3813029255282555
 40
0.768102200916869
 40
1.0
 40
1.0
 40
1.0
 40
1.0
 10
3.461227727802722
 20
5.16812454885279
 30
0.0
 10
3.467232333941509
 20
5.16844583913935
 30
0.0
 10
3.479328100540864
 20
5.169093051000887
 30
0.0
 10
3.497192391274587
 20
5.170552241721117
 30
0.0
 10
3.508759638700637
 20
5.171637183080989
 30
0.0
 10
3.513095232531983
 20
5.17204383687631
 30
0.0
  0
SPLINE
  5
C5
330
1F
100
AcDbEntity
  8
0
  6
Continuous
 62
     7
370
    15
100
AcDbSpline
210
0.0
220
0.0
230
1.0
 70
     8
 71
     3
 72
    10
 73
     6
 74
     0
 42
0.0000000001
 43
0.0000000001
 40
0.0
 40
0.0
 40
0.0
 40
0.0
 40
0.2483166189077817
 40
0.6221438255355425
 40
1.0
 40
1.0
 40
1.0
 40
1.0
 10
3.425613018564237
 20
5.388939856029282
 30
0.0
 10
3.421951848740313
 20
5.388797136794797
 30
0.0
 10
3.412778986246414
 20
5.388439561490694
 30
0.0
 10
3.400002471716732
 20
5.388368488657062
 30
0.0
 10
3.391985573289682
 20
5.388674009926611
 30
0.0
 10
3.387955639082126
 20
5.388827589347193
 30
0.0
  0
LINE
  5
C6
330
1F
100
AcDbEntity
  8
0
  6
Continuous
 62
     7
370
    15
100
AcDbLine
 10
3.387955639082126
 20
5.388827589347193
 30
0.0
 11
3.448025766787227
 21
5.40492104044642
 31
0.0
  0
LINE
  5
C7
330
1F
100
AcDbEntity
  8
0
  6
Continuous
 62
     7
370
    15
100
AcDbLine
 10
3.537550650998599
 20
5.408952595152029
 30
0.0
 11
3.448025766787227
 21
5.40492104044642
 31
0.0
  0
SPLINE
  5
C8
330
1F
100
AcDbEntity
  8
0
  6
Continuous
 62
     7
370
    15
100
AcDbSpline
210
0.0
220
0.0
230
1.0
 70
     8
 71
     3
 72
     9
 73
     5
 74
     0
 42
0.0000000001
 43
0.0000000001
 40
0.0
 40
0.0
 40
0.0
 40
0.0
 40
0.4954572888714045
 40
0.9999999999999998
 40
0.9999999999999998
 40
0.9999999999999998
 40
0.9999999999999998
 10
3.387955639082126
 20
5.388827589347193
 30
0.0
 10
3.383781008031449
 20
5.379166521618723
 30
0.0
 10
3.3753551938504
 20
5.359667226834955
 30
0.0
 10
3.370049827173037
 20
5.340422270126111
 30
0.0
 10
3.367373043086109
 20
5.330712367492678
 30
0.0
  0
SPLINE
  5
C9
330
1F
100
AcDbEntity
  8
0
  6
Continuous
 62
     7
370
    15
100
AcDbSpline
210
0.0
220
0.0
230
1.0
 70
     8
 71
     3
 72
    10
 73
     6
 74
     0
 42
0.0000000001
 43
0.0000000001
 40
0.0
 40
0.0
 40
0.0
 40
0.0
 40
0.070102949346791
 40
0.5307908829647006
 40
1.0
 40
1.0
 40
1.0
 40
1.0
 10
3.385180418446911
 20
5.22030470834754
 30
0.0
 10
3.385930612227243
 20
5.219022134243504
 30
0.0
 10
3.391610772944691
 20
5.209311007286763
 30
0.0
 10
3.403750562707442
 20
5.191384495598278
 30
0.0
 10
3.4169235435626
 20
5.175850461677089
 30
0.0
 10
3.423570389803729
 20
5.168012271056916
 30
0.0
  0
SPLINE
  5
CA
330
1F
100
AcDbEntity
  8
0
  6
Continuous
 62
     7
370
    15
100
AcDbSpline
210
0.0
220
0.0
230
1.0
 70
     8
 71
     3
 72
    10
 73
     6
 74
     0
 42
0.0000000001
 43
0.0000000001
 40
0.0
 40
0.0
 40
0.0
 40
0.0
 40
0.3741464654920438
 40
0.7516818944329556
 40
1.0
 40
1.0
 40
1.0
 40
1.0
 10
3.423570389803729
 20
5.168012271056916
 30
0.0
 10
3.427559362203921
 20
5.167859914952352
 30
0.0
 10
3.435573438527412
 20
5.167553822724122
 30
0.0
 10
3.448339128234819
 20
5.167622176931613
 30
0.0
 10
3.457566578800177
 20
5.167981844562194
 30
0.0
 10
3.461227727802723
 20
5.16812454885279
 30
0.0
  0
SPLINE
  5
CB
330
1F
100
AcDbEntity
  8
0
  6
Continuous
 62
     7
370
    15
100
AcDbSpline
210
0.0
220
0.0
230
1.0
 70
     8
 71
     3
 72
     9
 73
     5
 74
     0
 42
0.0000000001
 43
0.0000000001
 40
0.0
 40
0.0
 40
0.0
 40
0.0
 40
0.4954579987573388
 40
1.0
 40
1.0
 40
1.0
 40
1.0
 10
3.361000572337242
 20
5.276404166979594
 30
0.0
 10
3.364095517413783
 20
5.267070469450105
 30
0.0
 10
3.370342152011071
 20
5.248231945189929
 30
0.0
 10
3.380204466538405
 20
5.229669992901908
 30
0.0
 10
3.385180418446911
 20
5.22030470834754
 30
0.0
  0
SPLINE
  5
CC
330
1F
100
AcDbEntity
  8
0
  6
Continuous
 62
     7
370
    15
100
AcDbSpline
210
0.0
220
0.0
230
1.0
 70
     8
 71
     3
 72
    10
 73
     6
 74
     0
 42
0.0000000001
 43
0.0000000001
 40
0.0
 40
0.0
 40
0.0
 40
0.0
 40
0.0701022430964573
 40
0.530791059604541
 40
1.0
 40
1.0
 40
1.0
 40
1.0
 10
3.367373043086109
 20
5.330712367492678
 30
0.0
 10
3.367062053453099
 20
5.329381995900897
 30
0.0
 10
3.364707342540292
 20
5.319308861066998
 30
0.0
 10
3.361697392254623
 20
5.300700406530197
 30
0.0
 10
3.361234260115101
 20
5.284552232339541
 30
0.0
 10
3.361000572337242
 20
5.276404166979594
 30
0.0
  0
SPLINE
  5
CD
330
1F
100
AcDbEntity
  8
0
  6
Continuous
 62
     7
370
    15
100
AcDbSpline
210
0.0
220
0.0
230
1.0
 70
     8
 71
     3
 72
    10
 73
     6
 74
     0
 42
0.0000000001
 43
0.0000000001
 40
0.0
 40
0.0
 40
0.0
 40
0.0
 40
0.0701055862005277
 40
0.5307912761602585
 40
1.0
 40
1.0
 40
1.0
 40
1.0
 10
3.925924412246223
 20
9.558591000361357
 30
0.0
 10
3.925191228585295
 20
9.559878214959113
 30
0.0
 10
3.919640066229554
 20
9.569624118474996
 30
0.0
 10
3.910603319080464
 20
9.588381642124517
 30
0.0
 10
3.904715492998906
 20
9.605867462854833
 30
0.0
 10
3.901744597248893
 20
9.614690507179448
 30
0.0
  0
LINE
  5
CE
330
1F
100
AcDbEntity
  8
0
  6
Continuous
 62
     7
370
    15
100
AcDbLine
 10
3.901744597248893
 20
9.614690507179448
 30
0.0
 11
3.961814724953993
 21
9.630783958278673
 31
0.0
  0
LINE
  5
CF
330
1F
100
AcDbEntity
  8
0
  6
Continuous
 62
     7
370
    15
100
AcDbLine
 10
4.024384490566583
 20
9.522391991466164
 30
0.0
 11
3.961814724953993
 21
9.630783958278673
 31
0.0
  0
LINE
  5
D0
330
1F
100
AcDbEntity
  8
0
  6
Continuous
 62
     7
370
    15
100
AcDbLine
 10
3.964314362861482
 20
9.506298540366937
 30
0.0
 11
4.024384490566583
 21
9.522391991466164
 31
0.0
  0
SPLINE
  5
D1
330
1F
100
AcDbEntity
  8
0
  6
Continuous
 62
     7
370
    15
100
AcDbSpline
210
0.0
220
0.0
230
1.0
 70
     8
 71
     3
 72
     9
 73
     5
 74
     0
 42
0.0000000001
 43
0.0000000001
 40
0.0
 40
0.0
 40
0.0
 40
0.0
 40
0.4954578266343929
 40
1.0
 40
1.0
 40
1.0
 40
1.0
 10
3.964314362861482
 20
9.506298540366937
 30
0.0
 10
3.957247704517649
 20
9.514568170137039
 30
0.0
 10
3.942984818831019
 20
9.531259055466827
 30
0.0
 10
3.931645551054542
 20
9.549425342446598
 30
0.0
 10
3.925924412246223
 20
9.558591000361357
 30
0.0
  0
ARC
  5
D2
330
1F
100
AcDbEntity
  8
0
  6
Continuous
 62
     7
370
    15
100
AcDbCircle
 10
3.791514127693492
 20
9.480272514365987
 30
0.0
 40
0.1555632020824753
100
AcDbArc
 50
348.0958000292338
 51
30.22859566787007
  0
SPLINE
  5
D3
330
1F
100
AcDbEntity
  8
0
  6
Continuous
 62
     7
370
    15
100
AcDbSpline
210
0.0
220
0.0
230
1.0
 70
     8
 71
     3
 72
    10
 73
     6
 74
     0
 42
0.0000000001
 43
0.0000000001
 40
0.0
 40
0.0
 40
0.0
 40
0.0
 40
0.0701039083786851
 40
0.5307920064799793
 40
1.0
 40
1.0
 40
1.0
 40
1.0
 10
3.943731766865465
 20
9.44818357285861
 30
0.0
 10
3.944059786600388
 20
9.449518509267885
 30
0.0
 10
3.946543389259513
 20
9.459625985321522
 30
0.0
 10
3.952656509969097
 20
9.479065991976357
 30
0.0
 10
3.960404748257051
 20
9.497165746370777
 30
0.0
 10
3.964314362861482
 20
9.506298540366937
 30
0.0
  0
LINE
  5
D4
330
1F
100
AcDbEntity
  8
0
  6
Continuous
 62
     7
370
    15
100
AcDbLine
 10
3.997429423821698
 20
9.409968653880627
 30
0.0
 11
4.024384490566583
 21
9.522391991466164
 31
0.0
  0
LINE
  5
D5
330
1F
100
AcDbEntity
  8
0
  6
Continuous
 62
     7
370
    15
100
AcDbLine
 10
3.937359296116598
 20
9.393875202781401
 30
0.0
 11
3.997429423821698
 21
9.409968653880627
 31
0.0
  0
SPLINE
  5
D6
330
1F
100
AcDbEntity
  8
0
  6
Continuous
 62
     7
370
    15
100
AcDbSpline
210
0.0
220
0.0
230
1.0
 70
     8
 71
     3
 72
     9
 73
     5
 74
     0
 42
0.0000000001
 43
0.0000000001
 40
0.0
 40
0.0
 40
0.0
 40
0.0
 40
0.4954579463037783
 40
1.0
 40
1.0
 40
1.0
 40
1.0
 10
3.937359296116598
 20
9.393875202781401
 30
0.0
 10
3.937562251025672
 20
9.40247222960034
 30
0.0
 10
3.937971881975358
 20
9.419823907745929
 30
0.0
 10
3.941800212912307
 20
9.438673274596796
 30
0.0
 10
3.943731766865465
 20
9.44818357285861
 30
0.0
  0
LWPOLYLINE
  5
D7
330
1F
100
AcDbEntity
  8
0
  6
Continuous
 62
     7
370
    15
100
AcDbPolyline
 90
        9
 70
   128
 43
0.0
 10
3.885491801758116
 20
9.389955770675998
 10
3.895459261790672
 20
9.391356273456592
 10
3.904951491216396
 20
9.394621788908862
 10
3.913806052513579
 20
9.399696358220856
 10
3.921871470074606
 20
9.406493503331901
 10
3.929009729563851
 20
9.414896913839982
 10
3.935098704680117
 20
9.424762509871245
 10
3.940034200200226
 20
9.435921512094008
 10
3.943731766865465
 20
9.44818357285861
  0
LWPOLYLINE
  5
D8
330
1F
100
AcDbEntity
  8
0
  6
Continuous
 62
     7
370
    15
100
AcDbPolyline
 90
        9
 70
   128
 43
0.0
 10
3.809444492402305
 20
9.442136297559683
 10
3.817015576380379
 20
9.430381722350567
 10
3.825453616054348
 20
9.41982464482028
 10
3.834614229429879
 20
9.410645728193724
 10
3.844340672543292
 20
9.403001817344218
 10
3.854466556605831
 20
9.397024306498522
 10
3.864818585889489
 20
9.392814336187999
 10
3.875219668960907
 20
9.390444672740647
 10
3.885491801758116
 20
9.389955770675998
  0
ARC
  5
D9
330
1F
100
AcDbEntity
  8
0
  6
Continuous
 62
     7
370
    15
100
AcDbCircle
 10
3.943854548675808
 20
9.520454716525227
 30
0.0
 40
0.1555629710975878
100
AcDbArc
 50
168.0957589558096
 51
210.2286166661391
  0
LWPOLYLINE
  5
DA
330
1F
100
AcDbEntity
  8
0
  6
Continuous
 62
     7
370
    15
100
AcDbPolyline
 90
        9
 70
   128
 43
0.0
 10
3.849877113261191
 20
9.610771072295596
 10
3.839909653228636
 20
9.609371021685998
 10
3.830417423802911
 20
9.606105506233731
 10
3.821562872876508
 20
9.60103093414329
 10
3.813497455315481
 20
9.594233789032244
 10
3.806359185455456
 20
9.585830381302608
 10
3.800270210339191
 20
9.575964785271347
 10
3.795334714819081
 20
9.564805783048583
 10
3.791637158524622
 20
9.552543719505537
  0
LWPOLYLINE
  5
DB
330
1F
100
AcDbEntity
  8
0
  6
Continuous
 62
     7
370
    15
100
AcDbPolyline
 90
        9
 70
   128
 43
0.0
 10
3.925924412246223
 20
9.558591000361357
 10
3.918353338638929
 20
9.570345572792025
 10
3.909915309335739
 20
9.580902195372868
 10
3.900754685589429
 20
9.590081114777872
 10
3.891028242476015
 20
9.597725025627378
 10
3.880902358413476
 20
9.603702988644069
 10
3.870550329129819
 20
9.607912958954592
 10
3.860149246058401
 20
9.610282622401944
 10
3.849877113261191
 20
9.610771072295596
  0
SPLINE
  5
DC
330
1F
100
AcDbEntity
  8
0
  6
Continuous
 62
     7
370
    15
100
AcDbSpline
210
0.0
220
0.0
230
1.0
 70
     8
 71
     3
 72
    10
 73
     6
 74
     0
 42
0.0000000001
 43
0.0000000001
 40
0.0
 40
0.0
 40
0.0
 40
0.0
 40
0.2318986624607611
 40
0.6135120730216425
 40
1.0
 40
1.0
 40
1.0
 40
1.0
 10
3.901744597248893
 20
9.614690507179448
 30
0.0
 10
3.897408993963752
 20
9.614283808171249
 30
0.0
 10
3.885938703747154
 20
9.613207843571164
 30
0.0
 10
3.86806778793984
 20
9.611746252798544
 30
0.0
 10
3.855966270992816
 20
9.61109750482238
 30
0.0
 10
3.849877113261191
 20
9.610771072295596
 30
0.0
  0
SPLINE
  5
DD
330
1F
100
AcDbEntity
  8
0
  6
Continuous
 62
     7
370
    15
100
AcDbSpline
210
0.0
220
0.0
230
1.0
 70
     8
 71
     3
 72
    10
 73
     6
 74
     0
 42
0.0000000001
 43
0.0000000001
 40
0.0
 40
0.0
 40
0.0
 40
0.0
 40
0.3813024923152404
 40
0.7681016664718024
 40
1.0
 40
1.0
 40
1.0
 40
1.0
 10
3.885491801758116
 20
9.389955770675998
 30
0.0
 10
3.891496399666386
 20
9.390277080348726
 30
0.0
 10
3.903592155012306
 20
9.390924331547049
 30
0.0
 10
3.921456466256912
 20
9.392383446445858
 30
0.0
 10
3.933023700332842
 20
9.393468504568829
 30
0.0
 10
3.937359296116598
 20
9.393875202781401
 30
0.0
  0
SPLINE
  5
DE
330
1F
100
AcDbEntity
  8
0
  6
Continuous
 62
     7
370
    15
100
AcDbSpline
210
0.0
220
0.0
230
1.0
 70
     8
 71
     3
 72
    10
 73
     6
 74
     0
 42
0.0000000001
 43
0.0000000001
 40
0.0
 40
0.0
 40
0.0
 40
0.0
 40
0.2483164837013461
 40
0.6221453645088417
 40
1.0
 40
1.0
 40
1.0
 40
1.0
 10
3.849877113261191
 20
9.610771072295596
 30
0.0
 10
3.846215922800247
 20
9.610628539271131
 30
0.0
 10
3.837042980916131
 20
9.610271429428323
 30
0.0
 10
3.824266588373058
 20
9.610199575668255
 30
0.0
 10
3.816249677730329
 20
9.61050540537359
 30
0.0
 10
3.812219754520639
 20
9.610659139184862
 30
0.0
  0
LINE
  5
DF
330
1F
100
AcDbEntity
  8
0
  6
Continuous
 62
     7
370
    15
100
AcDbLine
 10
3.812219754520639
 20
9.610659139184862
 30
0.0
 11
3.872289882225739
 21
9.626752590284088
 31
0.0
  0
LINE
  5
E0
330
1F
100
AcDbEntity
  8
0
  6
Continuous
 62
     7
370
    15
100
AcDbLine
 10
3.961814724953993
 20
9.630783958278673
 30
0.0
 11
3.872289882225739
 21
9.626752590284088
 31
0.0
  0
SPLINE
  5
E1
330
1F
100
AcDbEntity
  8
0
  6
Continuous
 62
     7
370
    15
100
AcDbSpline
210
0.0
220
0.0
230
1.0
 70
     8
 71
     3
 72
     9
 73
     5
 74
     0
 42
0.0000000001
 43
0.0000000001
 40
0.0
 40
0.0
 40
0.0
 40
0.0
 40
0.4954580106779336
 40
1.0
 40
1.0
 40
1.0
 40
1.0
 10
3.812219754520639
 20
9.610659139184864
 30
0.0
 10
3.808045083930062
 20
9.600998049168207
 30
0.0
 10
3.799619202219393
 20
9.581498737806915
 30
0.0
 10
3.794313904160967
 20
9.562253666212452
 30
0.0
 10
3.791637158524622
 20
9.552543719505537
 30
0.0
  0
SPLINE
  5
E2
330
1F
100
AcDbEntity
  8
0
  6
Continuous
 62
     7
370
    15
100
AcDbSpline
210
0.0
220
0.0
230
1.0
 70
     8
 71
     3
 72
    10
 73
     6
 74
     0
 42
0.0000000001
 43
0.0000000001
 40
0.0
 40
0.0
 40
0.0
 40
0.0
 40
0.0701055753998132
 40
0.5307914960977574
 40
1.0
 40
1.0
 40
1.0
 40
1.0
 10
3.809444492402305
 20
9.442136297559683
 30
0.0
 10
3.810194675788412
 20
9.440853637335942
 30
0.0
 10
3.815874551598414
 20
9.431142210887186
 30
0.0
 10
3.828014813764866
 20
9.413216162401454
 30
0.0
 10
3.841187656423021
 20
9.397682069725098
 30
0.0
 10
3.847834443017564
 20
9.389843837565264
 30
0.0
  0
SPLINE
  5
E3
330
1F
100
AcDbEntity
  8
0
  6
Continuous
 62
     7
370
    15
100
AcDbSpline
210
0.0
220
0.0
230
1.0
 70
     8
 71
     3
 72
    10
 73
     6
 74
     0
 42
0.0000000001
 43
0.0000000001
 40
0.0
 40
0.0
 40
0.0
 40
0.0
 40
0.3741467537803654
 40
0.7516835296190489
 40
1.0
 40
1.0
 40
1.0
 40
1.0
 10
3.847834443017564
 20
9.389843837565264
 30
0.0
 10
3.851823418034762
 20
9.389691460517571
 30
0.0
 10
3.85983751087452
 20
9.389385325783317
 30
0.0
 10
3.872603158538591
 20
9.389453962006275
 30
0.0
 10
3.881830656408999
 20
9.389813227008211
 30
0.0
 10
3.885491801758116
 20
9.389955770675998
 30
0.0
  0
SPLINE
  5
E4
330
1F
100
AcDbEntity
  8
0
  6
Continuous
 62
     7
370
    15
100
AcDbSpline
210
0.0
220
0.0
230
1.0
 70
     8
 71
     3
 72
     9
 73
     5
 74
     0
 42
0.0000000001
 43
0.0000000001
 40
0.0
 40
0.0
 40
0.0
 40
0.0
 40
0.4954607002884131
 40
1.0
 40
1.0
 40
1.0
 40
1.0
 10
3.785264667034195
 20
9.498235354985222
 30
0.0
 10
3.788359610212711
 20
9.488901646719741
 30
0.0
 10
3.794606206918998
 20
9.470063203509115
 30
0.0
 10
3.804468551814975
 20
9.451501437821246
 30
0.0
 10
3.809444492402305
 20
9.442136297559683
 30
0.0
  0
SPLINE
  5
E5
330
1F
100
AcDbEntity
  8
0
  6
Continuous
 62
     7
370
    15
100
AcDbSpline
210
0.0
220
0.0
230
1.0
 70
     8
 71
     3
 72
    10
 73
     6
 74
     0
 42
0.0000000001
 43
0.0000000001
 40
0.0
 40
0.0
 40
0.0
 40
0.0
 40
0.0701034346110476
 40
0.5307884193465267
 40
1.0
 40
1.0
 40
1.0
 40
1.0
 10
3.791637158524622
 20
9.552543719505537
 30
0.0
 10
3.791326139151744
 20
9.551213337595669
 30
0.0
 10
3.788971254797906
 20
9.541140345951475
 30
0.0
 10
3.785961575499899
 20
9.522531691713737
 30
0.0
 10
3.785498385581034
 20
9.506383490347539
 30
0.0
 10
3.785264667034195
 20
9.498235354985222
 30
0.0
  0
SPLINE
  5
E6
330
1F
100
AcDbEntity
  8
0
  6
Continuous
 62
     7
370
    15
100
AcDbSpline
210
0.0
220
0.0
230
1.0
 70
     8
 71
     3
 72
    10
 73
     6
 74
     0
 42
0.0000000001
 43
0.0000000001
 40
0.0
 40
0.0
 40
0.0
 40
0.0
 40
0.070102687626293
 40
0.5307913479747779
 40
1.0
 40
1.0
 40
1.0
 40
1.0
 10
3.501660327920049
 20
8.516123755243427
 30
0.0
 10
3.50092714955245
 20
8.517410890650804
 30
0.0
 10
3.495375796997774
 20
8.527156598854592
 30
0.0
 10
3.486339335768312
 20
8.545914425243807
 30
0.0
 10
3.480451442984801
 20
8.563400244536492
 30
0.0
 10
3.477480523293499
 20
8.57222325928307
 30
0.0
  0
LINE
  5
E7
330
1F
100
AcDbEntity
  8
0
  6
Continuous
 62
     7
370
    15
100
AcDbLine
 10
3.477480523293499
 20
8.57222325928307
 30
0.0
 11
3.537550650998599
 21
8.588316710382295
 31
0.0
  0
LINE
  5
E8
330
1F
100
AcDbEntity
  8
0
  6
Continuous
 62
     7
370
    15
100
AcDbLine
 10
3.600120426981968
 20
8.479924740791341
 30
0.0
 11
3.537550650998599
 21
8.588316710382295
 31
0.0
  0
LINE
  5
E9
330
1F
100
AcDbEntity
  8
0
  6
Continuous
 62
     7
370
    15
100
AcDbLine
 10
3.540050299276868
 20
8.463831289692116
 30
0.0
 11
3.600120426981968
 21
8.479924740791341
 31
0.0
  0
SPLINE
  5
EA
330
1F
100
AcDbEntity
  8
0
  6
Continuous
 62
     7
370
    15
100
AcDbSpline
210
0.0
220
0.0
230
1.0
 70
     8
 71
     3
 72
     9
 73
     5
 74
     0
 42
0.0000000001
 43
0.0000000001
 40
0.0
 40
0.0
 40
0.0
 40
0.0
 40
0.4954576769090301
 40
1.0
 40
1.0
 40
1.0
 40
1.0
 10
3.540050299276868
 20
8.463831289692116
 30
0.0
 10
3.5329836418175
 20
8.472100920365342
 30
0.0
 10
3.51872075360583
 20
8.488791812561862
 30
0.0
 10
3.507381474262241
 20
8.50695809626295
 30
0.0
 10
3.501660327920049
 20
8.516123755243427
 30
0.0
  0
ARC
  5
EB
330
1F
100
AcDbEntity
  8
0
  6
Continuous
 62
     7
370
    15
100
AcDbCircle
 10
3.367249331780772
 20
8.437805058557001
 30
0.0
 40
0.1555639229828464
100
AcDbArc
 50
348.0958481161427
 51
30.22853076900867
  0
SPLINE
  5
EC
330
1F
100
AcDbEntity
  8
0
  6
Continuous
 62
     7
370
    15
100
AcDbSpline
210
0.0
220
0.0
230
1.0
 70
     8
 71
     3
 72
    10
 73
     6
 74
     0
 42
0.0000000001
 43
0.0000000001
 40
0.0
 40
0.0
 40
0.0
 40
0.0
 40
0.0701036759532866
 40
0.5307902466701986
 40
1.0
 40
1.0
 40
1.0
 40
1.0
 10
3.519467703280851
 20
8.405716096098288
 30
0.0
 10
3.519795722936735
 20
8.407051032537182
 30
0.0
 10
3.522279324997424
 20
8.417158508815061
 30
0.0
 10
3.528392490456682
 20
8.436598570748595
 30
0.0
 10
3.536140690356334
 20
8.454698417249769
 30
0.0
 10
3.540050299276868
 20
8.463831289692116
 30
0.0
  0
LINE
  5
ED
330
1F
100
AcDbEntity
  8
0
  6
Continuous
 62
     7
370
    15
100
AcDbLine
 10
3.573165360237084
 20
8.367501403205805
 30
0.0
 11
3.600120426981968
 21
8.479924740791341
 31
0.0
  0
LINE
  5
EE
330
1F
100
AcDbEntity
  8
0
  6
Continuous
 62
     7
370
    15
100
AcDbLine
 10
3.513095232531983
 20
8.351407952106578
 30
0.0
 11
3.573165360237084
 21
8.367501403205805
 31
0.0
  0
SPLINE
  5
EF
330
1F
100
AcDbEntity
  8
0
  6
Continuous
 62
     7
370
    15
100
AcDbSpline
210
0.0
220
0.0
230
1.0
 70
     8
 71
     3
 72
     9
 73
     5
 74
     0
 42
0.0000000001
 43
0.0000000001
 40
0.0
 40
0.0
 40
0.0
 40
0.0
 40
0.4954563362861781
 40
1.0
 40
1.0
 40
1.0
 40
1.0
 10
3.513095232531983
 20
8.351407952106578
 30
0.0
 10
3.513298196076166
 20
8.360004898613279
 30
0.0
 10
3.51370784578557
 20
8.37735647104677
 30
0.0
 10
3.517536154417745
 20
8.396205791100078
 30
0.0
 10
3.519467703280851
 20
8.405716096098288
 30
0.0
  0
LWPOLYLINE
  5
F0
330
1F
100
AcDbEntity
  8
0
  6
Continuous
 62
     7
370
    15
100
AcDbPolyline
 90
        9
 70
   128
 43
0.0
 10
3.461227727802723
 20
8.347488522779622
 10
3.471195208576837
 20
8.348888793917826
 10
3.480687417261002
 20
8.352154314926986
 10
3.489541988928965
 20
8.357228881460533
 10
3.497607385748432
 20
8.364026032128474
 10
3.504745676350016
 20
8.372429434301215
 10
3.510834651466281
 20
8.382295030332477
 10
3.515770146986392
 20
8.393454258640739
 10
3.519467703280851
 20
8.405716096098288
  0
LWPOLYLINE
  5
F1
330
1F
100
AcDbEntity
  8
0
  6
Continuous
 62
     7
370
    15
100
AcDbPolyline
 90
        9
 70
   128
 43
0.0
 10
3.385180418446911
 20
8.399668823577806
 10
3.392751502424985
 20
8.387914474454191
 10
3.401189542098954
 20
8.377357396923905
 10
3.410350176216044
 20
8.368178474740455
 10
3.420076598587898
 20
8.36053479553334
 10
3.430202503391996
 20
8.354556826959756
 10
3.440554532675654
 20
8.350347082734732
 10
3.450955595005513
 20
8.347977424844271
 10
3.461227727802723
 20
8.347488522779622
  0
ARC
  5
F2
330
1F
100
AcDbEntity
  8
0
  6
Continuous
 62
     7
370
    15
100
AcDbCircle
 10
3.519591679259333
 20
8.477987562952701
 30
0.0
 40
0.1555641731584035
100
AcDbArc
 50
168.0958836086252
 51
210.2284952765259
  0
LWPOLYLINE
  5
F3
330
1F
100
AcDbEntity
  8
0
  6
Continuous
 62
     7
370
    15
100
AcDbPolyline
 90
        9
 70
   128
 43
0.0
 10
3.425613018564237
 20
8.568303829956114
 10
3.415645579273242
 20
8.566903547704125
 10
3.406153370589077
 20
8.563638252780462
 10
3.397298798921114
 20
8.558563460161416
 10
3.389233360618528
 20
8.551766320607264
 10
3.382095152983182
 20
8.543363122292447
 10
3.376006177866915
 20
8.533497526261186
 10
3.371070682346805
 20
8.522338297952924
 10
3.367373043086109
 20
8.510076482722945
  0
LWPOLYLINE
  5
F4
330
1F
100
AcDbEntity
  8
0
  6
Continuous
 62
     7
370
    15
100
AcDbPolyline
 90
        9
 70
   128
 43
0.0
 10
3.501660327920049
 20
8.516123755243427
 10
3.494089285425094
 20
8.527878093253258
 10
3.485651245751125
 20
8.538434944698046
 10
3.476490611634035
 20
8.547613866881494
 10
3.466764147779061
 20
8.555257783287894
 10
3.456638284458082
 20
8.561235740747694
 10
3.446286255174424
 20
8.565445484972718
 10
3.435885192844566
 20
8.567815142863176
 10
3.425613018564237
 20
8.568303829956114
  0
SPLINE
  5
F5
330
1F
100
AcDbEntity
  8
0
  6
Continuous
 62
     7
370
    15
100
AcDbSpline
210
0.0
220
0.0
230
1.0
 70
     8
 71
     3
 72
    10
 73
     6
 74
     0
 42
0.0000000001
 43
0.0000000001
 40
0.0
 40
0.0
 40
0.0
 40
0.0
 40
0.2318985606580621
 40
0.6135113770677103
 40
1.0
 40
1.0
 40
1.0
 40
1.0
 10
3.477480523293499
 20
8.57222325928307
 30
0.0
 10
3.473144920066397
 20
8.57181656078113
 30
0.0
 10
3.461674637979564
 20
8.570740598268608
 30
0.0
 10
3.443803712017043
 20
8.569278991507419
 30
0.0
 10
3.431702189337897
 20
8.56863025650127
 30
0.0
 10
3.425613018564237
 20
8.568303829956114
 30
0.0
  0
SPLINE
  5
F6
330
1F
100
AcDbEntity
  8
0
  6
Continuous
 62
     7
370
    15
100
AcDbSpline
210
0.0
220
0.0
230
1.0
 70
     8
 71
     3
 72
    10
 73
     6
 74
     0
 42
0.0000000001
 43
0.0000000001
 40
0.0
 40
0.0
 40
0.0
 40
0.0
 40
0.3813028400824981
 40
0.7681019279474767
 40
1.0
 40
1.0
 40
1.0
 40
1.0
 10
3.461227727802723
 20
8.347488522779622
 30
0.0
 10
3.467232332456152
 20
8.347809830106594
 30
0.0
 10
3.479328094475298
 20
8.348457076209609
 30
0.0
 10
3.497192408580144
 20
8.349916191094065
 30
0.0
 10
3.508759640142074
 20
8.351001252786193
 30
0.0
 10
3.513095232531983
 20
8.351407952106578
 30
0.0
  0
SPLINE
  5
F7
330
1F
100
AcDbEntity
  8
0
  6
Continuous
 62
     7
370
    15
100
AcDbSpline
210
0.0
220
0.0
230
1.0
 70
     8
 71
     3
 72
    10
 73
     6
 74
     0
 42
0.0000000001
 43
0.0000000001
 40
0.0
 40
0.0
 40
0.0
 40
0.0
 40
0.2483161206216236
 40
0.6221437719103552
 40
1.0
 40
1.0
 40
1.0
 40
1.0
 10
3.425613018564237
 20
8.568303829956114
 30
0.0
 10
3.421951846443373
 20
8.568161184824205
 30
0.0
 10
3.412778960578431
 20
8.567803794493729
 30
0.0
 10
3.400002484465721
 20
8.567732488734684
 30
0.0
 10
3.391985576157338
 20
8.568038067882151
 30
0.0
 10
3.387955639082126
 20
8.568191676316773
 30
0.0
  0
LINE
  5
F8
330
1F
100
AcDbEntity
  8
0
  6
Continuous
 62
     7
370
    15
100
AcDbLine
 10
3.387955639082126
 20
8.568191676316773
 30
0.0
 11
3.448025766787227
 21
8.584285127416
 31
0.0
  0
LINE
  5
F9
330
1F
100
AcDbEntity
  8
0
  6
Continuous
 62
     7
370
    15
100
AcDbLine
 10
3.537550650998599
 20
8.588316710382295
 30
0.0
 11
3.448025766787227
 21
8.584285127416
 31
0.0
  0
SPLINE
  5
FA
330
1F
100
AcDbEntity
  8
0
  6
Continuous
 62
     7
370
    15
100
AcDbSpline
210
0.0
220
0.0
230
1.0
 70
     8
 71
     3
 72
     9
 73
     5
 74
     0
 42
0.0000000001
 43
0.0000000001
 40
0.0
 40
0.0
 40
0.0
 40
0.0
 40
0.4954591767095064
 40
1.0
 40
1.0
 40
1.0
 40
1.0
 10
3.387955639082126
 20
8.568191676316775
 30
0.0
 10
3.383781012462701
 20
8.558530567913443
 30
0.0
 10
3.375355239330088
 20
8.539031265332166
 30
0.0
 10
3.370049835767477
 20
8.519786335476494
 30
0.0
 10
3.367373043086109
 20
8.510076482722945
 30
0.0
  0
SPLINE
  5
FB
330
1F
100
AcDbEntity
  8
0
  6
Continuous
 62
     7
370
    15
100
AcDbSpline
210
0.0
220
0.0
230
1.0
 70
     8
 71
     3
 72
    10
 73
     6
 74
     0
 42
0.0000000001
 43
0.0000000001
 40
0.0
 40
0.0
 40
0.0
 40
0.0
 40
0.070103252340445
 40
0.5307910358497803
 40
1.0
 40
1.0
 40
1.0
 40
1.0
 10
3.385180418446911
 20
8.399668823577806
 30
0.0
 10
3.385930611929505
 20
8.398386239787424
 30
0.0
 10
3.391610747478432
 20
8.388675078665309
 30
0.0
 10
3.403750571193686
 20
8.370748591023113
 30
0.0
 10
3.416923546408576
 20
8.355214551482253
 30
0.0
 10
3.423570389803729
 20
8.347376358026496
 30
0.0
  0
SPLINE
  5
FC
330
1F
100
AcDbEntity
  8
0
  6
Continuous
 62
     7
370
    15
100
AcDbSpline
210
0.0
220
0.0
230
1.0
 70
     8
 71
     3
 72
    10
 73
     6
 74
     0
 42
0.0000000001
 43
0.0000000001
 40
0.0
 40
0.0
 40
0.0
 40
0.0
 40
0.3741466151021346
 40
0.7516823922496118
 40
1.0
 40
1.0
 40
1.0
 40
1.0
 10
3.423570389803729
 20
8.347376358026497
 30
0.0
 10
3.427559364217826
 20
8.347223988523738
 30
0.0
 10
3.435573446690262
 20
8.346917869297431
 30
0.0
 10
3.448339104785598
 20
8.346986403625587
 30
0.0
 10
3.45756657676737
 20
8.347345890470631
 30
0.0
 10
3.461227727802723
 20
8.347488522779622
 30
0.0
  0
SPLINE
  5
FD
330
1F
100
AcDbEntity
  8
0
  6
Continuous
 62
     7
370
    15
100
AcDbSpline
210
0.0
220
0.0
230
1.0
 70
     8
 71
     3
 72
     9
 73
     5
 74
     0
 42
0.0000000001
 43
0.0000000001
 40
0.0
 40
0.0
 40
0.0
 40
0.0
 40
0.495456394595686
 40
1.0
 40
1.0
 40
1.0
 40
1.0
 10
3.361000572337242
 20
8.455768112645738
 30
0.0
 10
3.364095525660642
 20
8.446434499147182
 30
0.0
 10
3.370342197127916
 20
8.427596083495744
 30
0.0
 10
3.380204471152874
 20
8.40903413566145
 30
0.0
 10
3.385180418446911
 20
8.399668823577806
 30
0.0
  0
SPLINE
  5
FE
330
1F
100
AcDbEntity
  8
0
  6
Continuous
 62
     7
370
    15
100
AcDbSpline
210
0.0
220
0.0
230
1.0
 70
     8
 71
     3
 72
    10
 73
     6
 74
     0
 42
0.0000000001
 43
0.0000000001
 40
0.0
 40
0.0
 40
0.0
 40
0.0
 40
0.070102916274481
 40
0.5307918349223039
 40
1.0
 40
1.0
 40
1.0
 40
1.0
 10
3.367373043086109
 20
8.510076482722945
 30
0.0
 10
3.367062053589245
 20
8.508746092129436
 30
0.0
 10
3.36470736287944
 20
8.498672895437772
 30
0.0
 10
3.361697387712484
 20
8.480064397787158
 30
0.0
 10
3.361234258447629
 20
8.46391618826704
 30
0.0
 10
3.361000572337241
 20
8.455768112645738
 30
0.0
  0
SPLINE
  5
FF
330
1F
100
AcDbEntity
  8
0
  6
Continuous
 62
     7
370
    15
100
AcDbSpline
210
0.0
220
0.0
230
1.0
 70
     8
 71
     3
 72
    10
 73
     6
 74
     0
 42
0.0000000001
 43
0.0000000001
 40
0.0
 40
0.0
 40
0.0
 40
0.0
 40
0.0701023846296545
 40
0.5307911950883866
 40
1.0
 40
1.0
 40
1.0
 40
1.0
 10
3.501660327920049
 20
5.914825865904679
 30
0.0
 10
3.500927149339599
 20
5.916112991648452
 30
0.0
 10
3.495375772778211
 20
5.925858665998553
 30
0.0
 10
3.486339344161616
 20
5.944616516074564
 30
0.0
 10
3.480451445799606
 20
5.962102329764232
 30
0.0
 10
3.477480523293499
 20
5.970925341683636
 30
0.0
  0
LINE
  5
100
330
1F
100
AcDbEntity
  8
0
  6
Continuous
 62
     7
370
    15
100
AcDbLine
 10
3.477480523293499
 20
5.970925341683636
 30
0.0
 11
3.537550650998599
 21
5.987018792782861
 31
0.0
  0
LINE
  5
101
330
1F
100
AcDbEntity
  8
0
  6
Continuous
 62
     7
370
    15
100
AcDbLine
 10
3.600120426981968
 20
5.87862690797397
 30
0.0
 11
3.537550650998599
 21
5.987018792782861
 31
0.0
  0
LINE
  5
102
330
1F
100
AcDbEntity
  8
0
  6
Continuous
 62
     7
370
    15
100
AcDbLine
 10
3.540050299276868
 20
5.862533456874743
 30
0.0
 11
3.600120426981968
 21
5.87862690797397
 31
0.0
  0
SPLINE
  5
103
330
1F
100
AcDbEntity
  8
0
  6
Continuous
 62
     7
370
    15
100
AcDbSpline
210
0.0
220
0.0
230
1.0
 70
     8
 71
     3
 72
     9
 73
     5
 74
     0
 42
0.0000000001
 43
0.0000000001
 40
0.0
 40
0.0
 40
0.0
 40
0.0
 40
0.4954579987573388
 40
1.0
 40
1.0
 40
1.0
 40
1.0
 10
3.540050299276868
 20
5.862533456874743
 30
0.0
 10
3.532983643531709
 20
5.870803089221293
 30
0.0
 10
3.518720768045024
 20
5.887493973952777
 30
0.0
 10
3.507381476678693
 20
5.905660227822279
 30
0.0
 10
3.501660327920049
 20
5.914825865904679
 30
0.0
  0
ARC
  5
104
330
1F
100
AcDbEntity
  8
0
  6
Continuous
 62
     7
370
    15
100
AcDbCircle
 10
3.367249330818633
 20
5.836507173169927
 30
0.0
 40
0.1555639218246872
100
AcDbArc
 50
348.0958518575239
 51
30.22852933306628
  0
SPLINE
  5
105
330
1F
100
AcDbEntity
  8
0
  6
Continuous
 62
     7
370
    15
100
AcDbSpline
210
0.0
220
0.0
230
1.0
 70
     8
 71
     3
 72
    10
 73
     6
 74
     0
 42
0.0000000001
 43
0.0000000001
 40
0.0
 40
0.0
 40
0.0
 40
0.0
 40
0.0701025674929524
 40
0.5307909609508893
 40
1.0
 40
1.0
 40
1.0
 40
1.0
 10
3.519467703280851
 20
5.804418220889884
 30
0.0
 10
3.519795723646308
 20
5.805753133484562
 30
0.0
 10
3.52227937369251
 20
5.815860602643742
 30
0.0
 10
3.528392440622526
 20
5.83530073380201
 30
0.0
 10
3.536140680696882
 20
5.853400599523697
 30
0.0
 10
3.540050299276868
 20
5.862533456874743
 30
0.0
  0
LINE
  5
106
330
1F
100
AcDbEntity
  8
0
  6
Continuous
 62
     7
370
    15
100
AcDbLine
 10
3.573165360237084
 20
5.766203471476026
 30
0.0
 11
3.600120426981968
 21
5.87862690797397
 31
0.0
  0
LINE
  5
107
330
1F
100
AcDbEntity
  8
0
  6
Continuous
 62
     7
370
    15
100
AcDbLine
 10
3.513095232531983
 20
5.7501100203768
 30
0.0
 11
3.573165360237084
 21
5.766203471476026
 31
0.0
  0
SPLINE
  5
108
330
1F
100
AcDbEntity
  8
0
  6
Continuous
 62
     7
370
    15
100
AcDbSpline
210
0.0
220
0.0
230
1.0
 70
     8
 71
     3
 72
     9
 73
     5
 74
     0
 42
0.0000000001
 43
0.0000000001
 40
0.0
 40
0.0
 40
0.0
 40
0.0
 40
0.4954580131665095
 40
1.0
 40
1.0
 40
1.0
 40
1.0
 10
3.513095232531983
 20
5.7501100203768
 30
0.0
 10
3.513298192450769
 20
5.758707016801033
 30
0.0
 10
3.51370783345645
 20
5.776058631258306
 30
0.0
 10
3.51753615455005
 20
5.794907948778028
 30
0.0
 10
3.519467703280851
 20
5.804418220889884
 30
0.0
  0
LWPOLYLINE
  5
109
330
1F
100
AcDbEntity
  8
0
  6
Continuous
 62
     7
370
    15
100
AcDbPolyline
 90
        9
 70
   128
 43
0.0
 10
3.461227727802723
 20
5.746190732353281
 10
3.471195208576837
 20
5.74759098936114
 10
3.480687417261002
 20
5.750856425588239
 10
3.489541988928965
 20
5.75593111929488
 10
3.497607385748432
 20
5.76272826996282
 10
3.504745676350016
 20
5.771131544962467
 10
3.510834651466281
 20
5.78099718338476
 10
3.515770146986392
 20
5.792156383432335
 10
3.519467703280851
 20
5.804418220889884
  0
LWPOLYLINE
  5
10A
330
1F
100
AcDbEntity
  8
0
  6
Continuous
 62
     7
370
    15
100
AcDbPolyline
 90
        9
 70
   128
 43
0.0
 10
3.385180418446911
 20
5.798370891848029
 10
3.392751502424985
 20
5.786616514463726
 10
3.401189542098954
 20
5.776059564106532
 10
3.410350176216044
 20
5.766880641923082
 10
3.420076598587898
 20
5.759236835542875
 10
3.430202503391996
 20
5.753258895229977
 10
3.440554532675654
 20
5.749049122744265
 10
3.450955595005513
 20
5.746679556701039
 10
3.461227727802723
 20
5.746190732353281
  0
ARC
  5
10B
330
1F
100
AcDbEntity
  8
0
  6
Continuous
 62
     7
370
    15
100
AcDbCircle
 10
3.519591851183697
 20
5.876689654845329
 30
0.0
 40
0.1555643335979777
100
AcDbArc
 50
168.0959102758536
 51
210.228470914736
  0
LWPOLYLINE
  5
10C
330
1F
100
AcDbEntity
  8
0
  6
Continuous
 62
     7
370
    15
100
AcDbPolyline
 90
        9
 70
   128
 43
0.0
 10
3.425613018564237
 20
5.967006025399427
 10
3.415645579273242
 20
5.965605771408126
 10
3.406153370589077
 20
5.962340335181027
 10
3.397298798921114
 20
5.957265627344042
 10
3.389233360618528
 20
5.950468516050577
 10
3.382095152983182
 20
5.942065204693012
 10
3.376006177866915
 20
5.932199552140375
 10
3.371070682346805
 20
5.921040352092801
 10
3.367373043086109
 20
5.908778536862825
  0
LWPOLYLINE
  5
10D
330
1F
100
AcDbEntity
  8
0
  6
Continuous
 62
     7
370
    15
100
AcDbPolyline
 90
        9
 70
   128
 43
0.0
 10
3.501660327920049
 20
5.914825865904679
 10
3.494089285425094
 20
5.926580232175197
 10
3.485651245751125
 20
5.937137196662734
 10
3.476490611634035
 20
5.946316118846183
 10
3.466764147779061
 20
5.953959922209834
 10
3.456638284458082
 20
5.959937851408946
 10
3.446286255174424
 20
5.964147623894657
 10
3.435885192844566
 20
5.966517197003054
 10
3.425613018564237
 20
5.967006025399427
  0
SPLINE
  5
10E
330
1F
100
AcDbEntity
  8
0
  6
Continuous
 62
     7
370
    15
100
AcDbSpline
210
0.0
220
0.0
230
1.0
 70
     8
 71
     3
 72
    10
 73
     6
 74
     0
 42
0.0000000001
 43
0.0000000001
 40
0.0
 40
0.0
 40
0.0
 40
0.0
 40
0.231898264305127
 40
0.6135111292570573
 40
1.0
 40
1.0
 40
1.0
 40
1.0
 10
3.477480523293499
 20
5.970925341683636
 30
0.0
 10
3.473144918972835
 20
5.97051868673796
 30
0.0
 10
3.461674623967599
 20
5.969442838517681
 30
0.0
 10
3.443803708600182
 20
5.967981216882657
 30
0.0
 10
3.431702189228563
 20
5.967332462019482
 30
0.0
 10
3.425613018564237
 20
5.967006025399427
 30
0.0
  0
SPLINE
  5
10F
330
1F
100
AcDbEntity
  8
0
  6
Continuous
 62
     7
370
    15
100
AcDbSpline
210
0.0
220
0.0
230
1.0
 70
     8
 71
     3
 72
    10
 73
     6
 74
     0
 42
0.0000000001
 43
0.0000000001
 40
0.0
 40
0.0
 40
0.0
 40
0.0
 40
0.3813029749655464
 40
0.7681022010806322
 40
1.0
 40
1.0
 40
1.0
 40
1.0
 10
3.461227727802723
 20
5.746190732353281
 30
0.0
 10
3.467232333389795
 20
5.746512030214082
 30
0.0
 10
3.479328097312089
 20
5.747159257249503
 30
0.0
 10
3.497192392752816
 20
5.748618422171494
 30
0.0
 10
3.508759638853886
 20
5.749703365726499
 30
0.0
 10
3.513095232531983
 20
5.7501100203768
 30
0.0
  0
SPLINE
  5
110
330
1F
100
AcDbEntity
  8
0
  6
Continuous
 62
     7
370
    15
100
AcDbSpline
210
0.0
220
0.0
230
1.0
 70
     8
 71
     3
 72
    10
 73
     6
 74
     0
 42
0.0000000001
 43
0.0000000001
 40
0.0
 40
0.0
 40
0.0
 40
0.0
 40
0.2483165436350487
 40
0.6221438853939524
 40
1.0
 40
1.0
 40
1.0
 40
1.0
 10
3.425613018564237
 20
5.967006025399427
 30
0.0
 10
3.421951848221203
 20
5.966863319636735
 30
0.0
 10
3.412778980763555
 20
5.966505777942695
 30
0.0
 10
3.400002476769162
 20
5.966434636903617
 30
0.0
 10
3.391985574286433
 20
5.966740191063729
 30
0.0
 10
3.387955639082126
 20
5.966893786978026
 30
0.0
  0
LINE
  5
111
330
1F
100
AcDbEntity
  8
0
  6
Continuous
 62
     7
370
    15
100
AcDbLine
 10
3.387955639082126
 20
5.966893786978026
 30
0.0
 11
3.448025766787227
 21
5.982987238077253
 31
0.0
  0
LINE
  5
112
330
1F
100
AcDbEntity
  8
0
  6
Continuous
 62
     7
370
    15
100
AcDbLine
 10
3.537550650998599
 20
5.987018792782861
 30
0.0
 11
3.448025766787227
 21
5.982987238077253
 31
0.0
  0
SPLINE
  5
113
330
1F
100
AcDbEntity
  8
0
  6
Continuous
 62
     7
370
    15
100
AcDbSpline
210
0.0
220
0.0
230
1.0
 70
     8
 71
     3
 72
     9
 73
     5
 74
     0
 42
0.0000000001
 43
0.0000000001
 40
0.0
 40
0.0
 40
0.0
 40
0.0
 40
0.4954574981707316
 40
1.0
 40
1.0
 40
1.0
 40
1.0
 10
3.387955639082126
 20
5.966893786978026
 30
0.0
 10
3.383781008522726
 20
5.957232709468983
 30
0.0
 10
3.375355198892609
 20
5.93773340318194
 30
0.0
 10
3.370049828125885
 20
5.918488439158716
 30
0.0
 10
3.367373043086109
 20
5.908778536862825
 30
0.0
  0
SPLINE
  5
114
330
1F
100
AcDbEntity
  8
0
  6
Continuous
 62
     7
370
    15
100
AcDbSpline
210
0.0
220
0.0
230
1.0
 70
     8
 71
     3
 72
    10
 73
     6
 74
     0
 42
0.0000000001
 43
0.0000000001
 40
0.0
 40
0.0
 40
0.0
 40
0.0
 40
0.0701029607132271
 40
0.5307908068875094
 40
1.0
 40
1.0
 40
1.0
 40
1.0
 10
3.385180418446911
 20
5.798370891848029
 30
0.0
 10
3.385930612198138
 20
5.797088317717913
 30
0.0
 10
3.391610770960113
 20
5.787377193530139
 30
0.0
 10
3.403750567330555
 20
5.769450692713794
 30
0.0
 10
3.416923544342736
 20
5.753916660043453
 30
0.0
 10
3.423570389803729
 20
5.746078468687748
 30
0.0
  0
SPLINE
  5
115
330
1F
100
AcDbEntity
  8
0
  6
Continuous
 62
     7
370
    15
100
AcDbSpline
210
0.0
220
0.0
230
1.0
 70
     8
 71
     3
 72
    10
 73
     6
 74
     0
 42
0.0000000001
 43
0.0000000001
 40
0.0
 40
0.0
 40
0.0
 40
0.0
 40
0.374146435301995
 40
0.7516819072453981
 40
1.0
 40
1.0
 40
1.0
 40
1.0
 10
3.423570389803729
 20
5.746078468687748
 30
0.0
 10
3.427559362532389
 20
5.745926105503784
 30
0.0
 10
3.435573440299048
 20
5.74561999902271
 30
0.0
 10
3.448339126828769
 20
5.745688372527872
 30
0.0
 10
3.457566578662456
 20
5.746048031508819
 30
0.0
 10
3.461227727802723
 20
5.746190732353281
 30
0.0
  0
SPLINE
  5
116
330
1F
100
AcDbEntity
  8
0
  6
Continuous
 62
     7
370
    15
100
AcDbSpline
210
0.0
220
0.0
230
1.0
 70
     8
 71
     3
 72
     9
 73
     5
 74
     0
 42
0.0000000001
 43
0.0000000001
 40
0.0
 40
0.0
 40
0.0
 40
0.0
 40
0.4954579182952565
 40
1.0
 40
1.0
 40
1.0
 40
1.0
 10
3.361000572337242
 20
5.854470364610427
 30
0.0
 10
3.364095517827434
 20
5.845136667495278
 30
0.0
 10
3.370342154274058
 20
5.826298141012011
 30
0.0
 10
3.380204466769857
 20
5.807736181527077
 30
0.0
 10
3.385180418446911
 20
5.798370891848029
 30
0.0
  0
SPLINE
  5
117
330
1F
100
AcDbEntity
  8
0
  6
Continuous
 62
     7
370
    15
100
AcDbSpline
210
0.0
220
0.0
230
1.0
 70
     8
 71
     3
 72
    10
 73
     6
 74
     0
 42
0.0000000001
 43
0.0000000001
 40
0.0
 40
0.0
 40
0.0
 40
0.0
 40
0.0701018471401814
 40
0.5307910692977642
 40
1.0
 40
1.0
 40
1.0
 40
1.0
 10
3.367373043086109
 20
5.908778536862825
 30
0.0
 10
3.367062053358135
 20
5.90744817481914
 30
0.0
 10
3.364707328383172
 20
5.897375055200657
 30
0.0
 10
3.361697398595098
 20
5.878766592419203
 30
0.0
 10
3.361234262172119
 20
5.862618423614767
 30
0.0
 10
3.361000572337241
 20
5.854470364610427
 30
0.0
  0
SPLINE
  5
118
330
1F
100
AcDbEntity
  8
0
  6
Continuous
 62
     7
370
    15
100
AcDbSpline
210
0.0
220
0.0
230
1.0
 70
     8
 71
     3
 72
    10
 73
     6
 74
     0
 42
0.0000000001
 43
0.0000000001
 40
0.0
 40
0.0
 40
0.0
 40
0.0
 40
0.0701005564005598
 40
0.5307900472115869
 40
1.0
 40
1.0
 40
1.0
 40
1.0
 10
3.925924412246223
 20
8.980524972294649
 30
0.0
 10
3.925191224879252
 20
8.981812031901691
 30
0.0
 10
3.91963964901293
 20
8.991557438566983
 30
0.0
 10
3.91060350022379
 20
9.010315507345326
 30
0.0
 10
3.904715548239101
 20
9.027801265095629
 30
0.0
 10
3.901744597248893
 20
9.036624253027239
 30
0.0
  0
LINE
  5
119
330
1F
100
AcDbEntity
  8
0
  6
Continuous
 62
     7
370
    15
100
AcDbLine
 10
3.901744597248893
 20
9.036624253027239
 30
0.0
 11
3.961814724953993
 21
9.052717704126465
 31
0.0
  0
LINE
  5
11A
330
1F
100
AcDbEntity
  8
0
  6
Continuous
 62
     7
370
    15
100
AcDbLine
 10
4.024384490566583
 20
8.944325963399457
 30
0.0
 11
3.961814724953993
 21
9.052717704126465
 31
0.0
  0
LINE
  5
11B
330
1F
100
AcDbEntity
  8
0
  6
Continuous
 62
     7
370
    15
100
AcDbLine
 10
3.964314362861482
 20
8.92823251230023
 30
0.0
 11
4.024384490566583
 21
8.944325963399457
 31
0.0
  0
SPLINE
  5
11C
330
1F
100
AcDbEntity
  8
0
  6
Continuous
 62
     7
370
    15
100
AcDbSpline
210
0.0
220
0.0
230
1.0
 70
     8
 71
     3
 72
     9
 73
     5
 74
     0
 42
0.0000000001
 43
0.0000000001
 40
0.0
 40
0.0
 40
0.0
 40
0.0
 40
0.4954578266343929
 40
1.0
 40
1.0
 40
1.0
 40
1.0
 10
3.964314362861482
 20
8.92823251230023
 30
0.0
 10
3.957247704517649
 20
8.936502142070331
 30
0.0
 10
3.942984818831019
 20
8.953193027400118
 30
0.0
 10
3.931645551054542
 20
8.97135931437989
 30
0.0
 10
3.925924412246223
 20
8.980524972294647
 30
0.0
  0
ARC
  5
11D
330
1F
100
AcDbEntity
  8
0
  6
Continuous
 62
     7
370
    15
100
AcDbCircle
 10
3.79151319515443
 20
8.902206270182704
 30
0.0
 40
0.1555641166226856
100
AcDbArc
 50
348.0958672847339
 51
30.22849152530297
  0
SPLINE
  5
11E
330
1F
100
AcDbEntity
  8
0
  6
Continuous
 62
     7
370
    15
100
AcDbSpline
210
0.0
220
0.0
230
1.0
 70
     8
 71
     3
 72
    10
 73
     6
 74
     0
 42
0.0000000001
 43
0.0000000001
 40
0.0
 40
0.0
 40
0.0
 40
0.0
 40
0.0701002733845195
 40
0.5307902390336786
 40
1.0
 40
1.0
 40
1.0
 40
1.0
 10
3.943731766865465
 20
8.870117318706402
 30
0.0
 10
3.944059788436926
 20
8.871452178986782
 30
0.0
 10
3.946543525516934
 20
8.881559569059485
 30
0.0
 10
3.952656463886686
 20
8.90099976562489
 30
0.0
 10
3.960404733172108
 20
8.919099652669581
 30
0.0
 10
3.964314362861482
 20
8.92823251230023
 30
0.0
  0
LINE
  5
11F
330
1F
100
AcDbEntity
  8
0
  6
Continuous
 62
     7
370
    15
100
AcDbLine
 10
3.997429423821698
 20
8.831902399728418
 30
0.0
 11
4.024384490566583
 21
8.944325963399457
 31
0.0
  0
LINE
  5
120
330
1F
100
AcDbEntity
  8
0
  6
Continuous
 62
     7
370
    15
100
AcDbLine
 10
3.937359296116598
 20
8.815808948629193
 30
0.0
 11
3.997429423821698
 21
8.831902399728418
 31
0.0
  0
SPLINE
  5
121
330
1F
100
AcDbEntity
  8
0
  6
Continuous
 62
     7
370
    15
100
AcDbSpline
210
0.0
220
0.0
230
1.0
 70
     8
 71
     3
 72
     9
 73
     5
 74
     0
 42
0.0000000001
 43
0.0000000001
 40
0.0
 40
0.0
 40
0.0
 40
0.0
 40
0.4954579463037783
 40
1.0
 40
1.0
 40
1.0
 40
1.0
 10
3.937359296116598
 20
8.815808948629193
 30
0.0
 10
3.937562251025672
 20
8.824405975448131
 30
0.0
 10
3.937971881975358
 20
8.84175765359372
 30
0.0
 10
3.941800212912307
 20
8.860607020444591
 30
0.0
 10
3.943731766865465
 20
8.870117318706402
 30
0.0
  0
LWPOLYLINE
  5
122
330
1F
100
AcDbEntity
  8
0
  6
Continuous
 62
     7
370
    15
100
AcDbPolyline
 90
        9
 70
   128
 43
0.0
 10
3.885491801758116
 20
8.81188974260929
 10
3.895459261790672
 20
8.813290019304385
 10
3.904951491216396
 20
8.816555534756654
 10
3.913806052513579
 20
8.821630104068649
 10
3.921871470074606
 20
8.828427249179695
 10
3.929009729563851
 20
8.836830659687777
 10
3.935098704680117
 20
8.846696255719038
 10
3.940034200200226
 20
8.8578554840273
 10
3.943731766865465
 20
8.870117318706402
  0
LWPOLYLINE
  5
123
330
1F
100
AcDbEntity
  8
0
  6
Continuous
 62
     7
370
    15
100
AcDbPolyline
 90
        9
 70
   128
 43
0.0
 10
3.809444492402305
 20
8.864069817321976
 10
3.817015576380379
 20
8.85231546819836
 10
3.825453616054348
 20
8.841758616753573
 10
3.834614229429879
 20
8.832579700127014
 10
3.844340672543292
 20
8.824935789277509
 10
3.854466556605831
 20
8.818957826260819
 10
3.864818585889489
 20
8.814748082035793
 10
3.875219668960907
 20
8.812378644673939
 10
3.885491801758116
 20
8.81188974260929
  0
ARC
  5
124
330
1F
100
AcDbEntity
  8
0
  6
Continuous
 62
     7
370
    15
100
AcDbCircle
 10
3.943855712629646
 20
8.94238848972828
 30
0.0
 40
0.1555641043765857
100
AcDbArc
 50
168.0958572442101
 51
210.228481490707
  0
LWPOLYLINE
  5
125
330
1F
100
AcDbEntity
  8
0
  6
Continuous
 62
     7
370
    15
100
AcDbPolyline
 90
        9
 70
   128
 43
0.0
 10
3.849877113261191
 20
9.032705044228888
 10
3.839909653228636
 20
9.031304767533791
 10
3.830417423802911
 20
9.028039252081523
 10
3.821562872876508
 20
9.022964679991082
 10
3.813497455315481
 20
9.016167534880036
 10
3.806359185455456
 20
9.007764127150402
 10
3.800270210339191
 20
8.997898531119139
 10
3.795334714819081
 20
8.986739302810878
 10
3.791637158524622
 20
8.974477465353329
  0
LWPOLYLINE
  5
126
330
1F
100
AcDbEntity
  8
0
  6
Continuous
 62
     7
370
    15
100
AcDbPolyline
 90
        9
 70
   128
 43
0.0
 10
3.925924412246223
 20
8.980524972294647
 10
3.918353338638929
 20
8.992279318639816
 10
3.909915309335739
 20
9.002836167306158
 10
3.900754685589429
 20
9.012015086711162
 10
3.891028242476015
 20
9.019658997560668
 10
3.880902358413476
 20
9.02563696057736
 10
3.870550329129819
 20
9.029846704802384
 10
3.860149246058401
 20
9.032216142164239
 10
3.849877113261191
 20
9.032705044228888
  0
SPLINE
  5
127
330
1F
100
AcDbEntity
  8
0
  6
Continuous
 62
     7
370
    15
100
AcDbSpline
210
0.0
220
0.0
230
1.0
 70
     8
 71
     3
 72
    10
 73
     6
 74
     0
 42
0.0000000001
 43
0.0000000001
 40
0.0
 40
0.0
 40
0.0
 40
0.0
 40
0.2318980704232764
 40
0.6135117751243094
 40
1.0
 40
1.0
 40
1.0
 40
1.0
 10
3.901744597248893
 20
9.036624253027239
 30
0.0
 10
3.897408991156095
 20
9.036217644590267
 30
0.0
 10
3.885938669797332
 20
9.035141917381794
 30
0.0
 10
3.868067794057696
 20
9.033680193497424
 30
0.0
 10
3.855966273040711
 20
9.033031466300245
 30
0.0
 10
3.849877113261191
 20
9.032705044228888
 30
0.0
  0
SPLINE
  5
128
330
1F
100
AcDbEntity
  8
0
  6
Continuous
 62
     7
370
    15
100
AcDbSpline
210
0.0
220
0.0
230
1.0
 70
     8
 71
     3
 72
    10
 73
     6
 74
     0
 42
0.0000000001
 43
0.0000000001
 40
0.0
 40
0.0
 40
0.0
 40
0.0
 40
0.3813027862147936
 40
0.7681022585076301
 40
1.0
 40
1.0
 40
1.0
 40
1.0
 10
3.885491801758116
 20
8.81188974260929
 30
0.0
 10
3.89149640167299
 20
8.812211042037331
 30
0.0
 10
3.903592161061048
 20
8.812858272598599
 30
0.0
 10
3.921456431996173
 20
8.814317521872629
 30
0.0
 10
3.93302369754538
 20
8.815402340884459
 30
0.0
 10
3.937359296116598
 20
8.815808948629193
 30
0.0
  0
SPLINE
  5
129
330
1F
100
AcDbEntity
  8
0
  6
Continuous
 62
     7
370
    15
100
AcDbSpline
210
0.0
220
0.0
230
1.0
 70
     8
 71
     3
 72
    10
 73
     6
 74
     0
 42
0.0000000001
 43
0.0000000001
 40
0.0
 40
0.0
 40
0.0
 40
0.0
 40
0.2483178802289811
 40
0.622144888314881
 40
1.0
 40
1.0
 40
1.0
 40
1.0
 10
3.849877113261191
 20
9.032705044228888
 30
0.0
 10
3.846215930824566
 20
9.032562298325155
 30
0.0
 10
3.837043067654045
 20
9.032204657408385
 30
0.0
 10
3.824266523820094
 20
9.032133824941162
 30
0.0
 10
3.816249664498216
 20
9.032439319309178
 30
0.0
 10
3.812219754520639
 20
9.032592885032656
 30
0.0
  0
LINE
  5
12A
330
1F
100
AcDbEntity
  8
0
  6
Continuous
 62
     7
370
    15
100
AcDbLine
 10
3.812219754520639
 20
9.032592885032656
 30
0.0
 11
3.872289882225739
 21
9.048686336131881
 31
0.0
  0
LINE
  5
12B
330
1F
100
AcDbEntity
  8
0
  6
Continuous
 62
     7
370
    15
100
AcDbLine
 10
3.961814724953993
 20
9.052717704126465
 30
0.0
 11
3.872289882225739
 21
9.048686336131881
 31
0.0
  0
SPLINE
  5
12C
330
1F
100
AcDbEntity
  8
0
  6
Continuous
 62
     7
370
    15
100
AcDbSpline
210
0.0
220
0.0
230
1.0
 70
     8
 71
     3
 72
     9
 73
     5
 74
     0
 42
0.0000000001
 43
0.0000000001
 40
0.0
 40
0.0
 40
0.0
 40
0.0
 40
0.4954580106779336
 40
1.0
 40
1.0
 40
1.0
 40
1.0
 10
3.812219754520639
 20
9.032592885032656
 30
0.0
 10
3.808045083930062
 20
9.022931795016001
 30
0.0
 10
3.799619202219393
 20
9.003432483654709
 30
0.0
 10
3.794313904160967
 20
8.984187412060245
 30
0.0
 10
3.791637158524622
 20
8.974477465353329
 30
0.0
  0
SPLINE
  5
12D
330
1F
100
AcDbEntity
  8
0
  6
Continuous
 62
     7
370
    15
100
AcDbSpline
210
0.0
220
0.0
230
1.0
 70
     8
 71
     3
 72
    10
 73
     6
 74
     0
 42
0.0000000001
 43
0.0000000001
 40
0.0
 40
0.0
 40
0.0
 40
0.0
 40
0.0701031513960523
 40
0.5307902729877484
 40
1.0
 40
1.0
 40
1.0
 40
1.0
 10
3.809444492402305
 20
8.864069817321976
 30
0.0
 10
3.810194678170486
 20
8.86278723458907
 30
0.0
 10
3.815874755324715
 20
8.853076081447291
 30
0.0
 10
3.828014745876941
 20
8.835149840613334
 30
0.0
 10
3.841187633655867
 20
8.819615792890251
 30
0.0
 10
3.847834443017564
 20
8.811777583413055
 30
0.0
  0
SPLINE
  5
12E
330
1F
100
AcDbEntity
  8
0
  6
Continuous
 62
     7
370
    15
100
AcDbSpline
210
0.0
220
0.0
230
1.0
 70
     8
 71
     3
 72
    10
 73
     6
 74
     0
 42
0.0000000001
 43
0.0000000001
 40
0.0
 40
0.0
 40
0.0
 40
0.0
 40
0.374146453223631
 40
0.7516821368311227
 40
1.0
 40
1.0
 40
1.0
 40
1.0
 10
3.847834443017564
 20
8.811777583413055
 30
0.0
 10
3.851823411441152
 20
8.811625250798716
 30
0.0
 10
3.859837482622531
 20
8.811319205654978
 30
0.0
 10
3.87260322692725
 20
8.811387244409974
 30
0.0
 10
3.881830662392447
 20
8.811747002549754
 30
0.0
 10
3.885491801758116
 20
8.81188974260929
 30
0.0
  0
SPLINE
  5
12F
330
1F
100
AcDbEntity
  8
0
  6
Continuous
 62
     7
370
    15
100
AcDbSpline
210
0.0
220
0.0
230
1.0
 70
     8
 71
     3
 72
     9
 73
     5
 74
     0
 42
0.0000000001
 43
0.0000000001
 40
0.0
 40
0.0
 40
0.0
 40
0.0
 40
0.4954581254942204
 40
1.0
 40
1.0
 40
1.0
 40
1.0
 10
3.785264667034195
 20
8.920169326918513
 30
0.0
 10
3.788359623449655
 20
8.910835631912114
 30
0.0
 10
3.794606279334799
 20
8.891997117563223
 30
0.0
 10
3.804468559221412
 20
8.873435121573299
 30
0.0
 10
3.809444492402305
 20
8.864069817321976
 30
0.0
  0
SPLINE
  5
130
330
1F
100
AcDbEntity
  8
0
  6
Continuous
 62
     7
370
    15
100
AcDbSpline
210
0.0
220
0.0
230
1.0
 70
     8
 71
     3
 72
    10
 73
     6
 74
     0
 42
0.0000000001
 43
0.0000000001
 40
0.0
 40
0.0
 40
0.0
 40
0.0
 40
0.0701002644667004
 40
0.5307901715091012
 40
1.0
 40
1.0
 40
1.0
 40
1.0
 10
3.791637158524622
 20
8.974477465353329
 30
0.0
 10
3.791326138338046
 20
8.973147159947968
 30
0.0
 10
3.788971133554098
 20
8.963074258802118
 30
0.0
 10
3.785961639458376
 20
8.944465502000465
 30
0.0
 10
3.785498405920714
 20
8.928317369385178
 30
0.0
 10
3.785264667034195
 20
8.920169326918513
 30
0.0
  0
SPLINE
  5
131
330
1F
100
AcDbEntity
  8
0
  6
Continuous
 62
     7
370
    15
100
AcDbSpline
210
0.0
220
0.0
230
1.0
 70
     8
 71
     3
 72
    10
 73
     6
 74
     0
 42
0.0000000001
 43
0.0000000001
 40
0.0
 40
0.0
 40
0.0
 40
0.0
 40
0.0701020816340381
 40
0.5307910422025112
 40
1.0
 40
1.0
 40
1.0
 40
1.0
 10
3.501660327920049
 20
6.4928920917962
 30
0.0
 10
3.50092714912675
 20
6.494179207876369
 30
0.0
 10
3.495375748558541
 20
6.5039248483724
 30
0.0
 10
3.486339352554977
 20
6.522682722135735
 30
0.0
 10
3.480451448614431
 20
6.540168530222291
 30
0.0
 10
3.477480523293499
 20
6.548991539314467
 30
0.0
  0
LINE
  5
132
330
1F
100
AcDbEntity
  8
0
  6
Continuous
 62
     7
370
    15
100
AcDbLine
 10
3.477480523293499
 20
6.548991539314467
 30
0.0
 11
3.537550650998599
 21
6.565084990413694
 31
0.0
  0
LINE
  5
133
330
1F
100
AcDbEntity
  8
0
  6
Continuous
 62
     7
370
    15
100
AcDbLine
 10
3.600120426981968
 20
6.456693077344115
 30
0.0
 11
3.537550650998599
 21
6.565084990413694
 31
0.0
  0
LINE
  5
134
330
1F
100
AcDbEntity
  8
0
  6
Continuous
 62
     7
370
    15
100
AcDbLine
 10
3.540050299276868
 20
6.440599626244888
 30
0.0
 11
3.600120426981968
 21
6.456693077344115
 31
0.0
  0
SPLINE
  5
135
330
1F
100
AcDbEntity
  8
0
  6
Continuous
 62
     7
370
    15
100
AcDbSpline
210
0.0
220
0.0
230
1.0
 70
     8
 71
     3
 72
     9
 73
     5
 74
     0
 42
0.0000000001
 43
0.0000000001
 40
0.0
 40
0.0
 40
0.0
 40
0.0
 40
0.4954576769090301
 40
1.0
 40
1.0
 40
1.0
 40
1.0
 10
3.540050299276868
 20
6.440599626244888
 30
0.0
 10
3.5329836418175
 20
6.448869256918115
 30
0.0
 10
3.51872075360583
 20
6.465560149114633
 30
0.0
 10
3.507381474262241
 20
6.483726432815722
 30
0.0
 10
3.501660327920049
 20
6.4928920917962
 30
0.0
  0
ARC
  5
136
330
1F
100
AcDbEntity
  8
0
  6
Continuous
 62
     7
370
    15
100
AcDbCircle
 10
3.367249205008422
 20
6.414573374662981
 30
0.0
 40
0.155564042811177
100
AcDbArc
 50
348.0958651162397
 51
30.22851376891052
  0
SPLINE
  5
137
330
1F
100
AcDbEntity
  8
0
  6
Continuous
 62
     7
370
    15
100
AcDbSpline
210
0.0
220
0.0
230
1.0
 70
     8
 71
     3
 72
    10
 73
     6
 74
     0
 42
0.0000000001
 43
0.0000000001
 40
0.0
 40
0.0
 40
0.0
 40
0.0
 40
0.0701019734054315
 40
0.5307910801563796
 40
1.0
 40
1.0
 40
1.0
 40
1.0
 10
3.519467703280851
 20
6.382484432651061
 30
0.0
 10
3.519795723995148
 20
6.383819330970509
 30
0.0
 10
3.522279398288437
 20
6.393926779968859
 30
0.0
 10
3.528392421440086
 20
6.413366922647808
 30
0.0
 10
3.536140676584056
 20
6.431466780845374
 30
0.0
 10
3.540050299276868
 20
6.440599626244888
 30
0.0
  0
LINE
  5
138
330
1F
100
AcDbEntity
  8
0
  6
Continuous
 62
     7
370
    15
100
AcDbLine
 10
3.573165360237084
 20
6.344269683237202
 30
0.0
 11
3.600120426981968
 21
6.456693077344115
 31
0.0
  0
LINE
  5
139
330
1F
100
AcDbEntity
  8
0
  6
Continuous
 62
     7
370
    15
100
AcDbLine
 10
3.513095232531983
 20
6.328176232137976
 30
0.0
 11
3.573165360237084
 21
6.344269683237202
 31
0.0
  0
SPLINE
  5
13A
330
1F
100
AcDbEntity
  8
0
  6
Continuous
 62
     7
370
    15
100
AcDbSpline
210
0.0
220
0.0
230
1.0
 70
     8
 71
     3
 72
     9
 73
     5
 74
     0
 42
0.0000000001
 43
0.0000000001
 40
0.0
 40
0.0
 40
0.0
 40
0.0
 40
0.495457593739323
 40
1.0
 40
1.0
 40
1.0
 40
1.0
 10
3.513095232531983
 20
6.328176232137976
 30
0.0
 10
3.51329819335757
 20
6.336773218450329
 30
0.0
 10
3.513707836540258
 20
6.354124827187356
 30
0.0
 10
3.517536154516956
 20
6.372974149975265
 30
0.0
 10
3.519467703280851
 20
6.382484432651061
 30
0.0
  0
LWPOLYLINE
  5
13B
330
1F
100
AcDbEntity
  8
0
  6
Continuous
 62
     7
370
    15
100
AcDbPolyline
 90
        9
 70
   128
 43
0.0
 10
3.461227727802723
 20
6.324256915853769
 10
3.471195208576837
 20
6.325657186991973
 10
3.480687417261002
 20
6.328922594958385
 10
3.489541988928965
 20
6.333997331056057
 10
3.497607385748432
 20
6.340794425202621
 10
3.504745676350016
 20
6.349197714332612
 10
3.510834651466281
 20
6.35906336688525
 10
3.515770146986392
 20
6.370222595193512
 10
3.519467703280851
 20
6.382484432651061
  0
LWPOLYLINE
  5
13C
330
1F
100
AcDbEntity
  8
0
  6
Continuous
 62
     7
370
    15
100
AcDbPolyline
 90
        9
 70
   128
 43
0.0
 10
3.385180418446911
 20
6.376437103609205
 10
3.392751502424985
 20
6.364682697964214
 10
3.401189542098954
 20
6.354125733476677
 10
3.410350176216044
 20
6.344946811293228
 10
3.420076598587898
 20
6.337303019043364
 10
3.430202503391996
 20
6.331325106991154
 10
3.440554532675654
 20
6.327115306244754
 10
3.450955595005513
 20
6.324745761397044
 10
3.461227727802723
 20
6.324256915853769
  0
ARC
  5
13D
330
1F
100
AcDbEntity
  8
0
  6
Continuous
 62
     7
370
    15
100
AcDbCircle
 10
3.519591821294198
 20
6.454755865892547
 30
0.0
 40
0.1555643074132694
100
AcDbArc
 50
168.0959026553534
 51
210.2284762297967
  0
LWPOLYLINE
  5
13E
330
1F
100
AcDbEntity
  8
0
  6
Continuous
 62
     7
370
    15
100
AcDbPolyline
 90
        9
 70
   128
 43
0.0
 10
3.425613018564237
 20
6.545072223030261
 10
3.415645579273242
 20
6.543671940778271
 10
3.406153370589077
 20
6.54040653281186
 10
3.397298798921114
 20
6.535331853235562
 10
3.389233360618528
 20
6.528534713681409
 10
3.382095152983182
 20
6.520131402323845
 10
3.376006177866915
 20
6.510265749771209
 10
3.371070682346805
 20
6.499106521462946
 10
3.367373043086109
 20
6.486844762754344
  0
LWPOLYLINE
  5
13F
330
1F
100
AcDbEntity
  8
0
  6
Continuous
 62
     7
370
    15
100
AcDbPolyline
 90
        9
 70
   128
 43
0.0
 10
3.501660327920049
 20
6.4928920917962
 10
3.494089285425094
 20
6.50464642980603
 10
3.485651245751125
 20
6.515203394293568
 10
3.476490611634035
 20
6.524382316477016
 10
3.466764147779061
 20
6.532026119840666
 10
3.456638284458082
 20
6.538004077300465
 10
3.446286255174424
 20
6.542213821525489
 10
3.435885192844566
 20
6.5445833663732
 10
3.425613018564237
 20
6.545072223030261
  0
SPLINE
  5
140
330
1F
100
AcDbEntity
  8
0
  6
Continuous
 62
     7
370
    15
100
AcDbSpline
210
0.0
220
0.0
230
1.0
 70
     8
 71
     3
 72
    10
 73
     6
 74
     0
 42
0.0000000001
 43
0.0000000001
 40
0.0
 40
0.0
 40
0.0
 40
0.0
 40
0.2318982646345232
 40
0.6135112281163817
 40
1.0
 40
1.0
 40
1.0
 40
1.0
 10
3.477480523293499
 20
6.548991539314467
 30
0.0
 10
3.473144918662542
 20
6.548584886098149
 30
0.0
 10
3.461674621004397
 20
6.547509042281233
 30
0.0
 10
3.443803715076022
 20
6.546047368964368
 30
0.0
 10
3.431702190361863
 20
6.545398644347701
 30
0.0
 10
3.425613018564237
 20
6.545072223030261
 30
0.0
  0
SPLINE
  5
141
330
1F
100
AcDbEntity
  8
0
  6
Continuous
 62
     7
370
    15
100
AcDbSpline
210
0.0
220
0.0
230
1.0
 70
     8
 71
     3
 72
    10
 73
     6
 74
     0
 42
0.0000000001
 43
0.0000000001
 40
0.0
 40
0.0
 40
0.0
 40
0.0
 40
0.381302987034935
 40
0.7681022239705801
 40
1.0
 40
1.0
 40
1.0
 40
1.0
 10
3.461227727802723
 20
6.324256915853769
 30
0.0
 10
3.467232333459473
 20
6.324578218058397
 30
0.0
 10
3.479328097499724
 20
6.325225453842889
 30
0.0
 10
3.497192391449478
 20
6.326684635914874
 30
0.0
 10
3.508759638748318
 20
6.32776957805151
 30
0.0
 10
3.513095232531983
 20
6.328176232137977
 30
0.0
  0
SPLINE
  5
142
330
1F
100
AcDbEntity
  8
0
  6
Continuous
 62
     7
370
    15
100
AcDbSpline
210
0.0
220
0.0
230
1.0
 70
     8
 71
     3
 72
    10
 73
     6
 74
     0
 42
0.0000000001
 43
0.0000000001
 40
0.0
 40
0.0
 40
0.0
 40
0.0
 40
0.2483166193722986
 40
0.6221437280725557
 40
1.0
 40
1.0
 40
1.0
 40
1.0
 10
3.425613018564237
 20
6.545072223030261
 30
0.0
 10
3.421951848989437
 20
6.544929501775507
 30
0.0
 10
3.412778988573852
 20
6.544571921466413
 30
0.0
 10
3.400002467218671
 20
6.544500901569077
 30
0.0
 10
3.39198557247838
 20
6.544806392259433
 30
0.0
 10
3.387955639082126
 20
6.544959956348171
 30
0.0
  0
LINE
  5
143
330
1F
100
AcDbEntity
  8
0
  6
Continuous
 62
     7
370
    15
100
AcDbLine
 10
3.387955639082126
 20
6.544959956348171
 30
0.0
 11
3.448025766787227
 21
6.561053407447398
 31
0.0
  0
LINE
  5
144
330
1F
100
AcDbEntity
  8
0
  6
Continuous
 62
     7
370
    15
100
AcDbLine
 10
3.537550650998599
 20
6.565084990413694
 30
0.0
 11
3.448025766787227
 21
6.561053407447398
 31
0.0
  0
SPLINE
  5
145
330
1F
100
AcDbEntity
  8
0
  6
Continuous
 62
     7
370
    15
100
AcDbSpline
210
0.0
220
0.0
230
1.0
 70
     8
 71
     3
 72
     9
 73
     5
 74
     0
 42
0.0000000001
 43
0.0000000001
 40
0.0
 40
0.0
 40
0.0
 40
0.0
 40
0.4954574989994128
 40
1.0
 40
1.0
 40
1.0
 40
1.0
 10
3.387955639082126
 20
6.544959956348171
 30
0.0
 10
3.383781008524672
 20
6.535298888309192
 30
0.0
 10
3.375355198912573
 20
6.515799601168538
 30
0.0
 10
3.370049828129657
 20
6.496554655681828
 30
0.0
 10
3.367373043086109
 20
6.486844762754344
 30
0.0
  0
SPLINE
  5
146
330
1F
100
AcDbEntity
  8
0
  6
Continuous
 62
     7
370
    15
100
AcDbSpline
210
0.0
220
0.0
230
1.0
 70
     8
 71
     3
 72
    10
 73
     6
 74
     0
 42
0.0000000001
 43
0.0000000001
 40
0.0
 40
0.0
 40
0.0
 40
0.0
 40
0.070103252340445
 40
0.5307910358497803
 40
1.0
 40
1.0
 40
1.0
 40
1.0
 10
3.385180418446911
 20
6.376437103609205
 30
0.0
 10
3.385930611929505
 20
6.375154519818821
 30
0.0
 10
3.391610747478432
 20
6.365443358696706
 30
0.0
 10
3.403750571193686
 20
6.347516871054511
 30
0.0
 10
3.416923546408576
 20
6.331982831513651
 30
0.0
 10
3.423570389803729
 20
6.324144638057894
 30
0.0
  0
SPLINE
  5
147
330
1F
100
AcDbEntity
  8
0
  6
Continuous
 62
     7
370
    15
100
AcDbSpline
210
0.0
220
0.0
230
1.0
 70
     8
 71
     3
 72
    10
 73
     6
 74
     0
 42
0.0000000001
 43
0.0000000001
 40
0.0
 40
0.0
 40
0.0
 40
0.0
 40
0.3741464654920438
 40
0.7516818944329556
 40
1.0
 40
1.0
 40
1.0
 40
1.0
 10
3.423570389803729
 20
6.324144638057894
 30
0.0
 10
3.427559362203921
 20
6.32399228195333
 30
0.0
 10
3.435573438527412
 20
6.323686189725099
 30
0.0
 10
3.448339128234819
 20
6.323754543932591
 30
0.0
 10
3.457566578800177
 20
6.324114211563172
 30
0.0
 10
3.461227727802723
 20
6.324256915853769
 30
0.0
  0
SPLINE
  5
148
330
1F
100
AcDbEntity
  8
0
  6
Continuous
 62
     7
370
    15
100
AcDbSpline
210
0.0
220
0.0
230
1.0
 70
     8
 71
     3
 72
     9
 73
     5
 74
     0
 42
0.0000000001
 43
0.0000000001
 40
0.0
 40
0.0
 40
0.0
 40
0.0
 40
0.4954579987573388
 40
1.0
 40
1.0
 40
1.0
 40
1.0
 10
3.361000572337242
 20
6.43253656224126
 30
0.0
 10
3.364095517413783
 20
6.423202864711771
 30
0.0
 10
3.370342152011071
 20
6.404364340451594
 30
0.0
 10
3.380204466538405
 20
6.385802388163574
 30
0.0
 10
3.385180418446911
 20
6.376437103609205
 30
0.0
  0
SPLINE
  5
149
330
1F
100
AcDbEntity
  8
0
  6
Continuous
 62
     7
370
    15
100
AcDbSpline
210
0.0
220
0.0
230
1.0
 70
     8
 71
     3
 72
    10
 73
     6
 74
     0
 42
0.0000000001
 43
0.0000000001
 40
0.0
 40
0.0
 40
0.0
 40
0.0
 40
0.070102242465638
 40
0.5307914782567035
 40
1.0
 40
1.0
 40
1.0
 40
1.0
 10
3.367373043086109
 20
6.486844762754344
 30
0.0
 10
3.367062053439568
 20
6.485514391192506
 30
0.0
 10
3.364707340545876
 20
6.475441248549672
 30
0.0
 10
3.361697395562523
 20
6.456832784864694
 30
0.0
 10
3.361234261085761
 20
6.440684617088797
 30
0.0
 10
3.361000572337242
 20
6.43253656224126
 30
0.0
  0
SPLINE
  5
14A
330
1F
100
AcDbEntity
  8
0
  6
Continuous
 62
     7
370
    15
100
AcDbSpline
210
0.0
220
0.0
230
1.0
 70
     8
 71
     3
 72
    10
 73
     6
 74
     0
 42
0.0000000001
 43
0.0000000001
 40
0.0
 40
0.0
 40
0.0
 40
0.0
 40
0.0701023743440891
 40
0.5307909645120578
 40
1.0
 40
1.0
 40
1.0
 40
1.0
 10
3.925924412246223
 20
6.379227054695213
 30
0.0
 10
3.925191226156277
 20
6.380514172283882
 30
0.0
 10
3.919639794332597
 20
6.39025978208272
 30
0.0
 10
3.910603449862623
 20
6.409017708724414
 30
0.0
 10
3.904715531349814
 20
6.426503500095764
 30
0.0
 10
3.901744597248893
 20
6.435326504991928
 30
0.0
  0
LINE
  5
14B
330
1F
100
AcDbEntity
  8
0
  6
Continuous
 62
     7
370
    15
100
AcDbLine
 10
3.901744597248893
 20
6.435326504991928
 30
0.0
 11
3.961814724953993
 21
6.451419956091154
 31
0.0
  0
LINE
  5
14C
330
1F
100
AcDbEntity
  8
0
  6
Continuous
 62
     7
370
    15
100
AcDbLine
 10
4.024384490566583
 20
6.34302804580002
 30
0.0
 11
3.961814724953993
 21
6.451419956091154
 31
0.0
  0
LINE
  5
14D
330
1F
100
AcDbEntity
  8
0
  6
Continuous
 62
     7
370
    15
100
AcDbLine
 10
3.964314362861482
 20
6.326934594700795
 30
0.0
 11
4.024384490566583
 21
6.34302804580002
 31
0.0
  0
SPLINE
  5
14E
330
1F
100
AcDbEntity
  8
0
  6
Continuous
 62
     7
370
    15
100
AcDbSpline
210
0.0
220
0.0
230
1.0
 70
     8
 71
     3
 72
     9
 73
     5
 74
     0
 42
0.0000000001
 43
0.0000000001
 40
0.0
 40
0.0
 40
0.0
 40
0.0
 40
0.4954578266343929
 40
1.0
 40
1.0
 40
1.0
 40
1.0
 10
3.964314362861482
 20
6.326934594700795
 30
0.0
 10
3.957247704517649
 20
6.335204224470896
 30
0.0
 10
3.942984818831019
 20
6.351895109800683
 30
0.0
 10
3.931645551054542
 20
6.370061396780456
 30
0.0
 10
3.925924412246223
 20
6.379227054695213
 30
0.0
  0
ARC
  5
14F
330
1F
100
AcDbEntity
  8
0
  6
Continuous
 62
     7
370
    15
100
AcDbCircle
 10
3.791513068381552
 20
6.300908332136414
 30
0.0
 40
0.1555642364515349
100
AcDbArc
 50
348.0958842848568
 51
30.22847452517816
  0
SPLINE
  5
150
330
1F
100
AcDbEntity
  8
0
  6
Continuous
 62
     7
370
    15
100
AcDbSpline
210
0.0
220
0.0
230
1.0
 70
     8
 71
     3
 72
    10
 73
     6
 74
     0
 42
0.0000000001
 43
0.0000000001
 40
0.0
 40
0.0
 40
0.0
 40
0.0
 40
0.0701019734054315
 40
0.5307910801563796
 40
1.0
 40
1.0
 40
1.0
 40
1.0
 10
3.943731766865465
 20
6.268819401106966
 30
0.0
 10
3.944059787579763
 20
6.270154299426416
 30
0.0
 10
3.946543461873051
 20
6.280261748424766
 30
0.0
 10
3.9526564850247
 20
6.299701891103715
 30
0.0
 10
3.96040474016867
 20
6.317801749301279
 30
0.0
 10
3.964314362861482
 20
6.326934594700795
 30
0.0
  0
LINE
  5
151
330
1F
100
AcDbEntity
  8
0
  6
Continuous
 62
     7
370
    15
100
AcDbLine
 10
3.997429423821698
 20
6.230604651693108
 30
0.0
 11
4.024384490566583
 21
6.34302804580002
 31
0.0
  0
LINE
  5
152
330
1F
100
AcDbEntity
  8
0
  6
Continuous
 62
     7
370
    15
100
AcDbLine
 10
3.937359296116598
 20
6.214511200593882
 30
0.0
 11
3.997429423821698
 21
6.230604651693108
 31
0.0
  0
SPLINE
  5
153
330
1F
100
AcDbEntity
  8
0
  6
Continuous
 62
     7
370
    15
100
AcDbSpline
210
0.0
220
0.0
230
1.0
 70
     8
 71
     3
 72
     9
 73
     5
 74
     0
 42
0.0000000001
 43
0.0000000001
 40
0.0
 40
0.0
 40
0.0
 40
0.0
 40
0.4954575293648452
 40
1.0
 40
1.0
 40
1.0
 40
1.0
 10
3.937359296116598
 20
6.214511200593882
 30
0.0
 10
3.937562251927094
 20
6.223108188890866
 30
0.0
 10
3.93797188504087
 20
6.240459803888025
 30
0.0
 10
3.941800212879408
 20
6.259309120389519
 30
0.0
 10
3.943731766865465
 20
6.268819401106966
 30
0.0
  0
LWPOLYLINE
  5
154
330
1F
100
AcDbEntity
  8
0
  6
Continuous
 62
     7
370
    15
100
AcDbPolyline
 90
        9
 70
   128
 43
0.0
 10
3.885491801758116
 20
6.210591881531229
 10
3.895459261790672
 20
6.211992158226326
 10
3.904951491216396
 20
6.215257560635845
 10
3.913806052513579
 20
6.220332299511962
 10
3.921871470074606
 20
6.227129388101634
 10
3.929009729563851
 20
6.235532685566966
 10
3.935098704680117
 20
6.245398338119603
 10
3.940034200200226
 20
6.256557566427865
 10
3.943731766865465
 20
6.268819401106966
  0
LWPOLYLINE
  5
155
330
1F
100
AcDbEntity
  8
0
  6
Continuous
 62
     7
370
    15
100
AcDbPolyline
 90
        9
 70
   128
 43
0.0
 10
3.809444492402305
 20
6.262772069286666
 10
3.817015576380379
 20
6.251017663641674
 10
3.825453616054348
 20
6.240460699154137
 10
3.834614229429879
 20
6.231281782527581
 10
3.844340672543292
 20
6.223637984720824
 10
3.854466556605831
 20
6.217660078225506
 10
3.864818585889489
 20
6.213450277479108
 10
3.875219668960907
 20
6.211080727074504
 10
3.885491801758116
 20
6.210591881531229
  0
ARC
  5
156
330
1F
100
AcDbEntity
  8
0
  6
Continuous
 62
     7
370
    15
100
AcDbCircle
 10
3.943855683702917
 20
6.341090737027461
 30
0.0
 40
0.1555640770343305
100
AcDbArc
 50
168.0958533651595
 51
210.2284853697583
  0
LWPOLYLINE
  5
157
330
1F
100
AcDbEntity
  8
0
  6
Continuous
 62
     7
370
    15
100
AcDbPolyline
 90
        9
 70
   128
 43
0.0
 10
3.849877113261191
 20
6.431407183150827
 10
3.839909653228636
 20
6.430006906455732
 10
3.830417423802911
 20
6.426741504046213
 10
3.821562872876508
 20
6.421666818913021
 10
3.813497455315481
 20
6.414869673801976
 10
3.806359185455456
 20
6.406466379115091
 10
3.800270210339191
 20
6.396600726562455
 10
3.795334714819081
 20
6.385441498254193
 10
3.791637158524622
 20
6.373179717318018
  0
LWPOLYLINE
  5
158
330
1F
100
AcDbEntity
  8
0
  6
Continuous
 62
     7
370
    15
100
AcDbPolyline
 90
        9
 70
   128
 43
0.0
 10
3.925924412246223
 20
6.379227054695213
 10
3.918353338638929
 20
6.390981401040383
 10
3.909915309335739
 20
6.401538362749474
 10
3.900754685589429
 20
6.410717282154476
 10
3.891028242476015
 20
6.418361079961234
 10
3.880902358413476
 20
6.424339042977925
 10
3.870550329129819
 20
6.42854878720295
 10
3.860149246058401
 20
6.430918337607553
 10
3.849877113261191
 20
6.431407183150827
  0
SPLINE
  5
159
330
1F
100
AcDbEntity
  8
0
  6
Continuous
 62
     7
370
    15
100
AcDbSpline
210
0.0
220
0.0
230
1.0
 70
     8
 71
     3
 72
    10
 73
     6
 74
     0
 42
0.0000000001
 43
0.0000000001
 40
0.0
 40
0.0
 40
0.0
 40
0.0
 40
0.2318983664371315
 40
0.613511924070517
 40
1.0
 40
1.0
 40
1.0
 40
1.0
 10
3.901744597248893
 20
6.435326504991928
 30
0.0
 10
3.897408992559899
 20
6.434919851269349
 30
0.0
 10
3.885938686771974
 20
6.433844005364944
 30
0.0
 10
3.868067790998812
 20
6.432382348036611
 30
0.0
 10
3.855966272016778
 20
6.431733610449913
 30
0.0
 10
3.849877113261191
 20
6.431407183150827
 30
0.0
  0
SPLINE
  5
15A
330
1F
100
AcDbEntity
  8
0
  6
Continuous
 62
     7
370
    15
100
AcDbSpline
210
0.0
220
0.0
230
1.0
 70
     8
 71
     3
 72
    10
 73
     6
 74
     0
 42
0.0000000001
 43
0.0000000001
 40
0.0
 40
0.0
 40
0.0
 40
0.0
 40
0.381302639267443
 40
0.7681019624946034
 40
1.0
 40
1.0
 40
1.0
 40
1.0
 10
3.885491801758116
 20
6.210591881531229
 30
0.0
 10
3.891496400669703
 20
6.210913186081627
 30
0.0
 10
3.903592158036721
 20
6.211560426961452
 30
0.0
 10
3.921456449126272
 20
6.213019609047707
 30
0.0
 10
3.933023698939086
 20
6.214104547615234
 30
0.0
 10
3.937359296116598
 20
6.214511200593882
 30
0.0
  0
SPLINE
  5
15B
330
1F
100
AcDbEntity
  8
0
  6
Continuous
 62
     7
370
    15
100
AcDbSpline
210
0.0
220
0.0
230
1.0
 70
     8
 71
     3
 72
    10
 73
     6
 74
     0
 42
0.0000000001
 43
0.0000000001
 40
0.0
 40
0.0
 40
0.0
 40
0.0
 40
0.2483175845974608
 40
0.6221448417774515
 40
1.0
 40
1.0
 40
1.0
 40
1.0
 10
3.849877113261191
 20
6.431407183150827
 30
0.0
 10
3.846215929499074
 20
6.431264466229278
 30
0.0
 10
3.837043052773115
 20
6.430906897526599
 30
0.0
 10
3.824266530706699
 20
6.430835875271906
 30
0.0
 10
3.816249666077495
 20
6.431141353395559
 30
0.0
 10
3.812219754520639
 20
6.431294910911846
 30
0.0
  0
LINE
  5
15C
330
1F
100
AcDbEntity
  8
0
  6
Continuous
 62
     7
370
    15
100
AcDbLine
 10
3.812219754520639
 20
6.431294910911846
 30
0.0
 11
3.872289882225739
 21
6.447388362011071
 31
0.0
  0
LINE
  5
15D
330
1F
100
AcDbEntity
  8
0
  6
Continuous
 62
     7
370
    15
100
AcDbLine
 10
3.961814724953993
 20
6.451419956091154
 30
0.0
 11
3.872289882225739
 21
6.447388362011071
 31
0.0
  0
SPLINE
  5
15E
330
1F
100
AcDbEntity
  8
0
  6
Continuous
 62
     7
370
    15
100
AcDbSpline
210
0.0
220
0.0
230
1.0
 70
     8
 71
     3
 72
     9
 73
     5
 74
     0
 42
0.0000000001
 43
0.0000000001
 40
0.0
 40
0.0
 40
0.0
 40
0.0
 40
0.4954580139960548
 40
1.0
 40
1.0
 40
1.0
 40
1.0
 10
3.812219754520639
 20
6.431294910911846
 30
0.0
 10
3.808045083937851
 20
6.421633858775456
 30
0.0
 10
3.79961920229933
 20
6.4021346239998
 30
0.0
 10
3.794313904176073
 20
6.382889626551317
 30
0.0
 10
3.791637158524622
 20
6.373179717318018
 30
0.0
  0
SPLINE
  5
15F
330
1F
100
AcDbEntity
  8
0
  6
Continuous
 62
     7
370
    15
100
AcDbSpline
210
0.0
220
0.0
230
1.0
 70
     8
 71
     3
 72
    10
 73
     6
 74
     0
 42
0.0000000001
 43
0.0000000001
 40
0.0
 40
0.0
 40
0.0
 40
0.0
 40
0.0701029695332482
 40
0.5307914902197126
 40
0.9999999999999998
 40
0.9999999999999998
 40
0.9999999999999998
 40
0.9999999999999998
 10
3.809444492402305
 20
6.262772069286666
 30
0.0
 10
3.81019467863617
 20
6.261489486971042
 30
0.0
 10
3.815874787077615
 20
6.251778289525738
 30
0.0
 10
3.828014671907256
 20
6.233851874737101
 30
0.0
 10
3.841187621173651
 20
6.218317807000786
 30
0.0
 10
3.847834443017564
 20
6.210479609292248
 30
0.0
  0
SPLINE
  5
160
330
1F
100
AcDbEntity
  8
0
  6
Continuous
 62
     7
370
    15
100
AcDbSpline
210
0.0
220
0.0
230
1.0
 70
     8
 71
     3
 72
    10
 73
     6
 74
     0
 42
0.0000000001
 43
0.0000000001
 40
0.0
 40
0.0
 40
0.0
 40
0.0
 40
0.3741463063087767
 40
0.7516824333807597
 40
1.0
 40
1.0
 40
1.0
 40
1.0
 10
3.847834443017564
 20
6.210479609292248
 30
0.0
 10
3.851823414559022
 20
6.210327254802367
 30
0.0
 10
3.859837498312918
 20
6.210021165468439
 30
0.0
 10
3.872603207393782
 20
6.210089498552783
 30
0.0
 10
3.881830660589328
 20
6.210449174347428
 30
0.0
 10
3.885491801758116
 20
6.210591881531229
 30
0.0
  0
SPLINE
  5
161
330
1F
100
AcDbEntity
  8
0
  6
Continuous
 62
     7
370
    15
100
AcDbSpline
210
0.0
220
0.0
230
1.0
 70
     8
 71
     3
 72
     9
 73
     5
 74
     0
 42
0.0000000001
 43
0.0000000001
 40
0.0
 40
0.0
 40
0.0
 40
0.0
 40
0.4954584473433054
 40
1.0
 40
1.0
 40
1.0
 40
1.0
 10
3.785264667034195
 20
6.318871522361827
 30
0.0
 10
3.788359621795052
 20
6.309537825698076
 30
0.0
 10
3.794606270282836
 20
6.290699320241569
 30
0.0
 10
3.804468558295598
 20
6.272137353039274
 30
0.0
 10
3.809444492402305
 20
6.262772069286666
 30
0.0
  0
SPLINE
  5
162
330
1F
100
AcDbEntity
  8
0
  6
Continuous
 62
     7
370
    15
100
AcDbSpline
210
0.0
220
0.0
230
1.0
 70
     8
 71
     3
 72
    10
 73
     6
 74
     0
 42
0.0000000001
 43
0.0000000001
 40
0.0
 40
0.0
 40
0.0
 40
0.0
 40
0.0701027557627857
 40
0.5307914118942036
 40
1.0
 40
1.0
 40
1.0
 40
1.0
 10
3.791637158524622
 20
6.373179717318018
 30
0.0
 10
3.791326138893845
 20
6.371849354679357
 30
0.0
 10
3.78897121650669
 20
6.36177635461506
 30
0.0
 10
3.78596160981306
 20
6.34316766115507
 30
0.0
 10
3.785498395984288
 20
6.327019552851063
 30
0.0
 10
3.785264667034195
 20
6.318871522361827
 30
0.0
  0
SPLINE
  5
163
330
1F
100
AcDbEntity
  8
0
  6
Continuous
 62
     7
370
    15
100
AcDbSpline
210
0.0
220
0.0
230
1.0
 70
     8
 71
     3
 72
    10
 73
     6
 74
     0
 42
0.0000000001
 43
0.0000000001
 40
0.0
 40
0.0
 40
0.0
 40
0.0
 40
0.0701052935041338
 40
0.5307913538581154
 40
1.0
 40
1.0
 40
1.0
 40
1.0
 10
3.501660327920049
 20
9.672256037462343
 30
0.0
 10
3.500927151555785
 20
9.673543250551585
 30
0.0
 10
3.495376020456367
 20
9.683289184762703
 30
0.0
 10
3.486339221772615
 20
9.702046655536522
 30
0.0
 10
3.480451410263449
 20
9.719532492981599
 30
0.0
 10
3.477480523293498
 20
9.728355541501988
 30
0.0
  0
LINE
  5
164
330
1F
100
AcDbEntity
  8
0
  6
Continuous
 62
     7
370
    15
100
AcDbLine
 10
3.477480523293499
 20
9.728355541501986
 30
0.0
 11
3.537550650998599
 21
9.744448992601212
 31
0.0
  0
LINE
  5
165
330
1F
100
AcDbEntity
  8
0
  6
Continuous
 62
     7
370
    15
100
AcDbLine
 10
3.600120426981968
 20
9.636057023010257
 30
0.0
 11
3.537550650998599
 21
9.744448992601212
 31
0.0
  0
LINE
  5
166
330
1F
100
AcDbEntity
  8
0
  6
Continuous
 62
     7
370
    15
100
AcDbLine
 10
3.540050299276868
 20
9.619963571911032
 30
0.0
 11
3.600120426981968
 21
9.636057023010257
 31
0.0
  0
SPLINE
  5
167
330
1F
100
AcDbEntity
  8
0
  6
Continuous
 62
     7
370
    15
100
AcDbSpline
210
0.0
220
0.0
230
1.0
 70
     8
 71
     3
 72
     9
 73
     5
 74
     0
 42
0.0000000001
 43
0.0000000001
 40
0.0
 40
0.0
 40
0.0
 40
0.0
 40
0.4954576769090301
 40
1.0
 40
1.0
 40
1.0
 40
1.0
 10
3.540050299276868
 20
9.619963571911032
 30
0.0
 10
3.5329836418175
 20
9.628233202584258
 30
0.0
 10
3.51872075360583
 20
9.644924094780778
 30
0.0
 10
3.507381474262241
 20
9.663090378481866
 30
0.0
 10
3.501660327920049
 20
9.672256037462343
 30
0.0
  0
ARC
  5
168
330
1F
100
AcDbEntity
  8
0
  6
Continuous
 62
     7
370
    15
100
AcDbCircle
 10
3.367250264317313
 20
9.593937556892271
 30
0.0
 40
0.1555630084451197
100
AcDbArc
 50
348.0957808607172
 51
30.22863491153858
  0
SPLINE
  5
169
330
1F
100
AcDbEntity
  8
0
  6
Continuous
 62
     7
370
    15
100
AcDbSpline
210
0.0
220
0.0
230
1.0
 70
     8
 71
     3
 72
    10
 73
     6
 74
     0
 42
0.0000000001
 43
0.0000000001
 40
0.0
 40
0.0
 40
0.0
 40
0.0
 40
0.0701039083786851
 40
0.5307920064799793
 40
1.0
 40
1.0
 40
1.0
 40
1.0
 10
3.519467703280851
 20
9.561848604402703
 30
0.0
 10
3.519795723015773
 20
9.56318354081198
 30
0.0
 10
3.522279325674899
 20
9.573291016865615
 30
0.0
 10
3.528392446384482
 20
9.59273102352045
 30
0.0
 10
3.536140684672437
 20
9.610830777914872
 30
0.0
 10
3.540050299276868
 20
9.619963571911032
 30
0.0
  0
LINE
  5
16A
330
1F
100
AcDbEntity
  8
0
  6
Continuous
 62
     7
370
    15
100
AcDbLine
 10
3.573165360237084
 20
9.523633685424721
 30
0.0
 11
3.600120426981968
 21
9.636057023010257
 31
0.0
  0
LINE
  5
16B
330
1F
100
AcDbEntity
  8
0
  6
Continuous
 62
     7
370
    15
100
AcDbLine
 10
3.513095232531983
 20
9.507540234325494
 30
0.0
 11
3.573165360237084
 21
9.523633685424721
 31
0.0
  0
SPLINE
  5
16C
330
1F
100
AcDbEntity
  8
0
  6
Continuous
 62
     7
370
    15
100
AcDbSpline
210
0.0
220
0.0
230
1.0
 70
     8
 71
     3
 72
     9
 73
     5
 74
     0
 42
0.0000000001
 43
0.0000000001
 40
0.0
 40
0.0
 40
0.0
 40
0.0
 40
0.4954580106779336
 40
1.0
 40
1.0
 40
1.0
 40
1.0
 10
3.513095232531983
 20
9.507540234325494
 30
0.0
 10
3.513298192456149
 20
9.516137259159801
 30
0.0
 10
3.513707833474748
 20
9.533488931045265
 30
0.0
 10
3.517536154549853
 20
9.552338304182548
 30
0.0
 10
3.519467703280851
 20
9.561848604402703
 30
0.0
  0
LWPOLYLINE
  5
16D
330
1F
100
AcDbEntity
  8
0
  6
Continuous
 62
     7
370
    15
100
AcDbPolyline
 90
        9
 70
   128
 43
0.0
 10
3.461227727802723
 20
9.503620804998538
 10
3.471195208576837
 20
9.505021302222241
 10
3.480687417261002
 20
9.508286823231401
 10
3.489541988928965
 20
9.513361389764948
 10
3.497607385748432
 20
9.520158540432888
 10
3.504745676350016
 20
9.52856194260563
 10
3.510834651466281
 20
9.538427538636891
 10
3.515770146986392
 20
9.549586540859655
 10
3.519467703280851
 20
9.561848604402703
  0
LWPOLYLINE
  5
16E
330
1F
100
AcDbEntity
  8
0
  6
Continuous
 62
     7
370
    15
100
AcDbPolyline
 90
        9
 70
   128
 43
0.0
 10
3.385180418446911
 20
9.555801331882221
 10
3.392751502424985
 20
9.544046756673107
 10
3.401189542098954
 20
9.533489679142821
 10
3.410350176216044
 20
9.524310756959371
 10
3.420076598587898
 20
9.516666851666759
 10
3.430202503391996
 20
9.510689335264169
 10
3.440554532675654
 20
9.506479364953648
 10
3.450955595005513
 20
9.504109707063188
 10
3.461227727802723
 20
9.503620804998538
  0
ARC
  5
16F
330
1F
100
AcDbEntity
  8
0
  6
Continuous
 62
     7
370
    15
100
AcDbCircle
 10
3.519590686262583
 20
9.634119845389355
 30
0.0
 40
0.1555632014720953
100
AcDbArc
 50
168.0958082458061
 51
210.2286075264488
  0
LWPOLYLINE
  5
170
330
1F
100
AcDbEntity
  8
0
  6
Continuous
 62
     7
370
    15
100
AcDbPolyline
 90
        9
 70
   128
 43
0.0
 10
3.425613018564237
 20
9.72443611217503
 10
3.415645579273242
 20
9.72303605600854
 10
3.406153370589077
 20
9.719770534999376
 10
3.397298798921114
 20
9.71469596846583
 10
3.389233360618528
 20
9.707898828911677
 10
3.382095152983182
 20
9.699495404511363
 10
3.376006177866915
 20
9.689629808480102
 10
3.371070682346805
 20
9.678470806257339
 10
3.367373043086109
 20
9.666208764941863
  0
LWPOLYLINE
  5
171
330
1F
100
AcDbEntity
  8
0
  6
Continuous
 62
     7
370
    15
100
AcDbPolyline
 90
        9
 70
   128
 43
0.0
 10
3.501660327920049
 20
9.672256037462343
 10
3.494089285425094
 20
9.684010601557673
 10
3.485651245751125
 20
9.694567226916962
 10
3.476490611634035
 20
9.70374614910041
 10
3.466764147779061
 20
9.71139006550681
 10
3.456638284458082
 20
9.717368022966608
 10
3.446286255174424
 20
9.721577993277131
 10
3.435885192844566
 20
9.723947651167591
 10
3.425613018564237
 20
9.72443611217503
  0
SPLINE
  5
172
330
1F
100
AcDbEntity
  8
0
  6
Continuous
 62
     7
370
    15
100
AcDbSpline
210
0.0
220
0.0
230
1.0
 70
     8
 71
     3
 72
    10
 73
     6
 74
     0
 42
0.0000000001
 43
0.0000000001
 40
0.0
 40
0.0
 40
0.0
 40
0.0
 40
0.2318985606580621
 40
0.6135113770677103
 40
1.0
 40
1.0
 40
1.0
 40
1.0
 10
3.477480523293499
 20
9.728355541501986
 30
0.0
 10
3.473144920066397
 20
9.727948843000046
 30
0.0
 10
3.461674637979564
 20
9.726872880487524
 30
0.0
 10
3.443803712017043
 20
9.725411273726335
 30
0.0
 10
3.431702189337897
 20
9.724762538720186
 30
0.0
 10
3.425613018564237
 20
9.72443611217503
 30
0.0
  0
SPLINE
  5
173
330
1F
100
AcDbEntity
  8
0
  6
Continuous
 62
     7
370
    15
100
AcDbSpline
210
0.0
220
0.0
230
1.0
 70
     8
 71
     3
 72
    10
 73
     6
 74
     0
 42
0.0000000001
 43
0.0000000001
 40
0.0
 40
0.0
 40
0.0
 40
0.0
 40
0.3813028400824981
 40
0.7681019279474767
 40
1.0
 40
1.0
 40
1.0
 40
1.0
 10
3.461227727802723
 20
9.503620804998538
 30
0.0
 10
3.467232332456152
 20
9.503942112325512
 30
0.0
 10
3.479328094475298
 20
9.504589358428525
 30
0.0
 10
3.497192408580144
 20
9.506048473312981
 30
0.0
 10
3.508759640142074
 20
9.50713353500511
 30
0.0
 10
3.513095232531983
 20
9.507540234325494
 30
0.0
  0
SPLINE
  5
174
330
1F
100
AcDbEntity
  8
0
  6
Continuous
 62
     7
370
    15
100
AcDbSpline
210
0.0
220
0.0
230
1.0
 70
     8
 71
     3
 72
    10
 73
     6
 74
     0
 42
0.0000000001
 43
0.0000000001
 40
0.0
 40
0.0
 40
0.0
 40
0.0
 40
0.2483155184710265
 40
0.6221442507985766
 40
1.0
 40
1.0
 40
1.0
 40
1.0
 10
3.425613018564237
 20
9.72443611217503
 30
0.0
 10
3.421951842290626
 20
9.724293574817144
 30
0.0
 10
3.412778916716692
 20
9.723936453368283
 30
0.0
 10
3.400002524885127
 20
9.723864601964752
 30
0.0
 10
3.391985584131266
 20
9.724170444237053
 30
0.0
 10
3.387955639082126
 20
9.724324184621188
 30
0.0
  0
LINE
  5
175
330
1F
100
AcDbEntity
  8
0
  6
Continuous
 62
     7
370
    15
100
AcDbLine
 10
3.387955639082126
 20
9.724324184621188
 30
0.0
 11
3.448025766787227
 21
9.740417635720413
 31
0.0
  0
LINE
  5
176
330
1F
100
AcDbEntity
  8
0
  6
Continuous
 62
     7
370
    15
100
AcDbLine
 10
3.537550650998599
 20
9.744448992601212
 30
0.0
 11
3.448025766787227
 21
9.740417635720413
 31
0.0
  0
SPLINE
  5
177
330
1F
100
AcDbEntity
  8
0
  6
Continuous
 62
     7
370
    15
100
AcDbSpline
210
0.0
220
0.0
230
1.0
 70
     8
 71
     3
 72
     9
 73
     5
 74
     0
 42
0.0000000001
 43
0.0000000001
 40
0.0
 40
0.0
 40
0.0
 40
0.0
 40
0.4954574956847479
 40
1.0
 40
1.0
 40
1.0
 40
1.0
 10
3.387955639082126
 20
9.724324184621188
 30
0.0
 10
3.38378100851689
 20
9.714663078701958
 30
0.0
 10
3.375355198832719
 20
9.695163714975754
 30
0.0
 10
3.370049828114567
 20
9.675918695342978
 30
0.0
 10
3.367373043086109
 20
9.666208764941863
 30
0.0
  0
SPLINE
  5
178
330
1F
100
AcDbEntity
  8
0
  6
Continuous
 62
     7
370
    15
100
AcDbSpline
210
0.0
220
0.0
230
1.0
 70
     8
 71
     3
 72
    10
 73
     6
 74
     0
 42
0.0000000001
 43
0.0000000001
 40
0.0
 40
0.0
 40
0.0
 40
0.0
 40
0.070105858196006
 40
0.5307910417209456
 40
1.0
 40
1.0
 40
1.0
 40
1.0
 10
3.385180418446911
 20
9.555801331882221
 30
0.0
 10
3.385930609081759
 20
9.554518670183714
 30
0.0
 10
3.391610512000102
 20
9.544807280056755
 30
0.0
 10
3.403750713051329
 20
9.526881158719469
 30
0.0
 10
3.416923581657947
 20
9.511347094238187
 30
0.0
 10
3.423570389803729
 20
9.503508866330911
 30
0.0
  0
SPLINE
  5
179
330
1F
100
AcDbEntity
  8
0
  6
Continuous
 62
     7
370
    15
100
AcDbSpline
210
0.0
220
0.0
230
1.0
 70
     8
 71
     3
 72
    10
 73
     6
 74
     0
 42
0.0000000001
 43
0.0000000001
 40
0.0
 40
0.0
 40
0.0
 40
0.0
 40
0.3741469129629358
 40
0.7516829906693504
 40
1.0
 40
1.0
 40
1.0
 40
1.0
 10
3.423570389803729
 20
9.503508866330911
 30
0.0
 10
3.427559365679658
 20
9.503356487668554
 30
0.0
 10
3.435573451088997
 20
9.503050350040084
 30
0.0
 10
3.448339079379813
 20
9.503119007385384
 30
0.0
 10
3.457566574619848
 20
9.50347826422403
 30
0.0
 10
3.461227727802723
 20
9.503620804998538
 30
0.0
  0
SPLINE
  5
17A
330
1F
100
AcDbEntity
  8
0
  6
Continuous
 62
     7
370
    15
100
AcDbSpline
210
0.0
220
0.0
230
1.0
 70
     8
 71
     3
 72
     9
 73
     5
 74
     0
 42
0.0000000001
 43
0.0000000001
 40
0.0
 40
0.0
 40
0.0
 40
0.0
 40
0.4954602516970121
 40
1.0
 40
1.0
 40
1.0
 40
1.0
 10
3.361000572337242
 20
9.611900394864655
 30
0.0
 10
3.364095505831454
 20
9.60256668573341
 30
0.0
 10
3.370342088647353
 20
9.583728223719004
 30
0.0
 10
3.380204460057809
 20
9.565166472945531
 30
0.0
 10
3.385180418446911
 20
9.555801331882221
 30
0.0
  0
SPLINE
  5
17B
330
1F
100
AcDbEntity
  8
0
  6
Continuous
 62
     7
370
    15
100
AcDbSpline
210
0.0
220
0.0
230
1.0
 70
     8
 71
     3
 72
    10
 73
     6
 74
     0
 42
0.0000000001
 43
0.0000000001
 40
0.0
 40
0.0
 40
0.0
 40
0.0
 40
0.0701029213208644
 40
0.5307884857121996
 40
1.0
 40
1.0
 40
1.0
 40
1.0
 10
3.367373043086109
 20
9.666208764941863
 30
0.0
 10
3.367062053697503
 20
9.664878374108802
 30
0.0
 10
3.364707378834597
 20
9.654805239888718
 30
0.0
 10
3.361697361249122
 20
9.636196815423293
 30
0.0
 10
3.361234250682243
 20
9.620048554585348
 30
0.0
 10
3.361000572337242
 20
9.611900394864655
 30
0.0
  0
SPLINE
  5
17C
330
1F
100
AcDbEntity
  8
0
  6
Continuous
 62
     7
370
    15
100
AcDbSpline
210
0.0
220
0.0
230
1.0
 70
     8
 71
     3
 72
    10
 73
     6
 74
     0
 42
0.0000000001
 43
0.0000000001
 40
0.0
 40
0.0
 40
0.0
 40
0.0
 40
0.0701029803334423
 40
0.5307912702830073
 40
1.0
 40
1.0
 40
1.0
 40
1.0
 10
3.925924412246223
 20
8.40245871814244
 30
0.0
 10
3.925191226581974
 20
8.403745855058318
 30
0.0
 10
3.919639842771622
 20
8.413491532565284
 30
0.0
 10
3.910603433076006
 20
8.432249411832339
 30
0.0
 10
3.904715525720198
 20
8.449735214409912
 30
0.0
 10
3.901744597248893
 20
8.45855822496053
 30
0.0
  0
LINE
  5
17D
330
1F
100
AcDbEntity
  8
0
  6
Continuous
 62
     7
370
    15
100
AcDbLine
 10
3.901744597248893
 20
8.45855822496053
 30
0.0
 11
3.961814724953993
 21
8.474651676059755
 31
0.0
  0
LINE
  5
17E
330
1F
100
AcDbEntity
  8
0
  6
Continuous
 62
     7
370
    15
100
AcDbLine
 10
4.024384490566583
 20
8.366259709247248
 30
0.0
 11
3.961814724953993
 21
8.474651676059755
 31
0.0
  0
LINE
  5
17F
330
1F
100
AcDbEntity
  8
0
  6
Continuous
 62
     7
370
    15
100
AcDbLine
 10
3.964314362861482
 20
8.350166258148021
 30
0.0
 11
4.024384490566583
 21
8.366259709247248
 31
0.0
  0
SPLINE
  5
180
330
1F
100
AcDbEntity
  8
0
  6
Continuous
 62
     7
370
    15
100
AcDbSpline
210
0.0
220
0.0
230
1.0
 70
     8
 71
     3
 72
     9
 73
     5
 74
     0
 42
0.0000000001
 43
0.0000000001
 40
0.0
 40
0.0
 40
0.0
 40
0.0
 40
0.4954578266343929
 40
1.0
 40
1.0
 40
1.0
 40
1.0
 10
3.964314362861482
 20
8.350166258148021
 30
0.0
 10
3.957247704517649
 20
8.358435887918123
 30
0.0
 10
3.942984818831019
 20
8.375126773247909
 30
0.0
 10
3.931645551054542
 20
8.393293060227682
 30
0.0
 10
3.925924412246223
 20
8.40245871814244
 30
0.0
  0
ARC
  5
181
330
1F
100
AcDbEntity
  8
0
  6
Continuous
 62
     7
370
    15
100
AcDbCircle
 10
3.791513195154429
 20
8.324140016030499
 30
0.0
 40
0.1555641166226851
100
AcDbArc
 50
348.0958672847334
 51
30.22849152530232
  0
SPLINE
  5
182
330
1F
100
AcDbEntity
  8
0
  6
Continuous
 62
     7
370
    15
100
AcDbSpline
210
0.0
220
0.0
230
1.0
 70
     8
 71
     3
 72
    10
 73
     6
 74
     0
 42
0.0000000001
 43
0.0000000001
 40
0.0
 40
0.0
 40
0.0
 40
0.0
 40
0.0701036759532866
 40
0.5307902466701986
 40
1.0
 40
1.0
 40
1.0
 40
1.0
 10
3.943731766865465
 20
8.292051064554195
 30
0.0
 10
3.944059786521349
 20
8.293386000993089
 30
0.0
 10
3.946543388582038
 20
8.303493477270967
 30
0.0
 10
3.952656554041296
 20
8.3229335392045
 30
0.0
 10
3.960404753940948
 20
8.341033385705676
 30
0.0
 10
3.964314362861482
 20
8.350166258148021
 30
0.0
  0
LINE
  5
183
330
1F
100
AcDbEntity
  8
0
  6
Continuous
 62
     7
370
    15
100
AcDbLine
 10
3.997429423821698
 20
8.25383637166171
 30
0.0
 11
4.024384490566583
 21
8.366259709247248
 31
0.0
  0
LINE
  5
184
330
1F
100
AcDbEntity
  8
0
  6
Continuous
 62
     7
370
    15
100
AcDbLine
 10
3.937359296116598
 20
8.237742920562483
 30
0.0
 11
3.997429423821698
 21
8.25383637166171
 31
0.0
  0
SPLINE
  5
185
330
1F
100
AcDbEntity
  8
0
  6
Continuous
 62
     7
370
    15
100
AcDbSpline
210
0.0
220
0.0
230
1.0
 70
     8
 71
     3
 72
     9
 73
     5
 74
     0
 42
0.0000000001
 43
0.0000000001
 40
0.0
 40
0.0
 40
0.0
 40
0.0
 40
0.4954562719115965
 40
1.0
 40
1.0
 40
1.0
 40
1.0
 10
3.937359296116598
 20
8.237742920562485
 30
0.0
 10
3.937562254645698
 20
8.246339869053811
 30
0.0
 10
3.937971894286181
 20
8.26369144774744
 30
0.0
 10
3.941800212780188
 20
8.282540761514336
 30
0.0
 10
3.943731766865465
 20
8.292051064554195
 30
0.0
  0
LWPOLYLINE
  5
186
330
1F
100
AcDbEntity
  8
0
  6
Continuous
 62
     7
370
    15
100
AcDbPolyline
 90
        9
 70
   128
 43
0.0
 10
3.885491801758116
 20
8.233823488457082
 10
3.895459261790672
 20
8.235223765152179
 10
3.904951491216396
 20
8.238489280604447
 10
3.913806052513579
 20
8.243563849916441
 10
3.921871470074606
 20
8.250360995027488
 10
3.929009729563851
 20
8.258764405535568
 10
3.935098704680117
 20
8.26863000156683
 10
3.940034200200226
 20
8.279789229875092
 10
3.943731766865465
 20
8.292051064554195
  0
LWPOLYLINE
  5
187
330
1F
100
AcDbEntity
  8
0
  6
Continuous
 62
     7
370
    15
100
AcDbPolyline
 90
        9
 70
   128
 43
0.0
 10
3.809444492402305
 20
8.286003789255268
 10
3.817015576380379
 20
8.274249440131651
 10
3.825453616054348
 20
8.263692362601364
 10
3.834614229429879
 20
8.25451344597481
 10
3.844340672543292
 20
8.246869761210801
 10
3.854466556605831
 20
8.240891798194109
 10
3.864818585889489
 20
8.236682053969085
 10
3.875219668960907
 20
8.234312390521731
 10
3.885491801758116
 20
8.233823488457082
  0
ARC
  5
188
330
1F
100
AcDbEntity
  8
0
  6
Continuous
 62
     7
370
    15
100
AcDbCircle
 10
3.943855541669369
 20
8.364322434087879
 30
0.0
 40
0.1555639427807415
100
AcDbArc
 50
168.0958343185549
 51
210.2285044163633
  0
LWPOLYLINE
  5
189
330
1F
100
AcDbEntity
  8
0
  6
Continuous
 62
     7
370
    15
100
AcDbPolyline
 90
        9
 70
   128
 43
0.0
 10
3.849877113261191
 20
8.45463879007668
 10
3.839909653228636
 20
8.453238513381585
 10
3.830417423802911
 20
8.449973224014815
 10
3.821562872876508
 20
8.444898425838875
 10
3.813497455315481
 20
8.438101280727829
 10
3.806359185455456
 20
8.429698099083694
 10
3.800270210339191
 20
8.419832503052431
 10
3.795334714819081
 20
8.408673274744169
 10
3.791637158524622
 20
8.396411437286621
  0
LWPOLYLINE
  5
18A
330
1F
100
AcDbEntity
  8
0
  6
Continuous
 62
     7
370
    15
100
AcDbPolyline
 90
        9
 70
   128
 43
0.0
 10
3.925924412246223
 20
8.40245871814244
 10
3.918353338638929
 20
8.41421306448761
 10
3.909915309335739
 20
8.424769913153951
 10
3.900754685589429
 20
8.433948832558955
 10
3.891028242476015
 20
8.44159274340846
 10
3.880902358413476
 20
8.447570706425151
 10
3.870550329129819
 20
8.451780450650177
 10
3.860149246058401
 20
8.454150114097529
 10
3.849877113261191
 20
8.45463879007668
  0
SPLINE
  5
18B
330
1F
100
AcDbEntity
  8
0
  6
Continuous
 62
     7
370
    15
100
AcDbSpline
210
0.0
220
0.0
230
1.0
 70
     8
 71
     3
 72
    10
 73
     6
 74
     0
 42
0.0000000001
 43
0.0000000001
 40
0.0
 40
0.0
 40
0.0
 40
0.0
 40
0.2318986624607611
 40
0.6135120730216425
 40
1.0
 40
1.0
 40
1.0
 40
1.0
 10
3.901744597248893
 20
8.45855822496053
 30
0.0
 10
3.897408993963752
 20
8.458151525952333
 30
0.0
 10
3.885938703747154
 20
8.457075561352247
 30
0.0
 10
3.86806778793984
 20
8.455613970579628
 30
0.0
 10
3.855966270992816
 20
8.454965222603464
 30
0.0
 10
3.849877113261191
 20
8.45463879007668
 30
0.0
  0
SPLINE
  5
18C
330
1F
100
AcDbEntity
  8
0
  6
Continuous
 62
     7
370
    15
100
AcDbSpline
210
0.0
220
0.0
230
1.0
 70
     8
 71
     3
 72
    10
 73
     6
 74
     0
 42
0.0000000001
 43
0.0000000001
 40
0.0
 40
0.0
 40
0.0
 40
0.0
 40
0.3813024923152404
 40
0.7681016664718024
 40
1.0
 40
1.0
 40
1.0
 40
1.0
 10
3.885491801758116
 20
8.233823488457082
 30
0.0
 10
3.891496399666386
 20
8.234144798129809
 30
0.0
 10
3.903592155012306
 20
8.234792049328133
 30
0.0
 10
3.921456466256912
 20
8.236251164226942
 30
0.0
 10
3.933023700332842
 20
8.237336222349913
 30
0.0
 10
3.937359296116598
 20
8.237742920562483
 30
0.0
  0
SPLINE
  5
18D
330
1F
100
AcDbEntity
  8
0
  6
Continuous
 62
     7
370
    15
100
AcDbSpline
210
0.0
220
0.0
230
1.0
 70
     8
 71
     3
 72
    10
 73
     6
 74
     0
 42
0.0000000001
 43
0.0000000001
 40
0.0
 40
0.0
 40
0.0
 40
0.0
 40
0.2483170858486971
 40
0.6221448856168996
 40
1.0
 40
1.0
 40
1.0
 40
1.0
 10
3.849877113261191
 20
8.45463879007668
 30
0.0
 10
3.846215926953006
 20
8.454496149278048
 30
0.0
 10
3.837043024777777
 20
8.454138770553798
 30
0.0
 10
3.824266547953698
 20
8.454067462437812
 30
0.0
 10
3.816249669756431
 20
8.454373029018421
 30
0.0
 10
3.812219754520639
 20
8.454526630880447
 30
0.0
  0
LINE
  5
18E
330
1F
100
AcDbEntity
  8
0
  6
Continuous
 62
     7
370
    15
100
AcDbLine
 10
3.812219754520639
 20
8.454526630880447
 30
0.0
 11
3.872289882225739
 21
8.470620081979673
 31
0.0
  0
LINE
  5
18F
330
1F
100
AcDbEntity
  8
0
  6
Continuous
 62
     7
370
    15
100
AcDbLine
 10
3.961814724953993
 20
8.474651676059755
 30
0.0
 11
3.872289882225739
 21
8.470620081979673
 31
0.0
  0
SPLINE
  5
190
330
1F
100
AcDbEntity
  8
0
  6
Continuous
 62
     7
370
    15
100
AcDbSpline
210
0.0
220
0.0
230
1.0
 70
     8
 71
     3
 72
     9
 73
     5
 74
     0
 42
0.0000000001
 43
0.0000000001
 40
0.0
 40
0.0
 40
0.0
 40
0.0
 40
0.4954596917061937
 40
1.0
 40
1.0
 40
1.0
 40
1.0
 10
3.812219754520639
 20
8.454526630880447
 30
0.0
 10
3.808045087875811
 20
8.44486553837976
 30
0.0
 10
3.799619242716838
 20
8.425366288163424
 30
0.0
 10
3.79431391181396
 20
8.406121306345928
 30
0.0
 10
3.791637158524622
 20
8.396411437286621
 30
0.0
  0
SPLINE
  5
191
330
1F
100
AcDbEntity
  8
0
  6
Continuous
 62
     7
370
    15
100
AcDbSpline
210
0.0
220
0.0
230
1.0
 70
     8
 71
     3
 72
    10
 73
     6
 74
     0
 42
0.0000000001
 43
0.0000000001
 40
0.0
 40
0.0
 40
0.0
 40
0.0
 40
0.0701029695332482
 40
0.5307914902197126
 40
0.9999999999999998
 40
0.9999999999999998
 40
0.9999999999999998
 40
0.9999999999999998
 10
3.809444492402305
 20
8.286003789255268
 30
0.0
 10
3.81019467863617
 20
8.284721206939643
 30
0.0
 10
3.815874787077615
 20
8.275010009494339
 30
0.0
 10
3.828014671907256
 20
8.257083594705704
 30
0.0
 10
3.841187621173651
 20
8.241549526969388
 30
0.0
 10
3.847834443017564
 20
8.233711329260849
 30
0.0
  0
SPLINE
  5
192
330
1F
100
AcDbEntity
  8
0
  6
Continuous
 62
     7
370
    15
100
AcDbSpline
210
0.0
220
0.0
230
1.0
 70
     8
 71
     3
 72
    10
 73
     6
 74
     0
 42
0.0000000001
 43
0.0000000001
 40
0.0
 40
0.0
 40
0.0
 40
0.0
 40
0.374146455919298
 40
0.7516829311980917
 40
1.0
 40
1.0
 40
1.0
 40
1.0
 10
3.847834443017564
 20
8.233711329260849
 30
0.0
 10
3.851823416572926
 20
8.233558961372775
 30
0.0
 10
3.859837506475767
 20
8.233252845040745
 30
0.0
 10
3.872603183944491
 20
8.233321358246051
 30
0.0
 10
3.881830658556523
 20
8.233680853254842
 30
0.0
 10
3.885491801758116
 20
8.233823488457082
 30
0.0
  0
SPLINE
  5
193
330
1F
100
AcDbEntity
  8
0
  6
Continuous
 62
     7
370
    15
100
AcDbSpline
210
0.0
220
0.0
230
1.0
 70
     8
 71
     3
 72
     9
 73
     5
 74
     0
 42
0.0000000001
 43
0.0000000001
 40
0.0
 40
0.0
 40
0.0
 40
0.0
 40
0.4954568431823854
 40
1.0
 40
1.0
 40
1.0
 40
1.0
 10
3.785264667034195
 20
8.342103072766304
 30
0.0
 10
3.788359630041895
 20
8.332769460133482
 30
0.0
 10
3.794606315399634
 20
8.313931063285691
 30
0.0
 10
3.804468562910072
 20
8.295369100537149
 30
0.0
 10
3.809444492402305
 20
8.286003789255268
 30
0.0
  0
SPLINE
  5
194
330
1F
100
AcDbEntity
  8
0
  6
Continuous
 62
     7
370
    15
100
AcDbSpline
210
0.0
220
0.0
230
1.0
 70
     8
 71
     3
 72
    10
 73
     6
 74
     0
 42
0.0000000001
 43
0.0000000001
 40
0.0
 40
0.0
 40
0.0
 40
0.0
 40
0.0701034295642969
 40
0.530791768557518
 40
1.0
 40
1.0
 40
1.0
 40
1.0
 10
3.791637158524622
 20
8.396411437286621
 30
0.0
 10
3.791326139043499
 20
8.395081055616294
 30
0.0
 10
3.788971238841507
 20
8.38500800150129
 30
0.0
 10
3.785961601962415
 20
8.366399274078327
 30
0.0
 10
3.78549839334595
 20
8.35025112402957
 30
0.0
 10
3.785264667034195
 20
8.342103072766304
 30
0.0
  0
SPLINE
  5
195
330
1F
100
AcDbEntity
  8
0
  6
Continuous
 62
     7
370
    15
100
AcDbSpline
210
0.0
220
0.0
230
1.0
 70
     8
 71
     3
 72
    10
 73
     6
 74
     0
 42
0.0000000001
 43
0.0000000001
 40
0.0
 40
0.0
 40
0.0
 40
0.0
 40
0.0701002636818034
 40
0.5307901248980882
 40
1.0
 40
1.0
 40
1.0
 40
1.0
 10
3.501660327920049
 20
9.094190009395635
 30
0.0
 10
3.500927147849716
 20
9.095477067494186
 30
0.0
 10
3.495375603238251
 20
9.105222504857776
 30
0.0
 10
3.486339402916289
 20
9.123980520756202
 30
0.0
 10
3.480451465503762
 20
9.141466295222
 30
0.0
 10
3.477480523293499
 20
9.150289287349778
 30
0.0
  0
LINE
  5
196
330
1F
100
AcDbEntity
  8
0
  6
Continuous
 62
     7
370
    15
100
AcDbLine
 10
3.477480523293499
 20
9.150289287349778
 30
0.0
 11
3.537550650998599
 21
9.166382738449003
 31
0.0
  0
LINE
  5
197
330
1F
100
AcDbEntity
  8
0
  6
Continuous
 62
     7
370
    15
100
AcDbLine
 10
3.600120426981968
 20
9.057990994943549
 30
0.0
 11
3.537550650998599
 21
9.166382738449003
 31
0.0
  0
LINE
  5
198
330
1F
100
AcDbEntity
  8
0
  6
Continuous
 62
     7
370
    15
100
AcDbLine
 10
3.540050299276868
 20
9.041897543844322
 30
0.0
 11
3.600120426981968
 21
9.057990994943549
 31
0.0
  0
SPLINE
  5
199
330
1F
100
AcDbEntity
  8
0
  6
Continuous
 62
     7
370
    15
100
AcDbSpline
210
0.0
220
0.0
230
1.0
 70
     8
 71
     3
 72
     9
 73
     5
 74
     0
 42
0.0000000001
 43
0.0000000001
 40
0.0
 40
0.0
 40
0.0
 40
0.0
 40
0.4954576769090301
 40
1.0
 40
1.0
 40
1.0
 40
1.0
 10
3.540050299276868
 20
9.041897543844322
 30
0.0
 10
3.5329836418175
 20
9.05016717451755
 30
0.0
 10
3.51872075360583
 20
9.066858066714068
 30
0.0
 10
3.507381474262241
 20
9.085024350415157
 30
0.0
 10
3.501660327920049
 20
9.094190009395635
 30
0.0
  0
ARC
  5
19A
330
1F
100
AcDbEntity
  8
0
  6
Continuous
 62
     7
370
    15
100
AcDbCircle
 10
3.367249331780768
 20
9.01587131270921
 30
0.0
 40
0.1555639229828498
100
AcDbArc
 50
348.0958481161425
 51
30.22853076900793
  0
SPLINE
  5
19B
330
1F
100
AcDbEntity
  8
0
  6
Continuous
 62
     7
370
    15
100
AcDbSpline
210
0.0
220
0.0
230
1.0
 70
     8
 71
     3
 72
    10
 73
     6
 74
     0
 42
0.0000000001
 43
0.0000000001
 40
0.0
 40
0.0
 40
0.0
 40
0.0
 40
0.0701002733845195
 40
0.5307902390336786
 40
1.0
 40
1.0
 40
1.0
 40
1.0
 10
3.519467703280851
 20
8.983782350250494
 30
0.0
 10
3.519795724852312
 20
8.985117210530876
 30
0.0
 10
3.522279461932319
 20
8.995224600603579
 30
0.0
 10
3.528392400302072
 20
9.014664797168983
 30
0.0
 10
3.536140669587494
 20
9.032764684213674
 30
0.0
 10
3.540050299276868
 20
9.041897543844322
 30
0.0
  0
LINE
  5
19C
330
1F
100
AcDbEntity
  8
0
  6
Continuous
 62
     7
370
    15
100
AcDbLine
 10
3.573165360237084
 20
8.945567431272513
 30
0.0
 11
3.600120426981968
 21
9.057990994943549
 31
0.0
  0
LINE
  5
19D
330
1F
100
AcDbEntity
  8
0
  6
Continuous
 62
     7
370
    15
100
AcDbLine
 10
3.513095232531983
 20
8.929473980173286
 30
0.0
 11
3.573165360237084
 21
8.945567431272513
 31
0.0
  0
SPLINE
  5
19E
330
1F
100
AcDbEntity
  8
0
  6
Continuous
 62
     7
370
    15
100
AcDbSpline
210
0.0
220
0.0
230
1.0
 70
     8
 71
     3
 72
     9
 73
     5
 74
     0
 42
0.0000000001
 43
0.0000000001
 40
0.0
 40
0.0
 40
0.0
 40
0.0
 40
0.4954580106779336
 40
1.0
 40
1.0
 40
1.0
 40
1.0
 10
3.513095232531983
 20
8.929473980173288
 30
0.0
 10
3.513298192456149
 20
8.938071005007595
 30
0.0
 10
3.513707833474748
 20
8.955422676893059
 30
0.0
 10
3.517536154549853
 20
8.974272050030338
 30
0.0
 10
3.519467703280851
 20
8.983782350250494
 30
0.0
  0
LWPOLYLINE
  5
19F
330
1F
100
AcDbEntity
  8
0
  6
Continuous
 62
     7
370
    15
100
AcDbPolyline
 90
        9
 70
   128
 43
0.0
 10
3.461227727802723
 20
8.925554776931829
 10
3.471195208576837
 20
8.926955048070032
 10
3.480687417261002
 20
8.930220569079194
 10
3.489541988928965
 20
8.935295135612742
 10
3.497607385748432
 20
8.942092286280681
 10
3.504745676350016
 20
8.950495688453422
 10
3.510834651466281
 20
8.960361284484685
 10
3.515770146986392
 20
8.971520512792945
 10
3.519467703280851
 20
8.983782350250494
  0
LWPOLYLINE
  5
1A0
330
1F
100
AcDbEntity
  8
0
  6
Continuous
 62
     7
370
    15
100
AcDbPolyline
 90
        9
 70
   128
 43
0.0
 10
3.385180418446911
 20
8.977734851644516
 10
3.392751502424985
 20
8.965980502520901
 10
3.401189542098954
 20
8.955423651076111
 10
3.410350176216044
 20
8.946244728892663
 10
3.420076598587898
 20
8.938600823600049
 10
3.430202503391996
 20
8.932622855026464
 10
3.440554532675654
 20
8.928413110801439
 10
3.450955595005513
 20
8.926043678996478
 10
3.461227727802723
 20
8.925554776931829
  0
ARC
  5
1A1
330
1F
100
AcDbEntity
  8
0
  6
Continuous
 62
     7
370
    15
100
AcDbCircle
 10
3.519591850221438
 20
9.056053618593459
 30
0.0
 40
0.1555643347560145
100
AcDbArc
 50
168.095906534462
 51
210.2284723506873
  0
LWPOLYLINE
  5
1A2
330
1F
100
AcDbEntity
  8
0
  6
Continuous
 62
     7
370
    15
100
AcDbPolyline
 90
        9
 70
   128
 43
0.0
 10
3.425613018564237
 20
9.146370084108321
 10
3.415645579273242
 20
9.144969801856332
 10
3.406153370589077
 20
9.14170428084717
 10
3.397298798921114
 20
9.136629714313622
 10
3.389233360618528
 20
9.129832574759468
 10
3.382095152983182
 20
9.121429150359157
 10
3.376006177866915
 20
9.111563554327894
 10
3.371070682346805
 20
9.100404326019631
 10
3.367373043086109
 20
9.088142510789655
  0
LWPOLYLINE
  5
1A3
330
1F
100
AcDbEntity
  8
0
  6
Continuous
 62
     7
370
    15
100
AcDbPolyline
 90
        9
 70
   128
 43
0.0
 10
3.501660327920049
 20
9.094190009395635
 10
3.494089285425094
 20
9.105944347405463
 10
3.485651245751125
 20
9.116501198850253
 10
3.476490611634035
 20
9.125680121033703
 10
3.466764147779061
 20
9.1333240374401
 10
3.456638284458082
 20
9.139301994899899
 10
3.446286255174424
 20
9.143511739124924
 10
3.435885192844566
 20
9.145881170929884
 10
3.425613018564237
 20
9.146370084108321
  0
SPLINE
  5
1A4
330
1F
100
AcDbEntity
  8
0
  6
Continuous
 62
     7
370
    15
100
AcDbSpline
210
0.0
220
0.0
230
1.0
 70
     8
 71
     3
 72
    10
 73
     6
 74
     0
 42
0.0000000001
 43
0.0000000001
 40
0.0
 40
0.0
 40
0.0
 40
0.0
 40
0.2318979686207588
 40
0.6135110791699713
 40
1.0
 40
1.0
 40
1.0
 40
1.0
 10
3.477480523293498
 20
9.15028928734978
 30
0.0
 10
3.473144917258737
 20
9.149882679419071
 30
0.0
 10
3.461674604029767
 20
9.148806954298013
 30
0.0
 10
3.443803718134911
 20
9.147345214425145
 30
0.0
 10
3.431702191385799
 20
9.146696500198016
 30
0.0
 10
3.425613018564237
 20
9.146370084108321
 30
0.0
  0
SPLINE
  5
1A5
330
1F
100
AcDbEntity
  8
0
  6
Continuous
 62
     7
370
    15
100
AcDbSpline
210
0.0
220
0.0
230
1.0
 70
     8
 71
     3
 72
    10
 73
     6
 74
     0
 42
0.0000000001
 43
0.0000000001
 40
0.0
 40
0.0
 40
0.0
 40
0.0
 40
0.3813031339825196
 40
0.7681025199839092
 40
1.0
 40
1.0
 40
1.0
 40
1.0
 10
3.461227727802723
 20
8.925554776931829
 30
0.0
 10
3.467232334462766
 20
8.925876074014087
 30
0.0
 10
3.479328100524061
 20
8.926523299479999
 30
0.0
 10
3.497192374319353
 20
8.927982548739841
 30
0.0
 10
3.508759637354612
 20
8.92906737132073
 30
0.0
 10
3.513095232531983
 20
8.929473980173286
 30
0.0
  0
SPLINE
  5
1A6
330
1F
100
AcDbEntity
  8
0
  6
Continuous
 62
     7
370
    15
100
AcDbSpline
210
0.0
220
0.0
230
1.0
 70
     8
 71
     3
 72
    10
 73
     6
 74
     0
 42
0.0000000001
 43
0.0000000001
 40
0.0
 40
0.0
 40
0.0
 40
0.0
 40
0.2483169150036874
 40
0.6221437746093934
 40
1.0
 40
1.0
 40
1.0
 40
1.0
 10
3.425613018564237
 20
9.146370084108321
 30
0.0
 10
3.421951850314925
 20
9.146227333871426
 30
0.0
 10
3.412779003454802
 20
9.145869681348207
 30
0.0
 10
3.400002460332006
 20
9.145798851238616
 30
0.0
 10
3.391985570899085
 20
9.146104358173138
 30
0.0
 10
3.387955639082126
 20
9.146257930468982
 30
0.0
  0
LINE
  5
1A7
330
1F
100
AcDbEntity
  8
0
  6
Continuous
 62
     7
370
    15
100
AcDbLine
 10
3.387955639082126
 20
9.146257930468982
 30
0.0
 11
3.448025766787227
 21
9.162351381568207
 31
0.0
  0
LINE
  5
1A8
330
1F
100
AcDbEntity
  8
0
  6
Continuous
 62
     7
370
    15
100
AcDbLine
 10
3.537550650998599
 20
9.166382738449003
 30
0.0
 11
3.448025766787227
 21
9.162351381568207
 31
0.0
  0
SPLINE
  5
1A9
330
1F
100
AcDbEntity
  8
0
  6
Continuous
 62
     7
370
    15
100
AcDbSpline
210
0.0
220
0.0
230
1.0
 70
     8
 71
     3
 72
     9
 73
     5
 74
     0
 42
0.0000000001
 43
0.0000000001
 40
0.0
 40
0.0
 40
0.0
 40
0.0
 40
0.4954574956847479
 40
1.0
 40
1.0
 40
1.0
 40
1.0
 10
3.387955639082126
 20
9.146257930468982
 30
0.0
 10
3.38378100851689
 20
9.13659682454975
 30
0.0
 10
3.375355198832719
 20
9.117097460823545
 30
0.0
 10
3.370049828114567
 20
9.09785244119077
 30
0.0
 10
3.367373043086109
 20
9.088142510789655
 30
0.0
  0
SPLINE
  5
1AA
330
1F
100
AcDbEntity
  8
0
  6
Continuous
 62
     7
370
    15
100
AcDbSpline
210
0.0
220
0.0
230
1.0
 70
     8
 71
     3
 72
    10
 73
     6
 74
     0
 42
0.0000000001
 43
0.0000000001
 40
0.0
 40
0.0
 40
0.0
 40
0.0
 40
0.0701034342041682
 40
0.5307898186153964
 40
1.0
 40
1.0
 40
1.0
 40
1.0
 10
3.385180418446911
 20
8.977734851644516
 30
0.0
 10
3.385930611463817
 20
8.976452267436849
 30
0.0
 10
3.391610715725337
 20
8.966741150618178
 30
0.0
 10
3.403750645163545
 20
8.948814836930685
 30
0.0
 10
3.416923558890821
 20
8.933280817403101
 30
0.0
 10
3.423570389803729
 20
8.925442612178702
 30
0.0
  0
SPLINE
  5
1AB
330
1F
100
AcDbEntity
  8
0
  6
Continuous
 62
     7
370
    15
100
AcDbSpline
210
0.0
220
0.0
230
1.0
 70
     8
 71
     3
 72
    10
 73
     6
 74
     0
 42
0.0000000001
 43
0.0000000001
 40
0.0
 40
0.0
 40
0.0
 40
0.0
 40
0.3741466124076565
 40
0.7516815978829076
 40
1.0
 40
1.0
 40
1.0
 40
1.0
 10
3.423570389803729
 20
8.925442612178702
 30
0.0
 10
3.427559359086042
 20
8.925290277949727
 30
0.0
 10
3.435573422836984
 20
8.924984229911734
 30
0.0
 10
3.448339147768307
 20
8.925052289789739
 30
0.0
 10
3.457566580603305
 20
8.925412039765431
 30
0.0
 10
3.461227727802723
 20
8.925554776931829
 30
0.0
  0
SPLINE
  5
1AC
330
1F
100
AcDbEntity
  8
0
  6
Continuous
 62
     7
370
    15
100
AcDbSpline
210
0.0
220
0.0
230
1.0
 70
     8
 71
     3
 72
     9
 73
     5
 74
     0
 42
0.0000000001
 43
0.0000000001
 40
0.0
 40
0.0
 40
0.0
 40
0.0
 40
0.4954576769090301
 40
1.0
 40
1.0
 40
1.0
 40
1.0
 10
3.361000572337242
 20
9.033834366797943
 30
0.0
 10
3.364095519068385
 20
9.02450067092581
 30
0.0
 10
3.370342161063018
 20
9.005662137773265
 30
0.0
 10
3.380204467464215
 20
8.987100156697602
 30
0.0
 10
3.385180418446911
 20
8.977734851644516
 30
0.0
  0
SPLINE
  5
1AD
330
1F
100
AcDbEntity
  8
0
  6
Continuous
 62
     7
370
    15
100
AcDbSpline
210
0.0
220
0.0
230
1.0
 70
     8
 71
     3
 72
    10
 73
     6
 74
     0
 42
0.0000000001
 43
0.0000000001
 40
0.0
 40
0.0
 40
0.0
 40
0.0
 40
0.0700997511511405
 40
0.5307902378620045
 40
1.0
 40
1.0
 40
1.0
 40
1.0
 10
3.367373043086109
 20
9.088142510789655
 30
0.0
 10
3.367062052883681
 20
9.086812196461144
 30
0.0
 10
3.364707257598265
 20
9.076739152730372
 30
0.0
 10
3.361697425205474
 20
9.05813062571268
 30
0.0
 10
3.361234271021391
 20
9.041982433623788
 30
0.0
 10
3.361000572337241
 20
9.033834366797945
 30
0.0
  0
LINE
  5
1AE
330
1F
100
AcDbEntity
  8
0
  6
Continuous
 62
     7
370
    15
100
AcDbLine
 10
5.135385521045829
 20
7.914188210872978
 30
0.0
 11
5.135385521045829
 21
3.15596862254526
 31
0.0
  0
LINE
  5
1AF
330
1F
100
AcDbEntity
  8
0
  6
Continuous
 62
     7
370
    15
100
AcDbLine
 10
5.135385521045829
 20
3.15596862254526
 30
0.0
 11
4.216146680314765
 21
2.909694377808495
 31
0.0
  0
LINE
  5
1B0
330
1F
100
AcDbEntity
  8
0
  6
Continuous
 62
     7
370
    15
100
AcDbLine
 10
4.216146680314765
 20
8.160462250129716
 30
0.0
 11
4.216146680314765
 21
2.909694377808495
 31
0.0
  0
LINE
  5
1B1
330
1F
100
AcDbEntity
  8
0
  6
Continuous
 62
     7
370
    15
100
AcDbLine
 10
3.29690786810335
 20
8.406736487225755
 30
0.0
 11
3.29846348505134
 21
8.406319720252916
 31
0.0
  0
LINE
  5
1B2
330
1F
100
AcDbEntity
  8
0
  6
Continuous
 62
     7
370
    15
100
AcDbLine
 10
4.180791340143301
 20
8.16993433650415
 30
0.0
 11
4.216146680314765
 21
8.160462250129716
 31
0.0
  0
LINE
  5
1B3
330
1F
100
AcDbEntity
  8
0
  6
Continuous
 62
     7
370
    15
100
AcDbLine
 10
4.216146680314765
 20
2.909694377808495
 30
0.0
 11
3.792178720638116
 21
3.023280079843144
 31
0.0
  0
LINE
  5
1B4
330
1F
100
AcDbEntity
  8
0
  6
Continuous
 62
     7
370
    15
100
AcDbLine
 10
3.792178720638116
 20
3.023280079843144
 30
0.0
 11
3.75652725735654
 21
2.888314937333438
 31
0.0
  0
LINE
  5
1B5
330
1F
100
AcDbEntity
  8
0
  6
Continuous
 62
     7
370
    15
100
AcDbLine
 10
3.75652725735654
 20
2.888314937333438
 30
0.0
 11
3.721393544878374
 21
2.994072173615137
 31
0.0
  0
LINE
  5
1B6
330
1F
100
AcDbEntity
  8
0
  6
Continuous
 62
     7
370
    15
100
AcDbLine
 10
3.721393544878374
 20
2.994072173615137
 30
0.0
 11
3.29690786810335
 21
3.107796577782181
 31
0.0
  0
LINE
  5
1B7
330
1F
100
AcDbEntity
  8
0
  6
Continuous
 62
     7
370
    15
100
AcDbLine
 10
3.29690786810335
 20
8.406736487225755
 30
0.0
 11
3.29690786810335
 21
3.107796577782181
 31
0.0
  0
LINE
  5
1B8
330
1F
100
AcDbEntity
  8
0
  6
Continuous
 62
     7
370
    15
100
AcDbLine
 10
4.026237219980862
 20
2.960573217118983
 30
0.0
 11
3.75652725735654
 21
2.888314937333438
 31
0.0
  0
LINE
  5
1B9
330
1F
100
AcDbEntity
  8
0
  6
Continuous
 62
     7
370
    15
100
AcDbLine
 10
4.146991683276613
 20
9.75056123379884
 30
0.0
 11
4.180791340143301
 21
9.75961653542272
 31
0.0
  0
LINE
  5
1BA
330
1F
100
AcDbEntity
  8
0
  6
Continuous
 62
     7
370
    15
100
AcDbLine
 10
4.146991683276613
 20
9.75056123379884
 30
0.0
 11
3.298463526534459
 21
9.977891304809942
 31
0.0
  0
LINE
  5
1BB
330
1F
100
AcDbEntity
  8
0
  6
Continuous
 62
     7
370
    15
100
AcDbLine
 10
3.298463526534459
 20
9.977891304809942
 30
0.0
 11
3.332263183401146
 21
9.98694660643382
 31
0.0
  0
LINE
  5
1BC
330
1F
100
AcDbEntity
  8
0
  6
Continuous
 62
     7
370
    15
100
AcDbLine
 10
4.180791340143301
 20
9.75961653542272
 30
0.0
 11
3.332263183401146
 21
9.98694660643382
 31
0.0
  0
LINE
  5
1BD
330
1F
100
AcDbEntity
  8
0
  6
Continuous
 62
     7
370
    15
100
AcDbLine
 10
4.146991683276613
 20
4.836998525676075
 30
0.0
 11
4.180791340143301
 21
4.846053827299955
 31
0.0
  0
LINE
  5
1BE
330
1F
100
AcDbEntity
  8
0
  6
Continuous
 62
     7
370
    15
100
AcDbLine
 10
4.146991683276613
 20
4.836998525676075
 30
0.0
 11
4.146991683276613
 21
9.75056123379884
 31
0.0
  0
LINE
  5
1BF
330
1F
100
AcDbEntity
  8
0
  6
Continuous
 62
     7
370
    15
100
AcDbLine
 10
4.180791340143301
 20
4.846053827299955
 30
0.0
 11
4.180791340143301
 21
9.75961653542272
 31
0.0
  0
LINE
  5
1C0
330
1F
100
AcDbEntity
  8
0
  6
Continuous
 62
     7
370
    15
100
AcDbLine
 10
3.298463526534459
 20
9.977891304809942
 30
0.0
 11
3.298463526534459
 21
5.064328596687175
 31
0.0
  0
LINE
  5
1C1
330
1F
100
AcDbEntity
  8
0
  6
Continuous
 62
     7
370
    15
100
AcDbLine
 10
3.298463526534459
 20
5.064328596687175
 30
0.0
 11
4.146991683276613
 21
4.836998525676075
 31
0.0
  0
TEXT
  5
1C9
330
1F
100
AcDbEntity
  8
0
100
AcDbText
 10
3.046039549454199
 20
1.936374457726589
 30
0.0
 40
0.25
  1
USP  KHST
100
AcDbText
  0
TEXT
  5
1CA
330
1F
100
AcDbEntity
  8
0
100
AcDbText
 10
2.130761638349561
 20
1.438823765319593
 30
0.0
 40
0.25
  1
SIMPSON  HST
100
AcDbText
  0
ENDSEC
  0
SECTION
  2
OBJECTS
  0
DICTIONARY
  5
C
330
0
100
AcDbDictionary
281
     1
  3
ACAD_COLOR
350
1C6
  3
ACAD_GROUP
350
D
  3
ACAD_LAYOUT
350
1A
  3
ACAD_MATERIAL
350
1C5
  3
ACAD_MLINESTYLE
350
17
  3
ACAD_PLOTSETTINGS
350
19
  3
ACAD_PLOTSTYLENAME
350
E
  0
DICTIONARY
  5
1C6
102
{ACAD_REACTORS
330
C
102
}
330
C
100
AcDbDictionary
281
     1
  0
DICTIONARY
  5
D
102
{ACAD_REACTORS
330
C
102
}
330
C
100
AcDbDictionary
281
     1
  0
DICTIONARY
  5
1A
102
{ACAD_REACTORS
330
C
102
}
330
C
100
AcDbDictionary
281
     1
  3
Layout1
350
1E
  3
Layout2
350
26
  3
Model
350
22
  0
DICTIONARY
  5
1C5
102
{ACAD_REACTORS
330
C
102
}
330
C
100
AcDbDictionary
281
     1
  0
DICTIONARY
  5
17
102
{ACAD_REACTORS
330
C
102
}
330
C
100
AcDbDictionary
281
     1
  3
Standard
350
18
  0
DICTIONARY
  5
19
102
{ACAD_REACTORS
330
C
102
}
330
C
100
AcDbDictionary
281
     1
  0
ACDBDICTIONARYWDFLT
  5
E
102
{ACAD_REACTORS
330
C
102
}
330
C
100
AcDbDictionary
281
     1
  3
Normal
350
F
100
AcDbDictionaryWithDefault
340
F
  0
LAYOUT
  5
1E
102
{ACAD_REACTORS
330
1A
102
}
330
1A
100
AcDbPlotSettings
  1

  2
none_device
  4

  6

 40
0.0
 41
0.0
 42
0.0
 43
0.0
 44
0.0
 45
0.0
 46
0.0
 47
0.0
 48
0.0
 49
0.0
140
0.0
141
0.0
142
1.0
143
1.0
 70
   688
 72
     0
 73
     0
 74
     5
  7

 75
    16
147
1.0
 76
     0
 77
     2
 78
   300
148
0.0
149
0.0
100
AcDbLayout
  1
Layout1
 70
     1
 71
     1
 10
0.0
 20
0.0
 11
12.0
 21
9.0
 12
0.0
 22
0.0
 32
0.0
 14
1.000000000000000E+20
 24
1.000000000000000E+20
 34
1.000000000000000E+20
 15
-1.000000000000000E+20
 25
-1.000000000000000E+20
 35
-1.000000000000000E+20
146
0.0
 13
0.0
 23
0.0
 33
0.0
 16
1.0
 26
0.0
 36
0.0
 17
0.0
 27
1.0
 37
0.0
 76
     0
330
1B
  0
LAYOUT
  5
26
102
{ACAD_REACTORS
330
1A
102
}
330
1A
100
AcDbPlotSettings
  1

  2
none_device
  4

  6

 40
0.0
 41
0.0
 42
0.0
 43
0.0
 44
0.0
 45
0.0
 46
0.0
 47
0.0
 48
0.0
 49
0.0
140
0.0
141
0.0
142
1.0
143
1.0
 70
   688
 72
     0
 73
     0
 74
     5
  7

 75
    16
147
1.0
 76
     0
 77
     2
 78
   300
148
0.0
149
0.0
100
AcDbLayout
  1
Layout2
 70
     1
 71
     2
 10
0.0
 20
0.0
 11
0.0
 21
0.0
 12
0.0
 22
0.0
 32
0.0
 14
0.0
 24
0.0
 34
0.0
 15
0.0
 25
0.0
 35
0.0
146
0.0
 13
0.0
 23
0.0
 33
0.0
 16
1.0
 26
0.0
 36
0.0
 17
0.0
 27
1.0
 37
0.0
 76
     0
330
23
  0
LAYOUT
  5
22
102
{ACAD_REACTORS
330
1A
102
}
330
1A
100
AcDbPlotSettings
  1

  2
none_device
  4

  6

 40
0.0
 41
0.0
 42
0.0
 43
0.0
 44
0.0
 45
0.0
 46
0.0
 47
0.0
 48
0.0
 49
0.0
140
0.0
141
0.0
142
1.0
143
1.0
 70
  1712
 72
     0
 73
     0
 74
     0
  7

 75
     0
147
1.0
 76
     0
 77
     2
 78
   300
148
0.0
149
0.0
100
AcDbLayout
  1
Model
 70
     1
 71
     0
 10
0.0
 20
0.0
 11
8.5
 21
11.0
 12
0.0
 22
0.0
 32
0.0
 14
0.0
 24
0.0
 34
0.0
 15
8.5
 25
11.0
 35
0.0
146
0.0
 13
0.0
 23
0.0
 33
0.0
 16
1.0
 26
0.0
 36
0.0
 17
0.0
 27
1.0
 37
0.0
 76
     0
330
1F
  0
MLINESTYLE
  5
18
102
{ACAD_REACTORS
330
17
102
}
330
17
100
AcDbMlineStyle
  2
STANDARD
 70
     0
  3

 62
   256
 51
90.0
 52
90.0
 71
     2
 49
0.5
 62
   256
  6
BYLAYER
 49
-0.5
 62
   256
  6
BYLAYER
  0
ACDBPLACEHOLDER
  5
F
102
{ACAD_REACTORS
330
E
102
}
330
E
  0
ENDSEC
  0
EOF
