  0
SECTION
  2
HEADER
  9
$ACADVER
  1
AC1018
  9
$ACADMAINTVER
 70
     0
  9
$DWGCODEPAGE
  3
ANSI_1252
  9
$INSBASE
 10
0.0
 20
0.0
 30
0.0
  9
$EXTMIN
 10
0.7284450438474898
 20
3.3920238410514
 30
0.0
  9
$EXTMAX
 10
7.925781731241047
 20
7.834341883442383
 30
0.0
  9
$LIMMIN
 10
0.0
 20
0.0
  9
$LIMMAX
 10
8.5
 20
11.0
  9
$ORTHOMODE
 70
     0
  9
$REGENMODE
 70
     1
  9
$FILLMODE
 70
     1
  9
$QTEXTMODE
 70
     0
  9
$MIRRTEXT
 70
     1
  9
$LTSCALE
 40
1.0
  9
$ATTMODE
 70
     1
  9
$TEXTSIZE
 40
0.25
  9
$TRACEWID
 40
0.05
  9
$TEXTSTYLE
  7
Standard
  9
$CLAYER
  8
0
  9
$CELTYPE
  6
ByLayer
  9
$CECOLOR
 62
   256
  9
$CELTSCALE
 40
1.0
  9
$DISPSILH
 70
     0
  9
$DIMSCALE
 40
1.0
  9
$DIMASZ
 40
0.156
  9
$DIMEXO
 40
0.05
  9
$DIMDLI
 40
0.38
  9
$DIMRND
 40
0.0
  9
$DIMDLE
 40
0.0
  9
$DIMEXE
 40
0.125
  9
$DIMTP
 40
0.0
  9
$DIMTM
 40
0.0
  9
$DIMTXT
 40
0.125
  9
$DIMCEN
 40
0.09
  9
$DIMTSZ
 40
0.0
  9
$DIMTOL
 70
     0
  9
$DIMLIM
 70
     0
  9
$DIMTIH
 70
     1
  9
$DIMTOH
 70
     1
  9
$DIMSE1
 70
     0
  9
$DIMSE2
 70
     0
  9
$DIMTAD
 70
     0
  9
$DIMZIN
 70
     0
  9
$DIMBLK
  1

  9
$DIMASO
 70
     1
  9
$DIMSHO
 70
     1
  9
$DIMPOST
  1

  9
$DIMAPOST
  1

  9
$DIMALT
 70
     0
  9
$DIMALTD
 70
     2
  9
$DIMALTF
 40
25.4
  9
$DIMLFAC
 40
24.0
  9
$DIMTOFL
 70
     0
  9
$DIMTVP
 40
0.0
  9
$DIMTIX
 70
     0
  9
$DIMSOXD
 70
     0
  9
$DIMSAH
 70
     0
  9
$DIMBLK1
  1

  9
$DIMBLK2
  1

  9
$DIMSTYLE
  2
Standard
  9
$DIMCLRD
 70
     0
  9
$DIMCLRE
 70
     0
  9
$DIMCLRT
 70
     0
  9
$DIMTFAC
 40
1.0
  9
$DIMGAP
 40
0.06
  9
$DIMJUST
 70
     0
  9
$DIMSD1
 70
     0
  9
$DIMSD2
 70
     0
  9
$DIMTOLJ
 70
     1
  9
$DIMTZIN
 70
     0
  9
$DIMALTZ
 70
     0
  9
$DIMALTTZ
 70
     0
  9
$DIMUPT
 70
     0
  9
$DIMDEC
 70
     3
  9
$DIMTDEC
 70
     3
  9
$DIMALTU
 70
     2
  9
$DIMALTTD
 70
     2
  9
$DIMTXSTY
  7
Standard
  9
$DIMAUNIT
 70
     0
  9
$DIMADEC
 70
     0
  9
$DIMALTRND
 40
0.0
  9
$DIMAZIN
 70
     0
  9
$DIMDSEP
 70
    46
  9
$DIMATFIT
 70
     3
  9
$DIMFRAC
 70
     0
  9
$DIMLDRBLK
  1

  9
$DIMLUNIT
 70
     2
  9
$DIMLWD
 70
    -2
  9
$DIMLWE
 70
    -2
  9
$DIMTMOVE
 70
     0
  9
$LUNITS
 70
     2
  9
$LUPREC
 70
     3
  9
$SKETCHINC
 40
0.1
  9
$FILLETRAD
 40
0.5
  9
$AUNITS
 70
     0
  9
$AUPREC
 70
     0
  9
$MENU
  1
.
  9
$ELEVATION
 40
0.0
  9
$PELEVATION
 40
0.0
  9
$THICKNESS
 40
0.0
  9
$LIMCHECK
 70
     0
  9
$CHAMFERA
 40
0.5
  9
$CHAMFERB
 40
0.5
  9
$CHAMFERC
 40
1.0
  9
$CHAMFERD
 40
0.0
  9
$SKPOLY
 70
     0
  9
$TDCREATE
 40
2456533.556676863
  9
$TDUCREATE
 40
2456533.765010197
  9
$TDUPDATE
 40
2456533.557936713
  9
$TDUUPDATE
 40
2456533.766270046
  9
$TDINDWG
 40
0.0011208912
  9
$TDUSRTIMER
 40
0.0011208912
  9
$USRTIMER
 70
     1
  9
$ANGBASE
 50
0.0
  9
$ANGDIR
 70
     0
  9
$PDMODE
 70
     0
  9
$PDSIZE
 40
-1.0
  9
$PLINEWID
 40
0.0
  9
$SPLFRAME
 70
     0
  9
$SPLINETYPE
 70
     6
  9
$SPLINESEGS
 70
     8
  9
$HANDSEED
  5
179
  9
$SURFTAB1
 70
     6
  9
$SURFTAB2
 70
     6
  9
$SURFTYPE
 70
     6
  9
$SURFU
 70
     6
  9
$SURFV
 70
     6
  9
$UCSBASE
  2

  9
$UCSNAME
  2

  9
$UCSORG
 10
0.0
 20
0.0
 30
0.0
  9
$UCSXDIR
 10
1.0
 20
0.0
 30
0.0
  9
$UCSYDIR
 10
0.0
 20
1.0
 30
0.0
  9
$UCSORTHOREF
  2

  9
$UCSORTHOVIEW
 70
     0
  9
$UCSORGTOP
 10
0.0
 20
0.0
 30
0.0
  9
$UCSORGBOTTOM
 10
0.0
 20
0.0
 30
0.0
  9
$UCSORGLEFT
 10
0.0
 20
0.0
 30
0.0
  9
$UCSORGRIGHT
 10
0.0
 20
0.0
 30
0.0
  9
$UCSORGFRONT
 10
0.0
 20
0.0
 30
0.0
  9
$UCSORGBACK
 10
0.0
 20
0.0
 30
0.0
  9
$PUCSBASE
  2

  9
$PUCSNAME
  2

  9
$PUCSORG
 10
0.0
 20
0.0
 30
0.0
  9
$PUCSXDIR
 10
1.0
 20
0.0
 30
0.0
  9
$PUCSYDIR
 10
0.0
 20
1.0
 30
0.0
  9
$PUCSORTHOREF
  2

  9
$PUCSORTHOVIEW
 70
     0
  9
$PUCSORGTOP
 10
0.0
 20
0.0
 30
0.0
  9
$PUCSORGBOTTOM
 10
0.0
 20
0.0
 30
0.0
  9
$PUCSORGLEFT
 10
0.0
 20
0.0
 30
0.0
  9
$PUCSORGRIGHT
 10
0.0
 20
0.0
 30
0.0
  9
$PUCSORGFRONT
 10
0.0
 20
0.0
 30
0.0
  9
$PUCSORGBACK
 10
0.0
 20
0.0
 30
0.0
  9
$USERI1
 70
     0
  9
$USERI2
 70
     0
  9
$USERI3
 70
     0
  9
$USERI4
 70
     0
  9
$USERI5
 70
     0
  9
$USERR1
 40
0.0
  9
$USERR2
 40
0.0
  9
$USERR3
 40
0.0
  9
$USERR4
 40
0.0
  9
$USERR5
 40
0.0
  9
$WORLDVIEW
 70
     1
  9
$SHADEDGE
 70
     3
  9
$SHADEDIF
 70
    70
  9
$TILEMODE
 70
     1
  9
$MAXACTVP
 70
    64
  9
$PINSBASE
 10
0.0
 20
0.0
 30
0.0
  9
$PLIMCHECK
 70
     0
  9
$PEXTMIN
 10
1.000000000000000E+20
 20
1.000000000000000E+20
 30
1.000000000000000E+20
  9
$PEXTMAX
 10
-1.000000000000000E+20
 20
-1.000000000000000E+20
 30
-1.000000000000000E+20
  9
$PLIMMIN
 10
0.0
 20
0.0
  9
$PLIMMAX
 10
12.0
 20
9.0
  9
$UNITMODE
 70
     0
  9
$VISRETAIN
 70
     1
  9
$PLINEGEN
 70
     0
  9
$PSLTSCALE
 70
     1
  9
$TREEDEPTH
 70
  3020
  9
$CMLSTYLE
  2
Standard
  9
$CMLJUST
 70
     0
  9
$CMLSCALE
 40
1.0
  9
$PROXYGRAPHICS
 70
     1
  9
$MEASUREMENT
 70
     0
  9
$CELWEIGHT
370
    -1
  9
$ENDCAPS
280
     0
  9
$JOINSTYLE
280
     0
  9
$LWDISPLAY
290
     1
  9
$INSUNITS
 70
     1
  9
$HYPERLINKBASE
  1

  9
$STYLESHEET
  1

  9
$XEDIT
290
     1
  9
$CEPSNTYPE
380
     0
  9
$PSTYLEMODE
290
     1
  9
$FINGERPRINTGUID
  2
{58B95C29-C704-41CC-A75F-19A0302DE304}
  9
$VERSIONGUID
  2
{D5A844C0-B9C4-4DF8-8352-128F6D958FE2}
  9
$EXTNAMES
290
     1
  9
$PSVPSCALE
 40
0.0
  9
$OLESTARTUP
290
     0
  9
$SORTENTS
280
   127
  9
$INDEXCTL
280
     0
  9
$HIDETEXT
280
     0
  9
$XCLIPFRAME
290
     0
  9
$HALOGAP
280
     0
  9
$OBSCOLOR
 70
   257
  9
$OBSLTYPE
280
     0
  9
$INTERSECTIONDISPLAY
280
     0
  9
$INTERSECTIONCOLOR
 70
   257
  9
$DIMASSOC
280
     1
  9
$PROJECTNAME
  1

  0
ENDSEC
  0
SECTION
  2
CLASSES
  0
CLASS
  1
ACDBDICTIONARYWDFLT
  2
AcDbDictionaryWithDefault
  3
ObjectDBX Classes
 90
        0
 91
        1
280
     0
281
     0
  0
CLASS
  1
VISUALSTYLE
  2
AcDbVisualStyle
  3
ObjectDBX Classes
 90
     4095
 91
        0
280
     0
281
     0
  0
CLASS
  1
MATERIAL
  2
AcDbMaterial
  3
ObjectDBX Classes
 90
        0
 91
        0
280
     0
281
     0
  0
ENDSEC
  0
SECTION
  2
TABLES
  0
TABLE
  2
VPORT
  5
8
330
0
100
AcDbSymbolTable
 70
     3
  0
VPORT
  5
178
330
8
100
AcDbSymbolTableRecord
100
AcDbViewportTableRecord
  2
*Active
 70
     0
 10
0.0
 20
0.0
 11
1.0
 21
1.0
 12
4.484935771626249
 22
5.499720720806831
 13
0.0
 23
0.0
 14
0.5
 24
0.5
 15
0.5
 25
0.5
 16
0.0
 26
0.0
 36
1.0
 17
0.0
 27
0.0
 37
0.0
 40
6.057593027183429
 41
2.144329896907216
 42
50.0
 43
0.0
 44
0.0
 50
0.0
 51
0.0
 71
     0
 72
  2000
 73
     1
 74
     3
 75
     0
 76
     0
 77
     0
 78
     0
281
     0
 65
     1
110
0.0
120
0.0
130
0.0
111
1.0
121
0.0
131
0.0
112
0.0
122
1.0
132
0.0
 79
     0
146
0.0
  0
ENDTAB
  0
TABLE
  2
LTYPE
  5
5
330
0
100
AcDbSymbolTable
 70
     6
  0
LTYPE
  5
14
330
5
100
AcDbSymbolTableRecord
100
AcDbLinetypeTableRecord
  2
ByBlock
 70
     0
  3

 72
    65
 73
     0
 40
0.0
  0
LTYPE
  5
15
330
5
100
AcDbSymbolTableRecord
100
AcDbLinetypeTableRecord
  2
ByLayer
 70
     0
  3

 72
    65
 73
     0
 40
0.0
  0
LTYPE
  5
16
330
5
100
AcDbSymbolTableRecord
100
AcDbLinetypeTableRecord
  2
Continuous
 70
     0
  3
Solid line
 72
    65
 73
     0
 40
0.0
  0
LTYPE
  5
3F
330
5
100
AcDbSymbolTableRecord
100
AcDbLinetypeTableRecord
  2
HIDDEN
 70
     0
  3
Hidden __ __ __ __ __ __ __ __ __ __ __ __ __ __
 72
    65
 73
     2
 40
0.075
 49
0.05
 74
     0
 49
-0.025
 74
     0
  0
LTYPE
  5
40
330
5
100
AcDbSymbolTableRecord
100
AcDbLinetypeTableRecord
  2
PHANTOM
 70
     0
  3
Phantom ______  __  __  ______  __  __  ______
 72
    65
 73
     6
 40
0.5
 49
0.25
 74
     0
 49
-0.05
 74
     0
 49
0.05
 74
     0
 49
-0.05
 74
     0
 49
0.05
 74
     0
 49
-0.05
 74
     0
  0
LTYPE
  5
41
330
5
100
AcDbSymbolTableRecord
100
AcDbLinetypeTableRecord
  2
CENTER
 70
     0
  3
Center ____ _ ____ _ ____ _ ____ _ ____ _ ____
 72
    65
 73
     4
 40
0.4
 49
0.25
 74
     0
 49
-0.05
 74
     0
 49
0.05
 74
     0
 49
-0.05
 74
     0
  0
LTYPE
  5
42
330
5
100
AcDbSymbolTableRecord
100
AcDbLinetypeTableRecord
  2
CENTERX2
 70
     0
  3
Center (2x) ________  __  ________  __  _____
 72
    65
 73
     4
 40
0.8
 49
0.5
 74
     0
 49
-0.1
 74
     0
 49
0.1
 74
     0
 49
-0.1
 74
     0
  0
LTYPE
  5
43
330
5
100
AcDbSymbolTableRecord
100
AcDbLinetypeTableRecord
  2
DOT2
 70
     0
  3
Dot (.5x) ........................................
 72
    65
 73
     2
 40
0.025
 49
0.0
 74
     0
 49
-0.025
 74
     0
  0
ENDTAB
  0
TABLE
  2
LAYER
  5
2
330
0
100
AcDbSymbolTable
 70
     7
  0
LAYER
  5
10
330
2
100
AcDbSymbolTableRecord
100
AcDbLayerTableRecord
  2
0
 70
     0
 62
     7
  6
Continuous
370
    -3
390
F
  0
LAYER
  5
44
330
2
100
AcDbSymbolTableRecord
100
AcDbLayerTableRecord
  2
SLD-0
 70
     0
 62
   179
  6
Continuous
370
    -3
390
F
  0
LAYER
  5
45
330
2
100
AcDbSymbolTableRecord
100
AcDbLayerTableRecord
  2
SLD-DEFPOINTS
 70
     0
 62
   179
  6
Continuous
370
    -3
390
F
  0
LAYER
  5
46
330
2
100
AcDbSymbolTableRecord
100
AcDbLayerTableRecord
  2
OBJ
 70
     0
 62
   179
  6
Continuous
370
    -3
390
F
  0
LAYER
  5
47
330
2
100
AcDbSymbolTableRecord
100
AcDbLayerTableRecord
  2
FORMAT
 70
     0
 62
     7
  6
Continuous
370
    -3
390
F
  0
LAYER
  5
48
330
2
100
AcDbSymbolTableRecord
100
AcDbLayerTableRecord
  2
TOLERANCES
 70
     0
 62
     7
  6
Continuous
370
    -3
390
F
  0
LAYER
  5
49
330
2
100
AcDbSymbolTableRecord
100
AcDbLayerTableRecord
  2
QTY-BLANK-SIZE-1
 70
     0
 62
     7
  6
Continuous
370
    -3
390
F
  0
ENDTAB
  0
TABLE
  2
STYLE
  5
3
330
0
100
AcDbSymbolTable
 70
     2
  0
STYLE
  5
11
330
3
100
AcDbSymbolTableRecord
100
AcDbTextStyleTableRecord
  2
Standard
 70
     0
 40
0.0
 41
1.0
 50
0.0
 71
     0
 42
0.25
  3
txt
  4

  0
STYLE
  5
16E
330
3
100
AcDbSymbolTableRecord
100
AcDbTextStyleTableRecord
  2
SLDTEXTSTYLE0
 70
     0
 40
0.0
 41
0.7
 50
0.0
 71
     0
 42
0.2
  3
TXT
  4

  0
ENDTAB
  0
TABLE
  2
VIEW
  5
6
330
0
100
AcDbSymbolTable
 70
     0
  0
ENDTAB
  0
TABLE
  2
UCS
  5
7
330
0
100
AcDbSymbolTable
 70
     0
  0
ENDTAB
  0
TABLE
  2
APPID
  5
9
330
0
100
AcDbSymbolTable
 70
     1
  0
APPID
  5
12
330
9
100
AcDbSymbolTableRecord
100
AcDbRegAppTableRecord
  2
ACAD
 70
     0
  0
ENDTAB
  0
TABLE
  2
DIMSTYLE
  5
A
330
0
100
AcDbSymbolTable
 70
     1
100
AcDbDimStyleTable
 71
     0
  0
DIMSTYLE
105
27
330
A
100
AcDbSymbolTableRecord
100
AcDbDimStyleTableRecord
  2
Standard
 70
     0
340
11
  0
ENDTAB
  0
TABLE
  2
BLOCK_RECORD
  5
1
330
0
100
AcDbSymbolTable
 70
     1
  0
BLOCK_RECORD
  5
1F
330
1
100
AcDbSymbolTableRecord
100
AcDbBlockTableRecord
  2
*Model_Space
340
22
  0
BLOCK_RECORD
  5
1B
330
1
100
AcDbSymbolTableRecord
100
AcDbBlockTableRecord
  2
*Paper_Space
340
1E
  0
BLOCK_RECORD
  5
23
330
1
100
AcDbSymbolTableRecord
100
AcDbBlockTableRecord
  2
*Paper_Space0
340
26
  0
ENDTAB
  0
ENDSEC
  0
SECTION
  2
BLOCKS
  0
BLOCK
  5
20
330
1F
100
AcDbEntity
  8
0
100
AcDbBlockBegin
  2
*Model_Space
 70
     0
 10
0.0
 20
0.0
 30
0.0
  3
*Model_Space
  1

  0
ENDBLK
  5
21
330
1F
100
AcDbEntity
  8
0
100
AcDbBlockEnd
  0
BLOCK
  5
1C
330
1B
100
AcDbEntity
 67
     1
  8
0
100
AcDbBlockBegin
  2
*Paper_Space
 70
     0
 10
0.0
 20
0.0
 30
0.0
  3
*Paper_Space
  1

  0
ENDBLK
  5
1D
330
1B
100
AcDbEntity
 67
     1
  8
0
100
AcDbBlockEnd
  0
BLOCK
  5
24
330
23
100
AcDbEntity
  8
0
100
AcDbBlockBegin
  2
*Paper_Space0
 70
     0
 10
0.0
 20
0.0
 30
0.0
  3
*Paper_Space0
  1

  0
ENDBLK
  5
25
330
23
100
AcDbEntity
  8
0
100
AcDbBlockEnd
  0
ENDSEC
  0
SECTION
  2
ENTITIES
  0
SPLINE
  5
4A
330
1F
100
AcDbEntity
  8
0
  6
Continuous
 62
     7
370
    15
100
AcDbSpline
210
0.0
220
0.0
230
1.0
 70
     8
 71
     3
 72
    28
 73
    24
 74
     0
 42
0.0000000001
 43
0.0000000001
 40
0.0
 40
0.0
 40
0.0
 40
0.0
 40
0.0544702453213632
 40
0.0968755215561062
 40
0.1275495235355813
 40
0.149256286179508
 40
0.1708003321098119
 40
0.2153597613695727
 40
0.2715812281925514
 40
0.3300624107182996
 40
0.3876064802490818
 40
0.43869579178142
 40
0.4821960352353356
 40
0.5349142551577073
 40
0.5863327907594789
 40
0.6418959689383116
 40
0.703791720642291
 40
0.7362093706873965
 40
0.769069850762551
 40
0.8104624409682898
 40
0.8628548368836892
 40
0.9260581557349013
 40
1.0
 40
1.0
 40
1.0
 40
1.0
 10
4.65673338488895
 20
6.619900328849753
 30
0.0
 10
4.663886631913235
 20
6.619817666545066
 30
0.0
 10
4.676608706730575
 20
6.619670651347458
 30
0.0
 10
4.693352881924599
 20
6.619081572940085
 30
0.0
 10
4.705798619334136
 20
6.618476278532519
 30
0.0
 10
4.715532307226053
 20
6.617893282330578
 30
0.0
 10
4.727097365864544
 20
6.617093432771685
 30
0.0
 10
4.743205122250137
 20
6.615743183980636
 30
0.0
 10
4.764245015817485
 20
6.613480575471919
 30
0.0
 10
4.786981739025246
 20
6.610373798495515
 30
0.0
 10
4.80903917849557
 20
6.606657960374941
 30
0.0
 10
4.82906027198835
 20
6.602641301535125
 30
0.0
 10
4.848412550683537
 20
6.598177091052424
 30
0.0
 10
4.867667197734804
 20
6.593111647377878
 30
0.0
 10
4.888456160718959
 20
6.586856460632561
 30
0.0
 10
4.910113330966039
 20
6.579424243505091
 30
0.0
 10
4.928876140355574
 20
6.572047536884168
 30
0.0
 10
4.944616818174643
 20
6.565169911000239
 30
0.0
 10
4.957680481512014
 20
6.559039410836621
 30
0.0
 10
4.972948524508074
 20
6.551288777380654
 30
0.0
 10
4.991464633038181
 20
6.540894947542239
 30
0.0
 10
5.013242827417795
 20
6.527281347697586
 30
0.0
 10
5.028179651431771
 20
6.516140153738231
 30
0.0
 10
5.036232843319551
 20
6.510133376612804
 30
0.0
  0
SPLINE
  5
4B
330
1F
100
AcDbEntity
  8
0
  6
Continuous
 62
     7
370
    15
100
AcDbSpline
210
0.0
220
0.0
230
1.0
 70
     8
 71
     3
 72
    32
 73
    28
 74
     0
 42
0.0000000001
 43
0.0000000001
 40
0.0
 40
0.0
 40
0.0
 40
0.0
 40
0.0495644411865763
 40
0.088369902500552
 40
0.1168385855853738
 40
0.1407020092579883
 40
0.1646108350285577
 40
0.2111689582760472
 40
0.2555204666572684
 40
0.2922841930122253
 40
0.3309191492222872
 40
0.3775900663213234
 40
0.4319756910564168
 40
0.4892743828935704
 40
0.5265424184345381
 40
0.5558026079108375
 40
0.5847352363125843
 40
0.6140358173839504
 40
0.6449979687764865
 40
0.6782683667772482
 40
0.7222113962784129
 40
0.773652427192415
 40
0.8258467312107026
 40
0.8569151685452352
 40
0.8950316404087526
 40
0.9425266580605635
 40
1.0
 40
1.0
 40
1.0
 40
1.0
 10
3.531370150197798
 20
7.029149465773899
 30
0.0
 10
3.523594993066107
 20
7.028765352858476
 30
0.0
 10
3.509732436337835
 20
7.02808050662451
 30
0.0
 10
3.49135613434939
 20
7.027612214094062
 30
0.0
 10
3.477013995516708
 20
7.027453586965528
 30
0.0
 10
3.464989879730268
 20
7.027478761408175
 30
0.0
 10
3.450079323673103
 20
7.027693956393811
 30
0.0
 10
3.431907619698531
 20
7.028307634042026
 30
0.0
 10
3.411756960836894
 20
7.029541979119128
 30
0.0
 10
3.392924192271222
 20
7.031202770406459
 30
0.0
 10
3.37385055326373
 20
7.033399702984298
 30
0.0
 10
3.352229857283234
 20
7.036604257237776
 30
0.0
 10
3.328139332127789
 20
7.041208524514851
 30
0.0
 10
3.30602642569712
 20
7.046592625384259
 30
0.0
 10
3.288074964046144
 20
7.051841593034049
 30
0.0
 10
3.274594541270133
 20
7.056275367641931
 30
0.0
 10
3.262444500372934
 20
7.060677165066039
 30
0.0
 10
3.250297683783311
 20
7.065504045407464
 30
0.0
 10
3.23783654964636
 20
7.070928212469278
 30
0.0
 10
3.223775496004911
 20
7.077643157396728
 30
0.0
 10
3.207599368767682
 20
7.086231829869096
 30
0.0
 10
3.189821746472623
 20
7.096903916358634
 30
0.0
 10
3.174298980111491
 20
7.107464002042944
 30
0.0
 10
3.160835849255345
 20
7.117523241805729
 30
0.0
 10
3.148285236995447
 20
7.127646582300868
 30
0.0
 10
3.133459504822038
 20
7.140627393421202
 30
0.0
 10
3.123290284203516
 20
7.150766551457977
 30
0.0
 10
3.117722329286988
 20
7.156318046204535
 30
0.0
  0
SPLINE
  5
4C
330
1F
100
AcDbEntity
  8
0
  6
Continuous
 62
     7
370
    15
100
AcDbSpline
210
0.0
220
0.0
230
1.0
 70
     8
 71
     3
 72
    10
 73
     6
 74
     0
 42
0.0000000001
 43
0.0000000001
 40
0.0
 40
0.0
 40
0.0
 40
0.0
 40
0.0701027416023863
 40
0.5307920440022063
 40
1.0
 40
1.0
 40
1.0
 40
1.0
 10
6.511737014844054
 20
5.752842501089183
 30
0.0
 10
6.511069531481457
 20
5.753554418258111
 30
0.0
 10
6.506015594213489
 20
5.758944791881433
 30
0.0
 10
6.497508678887684
 20
5.769381636674704
 30
0.0
 10
6.491455681086216
 20
5.779205741716893
 30
0.0
 10
6.488401456869037
 20
5.784162792837031
 30
0.0
  0
LINE
  5
4D
330
1F
100
AcDbEntity
  8
0
  6
Continuous
 62
     7
370
    15
100
AcDbLine
 10
6.488401456869037
 20
5.784162792837031
 30
0.0
 11
6.531308631682511
 21
5.795658099173927
 31
0.0
  0
LINE
  5
4E
330
1F
100
AcDbEntity
  8
0
  6
Continuous
 62
     7
370
    15
100
AcDbLine
 10
6.588129718571598
 20
5.735736908948684
 30
0.0
 11
6.531308631682511
 21
5.795658099173927
 31
0.0
  0
LINE
  5
4F
330
1F
100
AcDbEntity
  8
0
  6
Continuous
 62
     7
370
    15
100
AcDbLine
 10
6.545222543758122
 20
5.724241602611789
 30
0.0
 11
6.588129718571598
 21
5.735736908948684
 31
0.0
  0
SPLINE
  5
50
330
1F
100
AcDbEntity
  8
0
  6
Continuous
 62
     7
370
    15
100
AcDbSpline
210
0.0
220
0.0
230
1.0
 70
     8
 71
     3
 72
     9
 73
     5
 74
     0
 42
0.0000000001
 43
0.0000000001
 40
0.0
 40
0.0
 40
0.0
 40
0.0
 40
0.495458685830749
 40
1.0
 40
1.0
 40
1.0
 40
1.0
 10
6.545222543758124
 20
5.724241602611789
 30
0.0
 10
6.539190077690942
 20
5.728727304816093
 30
0.0
 10
6.527014559853227
 20
5.73778094002845
 30
0.0
 10
6.516860272386812
 20
5.747791672813844
 30
0.0
 10
6.511737014844054
 20
5.752842501089183
 30
0.0
  0
LWPOLYLINE
  5
51
330
1F
100
AcDbEntity
  8
0
  6
Continuous
 62
     7
370
    15
100
AcDbPolyline
 90
        9
 70
   128
 43
0.0
 10
6.454915927954967
 20
5.633970878667644
 10
6.461581909546501
 20
5.627705932013372
 10
6.468620053973594
 20
5.62256512807154
 10
6.475909823145873
 20
5.61863645406889
 10
6.483326412137913
 20
5.615987138331785
 10
6.490743001129952
 20
5.614662481752654
 10
6.498032770302231
 20
5.614685136301686
 10
6.505070914729323
 20
5.616054746890217
 10
6.511737014844054
 20
5.618747881510994
  0
ARC
  5
52
330
1F
100
AcDbEntity
  8
0
  6
Continuous
 62
     7
370
    15
100
AcDbCircle
 10
6.53762208335252
 20
5.708178890517079
 30
0.0
 40
0.1111176725966221
100
AcDbArc
 50
179.7675462612647
 51
221.9000087296743
  0
LWPOLYLINE
  5
53
330
1F
100
AcDbEntity
  8
0
  6
Continuous
 62
     7
370
    15
100
AcDbPolyline
 90
        9
 70
   128
 43
0.0
 10
6.454915927954967
 20
5.768065498245833
 10
6.448735891467186
 20
5.764094979951882
 10
6.443147878343611
 20
5.758914877467893
 10
6.438247181233857
 20
5.752613995506158
 10
6.434117951607111
 20
5.745299989981622
 10
6.430830592241819
 20
5.737098128717024
 10
6.428441520179293
 20
5.728148649998739
 10
6.426991507398971
 20
5.718604744411189
 10
6.426505325248826
 20
5.708629702911902
  0
LWPOLYLINE
  5
54
330
1F
100
AcDbEntity
  8
0
  6
Continuous
 62
     7
370
    15
100
AcDbPolyline
 90
        9
 70
   128
 43
0.0
 10
6.511737014844054
 20
5.752842501089183
 10
6.505070914729323
 20
5.759107499683334
 10
6.498032770302231
 20
5.76424828343896
 10
6.490743001129952
 20
5.768176957441609
 10
6.483326412137913
 20
5.770826293364921
 10
6.475909823145873
 20
5.772150929757848
 10
6.468620053973594
 20
5.772128275208816
 10
6.461581909546501
 20
5.770758684806488
 10
6.454915927954967
 20
5.768065498245833
  0
ARC
  5
55
330
1F
100
AcDbEntity
  8
0
  6
Continuous
 62
     7
370
    15
100
AcDbCircle
 10
6.429030892810863
 20
5.678634678529154
 30
0.0
 40
0.1111175213495599
100
AcDbArc
 50
359.7674647136851
 51
41.89994757132398
  0
LWPOLYLINE
  5
56
330
1F
100
AcDbEntity
  8
0
  6
Continuous
 62
     7
370
    15
100
AcDbPolyline
 90
        9
 70
   128
 43
0.0
 10
6.511737014844054
 20
5.618747881510994
 10
6.517916932808639
 20
5.622718451744824
 10
6.523504945932214
 20
5.627898534042607
 10
6.528405643041967
 20
5.634199436190549
 10
6.532534872668714
 20
5.641513441715084
 10
6.535822232034007
 20
5.649715302979683
 10
6.538211422619728
 20
5.658664749944293
 10
6.53966143540005
 20
5.668208635345638
 10
6.540147499026998
 20
5.678183708598599
  0
SPLINE
  5
57
330
1F
100
AcDbEntity
  8
0
  6
Continuous
 62
     7
370
    15
100
AcDbSpline
210
0.0
220
0.0
230
1.0
 70
     8
 71
     3
 72
    10
 73
     6
 74
     0
 42
0.0000000001
 43
0.0000000001
 40
0.0
 40
0.0
 40
0.0
 40
0.0
 40
0.2483175910505054
 40
0.6221450337498232
 40
1.0
 40
1.0
 40
1.0
 40
1.0
 10
6.540147499026998
 20
5.678183708598599
 30
0.0
 10
6.540218499043254
 20
5.681957963391601
 30
0.0
 10
6.540396385383574
 20
5.691414135488146
 30
0.0
 10
6.542012562986784
 20
5.706864529225388
 30
0.0
 10
6.544148734955822
 20
5.718428591354162
 30
0.0
 10
6.545222543758122
 20
5.724241602611789
 30
0.0
  0
LINE
  5
58
330
1F
100
AcDbEntity
  8
0
  6
Continuous
 62
     7
370
    15
100
AcDbLine
 10
6.588129718571598
 20
5.646340462252882
 30
0.0
 11
6.588129718571598
 21
5.735736908948684
 31
0.0
  0
LINE
  5
59
330
1F
100
AcDbEntity
  8
0
  6
Continuous
 62
     7
370
    15
100
AcDbLine
 10
6.545222543758122
 20
5.634845155915986
 30
0.0
 11
6.588129718571598
 21
5.646340462252882
 31
0.0
  0
SPLINE
  5
5A
330
1F
100
AcDbEntity
  8
0
  6
Continuous
 62
     7
370
    15
100
AcDbSpline
210
0.0
220
0.0
230
1.0
 70
     8
 71
     3
 72
    10
 73
     6
 74
     0
 42
0.0000000001
 43
0.0000000001
 40
0.0
 40
0.0
 40
0.0
 40
0.0
 40
0.231898937869191
 40
0.6135117344499017
 40
1.0
 40
1.0
 40
1.0
 40
1.0
 10
6.545222543758122
 20
5.634845155915986
 30
0.0
 10
6.544544981600115
 20
5.638045825456433
 30
0.0
 10
6.542752423434144
 20
5.64651351547349
 30
0.0
 10
6.540647485793943
 20
5.660852031166356
 30
0.0
 10
6.540314865045134
 20
5.672382087373401
 30
0.0
 10
6.540147499026998
 20
5.678183708598599
 30
0.0
  0
SPLINE
  5
5B
330
1F
100
AcDbEntity
  8
0
  6
Continuous
 62
     7
370
    15
100
AcDbSpline
210
0.0
220
0.0
230
1.0
 70
     8
 71
     3
 72
    10
 73
     6
 74
     0
 42
0.0000000001
 43
0.0000000001
 40
0.0
 40
0.0
 40
0.0
 40
0.0
 40
0.0700996670589719
 40
0.5307907117804916
 40
1.0
 40
1.0
 40
1.0
 40
1.0
 10
6.511737014844054
 20
5.618747881510994
 30
0.0
 10
6.512416580717181
 20
5.619098904009231
 30
0.0
 10
6.517562215049445
 20
5.621756826500267
 30
0.0
 10
6.528286043554894
 20
5.627041382414588
 30
0.0
 10
6.539542672013196
 20
5.632228060761583
 30
0.0
 10
6.545222543758122
 20
5.634845155915986
 30
0.0
  0
SPLINE
  5
5C
330
1F
100
AcDbEntity
  8
0
  6
Continuous
 62
     7
370
    15
100
AcDbSpline
210
0.0
220
0.0
230
1.0
 70
     8
 71
     3
 72
     9
 73
     5
 74
     0
 42
0.0000000001
 43
0.0000000001
 40
0.0
 40
0.0
 40
0.0
 40
0.0
 40
0.4954584660240229
 40
1.0
 40
1.0
 40
1.0
 40
1.0
 10
6.488401456869037
 20
5.784162792837031
 30
0.0
 10
6.482368989742642
 20
5.781389328949742
 30
0.0
 10
6.470193464365501
 20
5.775791556225125
 30
0.0
 10
6.460039184097703
 20
5.770656398567579
 30
0.0
 10
6.454915927954967
 20
5.768065498245833
 30
0.0
  0
LINE
  5
5D
330
1F
100
AcDbEntity
  8
0
  6
Continuous
 62
     7
370
    15
100
AcDbLine
 10
6.531308631682511
 20
5.616865246154735
 30
0.0
 11
6.588129718571598
 21
5.646340462252882
 31
0.0
  0
LINE
  5
5E
330
1F
100
AcDbEntity
  8
0
  6
Continuous
 62
     7
370
    15
100
AcDbLine
 10
6.488401456869037
 20
5.60536993981784
 30
0.0
 11
6.531308631682511
 21
5.616865246154735
 31
0.0
  0
SPLINE
  5
5F
330
1F
100
AcDbEntity
  8
0
  6
Continuous
 62
     7
370
    15
100
AcDbSpline
210
0.0
220
0.0
230
1.0
 70
     8
 71
     3
 72
     9
 73
     5
 74
     0
 42
0.0000000001
 43
0.0000000001
 40
0.0
 40
0.0
 40
0.0
 40
0.0
 40
0.4954571625405066
 40
1.0
 40
1.0
 40
1.0
 40
1.0
 10
6.488401456869037
 20
5.60536993981784
 30
0.0
 10
6.491596984363227
 20
5.607383372960383
 30
0.0
 10
6.498046638815297
 20
5.611447161507143
 30
0.0
 10
6.507145998227271
 20
5.616299612246385
 30
0.0
 10
6.511737014844054
 20
5.618747881510994
 30
0.0
  0
SPLINE
  5
60
330
1F
100
AcDbEntity
  8
0
  6
Continuous
 62
     7
370
    15
100
AcDbSpline
210
0.0
220
0.0
230
1.0
 70
     8
 71
     3
 72
    10
 73
     6
 74
     0
 42
0.0000000001
 43
0.0000000001
 40
0.0
 40
0.0
 40
0.0
 40
0.0
 40
0.070102956727208
 40
0.5307906041401472
 40
1.0
 40
1.0
 40
1.0
 40
1.0
 10
6.454915927954967
 20
5.633970878667644
 30
0.0
 10
6.455595533630753
 20
5.63326220944716
 30
0.0
 10
6.460741226823568
 20
5.627896459110257
 30
0.0
 10
6.471464975793011
 20
5.618053491190459
 30
0.0
 10
6.482721577317771
 20
5.609623541481338
 30
0.0
 10
6.488401456869037
 20
5.60536993981784
 30
0.0
  0
SPLINE
  5
61
330
1F
100
AcDbEntity
  8
0
  6
Continuous
 62
     7
370
    15
100
AcDbSpline
210
0.0
220
0.0
230
1.0
 70
     8
 71
     3
 72
    10
 73
     6
 74
     0
 42
0.0000000001
 43
0.0000000001
 40
0.0
 40
0.0
 40
0.0
 40
0.0
 40
0.3741467563899103
 40
0.7516820141789639
 40
1.0
 40
1.0
 40
1.0
 40
1.0
 10
6.43158036997995
 20
5.754687596925089
 30
0.0
 10
6.430516374167131
 20
5.748931833561761
 30
0.0
 10
6.428378746345964
 20
5.737368179128858
 30
0.0
 10
6.426755367956577
 20
5.721916501964157
 30
0.0
 10
6.426576352639647
 20
5.712403964827169
 30
0.0
 10
6.426505325248826
 20
5.708629702911902
 30
0.0
  0
SPLINE
  5
62
330
1F
100
AcDbEntity
  8
0
  6
Continuous
 62
     7
370
    15
100
AcDbSpline
210
0.0
220
0.0
230
1.0
 70
     8
 71
     3
 72
    10
 73
     6
 74
     0
 42
0.0000000001
 43
0.0000000001
 40
0.0
 40
0.0
 40
0.0
 40
0.0
 40
0.0701023277486174
 40
0.5307918351796947
 40
1.0
 40
1.0
 40
1.0
 40
1.0
 10
6.454915927954967
 20
5.768065498245833
 30
0.0
 10
6.45424844431712
 20
5.767717743080331
 30
0.0
 10
6.449194477117125
 20
5.76508465501581
 30
0.0
 10
6.440687602422077
 20
5.760393769787764
 30
0.0
 10
6.434634597692778
 20
5.756601235497742
 30
0.0
 10
6.43158036997995
 20
5.754687596925089
 30
0.0
  0
SPLINE
  5
63
330
1F
100
AcDbEntity
  8
0
  6
Continuous
 62
     7
370
    15
100
AcDbSpline
210
0.0
220
0.0
230
1.0
 70
     8
 71
     3
 72
    10
 73
     6
 74
     0
 42
0.0000000001
 43
0.0000000001
 40
0.0
 40
0.0
 40
0.0
 40
0.0
 40
0.3813023767551499
 40
0.7681015506946725
 40
1.0
 40
1.0
 40
1.0
 40
1.0
 10
6.426505325248826
 20
5.708629702911902
 30
0.0
 10
6.426668458265165
 20
5.702905474884929
 30
0.0
 10
6.426997075998644
 20
5.691374499228644
 30
0.0
 10
6.429095091255309
 20
5.677031060057758
 30
0.0
 10
6.430902807149678
 20
5.668491807946933
 30
0.0
 10
6.43158036997995
 20
5.665291150229288
 30
0.0
  0
SPLINE
  5
64
330
1F
100
AcDbEntity
  8
0
  6
Continuous
 62
     7
370
    15
100
AcDbSpline
210
0.0
220
0.0
230
1.0
 70
     8
 71
     3
 72
     9
 73
     5
 74
     0
 42
0.0000000001
 43
0.0000000001
 40
0.0
 40
0.0
 40
0.0
 40
0.0
 40
0.4954572724424764
 40
1.0
 40
1.0
 40
1.0
 40
1.0
 10
6.43158036997995
 20
5.665291150229288
 30
0.0
 10
6.434775896959078
 20
5.660045388560407
 30
0.0
 10
6.441225548940922
 20
5.649457670989885
 30
0.0
 10
6.450324911001759
 20
5.639164316046499
 30
0.0
 10
6.454915927954967
 20
5.633970878667644
 30
0.0
  0
SPLINE
  5
65
330
1F
100
AcDbEntity
  8
0
  6
Continuous
 62
     7
370
    15
100
AcDbSpline
210
0.0
220
0.0
230
1.0
 70
     8
 71
     3
 72
    10
 73
     6
 74
     0
 42
0.0000000001
 43
0.0000000001
 40
0.0
 40
0.0
 40
0.0
 40
0.0
 40
0.0701024657008445
 40
0.5307913453549961
 40
1.0
 40
1.0
 40
1.0
 40
1.0
 10
5.633577795320569
 20
6.308713701524751
 30
0.0
 10
5.632910311568712
 20
6.309425604409282
 30
0.0
 10
5.627856358114872
 20
6.314815883995956
 30
0.0
 10
5.619349532543431
 20
6.325252834783196
 30
0.0
 10
5.613296527912082
 20
6.335076873225562
 30
0.0
 10
5.61024229660715
 20
6.340033896650941
 30
0.0
  0
LINE
  5
66
330
1F
100
AcDbEntity
  8
0
  6
Continuous
 62
     7
370
    15
100
AcDbLine
 10
5.61024229660715
 20
6.340033896650941
 30
0.0
 11
5.653149471420624
 21
6.351529202987837
 31
0.0
  0
LINE
  5
67
330
1F
100
AcDbEntity
  8
0
  6
Continuous
 62
     7
370
    15
100
AcDbLine
 10
5.709970558309711
 20
6.291608053135004
 30
0.0
 11
5.653149471420624
 21
6.351529202987837
 31
0.0
  0
LINE
  5
68
330
1F
100
AcDbEntity
  8
0
  6
Continuous
 62
     7
370
    15
100
AcDbLine
 10
5.667063383496237
 20
6.280112746798109
 30
0.0
 11
5.709970558309711
 21
6.291608053135004
 31
0.0
  0
SPLINE
  5
69
330
1F
100
AcDbEntity
  8
0
  6
Continuous
 62
     7
370
    15
100
AcDbSpline
210
0.0
220
0.0
230
1.0
 70
     8
 71
     3
 72
     9
 73
     5
 74
     0
 42
0.0000000001
 43
0.0000000001
 40
0.0
 40
0.0
 40
0.0
 40
0.0
 40
0.4954572658529706
 40
0.9999999999999998
 40
0.9999999999999998
 40
0.9999999999999998
 40
0.9999999999999998
 10
5.667063383496237
 20
6.280112746798109
 30
0.0
 10
5.661030915391927
 20
6.284598431467915
 30
0.0
 10
5.648855358547637
 20
6.293652057237403
 30
0.0
 10
5.63870106855618
 20
6.303662835891614
 30
0.0
 10
5.633577795320569
 20
6.308713701524751
 30
0.0
  0
LWPOLYLINE
  5
6A
330
1F
100
AcDbEntity
  8
0
  6
Continuous
 62
     7
370
    15
100
AcDbPolyline
 90
        9
 70
   128
 43
0.0
 10
5.576756708431482
 20
6.189841998358391
 10
5.583422749284615
 20
6.183577056013488
 10
5.590460834450109
 20
6.178436288134698
 10
5.597750603622388
 20
6.174507614132048
 10
5.605167251876026
 20
6.1718582623319
 10
5.612583840868064
 20
6.170533625938974
 10
5.619873610040344
 20
6.170556280488006
 10
5.626911695205838
 20
6.171925886767169
 10
5.633577795320569
 20
6.17461900120174
  0
ARC
  5
6B
330
1F
100
AcDbEntity
  8
0
  6
Continuous
 62
     7
370
    15
100
AcDbCircle
 10
5.659462577215018
 20
6.264049813087567
 30
0.0
 40
0.1111173276231885
100
AcDbArc
 50
179.767431266173
 51
221.9000317740104
  0
LWPOLYLINE
  5
6C
330
1F
100
AcDbEntity
  8
0
  6
Continuous
 62
     7
370
    15
100
AcDbPolyline
 90
        9
 70
   128
 43
0.0
 10
5.576756708431482
 20
6.323936698681401
 10
5.570576731205298
 20
6.319966083765791
 10
5.564988658820126
 20
6.314786077903461
 10
5.560088020971971
 20
6.308485099320068
 10
5.555958732083626
 20
6.30117115004478
 10
5.552671372718333
 20
6.292969288780181
 10
5.550282300655807
 20
6.284019769689487
 10
5.548832287875486
 20
6.274475904474347
 10
5.54834616498694
 20
6.264500847098222
  0
LWPOLYLINE
  5
6D
330
1F
100
AcDbEntity
  8
0
  6
Continuous
 62
     7
370
    15
100
AcDbPolyline
 90
        9
 70
   128
 43
0.0
 10
5.633577795320569
 20
6.308713701524751
 10
5.626911695205838
 20
6.31497861937408
 10
5.619873610040344
 20
6.320119427625281
 10
5.612583840868064
 20
6.32404810162793
 10
5.605167251876026
 20
6.326697437551241
 10
5.597750603622388
 20
6.328022089821005
 10
5.590460834450109
 20
6.327999435271972
 10
5.583422749284615
 20
6.326629788620399
 10
5.576756708431482
 20
6.323936698681401
  0
ARC
  5
6E
330
1F
100
AcDbEntity
  8
0
  6
Continuous
 62
     7
370
    15
100
AcDbCircle
 10
5.550871521049091
 20
6.234505732491927
 30
0.0
 40
0.1111177324815686
100
AcDbArc
 50
359.7675116779887
 51
41.89995136219403
  0
LWPOLYLINE
  5
6F
330
1F
100
AcDbEntity
  8
0
  6
Continuous
 62
     7
370
    15
100
AcDbPolyline
 90
        9
 70
   128
 43
0.0
 10
5.633577795320569
 20
6.17461900120174
 10
5.639757713285153
 20
6.178589591621777
 10
5.645345785670326
 20
6.183769678228927
 10
5.650246423518482
 20
6.1900705760675
 10
5.654375712406827
 20
6.197384565715199
 10
5.657663071772121
 20
6.205586426979798
 10
5.660052203096243
 20
6.214535889821244
 10
5.661502215876565
 20
6.224079795408794
 10
5.661988338765111
 20
6.23405485278492
  0
SPLINE
  5
70
330
1F
100
AcDbEntity
  8
0
  6
Continuous
 62
     7
370
    15
100
AcDbSpline
210
0.0
220
0.0
230
1.0
 70
     8
 71
     3
 72
    10
 73
     6
 74
     0
 42
0.0000000001
 43
0.0000000001
 40
0.0
 40
0.0
 40
0.0
 40
0.0
 40
0.2483175952023685
 40
0.6221441629715298
 40
1.0
 40
1.0
 40
1.0
 40
1.0
 10
5.661988338765111
 20
6.23405485278492
 30
0.0
 10
5.662059338371927
 20
6.237829107554969
 30
0.0
 10
5.662237223434471
 20
6.247285266200675
 30
0.0
 10
5.66385340987099
 20
6.262735659926279
 30
0.0
 10
5.665989575433709
 20
6.274299722093024
 30
0.0
 10
5.667063383496237
 20
6.280112746798109
 30
0.0
  0
LINE
  5
71
330
1F
100
AcDbEntity
  8
0
  6
Continuous
 62
     7
370
    15
100
AcDbLine
 10
5.709970558309711
 20
6.202211586252998
 30
0.0
 11
5.709970558309711
 21
6.291608053135004
 31
0.0
  0
LINE
  5
72
330
1F
100
AcDbEntity
  8
0
  6
Continuous
 62
     7
370
    15
100
AcDbLine
 10
5.667063383496237
 20
6.190716279916101
 30
0.0
 11
5.709970558309711
 21
6.202211586252998
 31
0.0
  0
SPLINE
  5
73
330
1F
100
AcDbEntity
  8
0
  6
Continuous
 62
     7
370
    15
100
AcDbSpline
210
0.0
220
0.0
230
1.0
 70
     8
 71
     3
 72
    10
 73
     6
 74
     0
 42
0.0000000001
 43
0.0000000001
 40
0.0
 40
0.0
 40
0.0
 40
0.0
 40
0.2318992669923908
 40
0.6135114591696337
 40
1.0
 40
1.0
 40
1.0
 40
1.0
 10
5.667063383496237
 20
6.190716279916101
 30
0.0
 10
5.666385821630449
 20
6.193916956351485
 30
0.0
 10
5.664593267585976
 20
6.202384648792559
 30
0.0
 10
5.662488322666197
 20
6.216723167177496
 30
0.0
 10
5.662155703950938
 20
6.228253224420336
 30
0.0
 10
5.661988338765111
 20
6.23405485278492
 30
0.0
  0
SPLINE
  5
74
330
1F
100
AcDbEntity
  8
0
  6
Continuous
 62
     7
370
    15
100
AcDbSpline
210
0.0
220
0.0
230
1.0
 70
     8
 71
     3
 72
    10
 73
     6
 74
     0
 42
0.0000000001
 43
0.0000000001
 40
0.0
 40
0.0
 40
0.0
 40
0.0
 40
0.0701013102477256
 40
0.5307898035722002
 40
1.0
 40
1.0
 40
1.0
 40
1.0
 10
5.633577795320569
 20
6.17461900120174
 30
0.0
 10
5.634257380987831
 20
6.174970024412436
 30
0.0
 10
5.639403035777477
 20
6.177627885448074
 30
0.0
 10
5.650126856336624
 20
6.182912555286183
 30
0.0
 10
5.661383488733319
 20
6.188099194710911
 30
0.0
 10
5.667063383496237
 20
6.190716279916101
 30
0.0
  0
SPLINE
  5
75
330
1F
100
AcDbEntity
  8
0
  6
Continuous
 62
     7
370
    15
100
AcDbSpline
210
0.0
220
0.0
230
1.0
 70
     8
 71
     3
 72
     9
 73
     5
 74
     0
 42
0.0000000001
 43
0.0000000001
 40
0.0
 40
0.0
 40
0.0
 40
0.0
 40
0.4954577054641197
 40
1.0
 40
1.0
 40
1.0
 40
1.0
 10
5.61024229660715
 20
6.340033896650941
 30
0.0
 10
5.604209830621248
 20
6.337260443105122
 30
0.0
 10
5.592034288855778
 20
6.331662682660121
 30
0.0
 10
5.581879984467141
 20
6.326527576783218
 30
0.0
 10
5.576756708431482
 20
6.323936698681401
 30
0.0
  0
LINE
  5
76
330
1F
100
AcDbEntity
  8
0
  6
Continuous
 62
     7
370
    15
100
AcDbLine
 10
5.653149471420624
 20
6.172736390341055
 30
0.0
 11
5.709970558309711
 21
6.202211586252998
 31
0.0
  0
LINE
  5
77
330
1F
100
AcDbEntity
  8
0
  6
Continuous
 62
     7
370
    15
100
AcDbLine
 10
5.61024229660715
 20
6.161241084004159
 30
0.0
 11
5.653149471420624
 21
6.172736390341055
 31
0.0
  0
SPLINE
  5
78
330
1F
100
AcDbEntity
  8
0
  6
Continuous
 62
     7
370
    15
100
AcDbSpline
210
0.0
220
0.0
230
1.0
 70
     8
 71
     3
 72
     9
 73
     5
 74
     0
 42
0.0000000001
 43
0.0000000001
 40
0.0
 40
0.0
 40
0.0
 40
0.0
 40
0.4954579244014332
 40
1.0
 40
1.0
 40
1.0
 40
1.0
 10
5.61024229660715
 20
6.161241084004159
 30
0.0
 10
5.613437825336324
 20
6.163254507235729
 30
0.0
 10
5.619887472363435
 20
6.167318269529975
 30
0.0
 10
5.628986801108819
 20
6.172170730481498
 30
0.0
 10
5.633577795320569
 20
6.17461900120174
 30
0.0
  0
SPLINE
  5
79
330
1F
100
AcDbEntity
  8
0
  6
Continuous
 62
     7
370
    15
100
AcDbSpline
210
0.0
220
0.0
230
1.0
 70
     8
 71
     3
 72
    10
 73
     6
 74
     0
 42
0.0000000001
 43
0.0000000001
 40
0.0
 40
0.0
 40
0.0
 40
0.0
 40
0.0701024375963037
 40
0.5307895982059109
 40
1.0
 40
1.0
 40
1.0
 40
1.0
 10
5.576756708431482
 20
6.189841998358391
 30
0.0
 10
5.5774363144687
 20
6.189133343290494
 30
0.0
 10
5.58258203875165
 20
6.18376767054568
 30
0.0
 10
5.59330576084884
 20
6.173924607850597
 30
0.0
 10
5.604562392731603
 20
6.16549468091908
 30
0.0
 10
5.61024229660715
 20
6.161241084004159
 30
0.0
  0
SPLINE
  5
7A
330
1F
100
AcDbEntity
  8
0
  6
Continuous
 62
     7
370
    15
100
AcDbSpline
210
0.0
220
0.0
230
1.0
 70
     8
 71
     3
 72
    10
 73
     6
 74
     0
 42
0.0000000001
 43
0.0000000001
 40
0.0
 40
0.0
 40
0.0
 40
0.0
 40
0.3741467563899103
 40
0.7516820141789639
 40
1.0
 40
1.0
 40
1.0
 40
1.0
 10
5.553421209718064
 20
6.310558741111409
 30
0.0
 10
5.552357213905244
 20
6.304802977748082
 30
0.0
 10
5.550219586084076
 20
6.293239323315178
 30
0.0
 10
5.54859620769469
 20
6.277787646150478
 30
0.0
 10
5.548417192377761
 20
6.268275109013489
 30
0.0
 10
5.54834616498694
 20
6.264500847098222
 30
0.0
  0
SPLINE
  5
7B
330
1F
100
AcDbEntity
  8
0
  6
Continuous
 62
     7
370
    15
100
AcDbSpline
210
0.0
220
0.0
230
1.0
 70
     8
 71
     3
 72
    10
 73
     6
 74
     0
 42
0.0000000001
 43
0.0000000001
 40
0.0
 40
0.0
 40
0.0
 40
0.0
 40
0.0701032934174038
 40
0.5307917630050693
 40
1.0
 40
1.0
 40
1.0
 40
1.0
 10
5.576756708431482
 20
6.323936698681401
 30
0.0
 10
5.576089225230128
 20
6.32358891511971
 30
0.0
 10
5.57103533164037
 20
6.320955648680218
 30
0.0
 10
5.562528424807352
 20
6.316264899204177
 30
0.0
 10
5.556475434031682
 20
6.312472376247224
 30
0.0
 10
5.553421209718064
 20
6.310558741111409
 30
0.0
  0
SPLINE
  5
7C
330
1F
100
AcDbEntity
  8
0
  6
Continuous
 62
     7
370
    15
100
AcDbSpline
210
0.0
220
0.0
230
1.0
 70
     8
 71
     3
 72
    10
 73
     6
 74
     0
 42
0.0000000001
 43
0.0000000001
 40
0.0
 40
0.0
 40
0.0
 40
0.0
 40
0.381302654337083
 40
0.768101221563719
 40
1.0
 40
1.0
 40
1.0
 40
1.0
 10
5.54834616498694
 20
6.264500847098222
 30
0.0
 10
5.548509297193311
 20
6.25877661194397
 30
0.0
 10
5.548837912915141
 20
6.247245635265763
 30
0.0
 10
5.550935935425855
 20
6.232902193387718
 30
0.0
 10
5.552743647175614
 20
6.22436293883934
 30
0.0
 10
5.553421209718064
 20
6.221162274229404
 30
0.0
  0
SPLINE
  5
7D
330
1F
100
AcDbEntity
  8
0
  6
Continuous
 62
     7
370
    15
100
AcDbSpline
210
0.0
220
0.0
230
1.0
 70
     8
 71
     3
 72
     9
 73
     5
 74
     0
 42
0.0000000001
 43
0.0000000001
 40
0.0
 40
0.0
 40
0.0
 40
0.0
 40
0.4954577045960519
 40
1.0
 40
1.0
 40
1.0
 40
1.0
 10
5.553421209718064
 20
6.221162274229404
 30
0.0
 10
5.556616739477367
 20
6.215916525116094
 30
0.0
 10
5.56306639144495
 20
6.20532884212187
 30
0.0
 10
5.572165714892588
 20
6.195035450031274
 30
0.0
 10
5.576756708431482
 20
6.189841998358391
 30
0.0
  0
SPLINE
  5
7E
330
1F
100
AcDbEntity
  8
0
  6
Continuous
 62
     7
370
    15
100
AcDbSpline
210
0.0
220
0.0
230
1.0
 70
     8
 71
     3
 72
    10
 73
     6
 74
     0
 42
0.0000000001
 43
0.0000000001
 40
0.0
 40
0.0
 40
0.0
 40
0.0
 40
0.0701060391688346
 40
0.5307906110736451
 40
1.0
 40
1.0
 40
1.0
 40
1.0
 10
1.386896659275313
 20
6.965542591656308
 30
0.0
 10
1.386229134962018
 20
6.966254517194466
 30
0.0
 10
1.381175139010154
 20
6.97164468608601
 30
0.0
 10
1.372668456746762
 20
6.98208186309035
 30
0.0
 10
1.366615462437033
 20
6.991905834993186
 30
0.0
 10
1.363561219823492
 20
6.996862851650482
 30
0.0
  0
LINE
  5
7F
330
1F
100
AcDbEntity
  8
0
  6
Continuous
 62
     7
370
    15
100
AcDbLine
 10
1.363561219823492
 20
6.996862851650482
 30
0.0
 11
1.406468394636967
 21
7.008358157987379
 31
0.0
  0
LINE
  5
80
330
1F
100
AcDbEntity
  8
0
  6
Continuous
 62
     7
370
    15
100
AcDbLine
 10
1.463289363002857
 20
6.948436979329604
 30
0.0
 11
1.406468394636967
 21
7.008358157987379
 31
0.0
  0
LINE
  5
81
330
1F
100
AcDbEntity
  8
0
  6
Continuous
 62
     7
370
    15
100
AcDbLine
 10
1.420382188189383
 20
6.936941672992708
 30
0.0
 11
1.463289363002857
 21
6.948436979329604
 31
0.0
  0
SPLINE
  5
82
330
1F
100
AcDbEntity
  8
0
  6
Continuous
 62
     7
370
    15
100
AcDbSpline
210
0.0
220
0.0
230
1.0
 70
     8
 71
     3
 72
     9
 73
     5
 74
     0
 42
0.0000000001
 43
0.0000000001
 40
0.0
 40
0.0
 40
0.0
 40
0.0
 40
0.4954587952995685
 40
1.0
 40
1.0
 40
1.0
 40
1.0
 10
1.420382188189383
 20
6.936941672992708
 30
0.0
 10
1.414349722649713
 20
6.941427383045935
 30
0.0
 10
1.402174208566807
 20
6.950481032099665
 30
0.0
 10
1.392019917515312
 20
6.960491764613728
 30
0.0
 10
1.386896659275313
 20
6.965542591656308
 30
0.0
  0
LWPOLYLINE
  5
83
330
1F
100
AcDbEntity
  8
0
  6
Continuous
 62
     7
370
    15
100
AcDbPolyline
 90
        9
 70
   128
 43
0.0
 10
1.33007545386303
 20
6.846670980802239
 10
1.336741672500957
 20
6.840405990826824
 10
1.343779579881657
 20
6.83526525039234
 10
1.351069467577132
 20
6.831336534542914
 10
1.358486175092368
 20
6.82868717695903
 10
1.365902645561211
 20
6.827362562226677
 10
1.373192533256686
 20
6.827385195115137
 10
1.380230440637386
 20
6.828754869211017
 10
1.386896659275313
 20
6.831447951891914
  0
ARC
  5
84
330
1F
100
AcDbEntity
  8
0
  6
Continuous
 62
     7
370
    15
100
AcDbCircle
 10
1.412781875772954
 20
6.920878917598572
 30
0.0
 40
0.1111178208421623
100
AcDbArc
 50
179.7675138359678
 51
221.8998881501406
  0
LWPOLYLINE
  5
85
330
1F
100
AcDbEntity
  8
0
  6
Continuous
 62
     7
370
    15
100
AcDbPolyline
 90
        9
 70
   128
 43
0.0
 10
1.33007545386303
 20
6.980765620566632
 10
1.323895654421642
 20
6.976795018579127
 10
1.318307522774871
 20
6.971614968035019
 10
1.313406825665117
 20
6.965314065887078
 10
1.309277477515174
 20
6.958000092116217
 10
1.305990118149881
 20
6.949798230851618
 10
1.303601164610552
 20
6.940848720379659
 10
1.30215115183023
 20
6.931304814792111
 10
1.301664969680085
 20
6.921329793479027
  0
LWPOLYLINE
  5
86
330
1F
100
AcDbEntity
  8
0
  6
Continuous
 62
     7
370
    15
100
AcDbPolyline
 90
        9
 70
   128
 43
0.0
 10
1.386896659275313
 20
6.965542591656308
 10
1.380230440637386
 20
6.971807601817928
 10
1.373192533256686
 20
6.976948342252412
 10
1.365902645561211
 20
6.980877048008736
 10
1.358486175092368
 20
6.983526331992168
 10
1.351069467577132
 20
6.984851020324972
 10
1.343779579881657
 20
6.984828397529615
 10
1.336741672500957
 20
6.983458723433735
 10
1.33007545386303
 20
6.980765620566632
  0
ARC
  5
87
330
1F
100
AcDbEntity
  8
0
  6
Continuous
 62
     7
370
    15
100
AcDbCircle
 10
1.304190237553131
 20
6.891334655053322
 30
0.0
 40
0.1111178205733003
100
AcDbArc
 50
359.7675241444258
 51
41.89988814058442
  0
LWPOLYLINE
  5
88
330
1F
100
AcDbEntity
  8
0
  6
Continuous
 62
     7
370
    15
100
AcDbPolyline
 90
        9
 70
   128
 43
0.0
 10
1.386896659275313
 20
6.831447951891914
 10
1.393076458716702
 20
6.835418553879419
 10
1.398664590363472
 20
6.840598604423527
 10
1.403565287473227
 20
6.846899516664572
 10
1.407694635623169
 20
6.85421348034233
 10
1.410981994988462
 20
6.862415361793135
 10
1.413370948527791
 20
6.871364852078888
 10
1.414820961308113
 20
6.880908757666436
 10
1.415307143458258
 20
6.890883799165725
  0
SPLINE
  5
89
330
1F
100
AcDbEntity
  8
0
  6
Continuous
 62
     7
370
    15
100
AcDbSpline
210
0.0
220
0.0
230
1.0
 70
     8
 71
     3
 72
    10
 73
     6
 74
     0
 42
0.0000000001
 43
0.0000000001
 40
0.0
 40
0.0
 40
0.0
 40
0.0
 40
0.2483172568670565
 40
0.6221448657628194
 40
1.0
 40
1.0
 40
1.0
 40
1.0
 10
1.415307143458258
 20
6.890883799165725
 30
0.0
 10
1.415378143642323
 20
6.894658047262657
 30
0.0
 10
1.415556030594452
 20
6.904114212755326
 30
0.0
 10
1.417172207400065
 20
6.919564599601213
 30
0.0
 10
1.419308379381068
 20
6.931128661733377
 30
0.0
 10
1.420382188189383
 20
6.936941672992708
 30
0.0
  0
LINE
  5
8A
330
1F
100
AcDbEntity
  8
0
  6
Continuous
 62
     7
370
    15
100
AcDbLine
 10
1.463289363002857
 20
6.859040542726905
 30
0.0
 11
1.463289363002857
 21
6.948436979329604
 31
0.0
  0
LINE
  5
8B
330
1F
100
AcDbEntity
  8
0
  6
Continuous
 62
     7
370
    15
100
AcDbLine
 10
1.420382188189383
 20
6.84754523639001
 30
0.0
 11
1.463289363002857
 21
6.859040542726905
 31
0.0
  0
SPLINE
  5
8C
330
1F
100
AcDbEntity
  8
0
  6
Continuous
 62
     7
370
    15
100
AcDbSpline
210
0.0
220
0.0
230
1.0
 70
     8
 71
     3
 72
    10
 73
     6
 74
     0
 42
0.0000000001
 43
0.0000000001
 40
0.0
 40
0.0
 40
0.0
 40
0.0
 40
0.2318988871142438
 40
0.6135118190392994
 40
1.0
 40
1.0
 40
1.0
 40
1.0
 10
1.420382188189383
 20
6.84754523639001
 30
0.0
 10
1.419704625975323
 20
6.850745905902158
 30
0.0
 10
1.417912067021577
 20
6.859213598865145
 30
0.0
 10
1.415807130888762
 20
6.87355211873414
 30
0.0
 10
1.415474509666787
 20
6.885082178036294
 30
0.0
 10
1.415307143458258
 20
6.890883799165725
 30
0.0
  0
SPLINE
  5
8D
330
1F
100
AcDbEntity
  8
0
  6
Continuous
 62
     7
370
    15
100
AcDbSpline
210
0.0
220
0.0
230
1.0
 70
     8
 71
     3
 72
    10
 73
     6
 74
     0
 42
0.0000000001
 43
0.0000000001
 40
0.0
 40
0.0
 40
0.0
 40
0.0
 40
0.0700998819244202
 40
0.5307906547578187
 40
1.0
 40
1.0
 40
1.0
 40
1.0
 10
1.386896659275313
 20
6.831447951891914
 30
0.0
 10
1.387576224931006
 20
6.831798981614356
 30
0.0
 10
1.392721841292034
 20
6.834456950374064
 30
0.0
 10
1.403445701018632
 20
6.839741431711154
 30
0.0
 10
1.41470231948401
 20
6.84492813016654
 30
0.0
 10
1.420382188189383
 20
6.84754523639001
 30
0.0
  0
SPLINE
  5
8E
330
1F
100
AcDbEntity
  8
0
  6
Continuous
 62
     7
370
    15
100
AcDbSpline
210
0.0
220
0.0
230
1.0
 70
     8
 71
     3
 72
     9
 73
     5
 74
     0
 42
0.0000000001
 43
0.0000000001
 40
0.0
 40
0.0
 40
0.0
 40
0.0
 40
0.4954556396909429
 40
1.0
 40
1.0
 40
1.0
 40
1.0
 10
1.363561219823492
 20
6.996862851650482
 30
0.0
 10
1.357528758299363
 20
6.994089365562842
 30
0.0
 10
1.345353174774078
 20
6.988491516097714
 30
0.0
 10
1.335198790952581
 20
6.98335647605842
 30
0.0
 10
1.33007545386303
 20
6.980765620566632
 30
0.0
  0
LINE
  5
8F
330
1F
100
AcDbEntity
  8
0
  6
Continuous
 62
     7
370
    15
100
AcDbLine
 10
1.406468394636967
 20
6.829565294875084
 30
0.0
 11
1.463289363002857
 21
6.859040542726905
 31
0.0
  0
LINE
  5
90
330
1F
100
AcDbEntity
  8
0
  6
Continuous
 62
     7
370
    15
100
AcDbLine
 10
1.363561219823492
 20
6.818069988538188
 30
0.0
 11
1.406468394636967
 21
6.829565294875084
 31
0.0
  0
SPLINE
  5
91
330
1F
100
AcDbEntity
  8
0
  6
Continuous
 62
     7
370
    15
100
AcDbSpline
210
0.0
220
0.0
230
1.0
 70
     8
 71
     3
 72
     9
 73
     5
 74
     0
 42
0.0000000001
 43
0.0000000001
 40
0.0
 40
0.0
 40
0.0
 40
0.0
 40
0.4954587403479232
 40
1.0
 40
1.0
 40
1.0
 40
1.0
 10
1.363561219823492
 20
6.818069988538188
 30
0.0
 10
1.366756749534203
 20
6.820083416062318
 30
0.0
 10
1.373206387920772
 20
6.82414718032797
 30
0.0
 10
1.382305687303034
 20
6.828999670425604
 30
0.0
 10
1.386896659275313
 20
6.831447951891914
 30
0.0
  0
SPLINE
  5
92
330
1F
100
AcDbEntity
  8
0
  6
Continuous
 62
     7
370
    15
100
AcDbSpline
210
0.0
220
0.0
230
1.0
 70
     8
 71
     3
 72
    10
 73
     6
 74
     0
 42
0.0000000001
 43
0.0000000001
 40
0.0
 40
0.0
 40
0.0
 40
0.0
 40
0.0701055144211394
 40
0.5307874799185775
 40
1.0
 40
1.0
 40
1.0
 40
1.0
 10
1.33007545386303
 20
6.846670980802239
 30
0.0
 10
1.330755099686578
 20
6.845962306377868
 30
0.0
 10
1.335900878829577
 20
6.840596743983807
 30
0.0
 10
1.346624558258267
 20
6.83075339639858
 30
0.0
 10
1.357881244222889
 20
6.822323568672744
 30
0.0
 10
1.363561219823492
 20
6.818069988538188
 30
0.0
  0
SPLINE
  5
93
330
1F
100
AcDbEntity
  8
0
  6
Continuous
 62
     7
370
    15
100
AcDbSpline
210
0.0
220
0.0
230
1.0
 70
     8
 71
     3
 72
    10
 73
     6
 74
     0
 42
0.0000000001
 43
0.0000000001
 40
0.0
 40
0.0
 40
0.0
 40
0.0
 40
0.3741464874117069
 40
0.7516823504422283
 40
1.0
 40
1.0
 40
1.0
 40
1.0
 10
1.30674001441121
 20
6.96738766730601
 30
0.0
 10
1.305676018227777
 20
6.961631910665174
 30
0.0
 10
1.303538387168999
 20
6.950068256251932
 30
0.0
 10
1.301915014015561
 20
6.934616585967674
 30
0.0
 10
1.301735997442563
 20
6.925104048709367
 30
0.0
 10
1.301664969680084
 20
6.921329793479027
 30
0.0
  0
SPLINE
  5
94
330
1F
100
AcDbEntity
  8
0
  6
Continuous
 62
     7
370
    15
100
AcDbSpline
210
0.0
220
0.0
230
1.0
 70
     8
 71
     3
 72
    10
 73
     6
 74
     0
 42
0.0000000001
 43
0.0000000001
 40
0.0
 40
0.0
 40
0.0
 40
0.0
 40
0.0700996670589719
 40
0.5307907117804916
 40
1.0
 40
1.0
 40
1.0
 40
1.0
 10
1.33007545386303
 20
6.980765620566632
 30
0.0
 10
1.32940801085836
 20
6.980417845918836
 30
0.0
 10
1.324354170199978
 20
6.977784515967522
 30
0.0
 10
1.315847223934649
 20
6.973093887306018
 30
0.0
 10
1.309794233489923
 20
6.96930132109277
 30
0.0
 10
1.30674001441121
 20
6.96738766730601
 30
0.0
  0
SPLINE
  5
95
330
1F
100
AcDbEntity
  8
0
  6
Continuous
 62
     7
370
    15
100
AcDbSpline
210
0.0
220
0.0
230
1.0
 70
     8
 71
     3
 72
    10
 73
     6
 74
     0
 42
0.0000000001
 43
0.0000000001
 40
0.0
 40
0.0
 40
0.0
 40
0.0
 40
0.3813022932896468
 40
0.7681016014562778
 40
1.0
 40
1.0
 40
1.0
 40
1.0
 10
1.301664969680085
 20
6.921329793479027
 30
0.0
 10
1.301828102879471
 20
6.915605565543883
 30
0.0
 10
1.302156721075333
 20
6.90407458678645
 30
0.0
 10
1.304254734846173
 20
6.889731143451887
 30
0.0
 10
1.306062451526187
 20
6.881191888393395
 30
0.0
 10
1.30674001441121
 20
6.877991230703311
 30
0.0
  0
SPLINE
  5
96
330
1F
100
AcDbEntity
  8
0
  6
Continuous
 62
     7
370
    15
100
AcDbSpline
210
0.0
220
0.0
230
1.0
 70
     8
 71
     3
 72
     9
 73
     5
 74
     0
 42
0.0000000001
 43
0.0000000001
 40
0.0
 40
0.0
 40
0.0
 40
0.0
 40
0.4954586306618309
 40
1.0
 40
1.0
 40
1.0
 40
1.0
 10
1.30674001441121
 20
6.877991230703311
 30
0.0
 10
1.309935544635967
 20
6.872745479125708
 30
0.0
 10
1.3163851854879
 20
6.862157810947244
 30
0.0
 10
1.325484482226515
 20
6.851864421572503
 30
0.0
 10
1.33007545386303
 20
6.846670980802239
 30
0.0
  0
SPLINE
  5
97
330
1F
100
AcDbEntity
  8
0
  6
Continuous
 62
     7
370
    15
100
AcDbSpline
210
0.0
220
0.0
230
1.0
 70
     8
 71
     3
 72
    10
 73
     6
 74
     0
 42
0.0000000001
 43
0.0000000001
 40
0.0
 40
0.0
 40
0.0
 40
0.0
 40
0.0701056180452591
 40
0.5307874226402007
 40
1.0
 40
1.0
 40
1.0
 40
1.0
 10
1.825976269037056
 20
7.008209591292914
 30
0.0
 10
1.825308744608929
 20
7.0089215167149
 30
0.0
 10
1.820254747787655
 20
7.014311684726892
 30
0.0
 10
1.81174804999113
 20
7.024748960408524
 30
0.0
 10
1.805694921985162
 20
7.034572888702128
 30
0.0
 10
1.802640592538843
 20
7.039529914794436
 30
0.0
  0
LINE
  5
98
330
1F
100
AcDbEntity
  8
0
  6
Continuous
 62
     7
370
    15
100
AcDbLine
 10
1.802640592538843
 20
7.039529914794436
 30
0.0
 11
1.845547767352317
 21
7.051025221131332
 31
0.0
  0
LINE
  5
99
330
1F
100
AcDbEntity
  8
0
  6
Continuous
 62
     7
370
    15
100
AcDbLine
 10
1.902368972764599
 20
6.991103999152414
 30
0.0
 11
1.845547767352317
 21
7.051025221131332
 31
0.0
  0
LINE
  5
9A
330
1F
100
AcDbEntity
  8
0
  6
Continuous
 62
     7
370
    15
100
AcDbLine
 10
1.859461797951125
 20
6.979608692815519
 30
0.0
 11
1.902368972764599
 21
6.991103999152414
 31
0.0
  0
SPLINE
  5
9B
330
1F
100
AcDbEntity
  8
0
  6
Continuous
 62
     7
370
    15
100
AcDbSpline
210
0.0
220
0.0
230
1.0
 70
     8
 71
     3
 72
     9
 73
     5
 74
     0
 42
0.0000000001
 43
0.0000000001
 40
0.0
 40
0.0
 40
0.0
 40
0.0
 40
0.495458685830749
 40
1.0
 40
1.0
 40
1.0
 40
1.0
 10
1.859461797951125
 20
6.979608692815519
 30
0.0
 10
1.853429331883943
 20
6.984094395019825
 30
0.0
 10
1.841253814046227
 20
6.993148030232182
 30
0.0
 10
1.831099526579814
 20
7.003158763017574
 30
0.0
 10
1.825976269037056
 20
7.008209591292914
 30
0.0
  0
LWPOLYLINE
  5
9C
330
1F
100
AcDbEntity
  8
0
  6
Continuous
 62
     7
370
    15
100
AcDbPolyline
 90
        9
 70
   128
 43
0.0
 10
1.769155063624774
 20
6.889338000625049
 10
1.7758212822627
 20
6.88307299046343
 10
1.7828591896434
 20
6.877932250028945
 10
1.790149077338875
 20
6.874003544272621
 10
1.797565547807718
 20
6.871354260289189
 10
1.804982255322953
 20
6.870029571956385
 10
1.812272143018429
 20
6.870052194751742
 10
1.819310050399128
 20
6.871421868847622
 10
1.825976269037056
 20
6.874114971714725
  0
ARC
  5
9D
330
1F
100
AcDbEntity
  8
0
  6
Continuous
 62
     7
370
    15
100
AcDbCircle
 10
1.851861485346949
 20
6.963545937228033
 30
0.0
 40
0.1111178205732948
100
AcDbArc
 50
179.7675241444241
 51
221.8998881405868
  0
LWPOLYLINE
  5
9E
330
1F
100
AcDbEntity
  8
0
  6
Continuous
 62
     7
370
    15
100
AcDbPolyline
 90
        9
 70
   128
 43
0.0
 10
1.769155063624774
 20
7.023432620203238
 10
1.762975264183384
 20
7.019462038401938
 10
1.757387132536613
 20
7.014281967671625
 10
1.752486435426859
 20
7.007981085709888
 10
1.748357087276916
 20
7.000667111939027
 10
1.745069727911624
 20
6.992465250674428
 10
1.742680774372295
 20
6.983515740202469
 10
1.741230761591974
 20
6.97397183461492
 10
1.740744579441828
 20
6.963996793115632
  0
LWPOLYLINE
  5
9F
330
1F
100
AcDbEntity
  8
0
  6
Continuous
 62
     7
370
    15
100
AcDbPolyline
 90
        9
 70
   128
 43
0.0
 10
1.825976269037056
 20
7.008209591292914
 10
1.819310050399128
 20
7.014474621640737
 10
1.812272143018429
 20
7.019615341889017
 10
1.804982255322953
 20
7.023544047645341
 10
1.797565547807718
 20
7.026193415322326
 10
1.790149077338875
 20
7.027518019961578
 10
1.7828591896434
 20
7.027495397166219
 10
1.7758212822627
 20
7.026125743256546
 10
1.769155063624774
 20
7.023432620203238
  0
ARC
  5
A0
330
1F
100
AcDbEntity
  8
0
  6
Continuous
 62
     7
370
    15
100
AcDbCircle
 10
1.743269905685378
 20
6.934001676902105
 30
0.0
 40
0.1111177622934036
100
AcDbArc
 50
359.7675125691095
 51
41.89989971590022
  0
LWPOLYLINE
  5
A1
330
1F
100
AcDbEntity
  8
0
  6
Continuous
 62
     7
370
    15
100
AcDbPolyline
 90
        9
 70
   128
 43
0.0
 10
1.825976269037056
 20
6.874114971714725
 10
1.832156068478444
 20
6.87808557370223
 10
1.837744200125216
 20
6.883265624246337
 10
1.842644897234969
 20
6.889566526394279
 10
1.846774245384912
 20
6.89688050016514
 10
1.850061604750204
 20
6.905082361429739
 10
1.852450558289534
 20
6.914031871901698
 10
1.853900571069855
 20
6.923575757303042
 10
1.85438675322
 20
6.93355079880233
  0
SPLINE
  5
A2
330
1F
100
AcDbEntity
  8
0
  6
Continuous
 62
     7
370
    15
100
AcDbSpline
210
0.0
220
0.0
230
1.0
 70
     8
 71
     3
 72
    10
 73
     6
 74
     0
 42
0.0000000001
 43
0.0000000001
 40
0.0
 40
0.0
 40
0.0
 40
0.0
 40
0.2483175910505054
 40
0.6221450337498232
 40
1.0
 40
1.0
 40
1.0
 40
1.0
 10
1.85438675322
 20
6.93355079880233
 30
0.0
 10
1.854457753236255
 20
6.937325053595333
 30
0.0
 10
1.854635639576574
 20
6.946781225691877
 30
0.0
 10
1.856251817179787
 20
6.962231619429117
 30
0.0
 10
1.858387989148824
 20
6.973795681557893
 30
0.0
 10
1.859461797951125
 20
6.979608692815519
 30
0.0
  0
LINE
  5
A3
330
1F
100
AcDbEntity
  8
0
  6
Continuous
 62
     7
370
    15
100
AcDbLine
 10
1.902368972764599
 20
6.901707552456612
 30
0.0
 11
1.902368972764599
 21
6.991103999152414
 31
0.0
  0
LINE
  5
A4
330
1F
100
AcDbEntity
  8
0
  6
Continuous
 62
     7
370
    15
100
AcDbLine
 10
1.859461797951125
 20
6.890212246119717
 30
0.0
 11
1.902368972764599
 21
6.901707552456612
 31
0.0
  0
SPLINE
  5
A5
330
1F
100
AcDbEntity
  8
0
  6
Continuous
 62
     7
370
    15
100
AcDbSpline
210
0.0
220
0.0
230
1.0
 70
     8
 71
     3
 72
    10
 73
     6
 74
     0
 42
0.0000000001
 43
0.0000000001
 40
0.0
 40
0.0
 40
0.0
 40
0.0
 40
0.231898937869191
 40
0.6135117344499017
 40
1.0
 40
1.0
 40
1.0
 40
1.0
 10
1.859461797951125
 20
6.890212246119717
 30
0.0
 10
1.858784235793117
 20
6.893412915660164
 30
0.0
 10
1.856991677627148
 20
6.90188060567722
 30
0.0
 10
1.854886739986946
 20
6.916219121370087
 30
0.0
 10
1.854554119238135
 20
6.927749177577132
 30
0.0
 10
1.85438675322
 20
6.93355079880233
 30
0.0
  0
SPLINE
  5
A6
330
1F
100
AcDbEntity
  8
0
  6
Continuous
 62
     7
370
    15
100
AcDbSpline
210
0.0
220
0.0
230
1.0
 70
     8
 71
     3
 72
    10
 73
     6
 74
     0
 42
0.0000000001
 43
0.0000000001
 40
0.0
 40
0.0
 40
0.0
 40
0.0
 40
0.0700996670589719
 40
0.5307907117804916
 40
1.0
 40
1.0
 40
1.0
 40
1.0
 10
1.825976269037056
 20
6.874114971714725
 30
0.0
 10
1.826655834910183
 20
6.874465994212962
 30
0.0
 10
1.831801469242449
 20
6.877123916703997
 30
0.0
 10
1.842525297747895
 20
6.882408472618319
 30
0.0
 10
1.853781926206197
 20
6.887595150965315
 30
0.0
 10
1.859461797951125
 20
6.890212246119717
 30
0.0
  0
SPLINE
  5
A7
330
1F
100
AcDbEntity
  8
0
  6
Continuous
 62
     7
370
    15
100
AcDbSpline
210
0.0
220
0.0
230
1.0
 70
     8
 71
     3
 72
     9
 73
     5
 74
     0
 42
0.0000000001
 43
0.0000000001
 40
0.0
 40
0.0
 40
0.0
 40
0.0
 40
0.4954584660240229
 40
1.0
 40
1.0
 40
1.0
 40
1.0
 10
1.802640592538843
 20
7.039529914794436
 30
0.0
 10
1.796608125412447
 20
7.036756450907147
 30
0.0
 10
1.784432600035305
 20
7.031158678182531
 30
0.0
 10
1.77427831976751
 20
7.026023520524985
 30
0.0
 10
1.769155063624774
 20
7.023432620203238
 30
0.0
  0
LINE
  5
A8
330
1F
100
AcDbEntity
  8
0
  6
Continuous
 62
     7
370
    15
100
AcDbLine
 10
1.845547767352317
 20
6.872232368112141
 30
0.0
 11
1.902368972764599
 21
6.901707552456612
 31
0.0
  0
LINE
  5
A9
330
1F
100
AcDbEntity
  8
0
  6
Continuous
 62
     7
370
    15
100
AcDbLine
 10
1.802640592538843
 20
6.860737061775244
 30
0.0
 11
1.845547767352317
 21
6.872232368112141
 31
0.0
  0
SPLINE
  5
AA
330
1F
100
AcDbEntity
  8
0
  6
Continuous
 62
     7
370
    15
100
AcDbSpline
210
0.0
220
0.0
230
1.0
 70
     8
 71
     3
 72
     9
 73
     5
 74
     0
 42
0.0000000001
 43
0.0000000001
 40
0.0
 40
0.0
 40
0.0
 40
0.0
 40
0.4954556396909429
 40
1.0
 40
1.0
 40
1.0
 40
1.0
 10
1.802640592538843
 20
6.860737061775244
 30
0.0
 10
1.805836117559047
 20
6.862750501220038
 30
0.0
 10
1.812285786841643
 20
6.866814314977513
 30
0.0
 10
1.821385207607542
 20
6.8716667187549
 30
0.0
 10
1.825976269037056
 20
6.874114971714725
 30
0.0
  0
SPLINE
  5
AB
330
1F
100
AcDbEntity
  8
0
  6
Continuous
 62
     7
370
    15
100
AcDbSpline
210
0.0
220
0.0
230
1.0
 70
     8
 71
     3
 72
    10
 73
     6
 74
     0
 42
0.0000000001
 43
0.0000000001
 40
0.0
 40
0.0
 40
0.0
 40
0.0
 40
0.0701060391688346
 40
0.5307906110736451
 40
1.0
 40
1.0
 40
1.0
 40
1.0
 10
1.769155063624774
 20
6.889338000625049
 30
0.0
 10
1.769834709324342
 20
6.888629322540239
 30
0.0
 10
1.77498047936734
 20
6.883263740941981
 30
0.0
 10
1.785704115295678
 20
6.873420510325956
 30
0.0
 10
1.796960701815111
 20
6.864990638285507
 30
0.0
 10
1.802640592538843
 20
6.860737061775244
 30
0.0
  0
SPLINE
  5
AC
330
1F
100
AcDbEntity
  8
0
  6
Continuous
 62
     7
370
    15
100
AcDbSpline
210
0.0
220
0.0
230
1.0
 70
     8
 71
     3
 72
    10
 73
     6
 74
     0
 42
0.0000000001
 43
0.0000000001
 40
0.0
 40
0.0
 40
0.0
 40
0.0
 40
0.3741467563899103
 40
0.7516820141789639
 40
1.0
 40
1.0
 40
1.0
 40
1.0
 10
1.745819624172952
 20
7.010054687128819
 30
0.0
 10
1.744755628360133
 20
7.004298923765492
 30
0.0
 10
1.742618000538965
 20
6.992735269332588
 30
0.0
 10
1.740994622149578
 20
6.977283592167887
 30
0.0
 10
1.740815606832649
 20
6.967771055030899
 30
0.0
 10
1.740744579441827
 20
6.963996793115632
 30
0.0
  0
SPLINE
  5
AD
330
1F
100
AcDbEntity
  8
0
  6
Continuous
 62
     7
370
    15
100
AcDbSpline
210
0.0
220
0.0
230
1.0
 70
     8
 71
     3
 72
    10
 73
     6
 74
     0
 42
0.0000000001
 43
0.0000000001
 40
0.0
 40
0.0
 40
0.0
 40
0.0
 40
0.0700994604525316
 40
0.5307903883982105
 40
1.0
 40
1.0
 40
1.0
 40
1.0
 10
1.769155063624774
 20
7.023432620203238
 30
0.0
 10
1.768487620510794
 20
7.023084852608904
 30
0.0
 10
1.763433767208417
 20
7.020451569909188
 30
0.0
 10
1.754926832104477
 20
7.015760923447436
 30
0.0
 10
1.748873843665833
 20
7.011968346982239
 30
0.0
 10
1.745819624172952
 20
7.010054687128819
 30
0.0
  0
SPLINE
  5
AE
330
1F
100
AcDbEntity
  8
0
  6
Continuous
 62
     7
370
    15
100
AcDbSpline
210
0.0
220
0.0
230
1.0
 70
     8
 71
     3
 72
    10
 73
     6
 74
     0
 42
0.0000000001
 43
0.0000000001
 40
0.0
 40
0.0
 40
0.0
 40
0.0
 40
0.3813023767551499
 40
0.7681015506946725
 40
1.0
 40
1.0
 40
1.0
 40
1.0
 10
1.740744579441828
 20
6.963996793115632
 30
0.0
 10
1.740907712458167
 20
6.95827256508866
 30
0.0
 10
1.741236330191646
 20
6.946741589432375
 30
0.0
 10
1.743334345448312
 20
6.932398150261488
 30
0.0
 10
1.74514206134268
 20
6.923858898150664
 30
0.0
 10
1.745819624172952
 20
6.920658240433018
 30
0.0
  0
SPLINE
  5
AF
330
1F
100
AcDbEntity
  8
0
  6
Continuous
 62
     7
370
    15
100
AcDbSpline
210
0.0
220
0.0
230
1.0
 70
     8
 71
     3
 72
     9
 73
     5
 74
     0
 42
0.0000000001
 43
0.0000000001
 40
0.0
 40
0.0
 40
0.0
 40
0.0
 40
0.4954587952995685
 40
1.0
 40
1.0
 40
1.0
 40
1.0
 10
1.745819624172952
 20
6.920658240433018
 30
0.0
 10
1.749015153626128
 20
6.915412483848783
 30
0.0
 10
1.755464790777576
 20
6.904824809083486
 30
0.0
 10
1.764564091484281
 20
6.894531432996441
 30
0.0
 10
1.769155063624774
 20
6.889338000625049
 30
0.0
  0
SPLINE
  5
B0
330
1F
100
AcDbEntity
  8
0
  6
Continuous
 62
     7
370
    15
100
AcDbSpline
210
0.0
220
0.0
230
1.0
 70
     8
 71
     3
 72
    10
 73
     6
 74
     0
 42
0.0000000001
 43
0.0000000001
 40
0.0
 40
0.0
 40
0.0
 40
0.0
 40
0.0701056089020961
 40
0.5307934907855191
 40
1.0
 40
1.0
 40
1.0
 40
1.0
 10
2.265055878798798
 20
7.050876631301928
 30
0.0
 10
2.26438835491229
 20
7.051588557448018
 30
0.0
 10
2.259334303753593
 20
7.056978793267694
 30
0.0
 10
2.250827448827037
 20
7.067415849295524
 30
0.0
 10
2.244774434736771
 20
7.077239920670919
 30
0.0
 10
2.241720202300585
 20
7.082196954803452
 30
0.0
  0
LINE
  5
B1
330
1F
100
AcDbEntity
  8
0
  6
Continuous
 62
     7
370
    15
100
AcDbLine
 10
2.241720202300585
 20
7.082196954803452
 30
0.0
 11
2.284627377114059
 21
7.093692261140348
 31
0.0
  0
LINE
  5
B2
330
1F
100
AcDbEntity
  8
0
  6
Continuous
 62
     7
370
    15
100
AcDbLine
 10
2.341448582526342
 20
7.03377099878902
 30
0.0
 11
2.284627377114059
 21
7.093692261140348
 31
0.0
  0
LINE
  5
B3
330
1F
100
AcDbEntity
  8
0
  6
Continuous
 62
     7
370
    15
100
AcDbLine
 10
2.298541407712868
 20
7.022275692452123
 30
0.0
 11
2.341448582526342
 21
7.03377099878902
 31
0.0
  0
SPLINE
  5
B4
330
1F
100
AcDbEntity
  8
0
  6
Continuous
 62
     7
370
    15
100
AcDbSpline
210
0.0
220
0.0
230
1.0
 70
     8
 71
     3
 72
     9
 73
     5
 74
     0
 42
0.0000000001
 43
0.0000000001
 40
0.0
 40
0.0
 40
0.0
 40
0.0
 40
0.4954584660240229
 40
1.0
 40
1.0
 40
1.0
 40
1.0
 10
2.298541407712868
 20
7.022275692452123
 30
0.0
 10
2.292508940586472
 20
7.026761392480416
 30
0.0
 10
2.280333415209331
 20
7.035815027317439
 30
0.0
 10
2.270179134941535
 20
7.045825787169769
 30
0.0
 10
2.265055878798798
 20
7.050876631301928
 30
0.0
  0
LWPOLYLINE
  5
B5
330
1F
100
AcDbEntity
  8
0
  6
Continuous
 62
     7
370
    15
100
AcDbPolyline
 90
        9
 70
   128
 43
0.0
 10
2.208234673386516
 20
6.932005000261654
 10
2.21490065497805
 20
6.925740073793587
 10
2.221938799405142
 20
6.920599290037961
 10
2.229228687100617
 20
6.916670543909226
 10
2.23664515756946
 20
6.914021280112
 10
2.244061865084696
 20
6.91269657159299
 10
2.251351752780171
 20
6.912719234760759
 10
2.258389660160872
 20
6.914088888670432
 10
2.265055878798798
 20
6.916781971351329
  0
ARC
  5
B6
330
1F
100
AcDbEntity
  8
0
  6
Continuous
 62
     7
370
    15
100
AcDbCircle
 10
2.290941153479285
 20
7.006212959076849
 30
0.0
 40
0.1111178788532856
100
AcDbArc
 50
179.7675357197461
 51
221.8998765652653
  0
LWPOLYLINE
  5
B7
330
1F
100
AcDbEntity
  8
0
  6
Continuous
 62
     7
370
    15
100
AcDbPolyline
 90
        9
 70
   128
 43
0.0
 10
2.208234673386516
 20
7.066099660212254
 10
2.202054873945126
 20
7.062129038038544
 10
2.196466742298356
 20
7.056949007680639
 10
2.191566045188602
 20
7.050648085346495
 10
2.187436697038659
 20
7.043334111575632
 10
2.184149337673366
 20
7.035132250311033
 10
2.181760384134037
 20
7.026182739839075
 10
2.180310371353716
 20
7.016638834251526
 10
2.17982418920357
 20
7.006663792752236
  0
LWPOLYLINE
  5
B8
330
1F
100
AcDbEntity
  8
0
  6
Continuous
 62
     7
370
    15
100
AcDbPolyline
 90
        9
 70
   128
 43
0.0
 10
2.265055878798798
 20
7.050876631301928
 10
2.258389660160872
 20
7.057141621277343
 10
2.251351752780171
 20
7.062282341525621
 10
2.244061865084696
 20
7.066211087654356
 10
2.23664515756946
 20
7.068860414958931
 10
2.229228687100617
 20
7.070185059970594
 10
2.221938799405142
 20
7.070162396802825
 10
2.21490065497805
 20
7.068792806400499
 10
2.208234673386516
 20
7.066099660212254
  0
ARC
  5
B9
330
1F
100
AcDbEntity
  8
0
  6
Continuous
 62
     7
370
    15
100
AcDbCircle
 10
2.182349398330611
 20
6.976668672100069
 30
0.0
 40
0.1111178793909393
100
AcDbArc
 50
359.7675151028274
 51
41.89987658438591
  0
LWPOLYLINE
  5
BA
330
1F
100
AcDbEntity
  8
0
  6
Continuous
 62
     7
370
    15
100
AcDbPolyline
 90
        9
 70
   128
 43
0.0
 10
2.265055878798798
 20
6.916781971351329
 10
2.271235678240187
 20
6.92075259352504
 10
2.276823809886958
 20
6.925932623882943
 10
2.281724506996711
 20
6.93223354621709
 10
2.285853855146654
 20
6.939547519987951
 10
2.289140977465554
 20
6.947749444759898
 10
2.291530168051277
 20
6.956698891724508
 10
2.292980180831598
 20
6.966242797312057
 10
2.293466362981743
 20
6.976217798438936
  0
SPLINE
  5
BB
330
1F
100
AcDbEntity
  8
0
  6
Continuous
 62
     7
370
    15
100
AcDbSpline
210
0.0
220
0.0
230
1.0
 70
     8
 71
     3
 72
    10
 73
     6
 74
     0
 42
0.0000000001
 43
0.0000000001
 40
0.0
 40
0.0
 40
0.0
 40
0.0
 40
0.2483175910505054
 40
0.6221450337498232
 40
1.0
 40
1.0
 40
1.0
 40
1.0
 10
2.293466362981743
 20
6.976217798438936
 30
0.0
 10
2.293537362997998
 20
6.979992053231938
 30
0.0
 10
2.293715249338317
 20
6.989448225328483
 30
0.0
 10
2.295331426941529
 20
7.004898619065723
 30
0.0
 10
2.297467598910566
 20
7.016462681194498
 30
0.0
 10
2.298541407712868
 20
7.022275692452123
 30
0.0
  0
LINE
  5
BC
330
1F
100
AcDbEntity
  8
0
  6
Continuous
 62
     7
370
    15
100
AcDbLine
 10
2.341448582526342
 20
6.944374572279423
 30
0.0
 11
2.341448582526342
 21
7.03377099878902
 31
0.0
  0
LINE
  5
BD
330
1F
100
AcDbEntity
  8
0
  6
Continuous
 62
     7
370
    15
100
AcDbLine
 10
2.298541407712868
 20
6.932879265942528
 30
0.0
 11
2.341448582526342
 21
6.944374572279423
 31
0.0
  0
SPLINE
  5
BE
330
1F
100
AcDbEntity
  8
0
  6
Continuous
 62
     7
370
    15
100
AcDbSpline
210
0.0
220
0.0
230
1.0
 70
     8
 71
     3
 72
    10
 73
     6
 74
     0
 42
0.0000000001
 43
0.0000000001
 40
0.0
 40
0.0
 40
0.0
 40
0.0
 40
0.2318986087457416
 40
0.613512009730437
 40
1.0
 40
1.0
 40
1.0
 40
1.0
 10
2.298541407712868
 20
6.932879265942528
 30
0.0
 10
2.297863845262642
 20
6.936079928588039
 30
0.0
 10
2.296071282975162
 20
6.944547616181067
 30
0.0
 10
2.293966352614546
 20
6.958886129181872
 30
0.0
 10
2.293633729832183
 20
6.970416184353123
 30
0.0
 10
2.293466362981742
 20
6.976217798438936
 30
0.0
  0
SPLINE
  5
BF
330
1F
100
AcDbEntity
  8
0
  6
Continuous
 62
     7
370
    15
100
AcDbSpline
210
0.0
220
0.0
230
1.0
 70
     8
 71
     3
 72
    10
 73
     6
 74
     0
 42
0.0000000001
 43
0.0000000001
 40
0.0
 40
0.0
 40
0.0
 40
0.0
 40
0.0700998743270568
 40
0.5307905972311953
 40
1.0
 40
1.0
 40
1.0
 40
1.0
 10
2.265055878798798
 20
6.916781971351329
 30
0.0
 10
2.26573544445083
 20
6.917133001081313
 30
0.0
 10
2.270881060784135
 20
6.919790969898129
 30
0.0
 10
2.281604922807151
 20
6.925075449471525
 30
0.0
 10
2.292861539335111
 20
6.930262155565362
 30
0.0
 10
2.298541407712868
 20
6.932879265942528
 30
0.0
  0
SPLINE
  5
C0
330
1F
100
AcDbEntity
  8
0
  6
Continuous
 62
     7
370
    15
100
AcDbSpline
210
0.0
220
0.0
230
1.0
 70
     8
 71
     3
 72
     9
 73
     5
 74
     0
 42
0.0000000001
 43
0.0000000001
 40
0.0
 40
0.0
 40
0.0
 40
0.0
 40
0.495458904768494
 40
1.0
 40
1.0
 40
1.0
 40
1.0
 10
2.241720202300585
 20
7.082196954803452
 30
0.0
 10
2.23568773728843
 20
7.079423471940553
 30
0.0
 10
2.223512226960334
 20
7.073825665873881
 30
0.0
 10
2.213357932323758
 20
7.068690541492025
 30
0.0
 10
2.208234673386516
 20
7.066099660212254
 30
0.0
  0
LINE
  5
C1
330
1F
100
AcDbEntity
  8
0
  6
Continuous
 62
     7
370
    15
100
AcDbLine
 10
2.284627377114059
 20
6.914899367748746
 30
0.0
 11
2.341448582526342
 21
6.944374572279423
 31
0.0
  0
LINE
  5
C2
330
1F
100
AcDbEntity
  8
0
  6
Continuous
 62
     7
370
    15
100
AcDbLine
 10
2.241720202300585
 20
6.903404061411849
 30
0.0
 11
2.284627377114059
 21
6.914899367748746
 31
0.0
  0
SPLINE
  5
C3
330
1F
100
AcDbEntity
  8
0
  6
Continuous
 62
     7
370
    15
100
AcDbSpline
210
0.0
220
0.0
230
1.0
 70
     8
 71
     3
 72
     9
 73
     5
 74
     0
 42
0.0000000001
 43
0.0000000001
 40
0.0
 40
0.0
 40
0.0
 40
0.0
 40
0.495455859060481
 40
1.0
 40
1.0
 40
1.0
 40
1.0
 10
2.241720202300585
 20
6.903404061411849
 30
0.0
 10
2.2449157262927
 20
6.905417510352212
 30
0.0
 10
2.251365390644584
 20
6.909481341475695
 30
0.0
 10
2.260464816697757
 20
6.914333728106955
 30
0.0
 10
2.265055878798798
 20
6.916781971351329
 30
0.0
  0
SPLINE
  5
C4
330
1F
100
AcDbEntity
  8
0
  6
Continuous
 62
     7
370
    15
100
AcDbSpline
210
0.0
220
0.0
230
1.0
 70
     8
 71
     3
 72
    10
 73
     6
 74
     0
 42
0.0000000001
 43
0.0000000001
 40
0.0
 40
0.0
 40
0.0
 40
0.0
 40
0.0701060391688346
 40
0.5307906110736451
 40
1.0
 40
1.0
 40
1.0
 40
1.0
 10
2.208234673386516
 20
6.932005000261654
 30
0.0
 10
2.208914319086085
 20
6.931296322176844
 30
0.0
 10
2.214060089129081
 20
6.925930740578587
 30
0.0
 10
2.22478372505742
 20
6.916087509962562
 30
0.0
 10
2.236040311576853
 20
6.907657637922112
 30
0.0
 10
2.241720202300585
 20
6.903404061411849
 30
0.0
  0
SPLINE
  5
C5
330
1F
100
AcDbEntity
  8
0
  6
Continuous
 62
     7
370
    15
100
AcDbSpline
210
0.0
220
0.0
230
1.0
 70
     8
 71
     3
 72
    10
 73
     6
 74
     0
 42
0.0000000001
 43
0.0000000001
 40
0.0
 40
0.0
 40
0.0
 40
0.0
 40
0.3741458857565754
 40
0.7516820183378972
 40
1.0
 40
1.0
 40
1.0
 40
1.0
 10
2.184899233934695
 20
7.052721686765425
 30
0.0
 10
2.183835237392531
 20
7.046965936850448
 30
0.0
 10
2.181697603120001
 20
7.03540228246363
 30
0.0
 10
2.18007423359947
 20
7.019950605275541
 30
0.0
 10
2.179895217002337
 20
7.010438054689862
 30
0.0
 10
2.17982418920357
 20
7.006663792752236
 30
0.0
  0
SPLINE
  5
C6
330
1F
100
AcDbEntity
  8
0
  6
Continuous
 62
     7
370
    15
100
AcDbSpline
210
0.0
220
0.0
230
1.0
 70
     8
 71
     3
 72
    10
 73
     6
 74
     0
 42
0.0000000001
 43
0.0000000001
 40
0.0
 40
0.0
 40
0.0
 40
0.0
 40
0.0700998743270568
 40
0.5307905972311953
 40
1.0
 40
1.0
 40
1.0
 40
1.0
 10
2.208234673386516
 20
7.066099660212254
 30
0.0
 10
2.20756723054779
 20
7.065751878317935
 30
0.0
 10
2.202513407179552
 20
7.063118501850943
 30
0.0
 10
2.194006431441939
 20
7.058427950614141
 30
0.0
 10
2.187953449931659
 20
7.054635355851418
 30
0.0
 10
2.184899233934694
 20
7.052721686765425
 30
0.0
  0
SPLINE
  5
C7
330
1F
100
AcDbEntity
  8
0
  6
Continuous
 62
     7
370
    15
100
AcDbSpline
210
0.0
220
0.0
230
1.0
 70
     8
 71
     3
 72
    10
 73
     6
 74
     0
 42
0.0000000001
 43
0.0000000001
 40
0.0
 40
0.0
 40
0.0
 40
0.0
 40
0.3813020991729484
 40
0.7681018798258754
 40
1.0
 40
1.0
 40
1.0
 40
1.0
 10
2.17982418920357
 20
7.006663792752236
 30
0.0
 10
2.179987323029874
 20
7.000939571852544
 30
0.0
 10
2.180315942775005
 20
6.98940859721818
 30
0.0
 10
2.182413950777611
 20
6.975065160754446
 30
0.0
 10
2.1842216708166
 20
6.966525911081184
 30
0.0
 10
2.184899233934694
 20
6.963325260255829
 30
0.0
  0
SPLINE
  5
C8
330
1F
100
AcDbEntity
  8
0
  6
Continuous
 62
     7
370
    15
100
AcDbSpline
210
0.0
220
0.0
230
1.0
 70
     8
 71
     3
 72
     9
 73
     5
 74
     0
 42
0.0000000001
 43
0.0000000001
 40
0.0
 40
0.0
 40
0.0
 40
0.0
 40
0.495458904768494
 40
1.0
 40
1.0
 40
1.0
 40
1.0
 10
2.184899233934695
 20
6.963325260255829
 30
0.0
 10
2.188094762874839
 20
6.958079495826552
 30
0.0
 10
2.194544397565806
 20
6.947491807566658
 30
0.0
 10
2.203643700910925
 20
6.937198431497312
 30
0.0
 10
2.208234673386516
 20
6.932005000261654
 30
0.0
  0
SPLINE
  5
C9
330
1F
100
AcDbEntity
  8
0
  6
Continuous
 62
     7
370
    15
100
AcDbSpline
210
0.0
220
0.0
230
1.0
 70
     8
 71
     3
 72
    10
 73
     6
 74
     0
 42
0.0000000001
 43
0.0000000001
 40
0.0
 40
0.0
 40
0.0
 40
0.0
 40
0.0701052254606444
 40
0.5307935120796392
 40
1.0
 40
1.0
 40
1.0
 40
1.0
 10
2.70413548856054
 20
7.093543671310944
 30
0.0
 10
2.703467964391461
 20
7.094255583324567
 30
0.0
 10
2.698413883247354
 20
7.099645741840141
 30
0.0
 10
2.689907074906505
 20
7.110082873617121
 30
0.0
 10
2.683854049041696
 20
7.119906903261004
 30
0.0
 10
2.680799812062328
 20
7.124863914067647
 30
0.0
  0
LINE
  5
CA
330
1F
100
AcDbEntity
  8
0
  6
Continuous
 62
     7
370
    15
100
AcDbLine
 10
2.680799812062328
 20
7.124863914067647
 30
0.0
 11
2.723706986875802
 21
7.136359220404544
 31
0.0
  0
LINE
  5
CB
330
1F
100
AcDbEntity
  8
0
  6
Continuous
 62
     7
370
    15
100
AcDbLine
 10
2.780528192288084
 20
7.076438038798035
 30
0.0
 11
2.723706986875802
 21
7.136359220404544
 31
0.0
  0
LINE
  5
CC
330
1F
100
AcDbEntity
  8
0
  6
Continuous
 62
     7
370
    15
100
AcDbLine
 10
2.73762101747461
 20
7.064942732461139
 30
0.0
 11
2.780528192288084
 21
7.076438038798035
 31
0.0
  0
SPLINE
  5
CD
330
1F
100
AcDbEntity
  8
0
  6
Continuous
 62
     7
370
    15
100
AcDbSpline
210
0.0
220
0.0
230
1.0
 70
     8
 71
     3
 72
     9
 73
     5
 74
     0
 42
0.0000000001
 43
0.0000000001
 40
0.0
 40
0.0
 40
0.0
 40
0.0
 40
0.4954580272795904
 40
1.0
 40
1.0
 40
1.0
 40
1.0
 10
2.73762101747461
 20
7.064942732461139
 30
0.0
 10
2.731588548233984
 20
7.069428414615593
 30
0.0
 10
2.719413007807788
 20
7.078482021394523
 30
0.0
 10
2.709258741908762
 20
7.088492808856429
 30
0.0
 10
2.70413548856054
 20
7.093543671310944
 30
0.0
  0
LWPOLYLINE
  5
CE
330
1F
100
AcDbEntity
  8
0
  6
Continuous
 62
     7
370
    15
100
AcDbPolyline
 90
        9
 70
   128
 43
0.0
 10
2.647314283148258
 20
6.97467199989826
 10
2.653980264739792
 20
6.968407073430193
 10
2.661018409166884
 20
6.963266289674566
 10
2.66830829686236
 20
6.959337583918242
 10
2.675724767331203
 20
6.956688279748606
 10
2.683141474846438
 20
6.955363611602004
 10
2.690431125495522
 20
6.955386297904711
 10
2.697469269922614
 20
6.956755888307037
 10
2.70413548856054
 20
6.959448970987935
  0
ARC
  5
CF
330
1F
100
AcDbEntity
  8
0
  6
Continuous
 62
     7
370
    15
100
AcDbCircle
 10
2.730020895720359
 20
7.048880009370609
 30
0.0
 40
0.1111180112897992
100
AcDbArc
 50
179.7675412999772
 51
221.8998503872358
  0
LWPOLYLINE
  5
D0
330
1F
100
AcDbEntity
  8
0
  6
Continuous
 62
     7
370
    15
100
AcDbPolyline
 90
        9
 70
   128
 43
0.0
 10
2.647314283148258
 20
7.108766700221269
 10
2.641134483706869
 20
7.104796037675148
 10
2.635546352060099
 20
7.099616047689655
 10
2.630645654950345
 20
7.093315084983099
 10
2.626516306800402
 20
7.086001151584647
 10
2.623228947435109
 20
7.077799290320049
 10
2.62083999389578
 20
7.06884973947568
 10
2.619389981115458
 20
7.059305874260541
 10
2.618903798965313
 20
7.049330832761253
  0
LWPOLYLINE
  5
D1
330
1F
100
AcDbEntity
  8
0
  6
Continuous
 62
     7
370
    15
100
AcDbPolyline
 90
        9
 70
   128
 43
0.0
 10
2.70413548856054
 20
7.093543671310944
 10
2.697469269922614
 20
7.099808620913949
 10
2.690431125495522
 20
7.104949445041986
 10
2.683141474846438
 20
7.108878087290962
 10
2.675724767331203
 20
7.111527454967946
 10
2.66830829686236
 20
7.112852059607198
 10
2.661018409166884
 20
7.112829436811841
 10
2.653980264739792
 20
7.111459806037105
 10
2.647314283148258
 20
7.108766700221269
  0
ARC
  5
D2
330
1F
100
AcDbEntity
  8
0
  6
Continuous
 62
     7
370
    15
100
AcDbCircle
 10
2.621428960462655
 20
7.019335693984199
 30
0.0
 40
0.1111179269467039
100
AcDbArc
 50
359.7675245481445
 51
41.89986713906929
  0
LWPOLYLINE
  5
D3
330
1F
100
AcDbEntity
  8
0
  6
Continuous
 62
     7
370
    15
100
AcDbPolyline
 90
        9
 70
   128
 43
0.0
 10
2.70413548856054
 20
6.959448970987935
 10
2.71031528800193
 20
6.963419593161645
 10
2.7159034196487
 20
6.968599663891959
 10
2.720804116758454
 20
6.974900545853694
 10
2.724933464908397
 20
6.982214519624556
 10
2.728220587227297
 20
6.990416444396503
 10
2.730609777813019
 20
6.999365891361113
 10
2.73205979059334
 20
7.008909796948663
 10
2.732545972743486
 20
7.018884838447951
  0
SPLINE
  5
D4
330
1F
100
AcDbEntity
  8
0
  6
Continuous
 62
     7
370
    15
100
AcDbSpline
210
0.0
220
0.0
230
1.0
 70
     8
 71
     3
 72
    10
 73
     6
 74
     0
 42
0.0000000001
 43
0.0000000001
 40
0.0
 40
0.0
 40
0.0
 40
0.0
 40
0.2483175952023685
 40
0.6221441629715298
 40
1.0
 40
1.0
 40
1.0
 40
1.0
 10
2.732545972743486
 20
7.018884838447951
 30
0.0
 10
2.732616972350301
 20
7.022659093218001
 30
0.0
 10
2.732794857412845
 20
7.032115251863707
 30
0.0
 10
2.734411043849364
 20
7.04756564558931
 30
0.0
 10
2.736547209412082
 20
7.059129707756055
 30
0.0
 10
2.73762101747461
 20
7.064942732461139
 30
0.0
  0
LINE
  5
D5
330
1F
100
AcDbEntity
  8
0
  6
Continuous
 62
     7
370
    15
100
AcDbLine
 10
2.780528192288084
 20
6.987041571916029
 30
0.0
 11
2.780528192288084
 21
7.076438038798035
 31
0.0
  0
LINE
  5
D6
330
1F
100
AcDbEntity
  8
0
  6
Continuous
 62
     7
370
    15
100
AcDbLine
 10
2.73762101747461
 20
6.975546265579133
 30
0.0
 11
2.780528192288084
 21
6.987041571916029
 31
0.0
  0
SPLINE
  5
D7
330
1F
100
AcDbEntity
  8
0
  6
Continuous
 62
     7
370
    15
100
AcDbSpline
210
0.0
220
0.0
230
1.0
 70
     8
 71
     3
 72
    10
 73
     6
 74
     0
 42
0.0000000001
 43
0.0000000001
 40
0.0
 40
0.0
 40
0.0
 40
0.0
 40
0.2318992669923908
 40
0.6135114591696337
 40
1.0
 40
1.0
 40
1.0
 40
1.0
 10
2.73762101747461
 20
6.975546265579133
 30
0.0
 10
2.736943455608822
 20
6.978746942014517
 30
0.0
 10
2.735150901564352
 20
6.98721463445559
 30
0.0
 10
2.73304595664457
 20
7.001553152840528
 30
0.0
 10
2.732713337929312
 20
7.013083210083367
 30
0.0
 10
2.732545972743486
 20
7.018884838447951
 30
0.0
  0
SPLINE
  5
D8
330
1F
100
AcDbEntity
  8
0
  6
Continuous
 62
     7
370
    15
100
AcDbSpline
210
0.0
220
0.0
230
1.0
 70
     8
 71
     3
 72
    10
 73
     6
 74
     0
 42
0.0000000001
 43
0.0000000001
 40
0.0
 40
0.0
 40
0.0
 40
0.0
 40
0.0700998743270568
 40
0.5307905972311953
 40
1.0
 40
1.0
 40
1.0
 40
1.0
 10
2.70413548856054
 20
6.959448970987935
 30
0.0
 10
2.704815054212573
 20
6.959800000717919
 30
0.0
 10
2.709960670545877
 20
6.962457969534735
 30
0.0
 10
2.720684532568893
 20
6.967742449108129
 30
0.0
 10
2.731941149096854
 20
6.972929155201966
 30
0.0
 10
2.73762101747461
 20
6.975546265579133
 30
0.0
  0
SPLINE
  5
D9
330
1F
100
AcDbEntity
  8
0
  6
Continuous
 62
     7
370
    15
100
AcDbSpline
210
0.0
220
0.0
230
1.0
 70
     8
 71
     3
 72
     9
 73
     5
 74
     0
 42
0.0000000001
 43
0.0000000001
 40
0.0
 40
0.0
 40
0.0
 40
0.0
 40
0.4954584668934296
 40
1.0
 40
1.0
 40
1.0
 40
1.0
 10
2.680799812062328
 20
7.124863914067647
 30
0.0
 10
2.674767344940122
 20
7.122090463700003
 30
0.0
 10
2.662591819592801
 20
7.116492718272352
 30
0.0
 10
2.652437539296531
 20
7.111357587150295
 30
0.0
 10
2.647314283148258
 20
7.108766700221269
 30
0.0
  0
LINE
  5
DA
330
1F
100
AcDbEntity
  8
0
  6
Continuous
 62
     7
370
    15
100
AcDbLine
 10
2.723706986875802
 20
6.957566407757761
 30
0.0
 11
2.780528192288084
 21
6.987041571916029
 31
0.0
  0
LINE
  5
DB
330
1F
100
AcDbEntity
  8
0
  6
Continuous
 62
     7
370
    15
100
AcDbLine
 10
2.680799812062328
 20
6.946071101420866
 30
0.0
 11
2.723706986875802
 21
6.957566407757761
 31
0.0
  0
SPLINE
  5
DC
330
1F
100
AcDbEntity
  8
0
  6
Continuous
 62
     7
370
    15
100
AcDbSpline
210
0.0
220
0.0
230
1.0
 70
     8
 71
     3
 72
     9
 73
     5
 74
     0
 42
0.0000000001
 43
0.0000000001
 40
0.0
 40
0.0
 40
0.0
 40
0.0
 40
0.4954556401227604
 40
1.0
 40
1.0
 40
1.0
 40
1.0
 10
2.680799812062328
 20
6.946071101420866
 30
0.0
 10
2.683995337080507
 20
6.948084534105841
 30
0.0
 10
2.690445006353399
 20
6.952148334216132
 30
0.0
 10
2.699544427129705
 20
6.957000724724842
 30
0.0
 10
2.70413548856054
 20
6.959448970987935
 30
0.0
  0
SPLINE
  5
DD
330
1F
100
AcDbEntity
  8
0
  6
Continuous
 62
     7
370
    15
100
AcDbSpline
210
0.0
220
0.0
230
1.0
 70
     8
 71
     3
 72
    10
 73
     6
 74
     0
 42
0.0000000001
 43
0.0000000001
 40
0.0
 40
0.0
 40
0.0
 40
0.0
 40
0.070105625333472
 40
0.5307904022590428
 40
1.0
 40
1.0
 40
1.0
 40
1.0
 10
2.647314283148258
 20
6.97467199989826
 30
0.0
 10
2.647993929205897
 20
6.97396333594382
 30
0.0
 10
2.653139730311186
 20
6.968597831768452
 30
0.0
 10
2.663863324306138
 20
6.958754528051766
 30
0.0
 10
2.675119917812902
 20
6.950324670580005
 30
0.0
 10
2.680799812062327
 20
6.946071101420866
 30
0.0
  0
SPLINE
  5
DE
330
1F
100
AcDbEntity
  8
0
  6
Continuous
 62
     7
370
    15
100
AcDbSpline
210
0.0
220
0.0
230
1.0
 70
     8
 71
     3
 72
    10
 73
     6
 74
     0
 42
0.0000000001
 43
0.0000000001
 40
0.0
 40
0.0
 40
0.0
 40
0.0
 40
0.3741467563899103
 40
0.7516820141789639
 40
1.0
 40
1.0
 40
1.0
 40
1.0
 10
2.623978843696437
 20
7.095388726774441
 30
0.0
 10
2.622914847883618
 20
7.089632963411112
 30
0.0
 10
2.620777220062451
 20
7.07806930897821
 30
0.0
 10
2.619153841673064
 20
7.062617631813508
 30
0.0
 10
2.618974826356134
 20
7.053105094676521
 30
0.0
 10
2.618903798965313
 20
7.049330832761254
 30
0.0
  0
SPLINE
  5
DF
330
1F
100
AcDbEntity
  8
0
  6
Continuous
 62
     7
370
    15
100
AcDbSpline
210
0.0
220
0.0
230
1.0
 70
     8
 71
     3
 72
    10
 73
     6
 74
     0
 42
0.0000000001
 43
0.0000000001
 40
0.0
 40
0.0
 40
0.0
 40
0.0
 40
0.0701003185986932
 40
0.5307910361742723
 40
1.0
 40
1.0
 40
1.0
 40
1.0
 10
2.647314283148258
 20
7.108766700221269
 30
0.0
 10
2.646646840577467
 20
7.108418904059088
 30
0.0
 10
2.641593047088099
 20
7.105785434069338
 30
0.0
 10
2.633086036674474
 20
7.101094970136173
 30
0.0
 10
2.627033057245301
 20
7.097302388407674
 30
0.0
 10
2.623978843696437
 20
7.095388726774441
 30
0.0
  0
SPLINE
  5
E0
330
1F
100
AcDbEntity
  8
0
  6
Continuous
 62
     7
370
    15
100
AcDbSpline
210
0.0
220
0.0
230
1.0
 70
     8
 71
     3
 72
    10
 73
     6
 74
     0
 42
0.0000000001
 43
0.0000000001
 40
0.0
 40
0.0
 40
0.0
 40
0.0
 40
0.381302654337083
 40
0.768101221563719
 40
1.0
 40
1.0
 40
1.0
 40
1.0
 10
2.618903798965313
 20
7.049330832761253
 30
0.0
 10
2.619066931171683
 20
7.043606597607
 30
0.0
 10
2.619395546893513
 20
7.032075620928794
 30
0.0
 10
2.62149356940423
 20
7.01773217905075
 30
0.0
 10
2.623301281153988
 20
7.009192924502372
 30
0.0
 10
2.623978843696437
 20
7.005992259892435
 30
0.0
  0
SPLINE
  5
E1
330
1F
100
AcDbEntity
  8
0
  6
Continuous
 62
     7
370
    15
100
AcDbSpline
210
0.0
220
0.0
230
1.0
 70
     8
 71
     3
 72
     9
 73
     5
 74
     0
 42
0.0000000001
 43
0.0000000001
 40
0.0
 40
0.0
 40
0.0
 40
0.0
 40
0.4954584660240229
 40
1.0
 40
1.0
 40
1.0
 40
1.0
 10
2.623978843696437
 20
7.005992259892435
 30
0.0
 10
2.627174374692776
 20
7.000746513321461
 30
0.0
 10
2.633624019245194
 20
6.990158851729825
 30
0.0
 10
2.64272331201572
 20
6.979865449067395
 30
0.0
 10
2.647314283148258
 20
6.97467199989826
 30
0.0
  0
SPLINE
  5
E2
330
1F
100
AcDbEntity
  8
0
  6
Continuous
 62
     7
370
    15
100
AcDbSpline
210
0.0
220
0.0
230
1.0
 70
     8
 71
     3
 72
    10
 73
     6
 74
     0
 42
0.0000000001
 43
0.0000000001
 40
0.0
 40
0.0
 40
0.0
 40
0.0
 40
0.0701027416023863
 40
0.5307920440022063
 40
1.0
 40
1.0
 40
1.0
 40
1.0
 10
6.072657405082312
 20
6.030778101306967
 30
0.0
 10
6.071989921719714
 20
6.031490018475896
 30
0.0
 10
6.066935984451746
 20
6.036880392099217
 30
0.0
 10
6.058429069125941
 20
6.047317236892488
 30
0.0
 10
6.052376071324474
 20
6.057141341934677
 30
0.0
 10
6.049321847107295
 20
6.062098393054816
 30
0.0
  0
LINE
  5
E3
330
1F
100
AcDbEntity
  8
0
  6
Continuous
 62
     7
370
    15
100
AcDbLine
 10
6.049321847107295
 20
6.062098393054816
 30
0.0
 11
6.092229021920768
 21
6.073593699391711
 31
0.0
  0
LINE
  5
E4
330
1F
100
AcDbEntity
  8
0
  6
Continuous
 62
     7
370
    15
100
AcDbLine
 10
6.149050108809855
 20
6.013672468794057
 30
0.0
 11
6.092229021920768
 21
6.073593699391711
 31
0.0
  0
LINE
  5
E5
330
1F
100
AcDbEntity
  8
0
  6
Continuous
 62
     7
370
    15
100
AcDbLine
 10
6.106142933996381
 20
6.002177162457162
 30
0.0
 11
6.149050108809855
 21
6.013672468794057
 31
0.0
  0
SPLINE
  5
E6
330
1F
100
AcDbEntity
  8
0
  6
Continuous
 62
     7
370
    15
100
AcDbSpline
210
0.0
220
0.0
230
1.0
 70
     8
 71
     3
 72
     9
 73
     5
 74
     0
 42
0.0000000001
 43
0.0000000001
 40
0.0
 40
0.0
 40
0.0
 40
0.0
 40
0.4954584660240229
 40
1.0
 40
1.0
 40
1.0
 40
1.0
 10
6.106142933996381
 20
6.002177162457162
 30
0.0
 10
6.100110466869987
 20
6.006662862485455
 30
0.0
 10
6.087934941492846
 20
6.015716497322476
 30
0.0
 10
6.077780661225047
 20
6.025727257174806
 30
0.0
 10
6.072657405082312
 20
6.030778101306967
 30
0.0
  0
LWPOLYLINE
  5
E7
330
1F
100
AcDbEntity
  8
0
  6
Continuous
 62
     7
370
    15
100
AcDbPolyline
 90
        9
 70
   128
 43
0.0
 10
6.015836318193224
 20
5.911906438513018
 10
6.022502299784759
 20
5.905641512044951
 10
6.029540444211852
 20
5.900500728289324
 10
6.03683021338413
 20
5.896572013914264
 10
6.044246802376171
 20
5.893922718363364
 10
6.051663509891406
 20
5.892598009844353
 10
6.058953160540488
 20
5.89262073651947
 10
6.065991304967581
 20
5.893990326921796
 10
6.072657405082312
 20
5.896683441356367
  0
ARC
  5
E8
330
1F
100
AcDbEntity
  8
0
  6
Continuous
 62
     7
370
    15
100
AcDbCircle
 10
6.098542531961809
 20
5.986114472574915
 30
0.0
 40
0.1111177308770591
100
AcDbArc
 50
179.767557836721
 51
221.8999971542193
  0
LWPOLYLINE
  5
E9
330
1F
100
AcDbEntity
  8
0
  6
Continuous
 62
     7
370
    15
100
AcDbPolyline
 90
        9
 70
   128
 43
0.0
 10
6.015836318193224
 20
6.046001098463618
 10
6.00965640022864
 20
6.04203050804358
 10
6.004068268581868
 20
6.036850477685677
 10
5.999167689995311
 20
6.030549523597857
 10
5.995038341845368
 20
6.023235549826995
 10
5.991750982480076
 20
6.015033688562397
 10
5.98936191041755
 20
6.006084209844112
 10
5.987911897637229
 20
5.996540304256563
 10
5.987425715487083
 20
5.986565262757275
  0
LWPOLYLINE
  5
EA
330
1F
100
AcDbEntity
  8
0
  6
Continuous
 62
     7
370
    15
100
AcDbPolyline
 90
        9
 70
   128
 43
0.0
 10
6.072657405082312
 20
6.030778101306967
 10
6.065991304967581
 20
6.037043059528707
 10
6.058953160540488
 20
6.042183843284333
 10
6.051663509891406
 20
6.04611252590572
 10
6.044246802376171
 20
6.048761853210294
 10
6.03683021338413
 20
6.050086529975631
 10
6.029540444211852
 20
6.050063835054189
 10
6.022502299784759
 20
6.048694244651863
 10
6.015836318193224
 20
6.046001098463618
  0
ARC
  5
EB
330
1F
100
AcDbEntity
  8
0
  6
Continuous
 62
     7
370
    15
100
AcDbCircle
 10
5.989952145855816
 20
5.956570606833346
 30
0.0
 40
0.1111166600459821
100
AcDbArc
 50
359.7672729189188
 51
41.9001187682922
  0
LWPOLYLINE
  5
EC
330
1F
100
AcDbEntity
  8
0
  6
Continuous
 62
     7
370
    15
100
AcDbPolyline
 90
        9
 70
   128
 43
0.0
 10
6.072657405082312
 20
5.896683441356367
 10
6.078837323046896
 20
5.900654031776403
 10
6.084425454693668
 20
5.905834062134307
 10
6.089326033280225
 20
5.912135016222126
 10
6.093455381430167
 20
5.919448989992988
 10
6.096742622272264
 20
5.927650883011262
 10
6.099131812857986
 20
5.936600329975871
 10
6.100581825638307
 20
5.946144235563421
 10
6.101067889265256
 20
5.956119268443972
  0
SPLINE
  5
ED
330
1F
100
AcDbEntity
  8
0
  6
Continuous
 62
     7
370
    15
100
AcDbSpline
210
0.0
220
0.0
230
1.0
 70
     8
 71
     3
 72
    10
 73
     6
 74
     0
 42
0.0000000001
 43
0.0000000001
 40
0.0
 40
0.0
 40
0.0
 40
0.0
 40
0.2483175910505054
 40
0.6221450337498232
 40
1.0
 40
1.0
 40
1.0
 40
1.0
 10
6.101067889265256
 20
5.956119268443972
 30
0.0
 10
6.101138889281512
 20
5.959893523236975
 30
0.0
 10
6.101316775621832
 20
5.969349695333519
 30
0.0
 10
6.102932953225042
 20
5.984800089070762
 30
0.0
 10
6.105069125194079
 20
5.996364151199536
 30
0.0
 10
6.106142933996381
 20
6.002177162457162
 30
0.0
  0
LINE
  5
EE
330
1F
100
AcDbEntity
  8
0
  6
Continuous
 62
     7
370
    15
100
AcDbLine
 10
6.149050108809855
 20
5.924276042284462
 30
0.0
 11
6.149050108809855
 21
6.013672468794057
 31
0.0
  0
LINE
  5
EF
330
1F
100
AcDbEntity
  8
0
  6
Continuous
 62
     7
370
    15
100
AcDbLine
 10
6.106142933996381
 20
5.912780735947565
 30
0.0
 11
6.149050108809855
 21
5.924276042284462
 31
0.0
  0
SPLINE
  5
F0
330
1F
100
AcDbEntity
  8
0
  6
Continuous
 62
     7
370
    15
100
AcDbSpline
210
0.0
220
0.0
230
1.0
 70
     8
 71
     3
 72
    10
 73
     6
 74
     0
 42
0.0000000001
 43
0.0000000001
 40
0.0
 40
0.0
 40
0.0
 40
0.0
 40
0.2318986087457416
 40
0.613512009730437
 40
1.0
 40
1.0
 40
1.0
 40
1.0
 10
6.106142933996381
 20
5.912780735947565
 30
0.0
 10
6.105465371546155
 20
5.915981398593077
 30
0.0
 10
6.103672809258675
 20
5.924449086186105
 30
0.0
 10
6.10156787889806
 20
5.938787599186909
 30
0.0
 10
6.101235256115697
 20
5.95031765435816
 30
0.0
 10
6.101067889265256
 20
5.956119268443972
 30
0.0
  0
SPLINE
  5
F1
330
1F
100
AcDbEntity
  8
0
  6
Continuous
 62
     7
370
    15
100
AcDbSpline
210
0.0
220
0.0
230
1.0
 70
     8
 71
     3
 72
    10
 73
     6
 74
     0
 42
0.0000000001
 43
0.0000000001
 40
0.0
 40
0.0
 40
0.0
 40
0.0
 40
0.070102956727208
 40
0.5307906041401472
 40
1.0
 40
1.0
 40
1.0
 40
1.0
 10
6.072657405082312
 20
5.896683441356367
 30
0.0
 10
6.073337010758097
 20
5.89703445812297
 30
0.0
 10
6.078482703950913
 20
5.899692211951154
 30
0.0
 10
6.089206452920356
 20
5.904977032863273
 30
0.0
 10
6.100463054445115
 20
5.91016365785598
 30
0.0
 10
6.106142933996381
 20
5.912780735947565
 30
0.0
  0
SPLINE
  5
F2
330
1F
100
AcDbEntity
  8
0
  6
Continuous
 62
     7
370
    15
100
AcDbSpline
210
0.0
220
0.0
230
1.0
 70
     8
 71
     3
 72
     9
 73
     5
 74
     0
 42
0.0000000001
 43
0.0000000001
 40
0.0
 40
0.0
 40
0.0
 40
0.0
 40
0.495458904768494
 40
1.0
 40
1.0
 40
1.0
 40
1.0
 10
6.049321847107295
 20
6.062098393054816
 30
0.0
 10
6.043289382095139
 20
6.059324910191915
 30
0.0
 10
6.031113871767044
 20
6.053727104125245
 30
0.0
 10
6.020959577130466
 20
6.048591979743389
 30
0.0
 10
6.015836318193224
 20
6.046001098463618
 30
0.0
  0
LINE
  5
F3
330
1F
100
AcDbEntity
  8
0
  6
Continuous
 62
     7
370
    15
100
AcDbLine
 10
6.092229021920768
 20
5.894800806000108
 30
0.0
 11
6.149050108809855
 21
5.924276042284462
 31
0.0
  0
LINE
  5
F4
330
1F
100
AcDbEntity
  8
0
  6
Continuous
 62
     7
370
    15
100
AcDbLine
 10
6.049321847107295
 20
5.883305499663213
 30
0.0
 11
6.092229021920768
 21
5.894800806000108
 31
0.0
  0
SPLINE
  5
F5
330
1F
100
AcDbEntity
  8
0
  6
Continuous
 62
     7
370
    15
100
AcDbSpline
210
0.0
220
0.0
230
1.0
 70
     8
 71
     3
 72
     9
 73
     5
 74
     0
 42
0.0000000001
 43
0.0000000001
 40
0.0
 40
0.0
 40
0.0
 40
0.0
 40
0.495457381911396
 40
1.0
 40
1.0
 40
1.0
 40
1.0
 10
6.049321847107295
 20
5.883305499663213
 30
0.0
 10
6.052517373573389
 20
5.885318942301331
 30
0.0
 10
6.058967023094742
 20
5.889382748214063
 30
0.0
 10
6.068066387794003
 20
5.89423518180719
 30
0.0
 10
6.072657405082312
 20
5.896683441356367
 30
0.0
  0
SPLINE
  5
F6
330
1F
100
AcDbEntity
  8
0
  6
Continuous
 62
     7
370
    15
100
AcDbSpline
210
0.0
220
0.0
230
1.0
 70
     8
 71
     3
 72
    10
 73
     6
 74
     0
 42
0.0000000001
 43
0.0000000001
 40
0.0
 40
0.0
 40
0.0
 40
0.0
 40
0.070102956727208
 40
0.5307906041401472
 40
1.0
 40
1.0
 40
1.0
 40
1.0
 10
6.015836318193224
 20
5.911906438513018
 30
0.0
 10
6.01651592386901
 20
5.911197769292533
 30
0.0
 10
6.021661617061826
 20
5.90583201895563
 30
0.0
 10
6.032385366031268
 20
5.895989051035833
 30
0.0
 10
6.043641967556029
 20
5.887559101326711
 30
0.0
 10
6.049321847107295
 20
5.883305499663213
 30
0.0
  0
SPLINE
  5
F7
330
1F
100
AcDbEntity
  8
0
  6
Continuous
 62
     7
370
    15
100
AcDbSpline
210
0.0
220
0.0
230
1.0
 70
     8
 71
     3
 72
    10
 73
     6
 74
     0
 42
0.0000000001
 43
0.0000000001
 40
0.0
 40
0.0
 40
0.0
 40
0.0
 40
0.3741458857565754
 40
0.7516820183378972
 40
1.0
 40
1.0
 40
1.0
 40
1.0
 10
5.992500760218208
 20
6.032623156770464
 30
0.0
 10
5.991436763676043
 20
6.026867406855485
 30
0.0
 10
5.989299129403515
 20
6.015303752468668
 30
0.0
 10
5.987675759882984
 20
5.999852075280578
 30
0.0
 10
5.987496743285851
 20
5.990339524694898
 30
0.0
 10
5.987425715487083
 20
5.986565262757275
 30
0.0
  0
SPLINE
  5
F8
330
1F
100
AcDbEntity
  8
0
  6
Continuous
 62
     7
370
    15
100
AcDbSpline
210
0.0
220
0.0
230
1.0
 70
     8
 71
     3
 72
    10
 73
     6
 74
     0
 42
0.0000000001
 43
0.0000000001
 40
0.0
 40
0.0
 40
0.0
 40
0.0
 40
0.0701027416023863
 40
0.5307920440022063
 40
1.0
 40
1.0
 40
1.0
 40
1.0
 10
6.015836318193224
 20
6.046001098463618
 30
0.0
 10
6.015168834830627
 20
6.045653328998102
 30
0.0
 10
6.010114897562661
 20
6.043020147167794
 30
0.0
 10
6.001607982236853
 20
6.038329357162545
 30
0.0
 10
5.995554984435387
 20
6.034536804575457
 30
0.0
 10
5.992500760218208
 20
6.032623156770464
 30
0.0
  0
SPLINE
  5
F9
330
1F
100
AcDbEntity
  8
0
  6
Continuous
 62
     7
370
    15
100
AcDbSpline
210
0.0
220
0.0
230
1.0
 70
     8
 71
     3
 72
    10
 73
     6
 74
     0
 42
0.0000000001
 43
0.0000000001
 40
0.0
 40
0.0
 40
0.0
 40
0.0
 40
0.3813020991729484
 40
0.7681018798258754
 40
1.0
 40
1.0
 40
1.0
 40
1.0
 10
5.987425715487083
 20
5.986565262757275
 30
0.0
 10
5.987588849313388
 20
5.980841041857583
 30
0.0
 10
5.987917469058517
 20
5.969310067223219
 30
0.0
 10
5.990015477061125
 20
5.954966630759484
 30
0.0
 10
5.991823197100115
 20
5.946427381086221
 30
0.0
 10
5.992500760218208
 20
5.943226730260867
 30
0.0
  0
SPLINE
  5
FA
330
1F
100
AcDbEntity
  8
0
  6
Continuous
 62
     7
370
    15
100
AcDbSpline
210
0.0
220
0.0
230
1.0
 70
     8
 71
     3
 72
     9
 73
     5
 74
     0
 42
0.0000000001
 43
0.0000000001
 40
0.0
 40
0.0
 40
0.0
 40
0.0
 40
0.495457381911396
 40
1.0
 40
1.0
 40
1.0
 40
1.0
 10
5.992500760218208
 20
5.943226730260867
 30
0.0
 10
5.995696286684303
 20
5.937980960746945
 30
0.0
 10
6.002145936205654
 20
5.927393229681793
 30
0.0
 10
6.011245300904916
 20
5.917099874756128
 30
0.0
 10
6.015836318193224
 20
5.911906438513018
 30
0.0
  0
SPLINE
  5
FB
330
1F
100
AcDbEntity
  8
0
  6
Continuous
 62
     7
370
    15
100
AcDbSpline
210
0.0
220
0.0
230
1.0
 70
     8
 71
     3
 72
    10
 73
     6
 74
     0
 42
0.0000000001
 43
0.0000000001
 40
0.0
 40
0.0
 40
0.0
 40
0.0
 40
0.0701056180452591
 40
0.5307874226402007
 40
1.0
 40
1.0
 40
1.0
 40
1.0
 10
6.950816624605796
 20
5.474906941243808
 30
0.0
 10
6.950149100177671
 20
5.475618866665795
 30
0.0
 10
6.945095103356392
 20
5.481009034677788
 30
0.0
 10
6.936588405559872
 20
5.491446310359419
 30
0.0
 10
6.930535277553902
 20
5.501270238653024
 30
0.0
 10
6.927480948107583
 20
5.506227264745333
 30
0.0
  0
LINE
  5
FC
330
1F
100
AcDbEntity
  8
0
  6
Continuous
 62
     7
370
    15
100
AcDbLine
 10
6.927480948107583
 20
5.506227264745333
 30
0.0
 11
6.970388122921058
 21
5.517722571082228
 31
0.0
  0
LINE
  5
FD
330
1F
100
AcDbEntity
  8
0
  6
Continuous
 62
     7
370
    15
100
AcDbLine
 10
7.02720932833334
 20
5.457801328917105
 30
0.0
 11
6.970388122921058
 21
5.517722571082228
 31
0.0
  0
LINE
  5
FE
330
1F
100
AcDbEntity
  8
0
  6
Continuous
 62
     7
370
    15
100
AcDbLine
 10
6.984302153519865
 20
5.446306022580209
 30
0.0
 11
7.02720932833334
 21
5.457801328917105
 31
0.0
  0
SPLINE
  5
FF
330
1F
100
AcDbEntity
  8
0
  6
Continuous
 62
     7
370
    15
100
AcDbSpline
210
0.0
220
0.0
230
1.0
 70
     8
 71
     3
 72
     9
 73
     5
 74
     0
 42
0.0000000001
 43
0.0000000001
 40
0.0
 40
0.0
 40
0.0
 40
0.0
 40
0.4954587952995685
 40
1.0
 40
1.0
 40
1.0
 40
1.0
 10
6.984302153519865
 20
5.446306022580209
 30
0.0
 10
6.978269687980196
 20
5.450791732633435
 30
0.0
 10
6.966094173897291
 20
5.459845381687166
 30
0.0
 10
6.955939882845795
 20
5.46985611420123
 30
0.0
 10
6.950816624605796
 20
5.474906941243808
 30
0.0
  0
LWPOLYLINE
  5
100
330
1F
100
AcDbEntity
  8
0
  6
Continuous
 62
     7
370
    15
100
AcDbPolyline
 90
        9
 70
   128
 43
0.0
 10
6.893995419193513
 20
5.35603533038974
 10
6.90066163783144
 20
5.349770340414325
 10
6.90769954521214
 20
5.344629599979842
 10
6.914989432907615
 20
5.340700884130415
 10
6.922405903376459
 20
5.338051590053881
 10
6.929822610891694
 20
5.336726911814177
 10
6.93711249858717
 20
5.336749544702638
 10
6.944150405967869
 20
5.338119218798518
 10
6.950816624605796
 20
5.340812301479415
  0
ARC
  5
101
330
1F
100
AcDbEntity
  8
0
  6
Continuous
 62
     7
370
    15
100
AcDbCircle
 10
6.97670184110344
 20
5.430243267186078
 30
0.0
 40
0.1111178208421675
100
AcDbArc
 50
179.767513835971
 51
221.8998881501413
  0
LWPOLYLINE
  5
102
330
1F
100
AcDbEntity
  8
0
  6
Continuous
 62
     7
370
    15
100
AcDbPolyline
 90
        9
 70
   128
 43
0.0
 10
6.893995419193513
 20
5.490129970154134
 10
6.887815619752124
 20
5.486159368166629
 10
6.882227488105353
 20
5.480979317622519
 10
6.8773267909956
 20
5.47467841547458
 10
6.873197442845659
 20
5.467364441703718
 10
6.869910083480364
 20
5.459162580439119
 10
6.867521129941035
 20
5.45021306996716
 10
6.866071117160713
 20
5.440669164379611
 10
6.865584935010567
 20
5.430694143066527
  0
LWPOLYLINE
  5
103
330
1F
100
AcDbEntity
  8
0
  6
Continuous
 62
     7
370
    15
100
AcDbPolyline
 90
        9
 70
   128
 43
0.0
 10
6.950816624605796
 20
5.474906941243808
 10
6.944150405967869
 20
5.481171951405429
 10
6.93711249858717
 20
5.486312691839912
 10
6.929822610891694
 20
5.490241397596236
 10
6.922405903376459
 20
5.492890745087017
 10
6.914989432907615
 20
5.494215369912474
 10
6.90769954521214
 20
5.494192747117116
 10
6.90066163783144
 20
5.492823073021236
 10
6.893995419193513
 20
5.490129970154134
  0
ARC
  5
104
330
1F
100
AcDbEntity
  8
0
  6
Continuous
 62
     7
370
    15
100
AcDbCircle
 10
6.868110202883627
 20
5.400699004640828
 30
0.0
 40
0.1111178205732872
100
AcDbArc
 50
359.7675241444236
 51
41.89988814058681
  0
LWPOLYLINE
  5
105
330
1F
100
AcDbEntity
  8
0
  6
Continuous
 62
     7
370
    15
100
AcDbPolyline
 90
        9
 70
   128
 43
0.0
 10
6.950816624605796
 20
5.340812301479415
 10
6.956996424047186
 20
5.344782903466921
 10
6.962584555693956
 20
5.349962954011029
 10
6.96748525280371
 20
5.356263866252072
 10
6.971614600953652
 20
5.363577829929832
 10
6.974901960318945
 20
5.371779711380636
 10
6.977290913858276
 20
5.380729201666389
 10
6.978740926638596
 20
5.390273107253937
 10
6.979227108788741
 20
5.400248148753227
  0
SPLINE
  5
106
330
1F
100
AcDbEntity
  8
0
  6
Continuous
 62
     7
370
    15
100
AcDbSpline
210
0.0
220
0.0
230
1.0
 70
     8
 71
     3
 72
    10
 73
     6
 74
     0
 42
0.0000000001
 43
0.0000000001
 40
0.0
 40
0.0
 40
0.0
 40
0.0
 40
0.2483172568670565
 40
0.6221448657628194
 40
1.0
 40
1.0
 40
1.0
 40
1.0
 10
6.979227108788741
 20
5.400248148753227
 30
0.0
 10
6.979298108972809
 20
5.404022396850156
 30
0.0
 10
6.979475995924937
 20
5.413478562342826
 30
0.0
 10
6.981092172730547
 20
5.428928949188714
 30
0.0
 10
6.98322834471155
 20
5.440493011320878
 30
0.0
 10
6.984302153519865
 20
5.446306022580209
 30
0.0
  0
LINE
  5
107
330
1F
100
AcDbEntity
  8
0
  6
Continuous
 62
     7
370
    15
100
AcDbLine
 10
7.02720932833334
 20
5.368404892314407
 30
0.0
 11
7.02720932833334
 21
5.457801328917105
 31
0.0
  0
LINE
  5
108
330
1F
100
AcDbEntity
  8
0
  6
Continuous
 62
     7
370
    15
100
AcDbLine
 10
6.984302153519865
 20
5.356909585977511
 30
0.0
 11
7.02720932833334
 21
5.368404892314407
 31
0.0
  0
SPLINE
  5
109
330
1F
100
AcDbEntity
  8
0
  6
Continuous
 62
     7
370
    15
100
AcDbSpline
210
0.0
220
0.0
230
1.0
 70
     8
 71
     3
 72
    10
 73
     6
 74
     0
 42
0.0000000001
 43
0.0000000001
 40
0.0
 40
0.0
 40
0.0
 40
0.0
 40
0.2318988871142438
 40
0.6135118190392994
 40
1.0
 40
1.0
 40
1.0
 40
1.0
 10
6.984302153519865
 20
5.356909585977511
 30
0.0
 10
6.983624591305807
 20
5.360110255489659
 30
0.0
 10
6.981832032352061
 20
5.368577948452645
 30
0.0
 10
6.979727096219245
 20
5.382916468321641
 30
0.0
 10
6.979394474997269
 20
5.394446527623795
 30
0.0
 10
6.979227108788741
 20
5.400248148753227
 30
0.0
  0
SPLINE
  5
10A
330
1F
100
AcDbEntity
  8
0
  6
Continuous
 62
     7
370
    15
100
AcDbSpline
210
0.0
220
0.0
230
1.0
 70
     8
 71
     3
 72
    10
 73
     6
 74
     0
 42
0.0000000001
 43
0.0000000001
 40
0.0
 40
0.0
 40
0.0
 40
0.0
 40
0.0700998819244202
 40
0.5307906547578187
 40
1.0
 40
1.0
 40
1.0
 40
1.0
 10
6.950816624605796
 20
5.340812301479415
 30
0.0
 10
6.951496190261488
 20
5.341163331201856
 30
0.0
 10
6.956641806622516
 20
5.343821299961565
 30
0.0
 10
6.967365666349117
 20
5.349105781298654
 30
0.0
 10
6.978622284814493
 20
5.354292479754041
 30
0.0
 10
6.984302153519865
 20
5.356909585977511
 30
0.0
  0
SPLINE
  5
10B
330
1F
100
AcDbEntity
  8
0
  6
Continuous
 62
     7
370
    15
100
AcDbSpline
210
0.0
220
0.0
230
1.0
 70
     8
 71
     3
 72
     9
 73
     5
 74
     0
 42
0.0000000001
 43
0.0000000001
 40
0.0
 40
0.0
 40
0.0
 40
0.0
 40
0.4954586853962537
 40
1.0
 40
1.0
 40
1.0
 40
1.0
 10
6.927480948107583
 20
5.506227264745333
 30
0.0
 10
6.921448482038307
 20
5.50345379137024
 30
0.0
 10
6.90927296418569
 20
5.497856001974593
 30
0.0
 10
6.899118676733504
 20
5.49272086095489
 30
0.0
 10
6.893995419193513
 20
5.490129970154134
 30
0.0
  0
LINE
  5
10C
330
1F
100
AcDbEntity
  8
0
  6
Continuous
 62
     7
370
    15
100
AcDbLine
 10
6.970388122921058
 20
5.338929707969933
 30
0.0
 11
7.02720932833334
 21
5.368404892314407
 31
0.0
  0
LINE
  5
10D
330
1F
100
AcDbEntity
  8
0
  6
Continuous
 62
     7
370
    15
100
AcDbLine
 10
6.927480948107583
 20
5.327434401633038
 30
0.0
 11
6.970388122921058
 21
5.338929707969933
 31
0.0
  0
SPLINE
  5
10E
330
1F
100
AcDbEntity
  8
0
  6
Continuous
 62
     7
370
    15
100
AcDbSpline
210
0.0
220
0.0
230
1.0
 70
     8
 71
     3
 72
     9
 73
     5
 74
     0
 42
0.0000000001
 43
0.0000000001
 40
0.0
 40
0.0
 40
0.0
 40
0.0
 40
0.4954556946412673
 40
1.0
 40
1.0
 40
1.0
 40
1.0
 10
6.927480948107583
 20
5.327434401633038
 30
0.0
 10
6.93067647287026
 20
5.329447841761769
 30
0.0
 10
6.937126140917751
 20
5.333511656448951
 30
0.0
 10
6.946225563008071
 20
5.338364052622637
 30
0.0
 10
6.950816624605796
 20
5.340812301479415
 30
0.0
  0
SPLINE
  5
10F
330
1F
100
AcDbEntity
  8
0
  6
Continuous
 62
     7
370
    15
100
AcDbSpline
210
0.0
220
0.0
230
1.0
 70
     8
 71
     3
 72
    10
 73
     6
 74
     0
 42
0.0000000001
 43
0.0000000001
 40
0.0
 40
0.0
 40
0.0
 40
0.0
 40
0.0701059355442355
 40
0.5307906683534496
 40
1.0
 40
1.0
 40
1.0
 40
1.0
 10
6.893995419193513
 20
5.35603533038974
 30
0.0
 10
6.894675065003631
 20
5.355326655876367
 30
0.0
 10
6.899820844044964
 20
5.349961092808442
 30
0.0
 10
6.91054446321606
 20
5.340117831918449
 30
0.0
 10
6.921801055700393
 20
5.331687971357608
 30
0.0
 10
6.927480948107583
 20
5.327434401633038
 30
0.0
  0
SPLINE
  5
110
330
1F
100
AcDbEntity
  8
0
  6
Continuous
 62
     7
370
    15
100
AcDbSpline
210
0.0
220
0.0
230
1.0
 70
     8
 71
     3
 72
    10
 73
     6
 74
     0
 42
0.0000000001
 43
0.0000000001
 40
0.0
 40
0.0
 40
0.0
 40
0.0
 40
0.3741464874117069
 40
0.7516823504422283
 40
1.0
 40
1.0
 40
1.0
 40
1.0
 10
6.870659979741693
 20
5.476752016893511
 30
0.0
 10
6.869595983558261
 20
5.470996260252674
 30
0.0
 10
6.867458352499483
 20
5.459432605839432
 30
0.0
 10
6.865834979346043
 20
5.443980935555175
 30
0.0
 10
6.865655962773047
 20
5.434468398296869
 30
0.0
 10
6.865584935010569
 20
5.430694143066527
 30
0.0
  0
SPLINE
  5
111
330
1F
100
AcDbEntity
  8
0
  6
Continuous
 62
     7
370
    15
100
AcDbSpline
210
0.0
220
0.0
230
1.0
 70
     8
 71
     3
 72
    10
 73
     6
 74
     0
 42
0.0000000001
 43
0.0000000001
 40
0.0
 40
0.0
 40
0.0
 40
0.0
 40
0.0700996670589719
 40
0.5307907117804916
 40
1.0
 40
1.0
 40
1.0
 40
1.0
 10
6.893995419193513
 20
5.490129970154134
 30
0.0
 10
6.893327976188843
 20
5.489782195506337
 30
0.0
 10
6.888274135530458
 20
5.487148865555024
 30
0.0
 10
6.879767189265132
 20
5.482458236893519
 30
0.0
 10
6.873714198820406
 20
5.478665670680272
 30
0.0
 10
6.870659979741693
 20
5.476752016893511
 30
0.0
  0
SPLINE
  5
112
330
1F
100
AcDbEntity
  8
0
  6
Continuous
 62
     7
370
    15
100
AcDbSpline
210
0.0
220
0.0
230
1.0
 70
     8
 71
     3
 72
    10
 73
     6
 74
     0
 42
0.0000000001
 43
0.0000000001
 40
0.0
 40
0.0
 40
0.0
 40
0.0
 40
0.3813022932896468
 40
0.7681016014562778
 40
1.0
 40
1.0
 40
1.0
 40
1.0
 10
6.865584935010567
 20
5.430694143066527
 30
0.0
 10
6.865748068209954
 20
5.424969915131385
 30
0.0
 10
6.866076686405817
 20
5.413438936373951
 30
0.0
 10
6.868174700176654
 20
5.399095493039388
 30
0.0
 10
6.86998241685667
 20
5.390556237980897
 30
0.0
 10
6.870659979741693
 20
5.387355580290813
 30
0.0
  0
SPLINE
  5
113
330
1F
100
AcDbEntity
  8
0
  6
Continuous
 62
     7
370
    15
100
AcDbSpline
210
0.0
220
0.0
230
1.0
 70
     8
 71
     3
 72
     9
 73
     5
 74
     0
 42
0.0000000001
 43
0.0000000001
 40
0.0
 40
0.0
 40
0.0
 40
0.0
 40
0.4954586306618309
 40
1.0
 40
1.0
 40
1.0
 40
1.0
 10
6.870659979741693
 20
5.387355580290813
 30
0.0
 10
6.873855509966452
 20
5.382109828713208
 30
0.0
 10
6.880305150818383
 20
5.371522160534745
 30
0.0
 10
6.889404447556999
 20
5.361228771160003
 30
0.0
 10
6.893995419193513
 20
5.35603533038974
 30
0.0
  0
LINE
  5
114
330
1F
100
AcDbEntity
  8
0
  6
Continuous
 62
     7
370
    15
100
AcDbLine
 10
5.626741762573519
 20
6.514334121312042
 30
0.0
 11
5.602599091264288
 21
6.50786603284672
 31
0.0
  0
LINE
  5
115
330
1F
100
AcDbEntity
  8
0
  6
Continuous
 62
     7
370
    15
100
AcDbLine
 10
7.119431960492838
 20
5.569467376186326
 30
0.0
 11
5.626741762573519
 21
6.514334121312042
 31
0.0
  0
LINE
  5
116
330
1F
100
AcDbEntity
  8
0
  6
Continuous
 62
     7
370
    15
100
AcDbLine
 10
7.119431960492838
 20
5.569467376186326
 30
0.0
 11
7.095289289183606
 21
5.562999287721003
 31
0.0
  0
LINE
  5
117
330
1F
100
AcDbEntity
  8
0
  6
Continuous
 62
     7
370
    15
100
AcDbLine
 10
7.095289289183606
 20
5.562999287721003
 30
0.0
 11
5.602599091264288
 21
6.50786603284672
 31
0.0
  0
LINE
  5
118
330
1F
100
AcDbEntity
  8
0
  6
Continuous
 62
     7
370
    15
100
AcDbLine
 10
7.016855378973906
 20
5.185177538392368
 30
0.0
 11
7.095289289183606
 21
5.562999287721003
 31
0.0
  0
LINE
  5
119
330
1F
100
AcDbEntity
  8
0
  6
Continuous
 62
     7
370
    15
100
AcDbLine
 10
5.524165062531392
 20
6.130044330411413
 30
0.0
 11
7.016855378973906
 21
5.185177538392368
 31
0.0
  0
LINE
  5
11A
330
1F
100
AcDbEntity
  8
0
  6
Continuous
 62
     7
370
    15
100
AcDbLine
 10
7.040998050283139
 20
5.191645626857691
 30
0.0
 11
7.016855378973906
 21
5.185177538392368
 31
0.0
  0
LINE
  5
11B
330
1F
100
AcDbEntity
  8
0
  6
Continuous
 62
     7
370
    15
100
AcDbLine
 10
7.040998050283139
 20
5.191645626857691
 30
0.0
 11
7.119431960492838
 21
5.569467376186326
 31
0.0
  0
SPLINE
  5
11C
330
1F
100
AcDbEntity
  8
0
  6
Continuous
 62
     7
370
    15
100
AcDbSpline
210
0.0
220
0.0
230
1.0
 70
     8
 71
     3
 72
    26
 73
    22
 74
     0
 42
0.0000000001
 43
0.0000000001
 40
0.0
 40
0.0
 40
0.0
 40
0.0
 40
0.0482930776763039
 40
0.0966670826605926
 40
0.1454172214551291
 40
0.1947187401040852
 40
0.244644218807439
 40
0.3079035781580504
 40
0.371958562090303
 40
0.4365429076919251
 40
0.5013284558101564
 40
0.5659661501630681
 40
0.6301250250643282
 40
0.6935326329179567
 40
0.756019784931487
 40
0.7971563852442367
 40
0.8379195549687587
 40
0.8784036395150156
 40
0.9187592587529335
 40
0.9591989440823983
 40
1.0
 40
1.0
 40
1.0
 40
1.0
 10
4.339951142334508
 20
6.650870039221787
 30
0.0
 10
4.356819582156219
 20
6.646803340036457
 30
0.0
 10
4.390584729151616
 20
6.638663126879217
 30
0.0
 10
4.44628643221962
 20
6.630534625110194
 30
0.0
 10
4.504953467839712
 20
6.624861686698477
 30
0.0
 10
4.566576723021698
 20
6.621506597946324
 30
0.0
 10
4.636065272274242
 20
6.619795490188234
 30
0.0
 10
4.713554049887756
 20
6.619733472866995
 30
0.0
 10
4.798793447205059
 20
6.620894756632285
 30
0.0
 10
4.885582692639106
 20
6.622420880072168
 30
0.0
 10
4.973121612493935
 20
6.623447867375921
 30
0.0
 10
5.060611819030726
 20
6.623112901285193
 30
0.0
 10
5.147256148500655
 20
6.62055052947036
 30
0.0
 10
5.232257088066067
 20
6.614891524125072
 30
0.0
 10
5.305837332630322
 20
6.606304032899595
 30
0.0
 10
5.368064494847057
 20
6.595619242483584
 30
0.0
 10
5.419553442475497
 20
6.584055525607682
 30
0.0
 10
5.469102853084985
 20
6.569820201417007
 30
0.0
 10
5.516377789903601
 20
6.552568702473949
 30
0.0
 10
5.561450229338668
 20
6.532324538784592
 30
0.0
 10
5.588842189486551
 20
6.516043009027147
 30
0.0
 10
5.602599091264288
 20
6.50786603284672
 30
0.0
  0
SPLINE
  5
11D
330
1F
100
AcDbEntity
  8
0
  6
Continuous
 62
     7
370
    15
100
AcDbSpline
210
0.0
220
0.0
230
1.0
 70
     8
 71
     3
 72
    14
 73
    10
 74
     0
 42
0.0000000001
 43
0.0000000001
 40
0.0
 40
0.0
 40
0.0
 40
0.0
 40
0.1476907548930421
 40
0.2966181551585754
 40
0.4465606965067158
 40
0.5971096528587719
 40
0.7477487487170879
 40
0.8979299556256243
 40
1.0
 40
1.0
 40
1.0
 40
1.0
 10
5.524165062531392
 20
6.130044330411413
 30
0.0
 10
5.499459298748195
 20
6.146307047413388
 30
0.0
 10
5.449840904689187
 20
6.178968652525264
 30
0.0
 10
5.376566924838586
 20
6.233929205734865
 30
0.0
 10
5.303592163715512
 20
6.291724801741165
 30
0.0
 10
5.230906069681752
 20
6.351552404439544
 30
0.0
 10
5.158310599726715
 20
6.411779661934428
 30
0.0
 10
5.093419159813779
 20
6.465292732774511
 30
0.0
 10
5.052320180677487
 20
6.497275195954798
 30
0.0
 10
5.035690036712499
 20
6.510216465500186
 30
0.0
  0
LINE
  5
11E
330
1F
100
AcDbEntity
  8
0
  6
Continuous
 62
     7
370
    15
100
AcDbLine
 10
4.339951142334508
 20
6.683764752520757
 30
0.0
 11
4.339951142334508
 21
6.650870039221787
 31
0.0
  0
SPLINE
  5
11F
330
1F
100
AcDbEntity
  8
0
  6
Continuous
 62
     7
370
    15
100
AcDbSpline
210
0.0
220
0.0
230
1.0
 70
     8
 71
     3
 72
    26
 73
    22
 74
     0
 42
0.0000000001
 43
0.0000000001
 40
0.0
 40
0.0
 40
0.0
 40
0.0
 40
0.0471206685971618
 40
0.0944085811763393
 40
0.1421482455136383
 40
0.1905104230831119
 40
0.239573864435617
 40
0.3018736073187372
 40
0.3651385895604802
 40
0.4291389194256573
 40
0.4935817719283844
 40
0.5489273354533717
 40
0.6041592555165311
 40
0.6591035700179817
 40
0.7136338707177857
 40
0.7676936462918116
 40
0.8213188810489931
 40
0.8746643077598477
 40
0.9161497045552184
 40
0.9578412627159579
 40
1.0
 40
1.0
 40
1.0
 40
1.0
 10
4.339951142334508
 20
6.683764752520757
 30
0.0
 10
4.35659648569732
 20
6.679773316851782
 30
0.0
 10
4.389946251243104
 20
6.6717762788304
 30
0.0
 10
4.445411859138762
 20
6.663925384973893
 30
0.0
 10
4.504101775411133
 20
6.658551410002807
 30
0.0
 10
4.566011920565688
 20
6.65548147516906
 30
0.0
 10
4.636085841603956
 20
6.65396820912012
 30
0.0
 10
4.714545281593295
 20
6.653860252180027
 30
0.0
 10
4.801163704546082
 20
6.654386441875926
 30
0.0
 10
4.889679212407748
 20
6.654376428004335
 30
0.0
 10
4.974908038139999
 20
6.65301855217547
 30
0.0
 10
5.055976752336652
 20
6.649901387088279
 30
0.0
 10
5.132286078114963
 20
6.645090749970799
 30
0.0
 10
5.207544273109039
 20
6.638137795850893
 30
0.0
 10
5.281263986873822
 20
6.628678072078246
 30
0.0
 10
5.352968936064068
 20
6.616266759586533
 30
0.0
 10
5.422174611344952
 20
6.600391671884217
 30
0.0
 10
5.483509398435768
 20
6.581960160096984
 30
0.0
 10
5.537109119324432
 20
6.561471172428243
 30
0.0
 10
5.583899176984447
 20
6.539905070945274
 30
0.0
 10
5.612407954343234
 20
6.522889372664624
 30
0.0
 10
5.626741762573519
 20
6.514334121312042
 30
0.0
  0
SPLINE
  5
120
330
1F
100
AcDbEntity
  8
0
  6
Continuous
 62
     7
370
    15
100
AcDbSpline
210
0.0
220
0.0
230
1.0
 70
     8
 71
     3
 72
    12
 73
     8
 74
     0
 42
0.0000000001
 43
0.0000000001
 40
0.0
 40
0.0
 40
0.0
 40
0.0
 40
0.0455531193189931
 40
0.284222427824636
 40
0.522345636045208
 40
0.7606033953422942
 40
1.0
 40
1.0
 40
1.0
 40
1.0
 10
4.887811863662196
 20
6.654145520284195
 30
0.0
 10
4.884111490456489
 20
6.656518951883442
 30
0.0
 10
4.861023520365603
 20
6.671327652176601
 30
0.0
 10
4.818318844195737
 20
6.694447173097043
 30
0.0
 10
4.759864937776599
 20
6.723388415923336
 30
0.0
 10
4.701287963174857
 20
6.747624004576527
 30
0.0
 10
4.66245812065024
 20
6.759168201958637
 30
0.0
 10
4.642996909445505
 20
6.764954062751142
 30
0.0
  0
LINE
  5
121
330
1F
100
AcDbEntity
  8
0
  6
Continuous
 62
     7
370
    15
100
AcDbLine
 10
4.339951142334508
 20
6.683764752520757
 30
0.0
 11
4.450217301396754
 21
6.713306275180397
 31
0.0
  0
LINE
  5
122
330
1F
100
AcDbEntity
  8
0
  6
Continuous
 62
     7
370
    15
100
AcDbLine
 10
4.450217301396754
 20
6.713306275180397
 30
0.0
 11
4.642996909445505
 21
6.764954062751142
 31
0.0
  0
LINE
  5
123
330
1F
100
AcDbEntity
  8
0
  6
Continuous
 62
     7
370
    15
100
AcDbLine
 10
3.430813796555323
 20
6.927332695119541
 30
0.0
 11
4.339951142334508
 21
6.683764752520757
 31
0.0
  0
LINE
  5
124
330
1F
100
AcDbEntity
  8
0
  6
Continuous
 62
     7
370
    15
100
AcDbLine
 10
3.430813796555323
 20
6.927332695119541
 30
0.0
 11
3.541079955617568
 21
6.956874217779182
 31
0.0
  0
LINE
  5
125
330
1F
100
AcDbEntity
  8
0
  6
Continuous
 62
     7
370
    15
100
AcDbLine
 10
3.541079955617568
 20
6.956874217779182
 30
0.0
 11
3.73385956366632
 21
7.008522005349927
 31
0.0
  0
LINE
  5
126
330
1F
100
AcDbEntity
  8
0
  6
Continuous
 62
     7
370
    15
100
AcDbLine
 10
3.73385956366632
 20
7.008522005349927
 30
0.0
 11
4.642996909445505
 21
6.764954062751142
 31
0.0
  0
LINE
  5
127
330
1F
100
AcDbEntity
  8
0
  6
Continuous
 62
     7
370
    15
100
AcDbLine
 10
3.430813796555323
 20
6.894437981820573
 30
0.0
 11
3.430813796555323
 21
6.927332695119541
 31
0.0
  0
LINE
  5
128
330
1F
100
AcDbEntity
  8
0
  6
Continuous
 62
     7
370
    15
100
AcDbLine
 10
3.430813796555323
 20
6.894437981820573
 30
0.0
 11
4.339951142334508
 21
6.650870039221787
 31
0.0
  0
SPLINE
  5
129
330
1F
100
AcDbEntity
  8
0
  6
Continuous
 62
     7
370
    15
100
AcDbSpline
210
0.0
220
0.0
230
1.0
 70
     8
 71
     3
 72
    26
 73
    22
 74
     0
 42
0.0000000001
 43
0.0000000001
 40
0.0
 40
0.0
 40
0.0
 40
0.0
 40
0.0408014305680601
 40
0.0812413754506695
 40
0.1215972537021725
 40
0.1736886386097953
 40
0.2262917595033969
 40
0.2795614606746898
 40
0.3335303451044253
 40
0.3881352779221942
 40
0.4432419905623107
 40
0.4986683691717319
 40
0.5634543331016248
 40
0.6280390407904048
 40
0.692094515385436
 40
0.7553542975990375
 40
0.805280006684991
 40
0.8545818600877554
 40
0.9033323472548229
 40
0.9517066123652957
 40
1.0
 40
1.0
 40
1.0
 40
1.0
 10
2.774257367032138
 20
7.265610039223559
 30
0.0
 10
2.787413724661018
 20
7.266576620851391
 30
0.0
 10
2.813609879423486
 20
7.268501220548928
 30
0.0
 10
2.849372338676931
 20
7.267089331196051
 30
0.0
 10
2.885662971326195
 20
7.262389559348627
 30
0.0
 10
2.921640089945513
 20
7.25328336627245
 30
0.0
 10
2.956888081030969
 20
7.239284508715988
 30
0.0
 10
2.989151689815256
 20
7.221625322468295
 30
0.0
 10
3.019051388257676
 20
7.200848433510639
 30
0.0
 10
3.047194097549726
 20
7.177478845986494
 30
0.0
 10
3.074182793119388
 20
7.15204170736368
 30
0.0
 10
3.102089542206669
 20
7.123555862369326
 30
0.0
 10
3.131495867888645
 20
7.092360101861022
 30
0.0
 10
3.163373532057542
 20
7.059041803947367
 30
0.0
 10
3.197208381891393
 20
7.025979246880303
 30
0.0
 10
3.231556933564406
 20
6.996078821565316
 30
0.0
 10
3.266505995907692
 20
6.969809893057064
 30
0.0
 10
3.301672221994778
 20
6.947234030579904
 30
0.0
 10
3.340408481773069
 20
6.926811558833696
 30
0.0
 10
3.382805471129294
 20
6.908658324295018
 30
0.0
 10
3.414819949771273
 20
6.899175451347674
 30
0.0
 10
3.430813796555323
 20
6.894437981820573
 30
0.0
  0
SPLINE
  5
12A
330
1F
100
AcDbEntity
  8
0
  6
Continuous
 62
     7
370
    15
100
AcDbSpline
210
0.0
220
0.0
230
1.0
 70
     8
 71
     3
 72
    14
 73
    10
 74
     0
 42
0.0000000001
 43
0.0000000001
 40
0.0
 40
0.0
 40
0.0
 40
0.0
 40
0.0070112566292652
 40
0.1730912254113182
 40
0.3396777900237761
 40
0.5061644981951542
 40
0.6719805930382173
 40
0.836674137886386
 40
1.0
 40
1.0
 40
1.0
 40
1.0
 10
3.294447140770104
 20
6.95258522203234
 30
0.0
 10
3.293415583349297
 20
6.95232950500853
 30
0.0
 10
3.267948887792263
 20
6.946016460806864
 30
0.0
 10
3.218577371340824
 20
6.931345231320944
 30
0.0
 10
3.145941967342921
 20
6.910166954051932
 30
0.0
 10
3.073266576319748
 20
6.889245781672129
 30
0.0
 10
3.000288990185984
 20
6.870562403759785
 30
0.0
 10
2.927015776202729
 20
6.85486088636699
 30
0.0
 10
2.877397306563359
 20
6.848786265211897
 30
0.0
 10
2.85269151428823
 20
6.845761618754668
 30
0.0
  0
LINE
  5
12B
330
1F
100
AcDbEntity
  8
0
  6
Continuous
 62
     7
370
    15
100
AcDbLine
 10
2.85269151428823
 20
6.845761618754668
 30
0.0
 11
2.774257367032138
 21
7.265610039223559
 31
0.0
  0
LINE
  5
12C
330
1F
100
AcDbEntity
  8
0
  6
Continuous
 62
     7
370
    15
100
AcDbLine
 10
2.79840003834137
 20
7.272078127688881
 30
0.0
 11
2.774257367032138
 21
7.265610039223559
 31
0.0
  0
SPLINE
  5
12D
330
1F
100
AcDbEntity
  8
0
  6
Continuous
 62
     7
370
    15
100
AcDbSpline
210
0.0
220
0.0
230
1.0
 70
     8
 71
     3
 72
    26
 73
    22
 74
     0
 42
0.0000000001
 43
0.0000000001
 40
0.0
 40
0.0
 40
0.0
 40
0.0
 40
0.0421585729970325
 40
0.083849857408608
 40
0.1253350375832791
 40
0.1668142491803219
 40
0.20843286106242
 40
0.2502838629471578
 40
0.3135811179565702
 40
0.3774913132245139
 40
0.4418577270780223
 40
0.5064208762501945
 40
0.5708633415619227
 40
0.6348634135875552
 40
0.698128059038337
 40
0.7604274437252134
 40
0.809490665884134
 40
0.8578524947641096
 40
0.9055919833783246
 40
0.9528796205651069
 40
1.0
 40
1.0
 40
1.0
 40
1.0
 10
2.79840003834137
 20
7.272078127688881
 30
0.0
 10
2.812109410440578
 20
7.273120334542808
 30
0.0
 10
2.83937619899533
 20
7.275193196356658
 30
0.0
 10
2.876481559611167
 20
7.274282288936952
 30
0.0
 10
2.910699409059675
 20
7.270713246040465
 30
0.0
 10
2.942079144213971
 20
7.264466506722568
 30
0.0
 10
2.970960085515172
 20
7.255885221424011
 30
0.0
 10
3.002084283328739
 20
7.243405990274556
 30
0.0
 10
3.034343096625054
 20
7.226087504179851
 30
0.0
 10
3.066910671972773
 20
7.203258886450794
 30
0.0
 10
3.096585566098841
 20
7.177716868396204
 30
0.0
 10
3.124359818675179
 20
7.149877363772863
 30
0.0
 10
3.151331641601002
 20
7.120099093979965
 30
0.0
 10
3.178966023491671
 20
7.088991104710419
 30
0.0
 10
3.208738464080403
 20
7.057282559087584
 30
0.0
 10
3.239744715374003
 20
7.028063406716392
 30
0.0
 10
3.272125227140187
 20
7.002128050405813
 30
0.0
 10
3.305324579253414
 20
6.979717038509998
 30
0.0
 10
3.342493494224952
 20
6.959409420346641
 30
0.0
 10
3.383638674976692
 20
6.941377198110549
 30
0.0
 10
3.415107339825723
 20
6.932008663535421
 30
0.0
 10
3.430813796555323
 20
6.927332695119541
 30
0.0
  0
SPLINE
  5
12E
330
1F
100
AcDbEntity
  8
0
  6
Continuous
 62
     7
370
    15
100
AcDbSpline
210
0.0
220
0.0
230
1.0
 70
     8
 71
     3
 72
    11
 73
     7
 74
     0
 42
0.0000000001
 43
0.0000000001
 40
0.0
 40
0.0
 40
0.0
 40
0.0
 40
0.2789355445823716
 40
0.5565449276023604
 40
0.8339971489878768
 40
0.9999999999999998
 40
0.9999999999999998
 40
0.9999999999999998
 40
0.9999999999999998
 10
3.73385956366632
 20
7.008522005349927
 30
0.0
 10
3.714503460321268
 20
7.013150709277535
 30
0.0
 10
3.675883279623375
 20
7.022386110581948
 30
0.0
 10
3.619107669819185
 20
7.028831468434719
 30
0.0
 10
3.570752398037256
 20
7.031026106878457
 30
0.0
 10
3.541930753625307
 20
7.029271846701419
 30
0.0
 10
3.531141667106638
 20
7.028615157424576
 30
0.0
  0
LINE
  5
12F
330
1F
100
AcDbEntity
  8
0
  6
Continuous
 62
     7
370
    15
100
AcDbLine
 10
1.360001138584118
 20
6.700711308190453
 30
0.0
 11
2.85269151428823
 21
6.845761618754668
 31
0.0
  0
LINE
  5
130
330
1F
100
AcDbEntity
  8
0
  6
Continuous
 62
     7
370
    15
100
AcDbLine
 10
1.281567228374418
 20
7.120559680291648
 30
0.0
 11
1.309829321515925
 21
6.969274828879961
 31
0.0
  0
LINE
  5
131
330
1F
100
AcDbEntity
  8
0
  6
Continuous
 62
     7
370
    15
100
AcDbLine
 10
1.333339108589116
 20
6.843430612405699
 30
0.0
 11
1.360001138584118
 21
6.700711308190453
 31
0.0
  0
LINE
  5
132
330
1F
100
AcDbEntity
  8
0
  6
Continuous
 62
     7
370
    15
100
AcDbLine
 10
2.774257367032138
 20
7.265610039223559
 30
0.0
 11
1.281567228374418
 21
7.120559680291648
 31
0.0
  0
LINE
  5
133
330
1F
100
AcDbEntity
  8
0
  6
Continuous
 62
     7
370
    15
100
AcDbLine
 10
1.30570989968365
 20
7.127027768756971
 30
0.0
 11
1.281567228374418
 21
7.120559680291648
 31
0.0
  0
LINE
  5
134
330
1F
100
AcDbEntity
  8
0
  6
Continuous
 62
     7
370
    15
100
AcDbLine
 10
2.79840003834137
 20
7.272078127688881
 30
0.0
 11
1.30570989968365
 21
7.127027768756971
 31
0.0
  0
LINE
  5
135
330
1F
100
AcDbEntity
  8
0
  6
Continuous
 62
     7
370
    15
100
AcDbLine
 10
4.668039897767237
 20
6.619719649953505
 30
0.0
 11
4.668039897767237
 21
5.155485963646534
 31
0.0
  0
LINE
  5
136
330
1F
100
AcDbEntity
  8
0
  6
Continuous
 62
     7
370
    15
100
AcDbLine
 10
7.622736208584142
 20
5.946690436462751
 30
0.0
 11
5.716843333247532
 21
6.457300201438979
 31
0.0
  0
LINE
  5
137
330
1F
100
AcDbEntity
  8
0
  6
Continuous
 62
     7
370
    15
100
AcDbLine
 10
4.989410180647984
 20
6.65218758251446
 30
0.0
 11
4.80012328451321
 21
6.702899633962465
 31
0.0
  0
LINE
  5
138
330
1F
100
AcDbEntity
  8
0
  6
Continuous
 62
     7
370
    15
100
AcDbLine
 10
7.622736208584142
 20
5.946690436462751
 30
0.0
 11
7.622736208584142
 21
5.217399026172527
 31
0.0
  0
LINE
  5
139
330
1F
100
AcDbEntity
  8
0
  6
Continuous
 62
     7
370
    15
100
AcDbLine
 10
7.622736208584142
 20
5.217399026172527
 30
0.0
 11
7.698497420723199
 21
5.134993035731334
 31
0.0
  0
LINE
  5
13A
330
1F
100
AcDbEntity
  8
0
  6
Continuous
 62
     7
370
    15
100
AcDbLine
 10
7.698497420723199
 20
5.134993035731334
 30
0.0
 11
7.647989945963828
 21
5.131410237551772
 31
0.0
  0
LINE
  5
13B
330
1F
100
AcDbEntity
  8
0
  6
Continuous
 62
     7
370
    15
100
AcDbLine
 10
7.647989945963828
 20
5.131410237551772
 30
0.0
 11
7.647989945963828
 21
4.357124411724672
 31
0.0
  0
LINE
  5
13C
330
1F
100
AcDbEntity
  8
0
  6
Continuous
 62
     7
370
    15
100
AcDbLine
 10
7.647989945963828
 20
4.357124411724672
 30
0.0
 11
4.668039897767237
 21
5.155485963646534
 31
0.0
  0
LINE
  5
13D
330
1F
100
AcDbEntity
  8
0
  6
Continuous
 62
     7
370
    15
100
AcDbLine
 10
7.850020519101991
 20
6.007582415166331
 30
0.0
 11
7.622736208584142
 21
5.946690436462751
 31
0.0
  0
LINE
  5
13E
330
1F
100
AcDbEntity
  8
0
  6
Continuous
 62
     7
370
    15
100
AcDbLine
 10
7.850020519101991
 20
6.007582415166331
 30
0.0
 11
7.850020519101991
 21
5.278291004876106
 31
0.0
  0
LINE
  5
13F
330
1F
100
AcDbEntity
  8
0
  6
Continuous
 62
     7
370
    15
100
AcDbLine
 10
7.850020519101991
 20
5.278291004876106
 30
0.0
 11
7.622736208584142
 21
5.217399026172527
 31
0.0
  0
LINE
  5
140
330
1F
100
AcDbEntity
  8
0
  6
Continuous
 62
     7
370
    15
100
AcDbLine
 10
4.895324208285085
 20
6.799178211743243
 30
0.0
 11
4.700073843468638
 21
6.746868481127958
 31
0.0
  0
LINE
  5
141
330
1F
100
AcDbEntity
  8
0
  6
Continuous
 62
     7
370
    15
100
AcDbLine
 10
7.850020519101991
 20
6.007582415166331
 30
0.0
 11
4.895324208285085
 21
6.799178211743243
 31
0.0
  0
LINE
  5
142
330
1F
100
AcDbEntity
  8
0
  6
Continuous
 62
     7
370
    15
100
AcDbLine
 10
7.850020519101991
 20
5.278291004876106
 30
0.0
 11
7.925781731241047
 21
5.195885014434915
 31
0.0
  0
LINE
  5
143
330
1F
100
AcDbEntity
  8
0
  6
Continuous
 62
     7
370
    15
100
AcDbLine
 10
7.925781731241047
 20
5.195885014434915
 30
0.0
 11
7.698497420723199
 21
5.134993035731334
 31
0.0
  0
LINE
  5
144
330
1F
100
AcDbEntity
  8
0
  6
Continuous
 62
     7
370
    15
100
AcDbLine
 10
7.875274256481676
 20
4.418016390428253
 30
0.0
 11
7.647989945963828
 21
4.357124411724672
 31
0.0
  0
LINE
  5
145
330
1F
100
AcDbEntity
  8
0
  6
Continuous
 62
     7
370
    15
100
AcDbLine
 10
7.875274256481676
 20
5.182353419787224
 30
0.0
 11
7.875274256481676
 21
4.418016390428253
 31
0.0
  0
LINE
  5
146
330
1F
100
AcDbEntity
  8
0
  6
Continuous
 62
     7
370
    15
100
AcDbLine
 10
3.796151118299311
 20
6.991833422650486
 30
0.0
 11
3.986186966213696
 21
7.042746126557563
 31
0.0
  0
LINE
  5
147
330
1F
100
AcDbEntity
  8
0
  6
Continuous
 62
     7
370
    15
100
AcDbLine
 10
0.8042064930329388
 20
7.773449904738803
 30
0.0
 11
2.708298467667359
 21
7.263322620964006
 31
0.0
  0
LINE
  5
148
330
1F
100
AcDbEntity
  8
0
  6
Continuous
 62
     7
370
    15
100
AcDbLine
 10
3.121526390525407
 20
7.152614293490513
 30
0.0
 11
3.580916253683312
 21
7.029538672035089
 31
0.0
  0
LINE
  5
149
330
1F
100
AcDbEntity
  8
0
  6
Continuous
 62
     7
370
    15
100
AcDbLine
 10
0.8042064930329388
 20
7.773449904738803
 30
0.0
 11
1.031490803550787
 21
7.834341883442383
 31
0.0
  0
LINE
  5
14A
330
1F
100
AcDbEntity
  8
0
  6
Continuous
 62
     7
370
    15
100
AcDbLine
 10
1.031490803550787
 20
7.834341883442383
 30
0.0
 11
3.986186966213696
 21
7.042746126557563
 31
0.0
  0
LINE
  5
14B
330
1F
100
AcDbEntity
  8
0
  6
Continuous
 62
     7
370
    15
100
AcDbLine
 10
0.8042064930329388
 20
7.044158494448578
 30
0.0
 11
0.7284450438474898
 21
7.00234709958444
 31
0.0
  0
LINE
  5
14C
330
1F
100
AcDbEntity
  8
0
  6
Continuous
 62
     7
370
    15
100
AcDbLine
 10
0.8042064930329388
 20
7.773449904738803
 30
0.0
 11
0.8042064930329388
 21
7.044158494448578
 31
0.0
  0
LINE
  5
14D
330
1F
100
AcDbEntity
  8
0
  6
Continuous
 62
     7
370
    15
100
AcDbLine
 10
0.7789525186068609
 20
6.197415454197973
 30
0.0
 11
2.736123210215487
 21
5.673067795526896
 31
0.0
  0
LINE
  5
14E
330
1F
100
AcDbEntity
  8
0
  6
Continuous
 62
     7
370
    15
100
AcDbLine
 10
0.7789525186068609
 20
6.971701280025074
 30
0.0
 11
0.7789525186068609
 21
6.197415454197973
 31
0.0
  0
LINE
  5
14F
330
1F
100
AcDbEntity
  8
0
  6
Continuous
 62
     7
370
    15
100
AcDbLine
 10
0.7284450438474898
 20
7.00234709958444
 30
0.0
 11
0.7789525186068609
 21
6.971701280025074
 31
0.0
  0
LINE
  5
150
330
1F
100
AcDbEntity
  8
0
  6
Continuous
 62
     7
370
    15
100
AcDbLine
 10
3.645260393025275
 20
4.881472030703658
 30
0.0
 11
3.645260393025275
 21
5.647607494503321
 31
0.0
  0
LINE
  5
151
330
1F
100
AcDbEntity
  8
0
  6
Continuous
 62
     7
370
    15
100
AcDbLine
 10
3.645260393025275
 20
5.647607494503321
 30
0.0
 11
3.569498943839826
 21
5.652574835858022
 31
0.0
  0
LINE
  5
152
330
1F
100
AcDbEntity
  8
0
  6
Continuous
 62
     7
370
    15
100
AcDbLine
 10
3.569498943839826
 20
5.652574835858022
 30
0.0
 11
3.670514248928156
 21
5.763147506263766
 31
0.0
  0
LINE
  5
153
330
1F
100
AcDbEntity
  8
0
  6
Continuous
 62
     7
370
    15
100
AcDbLine
 10
3.670514248928156
 20
5.763147506263766
 30
0.0
 11
3.670514248928156
 21
6.471038087195412
 31
0.0
  0
LINE
  5
154
330
1F
100
AcDbEntity
  8
0
  6
Continuous
 62
     7
370
    15
100
AcDbLine
 10
3.670514248928156
 20
6.471038087195412
 30
0.0
 11
4.34093187733552
 21
6.650650379211847
 31
0.0
  0
LINE
  5
155
330
1F
100
AcDbEntity
  8
0
  6
Continuous
 62
     7
370
    15
100
AcDbLine
 10
4.700073843468638
 20
6.746868481127958
 30
0.0
 11
5.892849834901068
 21
7.066426351633681
 31
0.0
  0
LINE
  5
156
330
1F
100
AcDbEntity
  8
0
  6
Continuous
 62
     7
370
    15
100
AcDbLine
 10
5.892849834901068
 20
7.066426351633681
 30
0.0
 11
5.892849834901068
 21
6.531930075466666
 31
0.0
  0
LINE
  5
157
330
1F
100
AcDbEntity
  8
0
  6
Continuous
 62
     7
370
    15
100
AcDbLine
 10
3.645260393025275
 20
4.881472030703658
 30
0.0
 11
4.668039897767237
 21
5.155485963646534
 31
0.0
  0
LINE
  5
158
330
1F
100
AcDbEntity
  8
0
  6
Continuous
 62
     7
370
    15
100
AcDbLine
 10
3.215945583446263
 20
5.884931475578553
 30
0.0
 11
3.670514248928156
 21
5.763147506263766
 31
0.0
  0
LINE
  5
159
330
1F
100
AcDbEntity
  8
0
  6
Continuous
 62
     7
370
    15
100
AcDbLine
 10
3.215945583446263
 20
5.884931475578553
 30
0.0
 11
3.215945583446263
 21
6.5928220565102
 31
0.0
  0
LINE
  5
15A
330
1F
100
AcDbEntity
  8
0
  6
Continuous
 62
     7
370
    15
100
AcDbLine
 10
3.215945583446263
 20
6.5928220565102
 30
0.0
 11
3.670514248928156
 21
6.471038087195412
 31
0.0
  0
LINE
  5
15B
330
1F
100
AcDbEntity
  8
0
  6
Continuous
 62
     7
370
    15
100
AcDbLine
 10
3.215945583446263
 20
6.5928220565102
 30
0.0
 11
3.886282793865115
 21
6.772412803658743
 31
0.0
  0
LINE
  5
15C
330
1F
100
AcDbEntity
  8
0
  6
Continuous
 62
     7
370
    15
100
AcDbLine
 10
4.250719694888807
 20
6.870049477150954
 30
0.0
 11
5.438281169419174
 21
7.188210320948468
 31
0.0
  0
LINE
  5
15D
330
1F
100
AcDbEntity
  8
0
  6
Continuous
 62
     7
370
    15
100
AcDbLine
 10
5.438281169419174
 20
7.188210320948468
 30
0.0
 11
5.892849834901068
 21
7.066426351633681
 31
0.0
  0
LINE
  5
15E
330
1F
100
AcDbEntity
  8
0
  6
Continuous
 62
     7
370
    15
100
AcDbLine
 10
3.114930278357932
 20
5.774358805172809
 30
0.0
 11
3.569498943839826
 21
5.652574835858022
 31
0.0
  0
LINE
  5
15F
330
1F
100
AcDbEntity
  8
0
  6
Continuous
 62
     7
370
    15
100
AcDbLine
 10
3.114930278357932
 20
5.774358805172809
 30
0.0
 11
3.215945583446263
 21
5.884931475578553
 31
0.0
  0
LINE
  5
160
330
1F
100
AcDbEntity
  8
0
  6
Continuous
 62
     7
370
    15
100
AcDbLine
 10
3.190691727543382
 20
5.003256000018446
 30
0.0
 11
3.645260393025275
 21
4.881472030703658
 31
0.0
  0
LINE
  5
161
330
1F
100
AcDbEntity
  8
0
  6
Continuous
 62
     7
370
    15
100
AcDbLine
 10
3.190691727543382
 20
5.003256000018446
 30
0.0
 11
3.190691727543382
 21
5.754061479231898
 31
0.0
  0
LINE
  5
162
330
1F
100
AcDbEntity
  8
0
  6
Continuous
 62
     7
370
    15
100
AcDbLine
 10
2.761377006856768
 20
6.714606002009732
 30
0.0
 11
3.215945583446263
 21
6.5928220565102
 31
0.0
  0
LINE
  5
163
330
1F
100
AcDbEntity
  8
0
  6
Continuous
 62
     7
370
    15
100
AcDbLine
 10
2.761377006856768
 20
6.714606002009732
 30
0.0
 11
3.43171421727562
 21
6.894196749158275
 31
0.0
  0
LINE
  5
164
330
1F
100
AcDbEntity
  8
0
  6
Continuous
 62
     7
370
    15
100
AcDbLine
 10
3.796151118299311
 20
6.991833422650486
 30
0.0
 11
4.983712592829679
 21
7.309994266448001
 31
0.0
  0
LINE
  5
165
330
1F
100
AcDbEntity
  8
0
  6
Continuous
 62
     7
370
    15
100
AcDbLine
 10
4.983712592829679
 20
7.309994266448001
 30
0.0
 11
5.438281169419174
 21
7.188210320948468
 31
0.0
  0
LINE
  5
166
330
1F
100
AcDbEntity
  8
0
  6
Continuous
 62
     7
370
    15
100
AcDbLine
 10
2.761377006856768
 20
6.006715421078085
 30
0.0
 11
3.215945583446263
 21
5.884931475578553
 31
0.0
  0
LINE
  5
167
330
1F
100
AcDbEntity
  8
0
  6
Continuous
 62
     7
370
    15
100
AcDbLine
 10
2.761377006856768
 20
6.006715421078085
 30
0.0
 11
2.761377006856768
 21
6.714606002009732
 31
0.0
  0
LINE
  5
168
330
1F
100
AcDbEntity
  8
0
  6
Continuous
 62
     7
370
    15
100
AcDbLine
 10
2.660361701768437
 20
5.896142750672342
 30
0.0
 11
3.114930278357932
 21
5.774358805172809
 31
0.0
  0
LINE
  5
169
330
1F
100
AcDbEntity
  8
0
  6
Continuous
 62
     7
370
    15
100
AcDbLine
 10
2.660361701768437
 20
5.896142750672342
 30
0.0
 11
2.761377006856768
 21
6.006715421078085
 31
0.0
  0
LINE
  5
16A
330
1F
100
AcDbEntity
  8
0
  6
Continuous
 62
     7
370
    15
100
AcDbLine
 10
2.736123150953886
 20
5.125039945517978
 30
0.0
 11
3.190691727543382
 21
5.003256000018446
 31
0.0
  0
LINE
  5
16B
330
1F
100
AcDbEntity
  8
0
  6
Continuous
 62
     7
370
    15
100
AcDbLine
 10
2.736123150953886
 20
5.125039945517978
 30
0.0
 11
2.736123150953886
 21
5.875845424731431
 31
0.0
  0
LINE
  5
16C
330
1F
100
AcDbEntity
  8
0
  6
Continuous
 62
     8
370
    15
100
AcDbLine
 10
5.602599091264288
 20
6.50786603284672
 30
0.0
 11
5.562832425576217
 21
6.31630755825112
 31
0.0
  0
LINE
  5
16D
330
1F
100
AcDbEntity
  8
0
  6
Continuous
 62
     8
370
    15
100
AcDbLine
 10
5.549038044143808
 20
6.249859149960903
 30
0.0
 11
5.524165062531392
 21
6.130044330411413
 31
0.0
  0
TEXT
  5
175
330
1F
100
AcDbEntity
  8
0
100
AcDbText
 10
3.199965492221124
 20
3.877783032718838
 30
0.0
 40
0.25
  1
USP  KHSA
100
AcDbText
  0
TEXT
  5
176
330
1F
100
AcDbEntity
  8
0
100
AcDbText
 10
2.286445970788953
 20
3.3920238410514
 30
0.0
 40
0.25
  1
SIMPSON  HSA
100
AcDbText
  0
ENDSEC
  0
SECTION
  2
OBJECTS
  0
DICTIONARY
  5
C
330
0
100
AcDbDictionary
281
     1
  3
ACAD_COLOR
350
172
  3
ACAD_GROUP
350
D
  3
ACAD_LAYOUT
350
1A
  3
ACAD_MATERIAL
350
171
  3
ACAD_MLINESTYLE
350
17
  3
ACAD_PLOTSETTINGS
350
19
  3
ACAD_PLOTSTYLENAME
350
E
  0
DICTIONARY
  5
172
102
{ACAD_REACTORS
330
C
102
}
330
C
100
AcDbDictionary
281
     1
  0
DICTIONARY
  5
D
102
{ACAD_REACTORS
330
C
102
}
330
C
100
AcDbDictionary
281
     1
  0
DICTIONARY
  5
1A
102
{ACAD_REACTORS
330
C
102
}
330
C
100
AcDbDictionary
281
     1
  3
Layout1
350
1E
  3
Layout2
350
26
  3
Model
350
22
  0
DICTIONARY
  5
171
102
{ACAD_REACTORS
330
C
102
}
330
C
100
AcDbDictionary
281
     1
  0
DICTIONARY
  5
17
102
{ACAD_REACTORS
330
C
102
}
330
C
100
AcDbDictionary
281
     1
  3
Standard
350
18
  0
DICTIONARY
  5
19
102
{ACAD_REACTORS
330
C
102
}
330
C
100
AcDbDictionary
281
     1
  0
ACDBDICTIONARYWDFLT
  5
E
102
{ACAD_REACTORS
330
C
102
}
330
C
100
AcDbDictionary
281
     1
  3
Normal
350
F
100
AcDbDictionaryWithDefault
340
F
  0
LAYOUT
  5
1E
102
{ACAD_REACTORS
330
1A
102
}
330
1A
100
AcDbPlotSettings
  1

  2
none_device
  4

  6

 40
0.0
 41
0.0
 42
0.0
 43
0.0
 44
0.0
 45
0.0
 46
0.0
 47
0.0
 48
0.0
 49
0.0
140
0.0
141
0.0
142
1.0
143
1.0
 70
   688
 72
     0
 73
     0
 74
     5
  7

 75
    16
147
1.0
 76
     0
 77
     2
 78
   300
148
0.0
149
0.0
100
AcDbLayout
  1
Layout1
 70
     1
 71
     1
 10
0.0
 20
0.0
 11
12.0
 21
9.0
 12
0.0
 22
0.0
 32
0.0
 14
1.000000000000000E+20
 24
1.000000000000000E+20
 34
1.000000000000000E+20
 15
-1.000000000000000E+20
 25
-1.000000000000000E+20
 35
-1.000000000000000E+20
146
0.0
 13
0.0
 23
0.0
 33
0.0
 16
1.0
 26
0.0
 36
0.0
 17
0.0
 27
1.0
 37
0.0
 76
     0
330
1B
  0
LAYOUT
  5
26
102
{ACAD_REACTORS
330
1A
102
}
330
1A
100
AcDbPlotSettings
  1

  2
none_device
  4

  6

 40
0.0
 41
0.0
 42
0.0
 43
0.0
 44
0.0
 45
0.0
 46
0.0
 47
0.0
 48
0.0
 49
0.0
140
0.0
141
0.0
142
1.0
143
1.0
 70
   688
 72
     0
 73
     0
 74
     5
  7

 75
    16
147
1.0
 76
     0
 77
     2
 78
   300
148
0.0
149
0.0
100
AcDbLayout
  1
Layout2
 70
     1
 71
     2
 10
0.0
 20
0.0
 11
0.0
 21
0.0
 12
0.0
 22
0.0
 32
0.0
 14
0.0
 24
0.0
 34
0.0
 15
0.0
 25
0.0
 35
0.0
146
0.0
 13
0.0
 23
0.0
 33
0.0
 16
1.0
 26
0.0
 36
0.0
 17
0.0
 27
1.0
 37
0.0
 76
     0
330
23
  0
LAYOUT
  5
22
102
{ACAD_REACTORS
330
1A
102
}
330
1A
100
AcDbPlotSettings
  1

  2
none_device
  4

  6

 40
0.0
 41
0.0
 42
0.0
 43
0.0
 44
0.0
 45
0.0
 46
0.0
 47
0.0
 48
0.0
 49
0.0
140
0.0
141
0.0
142
1.0
143
1.0
 70
  1712
 72
     0
 73
     0
 74
     0
  7

 75
     0
147
1.0
 76
     0
 77
     2
 78
   300
148
0.0
149
0.0
100
AcDbLayout
  1
Model
 70
     1
 71
     0
 10
0.0
 20
0.0
 11
8.5
 21
11.0
 12
0.0
 22
0.0
 32
0.0
 14
0.0
 24
0.0
 34
0.0
 15
8.5
 25
11.0
 35
0.0
146
0.0
 13
0.0
 23
0.0
 33
0.0
 16
1.0
 26
0.0
 36
0.0
 17
0.0
 27
1.0
 37
0.0
 76
     0
330
1F
  0
MLINESTYLE
  5
18
102
{ACAD_REACTORS
330
17
102
}
330
17
100
AcDbMlineStyle
  2
STANDARD
 70
     0
  3

 62
   256
 51
90.0
 52
90.0
 71
     2
 49
0.5
 62
   256
  6
BYLAYER
 49
-0.5
 62
   256
  6
BYLAYER
  0
ACDBPLACEHOLDER
  5
F
102
{ACAD_REACTORS
330
E
102
}
330
E
  0
ENDSEC
  0
EOF
