  0
SECTION
  2
HEADER
  9
$ACADVER
  1
AC1018
  9
$ACADMAINTVER
 70
     0
  9
$DWGCODEPAGE
  3
ANSI_1252
  9
$INSBASE
 10
0.0
 20
0.0
 30
0.0
  9
$EXTMIN
 10
0.9470138939668164
 20
2.015951829744444
 30
0.0
  9
$EXTMAX
 10
7.134198070313207
 20
9.874304632069419
 30
0.0
  9
$LIMMIN
 10
0.0
 20
0.0
  9
$LIMMAX
 10
8.5
 20
11.0
  9
$ORTHOMODE
 70
     0
  9
$REGENMODE
 70
     1
  9
$FILLMODE
 70
     1
  9
$QTEXTMODE
 70
     0
  9
$MIRRTEXT
 70
     1
  9
$LTSCALE
 40
1.0
  9
$ATTMODE
 70
     1
  9
$TEXTSIZE
 40
0.25
  9
$TRACEWID
 40
0.05
  9
$TEXTSTYLE
  7
Standard
  9
$CLAYER
  8
0
  9
$CELTYPE
  6
ByLayer
  9
$CECOLOR
 62
   256
  9
$CELTSCALE
 40
1.0
  9
$DISPSILH
 70
     0
  9
$DIMSCALE
 40
1.0
  9
$DIMASZ
 40
0.156
  9
$DIMEXO
 40
0.05
  9
$DIMDLI
 40
0.38
  9
$DIMRND
 40
0.0
  9
$DIMDLE
 40
0.0
  9
$DIMEXE
 40
0.125
  9
$DIMTP
 40
0.0
  9
$DIMTM
 40
0.0
  9
$DIMTXT
 40
0.125
  9
$DIMCEN
 40
0.09
  9
$DIMTSZ
 40
0.0
  9
$DIMTOL
 70
     0
  9
$DIMLIM
 70
     0
  9
$DIMTIH
 70
     1
  9
$DIMTOH
 70
     1
  9
$DIMSE1
 70
     0
  9
$DIMSE2
 70
     0
  9
$DIMTAD
 70
     0
  9
$DIMZIN
 70
     0
  9
$DIMBLK
  1

  9
$DIMASO
 70
     1
  9
$DIMSHO
 70
     1
  9
$DIMPOST
  1

  9
$DIMAPOST
  1

  9
$DIMALT
 70
     0
  9
$DIMALTD
 70
     2
  9
$DIMALTF
 40
25.4
  9
$DIMLFAC
 40
8.0
  9
$DIMTOFL
 70
     0
  9
$DIMTVP
 40
0.0
  9
$DIMTIX
 70
     0
  9
$DIMSOXD
 70
     0
  9
$DIMSAH
 70
     0
  9
$DIMBLK1
  1

  9
$DIMBLK2
  1

  9
$DIMSTYLE
  2
Standard
  9
$DIMCLRD
 70
     0
  9
$DIMCLRE
 70
     0
  9
$DIMCLRT
 70
     0
  9
$DIMTFAC
 40
1.0
  9
$DIMGAP
 40
0.06
  9
$DIMJUST
 70
     0
  9
$DIMSD1
 70
     0
  9
$DIMSD2
 70
     0
  9
$DIMTOLJ
 70
     1
  9
$DIMTZIN
 70
     0
  9
$DIMALTZ
 70
     0
  9
$DIMALTTZ
 70
     0
  9
$DIMUPT
 70
     0
  9
$DIMDEC
 70
     3
  9
$DIMTDEC
 70
     3
  9
$DIMALTU
 70
     2
  9
$DIMALTTD
 70
     2
  9
$DIMTXSTY
  7
Standard
  9
$DIMAUNIT
 70
     0
  9
$DIMADEC
 70
     0
  9
$DIMALTRND
 40
0.0
  9
$DIMAZIN
 70
     0
  9
$DIMDSEP
 70
    46
  9
$DIMATFIT
 70
     3
  9
$DIMFRAC
 70
     0
  9
$DIMLDRBLK
  1

  9
$DIMLUNIT
 70
     2
  9
$DIMLWD
 70
    -2
  9
$DIMLWE
 70
    -2
  9
$DIMTMOVE
 70
     0
  9
$LUNITS
 70
     2
  9
$LUPREC
 70
     3
  9
$SKETCHINC
 40
0.1
  9
$FILLETRAD
 40
0.5
  9
$AUNITS
 70
     0
  9
$AUPREC
 70
     0
  9
$MENU
  1
.
  9
$ELEVATION
 40
0.0
  9
$PELEVATION
 40
0.0
  9
$THICKNESS
 40
0.0
  9
$LIMCHECK
 70
     0
  9
$CHAMFERA
 40
0.5
  9
$CHAMFERB
 40
0.5
  9
$CHAMFERC
 40
1.0
  9
$CHAMFERD
 40
0.0
  9
$SKPOLY
 70
     0
  9
$TDCREATE
 40
2456528.555687871
  9
$TDUCREATE
 40
2456528.764021204
  9
$TDUPDATE
 40
2456528.556456401
  9
$TDUUPDATE
 40
2456528.764789734
  9
$TDINDWG
 40
0.0006656597
  9
$TDUSRTIMER
 40
0.0006656597
  9
$USRTIMER
 70
     1
  9
$ANGBASE
 50
0.0
  9
$ANGDIR
 70
     0
  9
$PDMODE
 70
     0
  9
$PDSIZE
 40
-1.0
  9
$PLINEWID
 40
0.0
  9
$SPLFRAME
 70
     0
  9
$SPLINETYPE
 70
     6
  9
$SPLINESEGS
 70
     8
  9
$HANDSEED
  5
121
  9
$SURFTAB1
 70
     6
  9
$SURFTAB2
 70
     6
  9
$SURFTYPE
 70
     6
  9
$SURFU
 70
     6
  9
$SURFV
 70
     6
  9
$UCSBASE
  2

  9
$UCSNAME
  2

  9
$UCSORG
 10
0.0
 20
0.0
 30
0.0
  9
$UCSXDIR
 10
1.0
 20
0.0
 30
0.0
  9
$UCSYDIR
 10
0.0
 20
1.0
 30
0.0
  9
$UCSORTHOREF
  2

  9
$UCSORTHOVIEW
 70
     0
  9
$UCSORGTOP
 10
0.0
 20
0.0
 30
0.0
  9
$UCSORGBOTTOM
 10
0.0
 20
0.0
 30
0.0
  9
$UCSORGLEFT
 10
0.0
 20
0.0
 30
0.0
  9
$UCSORGRIGHT
 10
0.0
 20
0.0
 30
0.0
  9
$UCSORGFRONT
 10
0.0
 20
0.0
 30
0.0
  9
$UCSORGBACK
 10
0.0
 20
0.0
 30
0.0
  9
$PUCSBASE
  2

  9
$PUCSNAME
  2

  9
$PUCSORG
 10
0.0
 20
0.0
 30
0.0
  9
$PUCSXDIR
 10
1.0
 20
0.0
 30
0.0
  9
$PUCSYDIR
 10
0.0
 20
1.0
 30
0.0
  9
$PUCSORTHOREF
  2

  9
$PUCSORTHOVIEW
 70
     0
  9
$PUCSORGTOP
 10
0.0
 20
0.0
 30
0.0
  9
$PUCSORGBOTTOM
 10
0.0
 20
0.0
 30
0.0
  9
$PUCSORGLEFT
 10
0.0
 20
0.0
 30
0.0
  9
$PUCSORGRIGHT
 10
0.0
 20
0.0
 30
0.0
  9
$PUCSORGFRONT
 10
0.0
 20
0.0
 30
0.0
  9
$PUCSORGBACK
 10
0.0
 20
0.0
 30
0.0
  9
$USERI1
 70
     0
  9
$USERI2
 70
     0
  9
$USERI3
 70
     0
  9
$USERI4
 70
     0
  9
$USERI5
 70
     0
  9
$USERR1
 40
0.0
  9
$USERR2
 40
0.0
  9
$USERR3
 40
0.0
  9
$USERR4
 40
0.0
  9
$USERR5
 40
0.0
  9
$WORLDVIEW
 70
     1
  9
$SHADEDGE
 70
     3
  9
$SHADEDIF
 70
    70
  9
$TILEMODE
 70
     1
  9
$MAXACTVP
 70
    64
  9
$PINSBASE
 10
0.0
 20
0.0
 30
0.0
  9
$PLIMCHECK
 70
     0
  9
$PEXTMIN
 10
1.000000000000000E+20
 20
1.000000000000000E+20
 30
1.000000000000000E+20
  9
$PEXTMAX
 10
-1.000000000000000E+20
 20
-1.000000000000000E+20
 30
-1.000000000000000E+20
  9
$PLIMMIN
 10
0.0
 20
0.0
  9
$PLIMMAX
 10
12.0
 20
9.0
  9
$UNITMODE
 70
     0
  9
$VISRETAIN
 70
     1
  9
$PLINEGEN
 70
     0
  9
$PSLTSCALE
 70
     1
  9
$TREEDEPTH
 70
  3020
  9
$CMLSTYLE
  2
Standard
  9
$CMLJUST
 70
     0
  9
$CMLSCALE
 40
1.0
  9
$PROXYGRAPHICS
 70
     1
  9
$MEASUREMENT
 70
     0
  9
$CELWEIGHT
370
    -1
  9
$ENDCAPS
280
     0
  9
$JOINSTYLE
280
     0
  9
$LWDISPLAY
290
     1
  9
$INSUNITS
 70
     1
  9
$HYPERLINKBASE
  1

  9
$STYLESHEET
  1

  9
$XEDIT
290
     1
  9
$CEPSNTYPE
380
     0
  9
$PSTYLEMODE
290
     1
  9
$FINGERPRINTGUID
  2
{EDEB9C9E-615B-40F7-A4C3-839060F5EA96}
  9
$VERSIONGUID
  2
{EF3138C6-7FC0-4459-92C7-7483FCCCDDED}
  9
$EXTNAMES
290
     1
  9
$PSVPSCALE
 40
0.0
  9
$OLESTARTUP
290
     0
  9
$SORTENTS
280
   127
  9
$INDEXCTL
280
     0
  9
$HIDETEXT
280
     0
  9
$XCLIPFRAME
290
     0
  9
$HALOGAP
280
     0
  9
$OBSCOLOR
 70
   257
  9
$OBSLTYPE
280
     0
  9
$INTERSECTIONDISPLAY
280
     0
  9
$INTERSECTIONCOLOR
 70
   257
  9
$DIMASSOC
280
     1
  9
$PROJECTNAME
  1

  0
ENDSEC
  0
SECTION
  2
CLASSES
  0
CLASS
  1
ACDBDICTIONARYWDFLT
  2
AcDbDictionaryWithDefault
  3
ObjectDBX Classes
 90
        0
 91
        1
280
     0
281
     0
  0
CLASS
  1
VISUALSTYLE
  2
AcDbVisualStyle
  3
ObjectDBX Classes
 90
     4095
 91
        0
280
     0
281
     0
  0
CLASS
  1
MATERIAL
  2
AcDbMaterial
  3
ObjectDBX Classes
 90
        0
 91
        0
280
     0
281
     0
  0
ENDSEC
  0
SECTION
  2
TABLES
  0
TABLE
  2
VPORT
  5
8
330
0
100
AcDbSymbolTable
 70
     3
  0
VPORT
  5
120
330
8
100
AcDbSymbolTableRecord
100
AcDbViewportTableRecord
  2
*Active
 70
     0
 10
0.0
 20
0.0
 11
1.0
 21
1.0
 12
1.354642502228774
 22
5.804374994295069
 13
0.0
 23
0.0
 14
0.5
 24
0.5
 15
0.5
 25
0.5
 16
0.0
 26
0.0
 36
1.0
 17
0.0
 27
0.0
 37
0.0
 40
10.85824758825664
 41
2.27239263803681
 42
50.0
 43
0.0
 44
0.0
 50
0.0
 51
0.0
 71
     0
 72
  2000
 73
     1
 74
     3
 75
     0
 76
     0
 77
     0
 78
     0
281
     0
 65
     1
110
0.0
120
0.0
130
0.0
111
1.0
121
0.0
131
0.0
112
0.0
122
1.0
132
0.0
 79
     0
146
0.0
  0
ENDTAB
  0
TABLE
  2
LTYPE
  5
5
330
0
100
AcDbSymbolTable
 70
     6
  0
LTYPE
  5
14
330
5
100
AcDbSymbolTableRecord
100
AcDbLinetypeTableRecord
  2
ByBlock
 70
     0
  3

 72
    65
 73
     0
 40
0.0
  0
LTYPE
  5
15
330
5
100
AcDbSymbolTableRecord
100
AcDbLinetypeTableRecord
  2
ByLayer
 70
     0
  3

 72
    65
 73
     0
 40
0.0
  0
LTYPE
  5
16
330
5
100
AcDbSymbolTableRecord
100
AcDbLinetypeTableRecord
  2
Continuous
 70
     0
  3
Solid line
 72
    65
 73
     0
 40
0.0
  0
LTYPE
  5
3F
330
5
100
AcDbSymbolTableRecord
100
AcDbLinetypeTableRecord
  2
HIDDEN
 70
     0
  3
Hidden __ __ __ __ __ __ __ __ __ __ __ __ __ __
 72
    65
 73
     2
 40
0.075
 49
0.05
 74
     0
 49
-0.025
 74
     0
  0
LTYPE
  5
40
330
5
100
AcDbSymbolTableRecord
100
AcDbLinetypeTableRecord
  2
PHANTOM
 70
     0
  3
Phantom ______  __  __  ______  __  __  ______
 72
    65
 73
     6
 40
0.5
 49
0.25
 74
     0
 49
-0.05
 74
     0
 49
0.05
 74
     0
 49
-0.05
 74
     0
 49
0.05
 74
     0
 49
-0.05
 74
     0
  0
LTYPE
  5
41
330
5
100
AcDbSymbolTableRecord
100
AcDbLinetypeTableRecord
  2
CENTER
 70
     0
  3
Center ____ _ ____ _ ____ _ ____ _ ____ _ ____
 72
    65
 73
     4
 40
0.4
 49
0.25
 74
     0
 49
-0.05
 74
     0
 49
0.05
 74
     0
 49
-0.05
 74
     0
  0
LTYPE
  5
42
330
5
100
AcDbSymbolTableRecord
100
AcDbLinetypeTableRecord
  2
CENTERX2
 70
     0
  3
Center (2x) ________  __  ________  __  _____
 72
    65
 73
     4
 40
0.8
 49
0.5
 74
     0
 49
-0.1
 74
     0
 49
0.1
 74
     0
 49
-0.1
 74
     0
  0
LTYPE
  5
43
330
5
100
AcDbSymbolTableRecord
100
AcDbLinetypeTableRecord
  2
DOT2
 70
     0
  3
Dot (.5x) ........................................
 72
    65
 73
     2
 40
0.025
 49
0.0
 74
     0
 49
-0.025
 74
     0
  0
ENDTAB
  0
TABLE
  2
LAYER
  5
2
330
0
100
AcDbSymbolTable
 70
     7
  0
LAYER
  5
10
330
2
100
AcDbSymbolTableRecord
100
AcDbLayerTableRecord
  2
0
 70
     0
 62
     7
  6
Continuous
370
    -3
390
F
  0
LAYER
  5
44
330
2
100
AcDbSymbolTableRecord
100
AcDbLayerTableRecord
  2
SLD-0
 70
     0
 62
   179
  6
Continuous
370
    -3
390
F
  0
LAYER
  5
45
330
2
100
AcDbSymbolTableRecord
100
AcDbLayerTableRecord
  2
SLD-DEFPOINTS
 70
     0
 62
   179
  6
Continuous
370
    -3
390
F
  0
LAYER
  5
46
330
2
100
AcDbSymbolTableRecord
100
AcDbLayerTableRecord
  2
OBJ
 70
     0
 62
   179
  6
Continuous
370
    -3
390
F
  0
LAYER
  5
47
330
2
100
AcDbSymbolTableRecord
100
AcDbLayerTableRecord
  2
FORMAT
 70
     0
 62
     7
  6
Continuous
370
    -3
390
F
  0
LAYER
  5
48
330
2
100
AcDbSymbolTableRecord
100
AcDbLayerTableRecord
  2
TOLERANCES
 70
     0
 62
     7
  6
Continuous
370
    -3
390
F
  0
LAYER
  5
49
330
2
100
AcDbSymbolTableRecord
100
AcDbLayerTableRecord
  2
QTY-BLANK-SIZE-1
 70
     0
 62
     7
  6
Continuous
370
    -3
390
F
  0
ENDTAB
  0
TABLE
  2
STYLE
  5
3
330
0
100
AcDbSymbolTable
 70
     2
  0
STYLE
  5
11
330
3
100
AcDbSymbolTableRecord
100
AcDbTextStyleTableRecord
  2
Standard
 70
     0
 40
0.0
 41
1.0
 50
0.0
 71
     0
 42
0.25
  3
txt
  4

  0
STYLE
  5
116
330
3
100
AcDbSymbolTableRecord
100
AcDbTextStyleTableRecord
  2
SLDTEXTSTYLE0
 70
     0
 40
0.0
 41
0.7
 50
0.0
 71
     0
 42
0.2
  3
TXT
  4

  0
ENDTAB
  0
TABLE
  2
VIEW
  5
6
330
0
100
AcDbSymbolTable
 70
     0
  0
ENDTAB
  0
TABLE
  2
UCS
  5
7
330
0
100
AcDbSymbolTable
 70
     0
  0
ENDTAB
  0
TABLE
  2
APPID
  5
9
330
0
100
AcDbSymbolTable
 70
     1
  0
APPID
  5
12
330
9
100
AcDbSymbolTableRecord
100
AcDbRegAppTableRecord
  2
ACAD
 70
     0
  0
ENDTAB
  0
TABLE
  2
DIMSTYLE
  5
A
330
0
100
AcDbSymbolTable
 70
     1
100
AcDbDimStyleTable
 71
     0
  0
DIMSTYLE
105
27
330
A
100
AcDbSymbolTableRecord
100
AcDbDimStyleTableRecord
  2
Standard
 70
     0
340
11
  0
ENDTAB
  0
TABLE
  2
BLOCK_RECORD
  5
1
330
0
100
AcDbSymbolTable
 70
     1
  0
BLOCK_RECORD
  5
1F
330
1
100
AcDbSymbolTableRecord
100
AcDbBlockTableRecord
  2
*Model_Space
340
22
  0
BLOCK_RECORD
  5
1B
330
1
100
AcDbSymbolTableRecord
100
AcDbBlockTableRecord
  2
*Paper_Space
340
1E
  0
BLOCK_RECORD
  5
23
330
1
100
AcDbSymbolTableRecord
100
AcDbBlockTableRecord
  2
*Paper_Space0
340
26
  0
ENDTAB
  0
ENDSEC
  0
SECTION
  2
BLOCKS
  0
BLOCK
  5
20
330
1F
100
AcDbEntity
  8
0
100
AcDbBlockBegin
  2
*Model_Space
 70
     0
 10
0.0
 20
0.0
 30
0.0
  3
*Model_Space
  1

  0
ENDBLK
  5
21
330
1F
100
AcDbEntity
  8
0
100
AcDbBlockEnd
  0
BLOCK
  5
1C
330
1B
100
AcDbEntity
 67
     1
  8
0
100
AcDbBlockBegin
  2
*Paper_Space
 70
     0
 10
0.0
 20
0.0
 30
0.0
  3
*Paper_Space
  1

  0
ENDBLK
  5
1D
330
1B
100
AcDbEntity
 67
     1
  8
0
100
AcDbBlockEnd
  0
BLOCK
  5
24
330
23
100
AcDbEntity
  8
0
100
AcDbBlockBegin
  2
*Paper_Space0
 70
     0
 10
0.0
 20
0.0
 30
0.0
  3
*Paper_Space0
  1

  0
ENDBLK
  5
25
330
23
100
AcDbEntity
  8
0
100
AcDbBlockEnd
  0
ENDSEC
  0
SECTION
  2
ENTITIES
  0
LINE
  5
4A
330
1F
100
AcDbEntity
  8
0
  6
Continuous
 62
     7
370
    15
100
AcDbLine
 10
4.636976409724626
 20
3.706306572517688
 30
0.0
 11
4.643021347053558
 21
3.709253361127474
 31
0.0
  0
LINE
  5
4B
330
1F
100
AcDbEntity
  8
0
  6
Continuous
 62
     7
370
    15
100
AcDbLine
 10
4.595081795859532
 20
3.68493964123903
 30
0.0
 11
4.595081795859532
 21
3.692956444604095
 31
0.0
  0
LINE
  5
4C
330
1F
100
AcDbEntity
  8
0
  6
Continuous
 62
     7
370
    15
100
AcDbLine
 10
4.386748457933326
 20
3.692956444604095
 30
0.0
 11
4.386748457933326
 21
3.68493964123903
 31
0.0
  0
LINE
  5
4D
330
1F
100
AcDbEntity
  8
0
  6
Continuous
 62
     7
370
    15
100
AcDbLine
 10
4.344853826783599
 20
5.091396037914377
 30
0.0
 11
4.338808906739301
 21
5.088449244673847
 31
0.0
  0
LINE
  5
4E
330
1F
100
AcDbEntity
  8
0
  6
Continuous
 62
     7
370
    15
100
AcDbLine
 10
4.641541747920426
 20
5.089170536424613
 30
0.0
 11
4.636976427009259
 21
5.091396037914377
 31
0.0
  0
LINE
  5
4F
330
1F
100
AcDbEntity
  8
0
  6
Continuous
 62
     7
370
    15
100
AcDbLine
 10
4.3908569114315
 20
3.677179245713542
 30
0.0
 11
4.410868540696779
 21
3.658659461688935
 31
0.0
  0
LINE
  5
50
330
1F
100
AcDbEntity
  8
0
  6
Continuous
 62
     7
370
    15
100
AcDbLine
 10
4.570961678526813
 20
3.658659452427447
 30
0.0
 11
4.590973342361358
 21
3.677179245713542
 31
0.0
  0
LINE
  5
51
330
1F
100
AcDbEntity
  8
0
  6
Continuous
 62
     7
370
    15
100
AcDbLine
 10
3.755598191558396
 20
5.249264134965802
 30
0.0
 11
3.749553271514098
 21
5.246317341725271
 31
0.0
  0
LINE
  5
52
330
1F
100
AcDbEntity
  8
0
  6
Continuous
 62
     7
370
    15
100
AcDbLine
 10
4.052286078125956
 20
5.247038642737526
 30
0.0
 11
4.047720791784056
 21
5.249264134965802
 31
0.0
  0
SPLINE
  5
53
330
1F
100
AcDbEntity
  8
0
  6
Continuous
 62
     7
370
    15
100
AcDbSpline
210
0.0
220
0.0
230
1.0
 70
     8
 71
     3
 72
     9
 73
     5
 74
     0
 42
0.0000000001
 43
0.0000000001
 40
0.0
 40
0.0
 40
0.0
 40
0.0
 40
0.4954584392885079
 40
1.0
 40
1.0
 40
1.0
 40
1.0
 10
4.540724875354594
 20
3.692352068470793
 30
0.0
 10
4.525629989264646
 20
3.689427090073184
 30
0.0
 10
4.495163486137514
 20
3.683523510346475
 30
0.0
 10
4.463668937949282
 20
3.684293796270629
 30
0.0
 10
4.447778629452488
 20
3.684682437532994
 30
0.0
  0
SPLINE
  5
54
330
1F
100
AcDbEntity
  8
0
  6
Continuous
 62
     7
370
    15
100
AcDbSpline
210
0.0
220
0.0
230
1.0
 70
     8
 71
     3
 72
    10
 73
     6
 74
     0
 42
0.0000000001
 43
0.0000000001
 40
0.0
 40
0.0
 40
0.0
 40
0.0
 40
0.0744466476250057
 40
0.5637024645511
 40
1.0
 40
1.0
 40
1.0
 40
1.0
 10
4.447778629452488
 20
3.684682437532994
 30
0.0
 10
4.445575247916904
 20
3.684858036569661
 30
0.0
 10
4.428891466422649
 20
3.686187654663952
 30
0.0
 10
4.399254224141152
 20
3.691183788231694
 30
0.0
 10
4.372708802042444
 20
3.699939741845759
 30
0.0
 10
4.360195528540276
 20
3.70406721971888
 30
0.0
  0
LINE
  5
55
330
1F
100
AcDbEntity
  8
0
  6
Continuous
 62
     7
370
    15
100
AcDbLine
 10
4.540724875354594
 20
3.692352068470793
 30
0.0
 11
4.540724875354594
 21
3.752433159215992
 31
0.0
  0
SPLINE
  5
56
330
1F
100
AcDbEntity
  8
0
  6
Continuous
 62
     7
370
    15
100
AcDbSpline
210
0.0
220
0.0
230
1.0
 70
     8
 71
     3
 72
    10
 73
     6
 74
     0
 42
0.0000000001
 43
0.0000000001
 40
0.0
 40
0.0
 40
0.0
 40
0.0
 40
0.3762052927502029
 40
0.7558655533001467
 40
1.0
 40
1.0
 40
1.0
 40
1.0
 10
4.67680761870064
 20
3.728810139381506
 30
0.0
 10
4.668433798537008
 20
3.723544495258375
 30
0.0
 10
4.651609255307039
 20
3.712964848758677
 30
0.0
 10
4.628746023365467
 20
3.702282695198607
 30
0.0
 10
4.614386235271163
 20
3.697939124564291
 30
0.0
 10
4.608766247027617
 20
3.696239181937035
 30
0.0
  0
SPLINE
  5
57
330
1F
100
AcDbEntity
  8
0
  6
Continuous
 62
     7
370
    15
100
AcDbSpline
210
0.0
220
0.0
230
1.0
 70
     8
 71
     3
 72
    10
 73
     6
 74
     0
 42
0.0000000001
 43
0.0000000001
 40
0.0
 40
0.0
 40
0.0
 40
0.0
 40
0.3838997421103416
 40
0.773399559420079
 40
1.0
 40
1.0
 40
1.0
 40
1.0
 10
4.608766247027617
 20
3.696239181937034
 30
0.0
 10
4.599926249049484
 20
3.694338085813924
 30
0.0
 10
4.582117301057023
 20
3.690508161636465
 30
0.0
 10
4.559432282693516
 20
3.690398426081767
 30
0.0
 10
4.545755257734491
 20
3.691826738152577
 30
0.0
 10
4.540724875354594
 20
3.692352068470793
 30
0.0
  0
LINE
  5
58
330
1F
100
AcDbEntity
  8
0
  6
Continuous
 62
     7
370
    15
100
AcDbLine
 10
4.67680761870064
 20
3.728810139381506
 30
0.0
 11
4.67680761870064
 21
3.788891230126705
 31
0.0
  0
ARC
  5
59
330
1F
100
AcDbEntity
  8
0
  6
Continuous
 62
     7
370
    15
100
AcDbCircle
 10
4.491309016996651
 20
4.205368201934564
 30
0.0
 40
0.5225022104165605
100
AcDbArc
 50
265.2210695675112
 51
282.9909751566789
  0
ARC
  5
5A
330
1F
100
AcDbEntity
  8
0
  6
Continuous
 62
     7
370
    15
100
AcDbCircle
 10
4.462094324451342
 20
4.018298132101799
 30
0.0
 40
0.3339227018127491
100
AcDbArc
 50
251.0969736615904
 51
267.5429033006125
  0
ARC
  5
5B
330
1F
100
AcDbEntity
  8
0
  6
Continuous
 62
     7
370
    15
100
AcDbCircle
 10
4.572614740715208
 20
3.842098496652052
 30
0.0
 40
0.1502726558552512
100
AcDbArc
 50
283.9203470815274
 51
295.3596759611425
  0
SPLINE
  5
5C
330
1F
100
AcDbEntity
  8
0
  6
Continuous
 62
     7
370
    15
100
AcDbSpline
210
0.0
220
0.0
230
1.0
 70
     8
 71
     3
 72
    10
 73
     6
 74
     0
 42
0.0000000001
 43
0.0000000001
 40
0.0
 40
0.0
 40
0.0
 40
0.0
 40
0.07009944648997
 40
0.5307896249392714
 40
1.0
 40
1.0
 40
1.0
 40
1.0
 10
4.447778629452488
 20
5.02675944434427
 30
0.0
 10
4.44998204573014
 20
5.026584127977535
 30
0.0
 10
4.466666207419869
 20
5.025256640911588
 30
0.0
 10
4.498123166026111
 20
5.019866173235293
 30
0.0
 10
4.526437828056161
 20
5.010480907456422
 30
0.0
 10
4.540724875354594
 20
5.005745278404987
 30
0.0
  0
LINE
  5
5D
330
1F
100
AcDbEntity
  8
0
  6
Continuous
 62
     7
370
    15
100
AcDbLine
 10
4.540724875354594
 20
5.005745278404987
 30
0.0
 11
4.540724875354594
 21
4.899656683677912
 31
0.0
  0
LINE
  5
5E
330
1F
100
AcDbEntity
  8
0
  6
Continuous
 62
     7
370
    15
100
AcDbLine
 10
4.354832348981117
 20
4.913001256519055
 30
0.0
 11
4.540724875354594
 21
4.899656683677912
 31
0.0
  0
LINE
  5
5F
330
1F
100
AcDbEntity
  8
0
  6
Continuous
 62
     7
370
    15
100
AcDbLine
 10
4.354832348981117
 20
5.019089851246128
 30
0.0
 11
4.354832348981117
 21
4.913001256519055
 31
0.0
  0
SPLINE
  5
60
330
1F
100
AcDbEntity
  8
0
  6
Continuous
 62
     7
370
    15
100
AcDbSpline
210
0.0
220
0.0
230
1.0
 70
     8
 71
     3
 72
     9
 73
     5
 74
     0
 42
0.0000000001
 43
0.0000000001
 40
0.0
 40
0.0
 40
0.0
 40
0.0
 40
0.4954576777389324
 40
1.0
 40
1.0
 40
1.0
 40
1.0
 10
4.354832348981117
 20
5.019089851246128
 30
0.0
 10
4.36992722692802
 20
5.022014766379694
 30
0.0
 10
4.400393760448682
 20
5.027918227492484
 30
0.0
 10
4.431888300883142
 20
5.027148037693853
 30
0.0
 10
4.447778629452488
 20
5.02675944434427
 30
0.0
  0
LWPOLYLINE
  5
61
330
1F
100
AcDbEntity
  8
0
  6
Continuous
 62
     7
370
    15
100
AcDbPolyline
 90
        9
 70
   128
 43
0.0
 10
4.329927509321301
 20
5.058333061902257
 10
4.336935217979344
 20
5.052802295589544
 10
4.346577554069769
 20
5.047563886677531
 10
4.358689553057559
 20
5.042707486372822
 10
4.373063972195976
 20
5.038316179486823
 10
4.389454885730175
 20
5.034465113735482
 10
4.4075817986398
 20
5.031220175346456
 10
4.427134590043952
 20
5.02863688694202
 10
4.447778629452488
 20
5.02675944434427
  0
LWPOLYLINE
  5
62
330
1F
100
AcDbEntity
  8
0
  6
Continuous
 62
     7
370
    15
100
AcDbPolyline
 90
        9
 70
   128
 43
0.0
 10
4.373064006765241
 20
5.101463423864286
 10
4.358689553057559
 20
5.097072126239775
 10
4.34657755406977
 20
5.092215725935066
 10
4.336935183410078
 20
5.086977326284541
 10
4.329927474752036
 20
5.081446559971828
 10
4.325674314308432
 20
5.075718042361247
 10
4.32424847038317
 20
5.069889806306299
 10
4.325674314308432
 20
5.06406157025135
 10
4.329927509321301
 20
5.058333061902257
  0
ARC
  5
63
330
1F
100
AcDbEntity
  8
0
  6
Continuous
 62
     7
370
    15
100
AcDbCircle
 10
4.490521224501276
 20
4.592334575137447
 30
0.0
 40
0.5225020407655912
100
AcDbArc
 50
85.22106665930991
 51
102.9909780648785
  0
LWPOLYLINE
  5
64
330
1F
100
AcDbEntity
  8
0
  6
Continuous
 62
     7
370
    15
100
AcDbPolyline
 90
        9
 70
   128
 43
0.0
 10
4.651902744471557
 20
5.08144655071034
 10
4.64489507038278
 20
5.086977326284541
 10
4.635252699723089
 20
5.092215725935066
 10
4.623140700735299
 20
5.097072126239775
 10
4.608766247027617
 20
5.101463423864286
 10
4.592375368062683
 20
5.105314498877117
 10
4.574248455153059
 20
5.108559437266142
 10
4.554695698318171
 20
5.111142734932066
 10
4.534051624340369
 20
5.113020168268326
  0
LWPOLYLINE
  5
65
330
1F
100
AcDbEntity
  8
0
  6
Continuous
 62
     7
370
    15
100
AcDbPolyline
 90
        9
 70
   128
 43
0.0
 10
4.608766247027617
 20
5.038316188748312
 10
4.623140683450666
 20
5.042707491003567
 10
4.635252699723088
 20
5.047563886677531
 10
4.644895018528881
 20
5.052802281697312
 10
4.65190276175619
 20
5.058333057271513
 10
4.656155939484426
 20
5.06406157025135
 10
4.657581783409688
 20
5.069889806306298
 10
4.656155939484426
 20
5.075718042361247
 10
4.651902744471557
 20
5.08144655071034
  0
ARC
  5
66
330
1F
100
AcDbEntity
  8
0
  6
Continuous
 62
     7
370
    15
100
AcDbCircle
 10
4.491309016996651
 20
5.547445208745801
 30
0.0
 40
0.522502210416522
100
AcDbArc
 50
265.2210695675108
 51
282.9909751566799
  0
SPLINE
  5
67
330
1F
100
AcDbEntity
  8
0
  6
Continuous
 62
     7
370
    15
100
AcDbSpline
210
0.0
220
0.0
230
1.0
 70
     8
 71
     3
 72
    10
 73
     6
 74
     0
 42
0.0000000001
 43
0.0000000001
 40
0.0
 40
0.0
 40
0.0
 40
0.0
 40
0.2266006232811327
 40
0.6108205926144216
 40
1.0
 40
1.0
 40
1.0
 40
1.0
 10
4.540724875354594
 20
5.005745278404987
 30
0.0
 10
4.545755277306248
 20
5.008965944158886
 30
0.0
 10
4.559315138954935
 20
5.017647513238108
 30
0.0
 10
4.581995364618254
 20
5.029711508732832
 30
0.0
 10
4.599804552307469
 20
5.03543572652506
 30
0.0
 10
4.608766247027617
 20
5.038316188748312
 30
0.0
  0
SPLINE
  5
68
330
1F
100
AcDbEntity
  8
0
  6
Continuous
 62
     7
370
    15
100
AcDbSpline
210
0.0
220
0.0
230
1.0
 70
     8
 71
     3
 72
    10
 73
     6
 74
     0
 42
0.0000000001
 43
0.0000000001
 40
0.0
 40
0.0
 40
0.0
 40
0.0
 40
0.0700999301882715
 40
0.5307893162965767
 40
1.0
 40
1.0
 40
1.0
 40
1.0
 10
4.329927509321301
 20
5.058333061902257
 30
0.0
 10
4.330517908777389
 20
5.057725601093247
 30
0.0
 10
4.334988351512453
 20
5.053125971583977
 30
0.0
 10
4.343417266096106
 20
5.041565970322267
 30
0.0
 10
4.351004146795157
 20
5.026627521278483
 30
0.0
 10
4.354832348981117
 20
5.019089851246128
 30
0.0
  0
SPLINE
  5
69
330
1F
100
AcDbEntity
  8
0
  6
Continuous
 62
     7
370
    15
100
AcDbSpline
210
0.0
220
0.0
230
1.0
 70
     8
 71
     3
 72
    10
 73
     6
 74
     0
 42
0.0000000001
 43
0.0000000001
 40
0.0
 40
0.0
 40
0.0
 40
0.0
 40
0.2441340922445711
 40
0.6200132403003761
 40
1.0
 40
1.0
 40
1.0
 40
1.0
 10
4.608766247027617
 20
5.038316188748312
 30
0.0
 10
4.614386234768676
 20
5.039627609741519
 30
0.0
 10
4.628658992734375
 20
5.042958149822675
 30
0.0
 10
4.651523221932838
 20
5.044547834950986
 30
0.0
 10
4.668349007584918
 20
5.042987670667613
 30
0.0
 10
4.67680761870064
 20
5.042203349315698
 30
0.0
  0
LINE
  5
6A
330
1F
100
AcDbEntity
  8
0
  6
Continuous
 62
     7
370
    15
100
AcDbLine
 10
4.67680761870064
 20
5.042203349315698
 30
0.0
 11
4.67680761870064
 21
4.936114754588624
 31
0.0
  0
LINE
  5
6B
330
1F
100
AcDbEntity
  8
0
  6
Continuous
 62
     7
370
    15
100
AcDbLine
 10
4.540724875354594
 20
4.899656683677912
 30
0.0
 11
4.67680761870064
 21
4.936114754588624
 31
0.0
  0
LINE
  5
6C
330
1F
100
AcDbEntity
  8
0
  6
Continuous
 62
     7
370
    15
100
AcDbLine
 10
4.305022635092218
 20
5.06889251352096
 30
0.0
 11
4.305022635092218
 21
4.962803918793887
 31
0.0
  0
SPLINE
  5
6D
330
1F
100
AcDbEntity
  8
0
  6
Continuous
 62
     7
370
    15
100
AcDbSpline
210
0.0
220
0.0
230
1.0
 70
     8
 71
     3
 72
     9
 73
     5
 74
     0
 42
0.0000000001
 43
0.0000000001
 40
0.0
 40
0.0
 40
0.0
 40
0.0
 40
0.4954578013793403
 40
1.0
 40
1.0
 40
1.0
 40
1.0
 10
4.305022635092218
 20
5.06889251352096
 30
0.0
 10
4.309067280056897
 20
5.068856949742824
 30
0.0
 10
4.317230730008473
 20
5.068785170111867
 30
0.0
 10
4.325669695246183
 20
5.061838134515796
 30
0.0
 10
4.329927509321301
 20
5.058333061902257
 30
0.0
  0
LINE
  5
6E
330
1F
100
AcDbEntity
  8
0
  6
Continuous
 62
     7
370
    15
100
AcDbLine
 10
4.305022635092218
 20
4.962803918793887
 30
0.0
 11
4.354832348981117
 21
4.913001256519055
 31
0.0
  0
SPLINE
  5
6F
330
1F
100
AcDbEntity
  8
0
  6
Continuous
 62
     7
370
    15
100
AcDbSpline
210
0.0
220
0.0
230
1.0
 70
     8
 71
     3
 72
     9
 73
     5
 74
     0
 42
0.0000000001
 43
0.0000000001
 40
0.0
 40
0.0
 40
0.0
 40
0.0
 40
0.4954582288374001
 40
1.0
 40
1.0
 40
1.0
 40
1.0
 10
4.67680761870064
 20
5.042203349315698
 30
0.0
 10
4.672762958335961
 20
5.050255958009
 30
0.0
 10
4.664599484345088
 20
5.06650880885416
 30
0.0
 10
4.656160542923262
 20
5.07643724164512
 30
0.0
 10
4.651902744471557
 20
5.08144655071034
 30
0.0
  0
LWPOLYLINE
  5
70
330
1F
100
AcDbEntity
  8
0
  6
Continuous
 62
     7
370
    15
100
AcDbPolyline
 90
        5
 70
   128
 43
0.0
 10
4.564572068336105
 20
3.665206132580659
 10
4.578684106749294
 20
3.669909607190803
 10
4.588692116530293
 20
3.675315871316497
 10
4.594128168101149
 20
3.681172141896485
 10
4.595081795859532
 20
3.68493964123903
  0
LWPOLYLINE
  5
71
330
1F
100
AcDbEntity
  8
0
  6
Continuous
 62
     7
370
    15
100
AcDbPolyline
 90
       12
 70
   128
 43
0.0
 10
4.386748457933326
 20
3.68493964123903
 10
4.388614748870463
 20
3.679680625515583
 10
4.395226259176485
 20
3.673911792646496
 10
4.40631210408685
 20
3.668658611660669
 10
4.421353882895954
 20
3.664166715750403
 10
4.439648283896979
 20
3.660646146208521
 10
4.460339856045592
 20
3.658261498204827
 10
4.482461074738676
 20
3.657124298581255
 10
4.504977592982875
 20
3.657287717542048
 10
4.526836603797057
 20
3.658744095836397
 10
4.547015963138596
 20
3.661425361525402
 10
4.564572068336105
 20
3.665206132580659
  0
SPLINE
  5
72
330
1F
100
AcDbEntity
  8
0
  6
Continuous
 62
     7
370
    15
100
AcDbSpline
210
0.0
220
0.0
230
1.0
 70
     8
 71
     3
 72
     9
 73
     5
 74
     0
 42
0.0000000001
 43
0.0000000001
 40
0.0
 40
0.0
 40
0.0
 40
0.0
 40
0.5519292632737227
 40
1.0
 40
1.0
 40
1.0
 40
1.0
 10
4.33911239032122
 20
5.088187937547291
 30
0.0
 10
4.332763656213781
 20
5.085088132642274
 30
0.0
 10
4.321260852267885
 20
5.079471824337419
 30
0.0
 10
4.310047161690603
 20
5.07216602735655
 30
0.0
 10
4.305022635092218
 20
5.06889251352096
 30
0.0
  0
SPLINE
  5
73
330
1F
100
AcDbEntity
  8
0
  6
Continuous
 62
     7
370
    15
100
AcDbSpline
210
0.0
220
0.0
230
1.0
 70
     8
 71
     3
 72
     9
 73
     5
 74
     0
 42
0.0000000001
 43
0.0000000001
 40
0.0
 40
0.0
 40
0.0
 40
0.0
 40
0.1665264490727452
 40
1.0
 40
1.0
 40
1.0
 40
1.0
 10
4.651902744471557
 20
5.08144655071034
 30
0.0
 10
4.651312090237135
 20
5.082026924178427
 30
0.0
 10
4.647765180795955
 20
5.085512097082306
 30
0.0
 10
4.644243610345194
 20
5.087258286736696
 30
0.0
 10
4.641308474516757
 20
5.088713689628534
 30
0.0
  0
LWPOLYLINE
  5
74
330
1F
100
AcDbEntity
  8
0
  6
Continuous
 62
     7
370
    15
100
AcDbPolyline
 90
       10
 70
   128
 43
0.0
 10
4.549840686962022
 20
3.649080961921141
 10
4.534026596192139
 20
3.645761672304162
 10
4.515707028765822
 20
3.643552751779194
 10
4.495946648922275
 20
3.642582583096846
 10
4.475893847661772
 20
3.6429075501978
 10
4.456714058632481
 20
3.644508768907442
 10
4.439521864093006
 20
3.647293179791481
 10
4.425316488662938
 20
3.651098956865108
 10
4.414923480971943
 20
3.655704926526584
 10
4.410868540696779
 20
3.658659461688935
  0
ARC
  5
75
330
1F
100
AcDbEntity
  8
0
  6
Continuous
 62
     7
370
    15
100
AcDbCircle
 10
4.542217657187168
 20
3.693965678340651
 30
0.0
 40
0.0455274461287717
100
AcDbArc
 50
279.6388989399524
 51
309.1502287472959
  0
SPLINE
  5
76
330
1F
100
AcDbEntity
  8
0
  6
Continuous
 62
     7
370
    15
100
AcDbSpline
210
0.0
220
0.0
230
1.0
 70
     8
 71
     3
 72
    10
 73
     6
 74
     0
 42
0.0000000001
 43
0.0000000001
 40
0.0
 40
0.0
 40
0.0
 40
0.0
 40
0.0700998385236649
 40
0.5307898984488605
 40
1.0
 40
1.0
 40
1.0
 40
1.0
 10
4.343601183520864
 20
5.975511773433744
 30
0.0
 10
4.342216836597905
 20
5.976988279898431
 30
0.0
 10
4.331734681743763
 20
5.988168258810739
 30
0.0
 10
4.314090762448301
 20
6.009815088560777
 30
0.0
 10
4.301536394450622
 20
6.030191023282981
 30
0.0
 10
4.295201696891533
 20
6.040472336047811
 30
0.0
  0
LINE
  5
77
330
1F
100
AcDbEntity
  8
0
  6
Continuous
 62
     7
370
    15
100
AcDbLine
 10
4.295201696891533
 20
6.040472336047811
 30
0.0
 11
4.373064005684954
 21
6.061332509097407
 31
0.0
  0
LINE
  5
78
330
1F
100
AcDbEntity
  8
0
  6
Continuous
 62
     7
370
    15
100
AcDbLine
 10
4.490915125816141
 20
5.937051473186558
 30
0.0
 11
4.373064005684954
 21
6.061332509097407
 31
0.0
  0
LINE
  5
79
330
1F
100
AcDbEntity
  8
0
  6
Continuous
 62
     7
370
    15
100
AcDbLine
 10
4.413052817022721
 20
5.916191300136961
 30
0.0
 11
4.490915125816141
 21
5.937051473186558
 31
0.0
  0
SPLINE
  5
7A
330
1F
100
AcDbEntity
  8
0
  6
Continuous
 62
     7
370
    15
100
AcDbSpline
210
0.0
220
0.0
230
1.0
 70
     8
 71
     3
 72
     9
 73
     5
 74
     0
 42
0.0000000001
 43
0.0000000001
 40
0.0
 40
0.0
 40
0.0
 40
0.0
 40
0.4954574779380855
 40
1.0
 40
1.0
 40
1.0
 40
1.0
 10
4.413052817022721
 20
5.916191300136961
 30
0.0
 10
4.400541049834258
 20
5.925494995514459
 30
0.0
 10
4.375288091214014
 20
5.944272985133705
 30
0.0
 10
4.354227265595257
 20
5.965035966466547
 30
0.0
 10
4.343601183520864
 20
5.975511773433744
 30
0.0
  0
LWPOLYLINE
  5
7B
330
1F
100
AcDbEntity
  8
0
  6
Continuous
 62
     7
370
    15
100
AcDbPolyline
 90
        9
 70
   128
 43
0.0
 10
4.225750063389677
 20
5.728963175674736
 10
4.239575971992231
 20
5.715969195585755
 10
4.25417353573952
 20
5.705306809858176
 10
4.269292957118962
 20
5.697158456093722
 10
4.284675658024536
 20
5.691663529111282
 10
4.300058289791578
 20
5.688916083456381
 10
4.315177780309551
 20
5.6889630985271
 10
4.32977534405684
 20
5.691803786938231
 10
4.343601183520864
 20
5.697389558116749
  0
ARC
  5
7C
330
1F
100
AcDbEntity
  8
0
  6
Continuous
 62
     7
370
    15
100
AcDbCircle
 10
4.39728770410972
 20
5.882875437169405
 30
0.0
 40
0.2304650655136307
100
AcDbArc
 50
179.7673881434365
 51
221.9000627429177
  0
LWPOLYLINE
  5
7D
330
1F
100
AcDbEntity
  8
0
  6
Continuous
 62
     7
370
    15
100
AcDbPolyline
 90
        9
 70
   128
 43
0.0
 10
4.225750063389677
 20
6.007085390991731
 10
4.212932401985013
 20
5.998850146000482
 10
4.20134229519864
 20
5.988106325850901
 10
4.191178032337532
 20
5.975037748958518
 10
4.182613565945737
 20
5.959868007235319
 10
4.17579540057049
 20
5.942856683711439
 10
4.170840172913625
 20
5.924294843263917
 10
4.167832715952708
 20
5.904500087527156
 10
4.166824537893348
 20
5.883811086530515
  0
LWPOLYLINE
  5
7E
330
1F
100
AcDbEntity
  8
0
  6
Continuous
 62
     7
370
    15
100
AcDbPolyline
 90
        9
 70
   128
 43
0.0
 10
4.343601183520864
 20
5.975511773433744
 10
4.32977534405684
 20
5.988505745303124
 10
4.315177780309551
 20
5.999168142805991
 10
4.300058289791578
 20
6.007316503318132
 10
4.284675658024536
 20
6.012811408833775
 10
4.269292957118962
 20
6.015558875955474
 10
4.25417353573952
 20
6.015511854137066
 10
4.239575971992231
 20
6.012671153950648
 10
4.225750063389677
 20
6.007085390991731
  0
ARC
  5
7F
330
1F
100
AcDbEntity
  8
0
  6
Continuous
 62
     7
370
    15
100
AcDbCircle
 10
4.17206305419596
 20
5.821599223038433
 30
0.0
 40
0.2304656221250298
100
AcDbArc
 50
359.7674577537183
 51
41.90003507903367
  0
LWPOLYLINE
  5
80
330
1F
100
AcDbEntity
  8
0
  6
Continuous
 62
     7
370
    15
100
AcDbPolyline
 90
        9
 70
   128
 43
0.0
 10
4.343601183520864
 20
5.697389558116749
 10
4.356418844925528
 20
5.705624804579909
 10
4.3680089517119
 20
5.716368636688764
 10
4.378173214573009
 20
5.729437219284802
 10
4.386737680964804
 20
5.744606955120359
 10
4.393555915478581
 20
5.761618260121261
 10
4.398511073996915
 20
5.780180107316474
 10
4.401518530957832
 20
5.799974868940878
 10
4.402526778155723
 20
5.820663851414542
  0
SPLINE
  5
81
330
1F
100
AcDbEntity
  8
0
  6
Continuous
 62
     7
370
    15
100
AcDbSpline
210
0.0
220
0.0
230
1.0
 70
     8
 71
     3
 72
    10
 73
     6
 74
     0
 42
0.0000000001
 43
0.0000000001
 40
0.0
 40
0.0
 40
0.0
 40
0.0
 40
0.2441342874518888
 40
0.6200134016096425
 40
0.9999999999999998
 40
0.9999999999999998
 40
0.9999999999999998
 40
0.9999999999999998
 10
4.402526778155723
 20
5.820663851414542
 30
0.0
 10
4.402669326963616
 20
5.828359367927249
 30
0.0
 10
4.403031349734769
 20
5.847903215782404
 30
0.0
 10
4.406360443443359
 20
5.879947974962844
 30
0.0
 10
4.410813958812821
 20
5.904066503880756
 30
0.0
 10
4.413052817022721
 20
5.916191300136961
 30
0.0
  0
LINE
  5
82
330
1F
100
AcDbEntity
  8
0
  6
Continuous
 62
     7
370
    15
100
AcDbLine
 10
4.490915125816141
 20
5.751636660031406
 30
0.0
 11
4.490915125816141
 21
5.937051473186558
 31
0.0
  0
LINE
  5
83
330
1F
100
AcDbEntity
  8
0
  6
Continuous
 62
     7
370
    15
100
AcDbLine
 10
4.413052817022721
 20
5.73077648698181
 30
0.0
 11
4.490915125816141
 21
5.751636660031406
 31
0.0
  0
SPLINE
  5
84
330
1F
100
AcDbEntity
  8
0
  6
Continuous
 62
     7
370
    15
100
AcDbSpline
210
0.0
220
0.0
230
1.0
 70
     8
 71
     3
 72
    10
 73
     6
 74
     0
 42
0.0000000001
 43
0.0000000001
 40
0.0
 40
0.0
 40
0.0
 40
0.0
 40
0.2266009814504744
 40
0.6108209164504937
 40
0.9999999999999998
 40
0.9999999999999998
 40
0.9999999999999998
 40
0.9999999999999998
 10
4.413052817022721
 20
5.73077648698181
 30
0.0
 10
4.411678172155957
 20
5.737262213433376
 30
0.0
 10
4.407972707899203
 20
5.754745003444409
 30
0.0
 10
4.403578108678484
 20
5.784469798518593
 30
0.0
 10
4.402878716531835
 20
5.808547703423662
 30
0.0
 10
4.402526778155723
 20
5.820663851414542
 30
0.0
  0
SPLINE
  5
85
330
1F
100
AcDbEntity
  8
0
  6
Continuous
 62
     7
370
    15
100
AcDbSpline
210
0.0
220
0.0
230
1.0
 70
     8
 71
     3
 72
    10
 73
     6
 74
     0
 42
0.0000000001
 43
0.0000000001
 40
0.0
 40
0.0
 40
0.0
 40
0.0
 40
0.0700997930282272
 40
0.5307894791897666
 40
1.0
 40
1.0
 40
1.0
 40
1.0
 10
4.343601183520864
 20
5.697389558116749
 30
0.0
 10
4.345010676183815
 20
5.698117564559791
 30
0.0
 10
4.355683230897184
 20
5.703629965439393
 30
0.0
 10
4.377925112996415
 20
5.714590969123188
 30
0.0
 10
4.401272271013199
 20
5.725348456795759
 30
0.0
 10
4.413052817022721
 20
5.73077648698181
 30
0.0
  0
SPLINE
  5
86
330
1F
100
AcDbEntity
  8
0
  6
Continuous
 62
     7
370
    15
100
AcDbSpline
210
0.0
220
0.0
230
1.0
 70
     8
 71
     3
 72
     9
 73
     5
 74
     0
 42
0.0000000001
 43
0.0000000001
 40
0.0
 40
0.0
 40
0.0
 40
0.0
 40
0.4954583944300227
 40
1.0
 40
1.0
 40
1.0
 40
1.0
 10
4.295201696891533
 20
6.040472336047811
 30
0.0
 10
4.282689904501285
 20
6.034719943700616
 30
0.0
 10
4.257436941728011
 20
6.023109700717825
 30
0.0
 10
4.23637612279085
 20
6.01245907486157
 30
0.0
 10
4.225750063389677
 20
6.007085390991731
 30
0.0
  0
LINE
  5
87
330
1F
100
AcDbEntity
  8
0
  6
Continuous
 62
     7
370
    15
100
AcDbLine
 10
4.373064005684954
 20
5.690502871011818
 30
0.0
 11
4.490915125816141
 21
5.751636660031406
 31
0.0
  0
LINE
  5
88
330
1F
100
AcDbEntity
  8
0
  6
Continuous
 62
     7
370
    15
100
AcDbLine
 10
4.295201696891533
 20
5.669642697962221
 30
0.0
 11
4.373064005684954
 21
5.690502871011818
 31
0.0
  0
SPLINE
  5
89
330
1F
100
AcDbEntity
  8
0
  6
Continuous
 62
     7
370
    15
100
AcDbSpline
210
0.0
220
0.0
230
1.0
 70
     8
 71
     3
 72
     9
 73
     5
 74
     0
 42
0.0000000001
 43
0.0000000001
 40
0.0
 40
0.0
 40
0.0
 40
0.0
 40
0.4954579254990944
 40
0.9999999999999998
 40
0.9999999999999998
 40
0.9999999999999998
 40
0.9999999999999998
 10
4.295201696891533
 20
5.669642697962221
 30
0.0
 10
4.301829455521625
 20
5.673818701975898
 30
0.0
 10
4.315206491772313
 20
5.68224727642946
 30
0.0
 10
4.334079138958315
 20
5.692311655448114
 30
0.0
 10
4.343601183520864
 20
5.697389558116749
 30
0.0
  0
SPLINE
  5
8A
330
1F
100
AcDbEntity
  8
0
  6
Continuous
 62
     7
370
    15
100
AcDbSpline
210
0.0
220
0.0
230
1.0
 70
     8
 71
     3
 72
    10
 73
     6
 74
     0
 42
0.0000000001
 43
0.0000000001
 40
0.0
 40
0.0
 40
0.0
 40
0.0
 40
0.0700997940850019
 40
0.5307894949774274
 40
0.9999999999999998
 40
0.9999999999999998
 40
0.9999999999999998
 40
0.9999999999999998
 10
4.225750063389677
 20
5.728963175674736
 30
0.0
 10
4.227159556056762
 20
5.727493405547751
 30
0.0
 10
4.237832110957985
 20
5.716364435004849
 30
0.0
 10
4.260073991472502
 20
5.695949424436846
 30
0.0
 10
4.283421150669496
 20
5.678465010820064
 30
0.0
 10
4.295201696891533
 20
5.669642697962221
 30
0.0
  0
SPLINE
  5
8B
330
1F
100
AcDbEntity
  8
0
  6
Continuous
 62
     7
370
    15
100
AcDbSpline
210
0.0
220
0.0
230
1.0
 70
     8
 71
     3
 72
    10
 73
     6
 74
     0
 42
0.0000000001
 43
0.0000000001
 40
0.0
 40
0.0
 40
0.0
 40
0.0
 40
0.3762051769491856
 40
0.7558653085200263
 40
0.9999999999999998
 40
0.9999999999999998
 40
0.9999999999999998
 40
0.9999999999999998
 10
4.177350576760345
 20
5.979338535252937
 30
0.0
 10
4.175132458697497
 20
5.967334826071533
 30
0.0
 10
4.17067585204603
 20
5.943217169272214
 30
0.0
 10
4.167331510121952
 20
5.911169666125765
 30
0.0
 10
4.166967141073154
 20
5.891506617419827
 30
0.0
 10
4.166824537893348
 20
5.883811086530515
 30
0.0
  0
SPLINE
  5
8C
330
1F
100
AcDbEntity
  8
0
  6
Continuous
 62
     7
370
    15
100
AcDbSpline
210
0.0
220
0.0
230
1.0
 70
     8
 71
     3
 72
    10
 73
     6
 74
     0
 42
0.0000000001
 43
0.0000000001
 40
0.0
 40
0.0
 40
0.0
 40
0.0
 40
0.0700998472562658
 40
0.5307898399975915
 40
1.0
 40
1.0
 40
1.0
 40
1.0
 10
4.225750063389677
 20
6.007085390991731
 30
0.0
 10
4.22436571649548
 20
6.006364121763419
 30
0.0
 10
4.213883564319232
 20
6.000902734994752
 30
0.0
 10
4.196239637817848
 20
5.991173617909815
 30
0.0
 10
4.183685273374574
 20
5.983307586854147
 30
0.0
 10
4.177350576760345
 20
5.979338535252937
 30
0.0
  0
SPLINE
  5
8D
330
1F
100
AcDbEntity
  8
0
  6
Continuous
 62
     7
370
    15
100
AcDbSpline
210
0.0
220
0.0
230
1.0
 70
     8
 71
     3
 72
    10
 73
     6
 74
     0
 42
0.0000000001
 43
0.0000000001
 40
0.0
 40
0.0
 40
0.0
 40
0.0
 40
0.3838999236923117
 40
0.7733995259014604
 40
0.9999999999999998
 40
0.9999999999999998
 40
0.9999999999999998
 40
0.9999999999999998
 10
4.166824537893348
 20
5.883811086530515
 30
0.0
 10
4.167167462512413
 20
5.871858322945769
 30
0.0
 10
4.167858313751073
 20
5.847778449210069
 30
0.0
 10
4.172238429083562
 20
5.818043286966391
 30
0.0
 10
4.17597593058661
 20
5.800409424322189
 30
0.0
 10
4.177350576760345
 20
5.793923722097785
 30
0.0
  0
SPLINE
  5
8E
330
1F
100
AcDbEntity
  8
0
  6
Continuous
 62
     7
370
    15
100
AcDbSpline
210
0.0
220
0.0
230
1.0
 70
     8
 71
     3
 72
     9
 73
     5
 74
     0
 42
0.0000000001
 43
0.0000000001
 40
0.0
 40
0.0
 40
0.0
 40
0.0
 40
0.4954579299425107
 40
1.0
 40
1.0
 40
1.0
 40
1.0
 10
4.177350576760345
 20
5.793923722097785
 30
0.0
 10
4.183978335347246
 20
5.783043635191185
 30
0.0
 10
4.19735537139079
 20
5.761083976763955
 30
0.0
 10
4.216228018798916
 20
5.739734755809308
 30
0.0
 10
4.225750063389677
 20
5.728963175674736
 30
0.0
  0
SPLINE
  5
8F
330
1F
100
AcDbEntity
  8
0
  6
Continuous
 62
     7
370
    15
100
AcDbSpline
210
0.0
220
0.0
230
1.0
 70
     8
 71
     3
 72
    10
 73
     6
 74
     0
 42
0.0000000001
 43
0.0000000001
 40
0.0
 40
0.0
 40
0.0
 40
0.0
 40
0.07009941688244
 40
0.5307894007524833
 40
1.0
 40
1.0
 40
1.0
 40
1.0
 10
3.858522959658019
 20
5.184627550657183
 30
0.0
 10
3.860726375932204
 20
5.184452234294581
 30
0.0
 10
3.877410537595687
 20
5.183124747259934
 30
0.0
 10
3.908867510562044
 20
5.177734276026339
 30
0.0
 10
3.937182181808918
 20
5.168349007836341
 30
0.0
 10
3.951469240129391
 20
5.163613375456411
 30
0.0
  0
LINE
  5
90
330
1F
100
AcDbEntity
  8
0
  6
Continuous
 62
     7
370
    15
100
AcDbLine
 10
3.951469240129391
 20
5.163613375456411
 30
0.0
 11
3.951469240129391
 21
5.057524780729337
 31
0.0
  0
LINE
  5
91
330
1F
100
AcDbEntity
  8
0
  6
Continuous
 62
     7
370
    15
100
AcDbLine
 10
3.765576713755914
 20
5.070869353570479
 30
0.0
 11
3.951469240129391
 21
5.057524780729337
 31
0.0
  0
LINE
  5
92
330
1F
100
AcDbEntity
  8
0
  6
Continuous
 62
     7
370
    15
100
AcDbLine
 10
3.765576713755914
 20
5.176957948297554
 30
0.0
 11
3.765576713755914
 21
5.070869353570479
 31
0.0
  0
SPLINE
  5
93
330
1F
100
AcDbEntity
  8
0
  6
Continuous
 62
     7
370
    15
100
AcDbSpline
210
0.0
220
0.0
230
1.0
 70
     8
 71
     3
 72
     9
 73
     5
 74
     0
 42
0.0000000001
 43
0.0000000001
 40
0.0
 40
0.0
 40
0.0
 40
0.0
 40
0.4954578918904702
 40
1.0
 40
1.0
 40
1.0
 40
1.0
 10
3.765576713755914
 20
5.176957948297554
 30
0.0
 10
3.780671591176259
 20
5.179882862879107
 30
0.0
 10
3.811138110465616
 20
5.185786320326106
 30
0.0
 10
3.842632642215175
 20
5.185016139376915
 30
0.0
 10
3.858522959658019
 20
5.184627550657183
 30
0.0
  0
LWPOLYLINE
  5
94
330
1F
100
AcDbEntity
  8
0
  6
Continuous
 62
     7
370
    15
100
AcDbPolyline
 90
        9
 70
   128
 43
0.0
 10
3.740671839526832
 20
5.216201168215171
 10
3.74767958275414
 20
5.210670392640969
 10
3.757321918844566
 20
5.205431983728956
 10
3.76943388326309
 20
5.200575592685735
 10
3.783808336970772
 20
5.196184276538247
 10
3.800199215935705
 20
5.192333220048394
 10
3.818326163414596
 20
5.189088272397881
 10
3.837878954818749
 20
5.186504983993445
 10
3.858522959658019
 20
5.184627550657183
  0
LWPOLYLINE
  5
95
330
1F
100
AcDbEntity
  8
0
  6
Continuous
 62
     7
370
    15
100
AcDbPolyline
 90
        9
 70
   128
 43
0.0
 10
3.783808371540038
 20
5.25933152091571
 10
3.76943388326309
 20
5.254940232552688
 10
3.757321884275301
 20
5.250083832247979
 10
3.747679548184875
 20
5.244845423335966
 10
3.740671839526832
 20
5.239314657023253
 10
3.736418644513964
 20
5.23358614867416
 10
3.734992800588701
 20
5.227757912619211
 10
3.736418644513964
 20
5.221929676564264
 10
3.740671839526832
 20
5.216201168215171
  0
ARC
  5
96
330
1F
100
AcDbEntity
  8
0
  6
Continuous
 62
     7
370
    15
100
AcDbCircle
 10
3.901265568911011
 20
4.750203242940226
 30
0.0
 40
0.5225014800443397
100
AcDbArc
 50
85.22106308190222
 51
102.9909899582119
  0
LWPOLYLINE
  5
97
330
1F
100
AcDbEntity
  8
0
  6
Continuous
 62
     7
370
    15
100
AcDbPolyline
 90
        9
 70
   128
 43
0.0
 10
4.062647074677088
 20
5.239314657023253
 10
4.055639435157576
 20
5.244845423335966
 10
4.045997064497885
 20
5.25008382298649
 10
4.03388503094083
 20
5.254940232552688
 10
4.019510611802414
 20
5.25933152091571
 10
4.003119698268215
 20
5.263182605190029
 10
3.984992819927855
 20
5.266427534317565
 10
3.965440063092968
 20
5.26901083198349
 10
3.944795954545901
 20
5.27088827458124
  0
LWPOLYLINE
  5
98
330
1F
100
AcDbEntity
  8
0
  6
Continuous
 62
     7
370
    15
100
AcDbPolyline
 90
        9
 70
   128
 43
0.0
 10
4.019510611802414
 20
5.196184285799737
 10
4.03388503094083
 20
5.200575592685735
 10
4.04599702992862
 20
5.205431992990445
 10
4.055639400588311
 20
5.210670374117993
 10
4.062647074677088
 20
5.216201168215171
 10
4.066900269689956
 20
5.221929676564264
 10
4.068326113615219
 20
5.227757912619211
 10
4.066900269689956
 20
5.233586148674159
 10
4.062647074677088
 20
5.239314657023253
  0
ARC
  5
99
330
1F
100
AcDbEntity
  8
0
  6
Continuous
 62
     7
370
    15
100
AcDbCircle
 10
3.902053324521492
 20
5.705314390363623
 30
0.0
 40
0.5225032800936535
100
AcDbArc
 50
265.221081869522
 51
282.9909545387476
  0
SPLINE
  5
9A
330
1F
100
AcDbEntity
  8
0
  6
Continuous
 62
     7
370
    15
100
AcDbSpline
210
0.0
220
0.0
230
1.0
 70
     8
 71
     3
 72
    10
 73
     6
 74
     0
 42
0.0000000001
 43
0.0000000001
 40
0.0
 40
0.0
 40
0.0
 40
0.0
 40
0.2266006232811327
 40
0.6108205926144216
 40
1.0
 40
1.0
 40
1.0
 40
1.0
 10
3.95146924012939
 20
5.163613375456411
 30
0.0
 10
3.956499642081045
 20
5.166834041210311
 30
0.0
 10
3.970059503729732
 20
5.175515610289532
 30
0.0
 10
3.992739729393051
 20
5.187579605784256
 30
0.0
 10
4.010548917082266
 20
5.193303823576484
 30
0.0
 10
4.019510611802414
 20
5.196184285799737
 30
0.0
  0
SPLINE
  5
9B
330
1F
100
AcDbEntity
  8
0
  6
Continuous
 62
     7
370
    15
100
AcDbSpline
210
0.0
220
0.0
230
1.0
 70
     8
 71
     3
 72
    10
 73
     6
 74
     0
 42
0.0000000001
 43
0.0000000001
 40
0.0
 40
0.0
 40
0.0
 40
0.0
 40
0.0700998999376213
 40
0.5307895187779231
 40
1.0
 40
1.0
 40
1.0
 40
1.0
 10
3.740671839526832
 20
5.216201168215171
 30
0.0
 10
3.741262238871776
 20
5.215593707371066
 30
0.0
 10
3.745732684399777
 20
5.210994073856529
 30
0.0
 10
3.754161637056687
 20
5.199434076124636
 30
0.0
 10
3.761748514825195
 20
5.184495618939764
 30
0.0
 10
3.765576713755914
 20
5.176957948297554
 30
0.0
  0
SPLINE
  5
9C
330
1F
100
AcDbEntity
  8
0
  6
Continuous
 62
     7
370
    15
100
AcDbSpline
210
0.0
220
0.0
230
1.0
 70
     8
 71
     3
 72
    10
 73
     6
 74
     0
 42
0.0000000001
 43
0.0000000001
 40
0.0
 40
0.0
 40
0.0
 40
0.0
 40
0.2441340922445711
 40
0.6200132403003761
 40
1.0
 40
1.0
 40
1.0
 40
1.0
 10
4.019510611802414
 20
5.196184285799737
 30
0.0
 10
4.025130599543472
 20
5.197495706792945
 30
0.0
 10
4.039403357509172
 20
5.2008262468741
 30
0.0
 10
4.062267586707635
 20
5.20241593200241
 30
0.0
 10
4.079093372359715
 20
5.200855767719038
 30
0.0
 10
4.087551983475436
 20
5.200071446367124
 30
0.0
  0
LINE
  5
9D
330
1F
100
AcDbEntity
  8
0
  6
Continuous
 62
     7
370
    15
100
AcDbLine
 10
4.087551983475436
 20
5.200071446367124
 30
0.0
 11
4.087551983475436
 21
5.093982851640049
 31
0.0
  0
LINE
  5
9E
330
1F
100
AcDbEntity
  8
0
  6
Continuous
 62
     7
370
    15
100
AcDbLine
 10
3.951469240129391
 20
5.057524780729337
 30
0.0
 11
4.087551983475436
 21
5.093982851640049
 31
0.0
  0
LINE
  5
9F
330
1F
100
AcDbEntity
  8
0
  6
Continuous
 62
     7
370
    15
100
AcDbLine
 10
3.715766999867015
 20
5.226760610572386
 30
0.0
 11
3.715766999867015
 21
5.120672015845311
 31
0.0
  0
SPLINE
  5
A0
330
1F
100
AcDbEntity
  8
0
  6
Continuous
 62
     7
370
    15
100
AcDbSpline
210
0.0
220
0.0
230
1.0
 70
     8
 71
     3
 72
     9
 73
     5
 74
     0
 42
0.0000000001
 43
0.0000000001
 40
0.0
 40
0.0
 40
0.0
 40
0.0
 40
0.4954580155310909
 40
1.0
 40
1.0
 40
1.0
 40
1.0
 10
3.715766999867015
 20
5.226760610572386
 30
0.0
 10
3.719811646742689
 20
5.226725046895286
 30
0.0
 10
3.727975097022806
 20
5.226653267499282
 30
0.0
 10
3.736414038996571
 20
5.219706236846761
 30
0.0
 10
3.740671839526832
 20
5.216201168215171
 30
0.0
  0
LINE
  5
A1
330
1F
100
AcDbEntity
  8
0
  6
Continuous
 62
     7
370
    15
100
AcDbLine
 10
3.715766999867015
 20
5.120672015845311
 30
0.0
 11
3.765576713755914
 21
5.070869353570479
 31
0.0
  0
SPLINE
  5
A2
330
1F
100
AcDbEntity
  8
0
  6
Continuous
 62
     7
370
    15
100
AcDbSpline
210
0.0
220
0.0
230
1.0
 70
     8
 71
     3
 72
     9
 73
     5
 74
     0
 42
0.0000000001
 43
0.0000000001
 40
0.0
 40
0.0
 40
0.0
 40
0.0
 40
0.495457587227712
 40
1.0
 40
1.0
 40
1.0
 40
1.0
 10
4.087551983475436
 20
5.200071446367124
 30
0.0
 10
4.083507340421747
 20
5.208124052499124
 30
0.0
 10
4.075343890798703
 20
5.224376919221902
 30
0.0
 10
4.066904902297063
 20
5.23430534508384
 30
0.0
 10
4.062647074677088
 20
5.239314657023253
 30
0.0
  0
SPLINE
  5
A3
330
1F
100
AcDbEntity
  8
0
  6
Continuous
 62
     7
370
    15
100
AcDbSpline
210
0.0
220
0.0
230
1.0
 70
     8
 71
     3
 72
     9
 73
     5
 74
     0
 42
0.0000000001
 43
0.0000000001
 40
0.0
 40
0.0
 40
0.0
 40
0.0
 40
0.5519292632737227
 40
1.0
 40
1.0
 40
1.0
 40
1.0
 10
3.749856755096017
 20
5.246056034598716
 30
0.0
 10
3.743508020988577
 20
5.2429562296937
 30
0.0
 10
3.732005217042681
 20
5.237339921388843
 30
0.0
 10
3.720791526465399
 20
5.230034124407976
 30
0.0
 10
3.715766999867015
 20
5.226760610572386
 30
0.0
  0
SPLINE
  5
A4
330
1F
100
AcDbEntity
  8
0
  6
Continuous
 62
     7
370
    15
100
AcDbSpline
210
0.0
220
0.0
230
1.0
 70
     8
 71
     3
 72
     9
 73
     5
 74
     0
 42
0.0000000001
 43
0.0000000001
 40
0.0
 40
0.0
 40
0.0
 40
0.0
 40
0.1665264490727452
 40
1.0
 40
1.0
 40
1.0
 40
1.0
 10
4.062647074677088
 20
5.239314657023253
 30
0.0
 10
4.062056420442666
 20
5.23989503049134
 30
0.0
 10
4.058509511001486
 20
5.243380203395219
 30
0.0
 10
4.054987940550725
 20
5.24512639304961
 30
0.0
 10
4.052052804722289
 20
5.246581795941447
 30
0.0
  0
SPLINE
  5
A5
330
1F
100
AcDbEntity
  8
0
  6
Continuous
 62
     7
370
    15
100
AcDbSpline
210
0.0
220
0.0
230
1.0
 70
     8
 71
     3
 72
    10
 73
     6
 74
     0
 42
0.0000000001
 43
0.0000000001
 40
0.0
 40
0.0
 40
0.0
 40
0.0
 40
0.0700998089159743
 40
0.5307896742619948
 40
1.0
 40
1.0
 40
1.0
 40
1.0
 10
4.932856853315333
 20
5.817643667120831
 30
0.0
 10
4.93147250637563
 20
5.81912017356858
 30
0.0
 10
4.920990351394705
 20
5.830300152352625
 30
0.0
 10
4.903346429834028
 20
5.851946996492993
 30
0.0
 10
4.890792042338884
 20
5.872322924855514
 30
0.0
 10
4.884457332116737
 20
5.882604238996387
 30
0.0
  0
LINE
  5
A6
330
1F
100
AcDbEntity
  8
0
  6
Continuous
 62
     7
370
    15
100
AcDbLine
 10
4.884457332116737
 20
5.882604238996387
 30
0.0
 11
4.962319640910157
 21
5.903464412045983
 31
0.0
  0
LINE
  5
A7
330
1F
100
AcDbEntity
  8
0
  6
Continuous
 62
     7
370
    15
100
AcDbLine
 10
5.080170761041345
 20
5.779183376135133
 30
0.0
 11
4.962319640910157
 21
5.903464412045983
 31
0.0
  0
LINE
  5
A8
330
1F
100
AcDbEntity
  8
0
  6
Continuous
 62
     7
370
    15
100
AcDbLine
 10
5.002308452247924
 20
5.758323203085537
 30
0.0
 11
5.080170761041345
 21
5.779183376135133
 31
0.0
  0
SPLINE
  5
A9
330
1F
100
AcDbEntity
  8
0
  6
Continuous
 62
     7
370
    15
100
AcDbSpline
210
0.0
220
0.0
230
1.0
 70
     8
 71
     3
 72
     9
 73
     5
 74
     0
 42
0.0000000001
 43
0.0000000001
 40
0.0
 40
0.0
 40
0.0
 40
0.0
 40
0.4954581195476403
 40
1.0
 40
1.0
 40
1.0
 40
1.0
 10
5.002308452247924
 20
5.758323203085537
 30
0.0
 10
4.989796671488016
 20
5.76762689717089
 30
0.0
 10
4.964543718178195
 20
5.786404859864988
 30
0.0
 10
4.943482912045411
 20
5.807167862651224
 30
0.0
 10
4.932856853315333
 20
5.817643667120831
 30
0.0
  0
LWPOLYLINE
  5
AA
330
1F
100
AcDbEntity
  8
0
  6
Continuous
 62
     7
370
    15
100
AcDbPolyline
 90
        9
 70
   128
 43
0.0
 10
4.815005733184145
 20
5.571095069361823
 10
4.828831607217435
 20
5.55810109853433
 10
4.843429170964724
 20
5.547438712806751
 10
4.858548626913432
 20
5.53929034978081
 10
4.873931293249739
 20
5.533795432059857
 10
4.889313959586046
 20
5.531047977143469
 10
4.904433415534754
 20
5.531095001475675
 10
4.919030979282044
 20
5.533935689886806
 10
4.932856853315333
 20
5.539521451803836
  0
ARC
  5
AB
330
1F
100
AcDbEntity
  8
0
  6
Continuous
 62
     7
370
    15
100
AcDbCircle
 10
4.986543516259422
 20
5.72500743653418
 30
0.0
 40
0.2304652420452576
100
AcDbArc
 50
179.7674122917652
 51
221.9000586626119
  0
LWPOLYLINE
  5
AC
330
1F
100
AcDbEntity
  8
0
  6
Continuous
 62
     7
370
    15
100
AcDbPolyline
 90
        9
 70
   128
 43
0.0
 10
4.815005733184145
 20
5.849217284678818
 10
4.802188071779482
 20
5.840982039687569
 10
4.79059796499311
 20
5.830238219537989
 10
4.780433702132
 20
5.817169642645605
 10
4.77186920117094
 20
5.801999910183893
 10
4.765051035795693
 20
5.784988586660015
 10
4.760095842708095
 20
5.766426736951004
 10
4.757088385747177
 20
5.746631981214243
 10
4.756080173118552
 20
5.725942989479091
  0
LWPOLYLINE
  5
AD
330
1F
100
AcDbEntity
  8
0
  6
Continuous
 62
     7
370
    15
100
AcDbPolyline
 90
        9
 70
   128
 43
0.0
 10
4.932856853315333
 20
5.817643667120831
 10
4.919030979282044
 20
5.830637648251699
 10
4.904433415534754
 20
5.841300045754565
 10
4.889313959586046
 20
5.84944839700522
 10
4.873931293249739
 20
5.854943311782351
 10
4.858548626913432
 20
5.857690769642562
 10
4.843429170964724
 20
5.857643757085642
 10
4.828831607217435
 20
5.854803056899224
 10
4.815005733184145
 20
5.849217284678818
  0
ARC
  5
AE
330
1F
100
AcDbEntity
  8
0
  6
Continuous
 62
     7
370
    15
100
AcDbCircle
 10
4.761319070589272
 20
5.663731300125827
 30
0.0
 40
0.2304652416668901
100
AcDbArc
 50
359.7674140769598
 51
41.90005868777338
  0
LWPOLYLINE
  5
AF
330
1F
100
AcDbEntity
  8
0
  6
Continuous
 62
     7
370
    15
100
AcDbPolyline
 90
        9
 70
   128
 43
0.0
 10
4.932856853315333
 20
5.539521451803836
 10
4.945674514719997
 20
5.547756698266996
 10
4.957264621506369
 20
5.558500530375852
 10
4.967428884367477
 20
5.571569112971889
 10
4.975993368043906
 20
5.586738844176702
 10
4.982811533419153
 20
5.603750167700582
 10
4.987766743791383
 20
5.622312001003562
 10
4.990774183467669
 20
5.642106767258709
 10
4.991782413380927
 20
5.662795754363116
  0
SPLINE
  5
B0
330
1F
100
AcDbEntity
  8
0
  6
Continuous
 62
     7
370
    15
100
AcDbSpline
210
0.0
220
0.0
230
1.0
 70
     8
 71
     3
 72
    10
 73
     6
 74
     0
 42
0.0000000001
 43
0.0000000001
 40
0.0
 40
0.0
 40
0.0
 40
0.0
 40
0.2441342874518888
 40
0.6200134016096425
 40
0.9999999999999998
 40
0.9999999999999998
 40
0.9999999999999998
 40
0.9999999999999998
 10
4.991782413380927
 20
5.662795754363116
 30
0.0
 10
4.991924962188819
 20
5.670491270875824
 30
0.0
 10
4.992286984959973
 20
5.69003511873098
 30
0.0
 10
4.995616078668563
 20
5.722079877911419
 30
0.0
 10
5.000069594038023
 20
5.746198406829332
 30
0.0
 10
5.002308452247924
 20
5.758323203085537
 30
0.0
  0
LINE
  5
B1
330
1F
100
AcDbEntity
  8
0
  6
Continuous
 62
     7
370
    15
100
AcDbLine
 10
5.080170761041345
 20
5.593768562979982
 30
0.0
 11
5.080170761041345
 21
5.779183376135133
 31
0.0
  0
LINE
  5
B2
330
1F
100
AcDbEntity
  8
0
  6
Continuous
 62
     7
370
    15
100
AcDbLine
 10
5.002308452247924
 20
5.572908389930386
 30
0.0
 11
5.080170761041345
 21
5.593768562979982
 31
0.0
  0
SPLINE
  5
B3
330
1F
100
AcDbEntity
  8
0
  6
Continuous
 62
     7
370
    15
100
AcDbSpline
210
0.0
220
0.0
230
1.0
 70
     8
 71
     3
 72
    10
 73
     6
 74
     0
 42
0.0000000001
 43
0.0000000001
 40
0.0
 40
0.0
 40
0.0
 40
0.0
 40
0.2266009814504744
 40
0.6108209164504937
 40
0.9999999999999998
 40
0.9999999999999998
 40
0.9999999999999998
 40
0.9999999999999998
 10
5.002308452247924
 20
5.572908389930386
 30
0.0
 10
5.000933807381161
 20
5.579394116381951
 30
0.0
 10
4.997228343124406
 20
5.596876906392985
 30
0.0
 10
4.992833743903687
 20
5.626601701467167
 30
0.0
 10
4.992134351757038
 20
5.650679606372237
 30
0.0
 10
4.991782413380927
 20
5.662795754363116
 30
0.0
  0
SPLINE
  5
B4
330
1F
100
AcDbEntity
  8
0
  6
Continuous
 62
     7
370
    15
100
AcDbSpline
210
0.0
220
0.0
230
1.0
 70
     8
 71
     3
 72
    10
 73
     6
 74
     0
 42
0.0000000001
 43
0.0000000001
 40
0.0
 40
0.0
 40
0.0
 40
0.0
 40
0.0700998226359162
 40
0.5307897033765887
 40
1.0
 40
1.0
 40
1.0
 40
1.0
 10
4.932856853315333
 20
5.539521451803836
 30
0.0
 10
4.934266345976326
 20
5.540249458268827
 30
0.0
 10
4.944938900674868
 20
5.545761859314629
 30
0.0
 10
4.967180773986522
 20
5.556722851569269
 30
0.0
 10
4.990527918370746
 20
5.567480354477414
 30
0.0
 10
5.002308452247924
 20
5.572908389930386
 30
0.0
  0
SPLINE
  5
B5
330
1F
100
AcDbEntity
  8
0
  6
Continuous
 62
     7
370
    15
100
AcDbSpline
210
0.0
220
0.0
230
1.0
 70
     8
 71
     3
 72
     9
 73
     5
 74
     0
 42
0.0000000001
 43
0.0000000001
 40
0.0
 40
0.0
 40
0.0
 40
0.0
 40
0.495458181123845
 40
0.9999999999999998
 40
0.9999999999999998
 40
0.9999999999999998
 40
0.9999999999999998
 10
4.884457332116737
 20
5.882604238996387
 30
0.0
 10
4.87194555197226
 20
5.876851841698679
 30
0.0
 10
4.846692603043059
 20
5.865241583725627
 30
0.0
 10
4.825631792727675
 20
5.854590966477395
 30
0.0
 10
4.815005733184145
 20
5.849217284678818
 30
0.0
  0
LINE
  5
B6
330
1F
100
AcDbEntity
  8
0
  6
Continuous
 62
     7
370
    15
100
AcDbLine
 10
4.962319640910157
 20
5.532634773960394
 30
0.0
 11
5.080170761041345
 21
5.593768562979982
 31
0.0
  0
LINE
  5
B7
330
1F
100
AcDbEntity
  8
0
  6
Continuous
 62
     7
370
    15
100
AcDbLine
 10
4.884457332116737
 20
5.511774600910797
 30
0.0
 11
4.962319640910157
 21
5.532634773960394
 31
0.0
  0
SPLINE
  5
B8
330
1F
100
AcDbEntity
  8
0
  6
Continuous
 62
     7
370
    15
100
AcDbSpline
210
0.0
220
0.0
230
1.0
 70
     8
 71
     3
 72
     9
 73
     5
 74
     0
 42
0.0000000001
 43
0.0000000001
 40
0.0
 40
0.0
 40
0.0
 40
0.0
 40
0.4954577113474438
 40
1.0
 40
1.0
 40
1.0
 40
1.0
 10
4.884457332116737
 20
5.511774600910797
 30
0.0
 10
4.891085090025227
 20
5.515950606762658
 30
0.0
 10
4.904462130601439
 20
5.524379188569375
 30
0.0
 10
4.923334795682408
 20
5.534443553890753
 30
0.0
 10
4.932856853315333
 20
5.539521451803836
 30
0.0
  0
SPLINE
  5
B9
330
1F
100
AcDbEntity
  8
0
  6
Continuous
 62
     7
370
    15
100
AcDbSpline
210
0.0
220
0.0
230
1.0
 70
     8
 71
     3
 72
    10
 73
     6
 74
     0
 42
0.0000000001
 43
0.0000000001
 40
0.0
 40
0.0
 40
0.0
 40
0.0
 40
0.0700998243356121
 40
0.5307892924960318
 40
1.0
 40
1.0
 40
1.0
 40
1.0
 10
4.815005733184145
 20
5.571095069361823
 30
0.0
 10
4.816415225872727
 20
5.569625299312564
 30
0.0
 10
4.827087772259846
 20
5.558496338406144
 30
0.0
 10
4.849329634781199
 20
5.538081312120969
 30
0.0
 10
4.872676784972061
 20
5.520596911370619
 30
0.0
 10
4.884457332116737
 20
5.511774600910797
 30
0.0
  0
SPLINE
  5
BA
330
1F
100
AcDbEntity
  8
0
  6
Continuous
 62
     7
370
    15
100
AcDbSpline
210
0.0
220
0.0
230
1.0
 70
     8
 71
     3
 72
    10
 73
     6
 74
     0
 42
0.0000000001
 43
0.0000000001
 40
0.0
 40
0.0
 40
0.0
 40
0.0
 40
0.3762051769491856
 40
0.7558653085200263
 40
0.9999999999999998
 40
0.9999999999999998
 40
0.9999999999999998
 40
0.9999999999999998
 10
4.766606211985549
 20
5.821470438201512
 30
0.0
 10
4.764388093922701
 20
5.809466729020107
 30
0.0
 10
4.759931487271233
 20
5.78534907222079
 30
0.0
 10
4.756587145347155
 20
5.75330156907434
 30
0.0
 10
4.756222776298357
 20
5.733638520368403
 30
0.0
 10
4.756080173118552
 20
5.725942989479091
 30
0.0
  0
SPLINE
  5
BB
330
1F
100
AcDbEntity
  8
0
  6
Continuous
 62
     7
370
    15
100
AcDbSpline
210
0.0
220
0.0
230
1.0
 70
     8
 71
     3
 72
    10
 73
     6
 74
     0
 42
0.0000000001
 43
0.0000000001
 40
0.0
 40
0.0
 40
0.0
 40
0.0
 40
0.0701002511137075
 40
0.530789616783892
 40
1.0
 40
1.0
 40
1.0
 40
1.0
 10
4.815005733184145
 20
5.849217284678818
 30
0.0
 10
4.813621374391518
 20
5.84849601919373
 30
0.0
 10
4.803139196919167
 20
5.843034694528745
 30
0.0
 10
4.785495310952084
 20
5.833305470837549
 30
0.0
 10
4.772940925144531
 20
5.825439475428185
 30
0.0
 10
4.766606211985549
 20
5.821470438201512
 30
0.0
  0
SPLINE
  5
BC
330
1F
100
AcDbEntity
  8
0
  6
Continuous
 62
     7
370
    15
100
AcDbSpline
210
0.0
220
0.0
230
1.0
 70
     8
 71
     3
 72
    10
 73
     6
 74
     0
 42
0.0000000001
 43
0.0000000001
 40
0.0
 40
0.0
 40
0.0
 40
0.0
 40
0.3838999236923117
 40
0.7733995259014604
 40
0.9999999999999998
 40
0.9999999999999998
 40
0.9999999999999998
 40
0.9999999999999998
 10
4.756080173118552
 20
5.725942989479091
 30
0.0
 10
4.756423097737616
 20
5.713990225894344
 30
0.0
 10
4.757113948976277
 20
5.689910352158644
 30
0.0
 10
4.761494064308766
 20
5.660175189914966
 30
0.0
 10
4.765231565811813
 20
5.642541327270765
 30
0.0
 10
4.766606211985549
 20
5.636055625046361
 30
0.0
  0
SPLINE
  5
BD
330
1F
100
AcDbEntity
  8
0
  6
Continuous
 62
     7
370
    15
100
AcDbSpline
210
0.0
220
0.0
230
1.0
 70
     8
 71
     3
 72
     9
 73
     5
 74
     0
 42
0.0000000001
 43
0.0000000001
 40
0.0
 40
0.0
 40
0.0
 40
0.0
 40
0.4954577157908629
 40
1.0
 40
1.0
 40
1.0
 40
1.0
 10
4.766606211985549
 20
5.636055625046361
 30
0.0
 10
4.773233969850849
 20
5.625175536656739
 30
0.0
 10
4.786611010219917
 20
5.603215865744653
 30
0.0
 10
4.805483675523009
 20
5.581866650956905
 30
0.0
 10
4.815005733184145
 20
5.571095069361823
 30
0.0
  0
LINE
  5
BE
330
1F
100
AcDbEntity
  8
0
  6
Continuous
 62
     7
370
    15
100
AcDbLine
 10
4.415254723674072
 20
9.704999436497347
 30
0.0
 11
4.415254723674072
 21
9.062703724153504
 31
0.0
  0
LINE
  5
BF
330
1F
100
AcDbEntity
  8
0
  6
Continuous
 62
     7
370
    15
100
AcDbLine
 10
4.415254723674072
 20
9.704999436497347
 30
0.0
 11
5.009770522047211
 21
9.545722083603969
 31
0.0
  0
LINE
  5
C0
330
1F
100
AcDbEntity
  8
0
  6
Continuous
 62
     7
370
    15
100
AcDbLine
 10
5.009770522047211
 20
9.545722083603969
 30
0.0
 11
5.063435918964869
 21
9.779583770133969
 31
0.0
  0
LINE
  5
C1
330
1F
100
AcDbEntity
  8
0
  6
Continuous
 62
     7
370
    15
100
AcDbLine
 10
5.063435918964869
 20
9.779583770133969
 30
0.0
 11
5.130607942748824
 21
9.593635508465386
 31
0.0
  0
LINE
  5
C2
330
1F
100
AcDbEntity
  8
0
  6
Continuous
 62
     7
370
    15
100
AcDbLine
 10
5.130607942748824
 20
9.593635508465386
 30
0.0
 11
5.711617103452772
 21
9.437976733077142
 31
0.0
  0
LINE
  5
C3
330
1F
100
AcDbEntity
  8
0
  6
Continuous
 62
     7
370
    15
100
AcDbLine
 10
5.711617103452772
 20
5.029571681242162
 30
0.0
 11
5.711617103452772
 21
9.437976733077142
 31
0.0
  0
LINE
  5
C4
330
1F
100
AcDbEntity
  8
0
  6
Continuous
 62
     7
370
    15
100
AcDbLine
 10
5.484161337711653
 20
9.688356370400835
 30
0.0
 11
5.130607942748824
 21
9.593635508465386
 31
0.0
  0
LINE
  5
C5
330
1F
100
AcDbEntity
  8
0
  6
Continuous
 62
     7
370
    15
100
AcDbLine
 10
5.484161337711653
 20
9.688356370400835
 30
0.0
 11
6.065170498415601
 21
9.53269759501259
 31
0.0
  0
LINE
  5
C6
330
1F
100
AcDbEntity
  8
0
  6
Continuous
 62
     7
370
    15
100
AcDbLine
 10
6.065170498415601
 20
9.53269759501259
 30
0.0
 11
5.711617103452772
 21
9.437976733077142
 31
0.0
  0
LINE
  5
C7
330
1F
100
AcDbEntity
  8
0
  6
Continuous
 62
     7
370
    15
100
AcDbLine
 10
5.711617103452772
 20
5.029571681242162
 30
0.0
 11
6.065170498415601
 21
5.124292543177612
 31
0.0
  0
LINE
  5
C8
330
1F
100
AcDbEntity
  8
0
  6
Continuous
 62
     7
370
    15
100
AcDbLine
 10
6.065170498415601
 20
5.124292543177612
 30
0.0
 11
6.065170498415601
 21
9.53269759501259
 31
0.0
  0
LINE
  5
C9
330
1F
100
AcDbEntity
  8
0
  6
Continuous
 62
     7
370
    15
100
AcDbLine
 10
5.416989313927699
 20
9.874304632069419
 30
0.0
 11
5.063435918964869
 21
9.779583770133969
 31
0.0
  0
LINE
  5
CA
330
1F
100
AcDbEntity
  8
0
  6
Continuous
 62
     7
370
    15
100
AcDbLine
 10
5.416989313927699
 20
9.874304632069419
 30
0.0
 11
5.484161337711653
 21
9.688356370400835
 31
0.0
  0
LINE
  5
CB
330
1F
100
AcDbEntity
  8
0
  6
Continuous
 62
     7
370
    15
100
AcDbLine
 10
4.768808118636902
 20
9.799720298432797
 30
0.0
 11
4.415254723674072
 21
9.704999436497347
 31
0.0
  0
LINE
  5
CC
330
1F
100
AcDbEntity
  8
0
  6
Continuous
 62
     7
370
    15
100
AcDbLine
 10
4.768808118636902
 20
9.799720298432797
 30
0.0
 11
5.050724765467245
 21
9.724191713041811
 31
0.0
  0
LINE
  5
CD
330
1F
100
AcDbEntity
  8
0
  6
Continuous
 62
     7
370
    15
100
AcDbLine
 10
5.254274369541627
 20
4.962657141853741
 30
0.0
 11
5.358063730095732
 21
4.934850825095143
 31
0.0
  0
LINE
  5
CE
330
1F
100
AcDbEntity
  8
0
  6
Continuous
 62
     7
370
    15
100
AcDbLine
 10
4.061701350317034
 20
8.967982868006485
 30
0.0
 11
4.061701350317034
 21
5.33326740205546
 31
0.0
  0
LINE
  5
CF
330
1F
100
AcDbEntity
  8
0
  6
Continuous
 62
     7
370
    15
100
AcDbLine
 10
4.061701350317034
 20
8.967982868006485
 30
0.0
 11
4.656217148690172
 21
8.808705515113107
 31
0.0
  0
LINE
  5
D0
330
1F
100
AcDbEntity
  8
0
  6
Continuous
 62
     7
370
    15
100
AcDbLine
 10
4.656217148690172
 20
8.808705515113107
 30
0.0
 11
4.709882545607831
 21
9.042567201643107
 31
0.0
  0
LINE
  5
D1
330
1F
100
AcDbEntity
  8
0
  6
Continuous
 62
     7
370
    15
100
AcDbLine
 10
4.709882545607831
 20
9.042567201643107
 30
0.0
 11
4.777054569391784
 21
8.856618939974525
 31
0.0
  0
LINE
  5
D2
330
1F
100
AcDbEntity
  8
0
  6
Continuous
 62
     7
370
    15
100
AcDbLine
 10
4.777054569391784
 20
8.856618939974525
 30
0.0
 11
5.358063730095732
 21
8.70096016458628
 31
0.0
  0
LINE
  5
D3
330
1F
100
AcDbEntity
  8
0
  6
Continuous
 62
     7
370
    15
100
AcDbLine
 10
5.358063730095732
 20
4.934850825095143
 30
0.0
 11
5.358063730095732
 21
8.70096016458628
 31
0.0
  0
LINE
  5
D4
330
1F
100
AcDbEntity
  8
0
  6
Continuous
 62
     7
370
    15
100
AcDbLine
 10
5.130607942748824
 20
8.951339796121544
 30
0.0
 11
4.777054569391784
 21
8.856618939974525
 31
0.0
  0
LINE
  5
D5
330
1F
100
AcDbEntity
  8
0
  6
Continuous
 62
     7
370
    15
100
AcDbLine
 10
5.130607942748824
 20
8.951339796121544
 30
0.0
 11
5.711617103452772
 21
8.795681020733299
 31
0.0
  0
LINE
  5
D6
330
1F
100
AcDbEntity
  8
0
  6
Continuous
 62
     7
370
    15
100
AcDbLine
 10
5.711617103452772
 20
8.795681020733299
 30
0.0
 11
5.358063730095732
 21
8.70096016458628
 31
0.0
  0
LINE
  5
D7
330
1F
100
AcDbEntity
  8
0
  6
Continuous
 62
     7
370
    15
100
AcDbLine
 10
5.358063730095732
 20
4.934850825095143
 30
0.0
 11
5.711617103452772
 21
5.029571681242162
 31
0.0
  0
LINE
  5
D8
330
1F
100
AcDbEntity
  8
0
  6
Continuous
 62
     7
370
    15
100
AcDbLine
 10
5.711617103452772
 20
5.029571681242162
 30
0.0
 11
5.711617103452772
 21
8.795681020733299
 31
0.0
  0
LINE
  5
D9
330
1F
100
AcDbEntity
  8
0
  6
Continuous
 62
     7
370
    15
100
AcDbLine
 10
5.063435918964869
 20
9.137288057790128
 30
0.0
 11
4.709882545607831
 21
9.042567201643107
 31
0.0
  0
LINE
  5
DA
330
1F
100
AcDbEntity
  8
0
  6
Continuous
 62
     7
370
    15
100
AcDbLine
 10
5.063435918964869
 20
9.137288057790128
 30
0.0
 11
5.130607942748824
 21
8.951339796121544
 31
0.0
  0
LINE
  5
DB
330
1F
100
AcDbEntity
  8
0
  6
Continuous
 62
     7
370
    15
100
AcDbLine
 10
4.415254723674072
 20
9.062703724153504
 30
0.0
 11
4.061701350317034
 21
8.967982868006485
 31
0.0
  0
LINE
  5
DC
330
1F
100
AcDbEntity
  8
0
  6
Continuous
 62
     7
370
    15
100
AcDbLine
 10
4.415254723674072
 20
9.062703724153504
 30
0.0
 11
4.697171370504416
 21
8.98717513876252
 31
0.0
  0
LINE
  5
DD
330
1F
100
AcDbEntity
  8
0
  6
Continuous
 62
     7
370
    15
100
AcDbLine
 10
2.302301660964781
 20
3.634456610642757
 30
0.0
 11
7.134198070313207
 21
4.928975060181065
 31
0.0
  0
LINE
  5
DE
330
1F
100
AcDbEntity
  8
0
  6
Continuous
 62
     7
370
    15
100
AcDbLine
 10
2.302301660964781
 20
3.634456610642757
 30
0.0
 11
1.69521897744189
 21
3.797100770955289
 31
0.0
  0
LINE
  5
DF
330
1F
100
AcDbEntity
  8
0
  6
Continuous
 62
     7
370
    15
100
AcDbLine
 10
1.69521897744189
 20
3.797100770955289
 30
0.0
 11
1.477343761710832
 21
3.760751077980491
 31
0.0
  0
LINE
  5
E0
330
1F
100
AcDbEntity
  8
0
  6
Continuous
 62
     7
370
    15
100
AcDbLine
 10
1.477343761710832
 20
3.760751077980491
 30
0.0
 11
1.521805229963274
 21
3.811986705507285
 31
0.0
  0
LINE
  5
E1
330
1F
100
AcDbEntity
  8
0
  6
Continuous
 62
     7
370
    15
100
AcDbLine
 10
1.521805229963274
 20
3.811986705507285
 30
0.0
 11
0.9470138939668164
 21
3.965979656937826
 31
0.0
  0
LINE
  5
E2
330
1F
100
AcDbEntity
  8
0
  6
Continuous
 62
     7
370
    15
100
AcDbLine
 10
1.418418374491568
 20
4.092274127169774
 30
0.0
 11
0.9470138939668164
 21
3.965979656937826
 31
0.0
  0
LINE
  5
E3
330
1F
100
AcDbEntity
  8
0
  6
Continuous
 62
     7
370
    15
100
AcDbLine
 10
2.302301660964781
 20
3.152734732182584
 30
0.0
 11
2.302301660964781
 21
3.634456610642757
 31
0.0
  0
LINE
  5
E4
330
1F
100
AcDbEntity
  8
0
  6
Continuous
 62
     7
370
    15
100
AcDbLine
 10
1.69521897744189
 20
3.315378892495117
 30
0.0
 11
1.69521897744189
 21
3.797100770955289
 31
0.0
  0
LINE
  5
E5
330
1F
100
AcDbEntity
  8
0
  6
Continuous
 62
     7
370
    15
100
AcDbLine
 10
2.302301660964781
 20
3.152734732182584
 30
0.0
 11
1.69521897744189
 21
3.315378892495117
 31
0.0
  0
LINE
  5
E6
330
1F
100
AcDbEntity
  8
0
  6
Continuous
 62
     7
370
    15
100
AcDbLine
 10
7.134198070313207
 20
4.447253181720894
 30
0.0
 11
7.134198070313207
 21
4.928975060181065
 31
0.0
  0
LINE
  5
E7
330
1F
100
AcDbEntity
  8
0
  6
Continuous
 62
     7
370
    15
100
AcDbLine
 10
2.302301660964781
 20
3.152734732182584
 30
0.0
 11
7.134198070313207
 21
4.447253181720894
 31
0.0
  0
LINE
  5
E8
330
1F
100
AcDbEntity
  8
0
  6
Continuous
 62
     7
370
    15
100
AcDbLine
 10
1.477343761710832
 20
3.279029199520318
 30
0.0
 11
1.477343761710832
 21
3.760751077980491
 31
0.0
  0
LINE
  5
E9
330
1F
100
AcDbEntity
  8
0
  6
Continuous
 62
     7
370
    15
100
AcDbLine
 10
1.69521897744189
 20
3.315378892495117
 30
0.0
 11
1.477343761710832
 21
3.279029199520318
 31
0.0
  0
LINE
  5
EA
330
1F
100
AcDbEntity
  8
0
  6
Continuous
 62
     7
370
    15
100
AcDbLine
 10
0.9470138939668164
 20
3.484257778477654
 30
0.0
 11
0.9470138939668164
 21
3.965979656937826
 31
0.0
  0
LINE
  5
EB
330
1F
100
AcDbEntity
  8
0
  6
Continuous
 62
     7
370
    15
100
AcDbLine
 10
1.477343899987894
 20
3.342176508728199
 30
0.0
 11
0.9470138939668164
 21
3.484257778477654
 31
0.0
  0
LINE
  5
EC
330
1F
100
AcDbEntity
  8
0
  6
Continuous
 62
     7
370
    15
100
AcDbLine
 10
2.773706418043657
 20
4.242472939224493
 30
0.0
 11
7.134198070313207
 21
5.410696844438948
 31
0.0
  0
LINE
  5
ED
330
1F
100
AcDbEntity
  8
0
  6
Continuous
 62
     7
370
    15
100
AcDbLine
 10
2.773706418043657
 20
4.242472939224493
 30
0.0
 11
2.166623734520766
 21
4.405117099537026
 31
0.0
  0
LINE
  5
EE
330
1F
100
AcDbEntity
  8
0
  6
Continuous
 62
     7
370
    15
100
AcDbLine
 10
2.166623734520766
 20
4.405117099537026
 30
0.0
 11
1.948748518789708
 21
4.368767406562228
 31
0.0
  0
LINE
  5
EF
330
1F
100
AcDbEntity
  8
0
  6
Continuous
 62
     7
370
    15
100
AcDbLine
 10
1.948748518789708
 20
4.368767406562228
 30
0.0
 11
1.993209710488027
 21
4.420002959997116
 31
0.0
  0
LINE
  5
F0
330
1F
100
AcDbEntity
  8
0
  6
Continuous
 62
     7
370
    15
100
AcDbLine
 10
1.993209710488027
 20
4.420002959997116
 30
0.0
 11
1.418418374491568
 21
4.573995911427656
 31
0.0
  0
LINE
  5
F1
330
1F
100
AcDbEntity
  8
0
  6
Continuous
 62
     7
370
    15
100
AcDbLine
 10
3.312403856446021
 20
5.081415554117878
 30
0.0
 11
1.418418374491568
 21
4.573995911427656
 31
0.0
  0
LINE
  5
F2
330
1F
100
AcDbEntity
  8
0
  6
Continuous
 62
     7
370
    15
100
AcDbLine
 10
6.0651705092185
 20
5.728674815932985
 30
0.0
 11
6.471552690304358
 21
5.619800538338487
 31
0.0
  0
LINE
  5
F3
330
1F
100
AcDbEntity
  8
0
  6
Continuous
 62
     7
370
    15
100
AcDbLine
 10
6.471552690304358
 20
5.619800538338487
 30
0.0
 11
6.662793600591353
 21
5.63171218297362
 31
0.0
  0
LINE
  5
F4
330
1F
100
AcDbEntity
  8
0
  6
Continuous
 62
     7
370
    15
100
AcDbLine
 10
6.662793600591353
 20
5.63171218297362
 30
0.0
 11
6.527115386790315
 21
5.57334100475148
 31
0.0
  0
LINE
  5
F5
330
1F
100
AcDbEntity
  8
0
  6
Continuous
 62
     7
370
    15
100
AcDbLine
 10
6.527115386790315
 20
5.57334100475148
 30
0.0
 11
7.134198070313207
 21
5.410696844438948
 31
0.0
  0
LINE
  5
F6
330
1F
100
AcDbEntity
  8
0
  6
Continuous
 62
     7
370
    15
100
AcDbLine
 10
2.773706418043657
 20
3.760751154966612
 30
0.0
 11
2.773706418043657
 21
4.242472939224493
 31
0.0
  0
LINE
  5
F7
330
1F
100
AcDbEntity
  8
0
  6
Continuous
 62
     7
370
    15
100
AcDbLine
 10
2.166623734520766
 20
3.923395315279144
 30
0.0
 11
2.166623734520766
 21
4.405117099537026
 31
0.0
  0
LINE
  5
F8
330
1F
100
AcDbEntity
  8
0
  6
Continuous
 62
     7
370
    15
100
AcDbLine
 10
2.773706418043657
 20
3.760751154966612
 30
0.0
 11
2.166623734520766
 21
3.923395315279144
 31
0.0
  0
LINE
  5
F9
330
1F
100
AcDbEntity
  8
0
  6
Continuous
 62
     7
370
    15
100
AcDbLine
 10
7.134198070313207
 20
4.928975060181065
 30
0.0
 11
7.134198070313207
 21
5.410696844438948
 31
0.0
  0
LINE
  5
FA
330
1F
100
AcDbEntity
  8
0
  6
Continuous
 62
     7
370
    15
100
AcDbLine
 10
2.773706418043657
 20
3.760751154966612
 30
0.0
 11
7.134198070313207
 21
4.928975060181065
 31
0.0
  0
LINE
  5
FB
330
1F
100
AcDbEntity
  8
0
  6
Continuous
 62
     7
370
    15
100
AcDbLine
 10
1.948748518789708
 20
3.887045622304346
 30
0.0
 11
1.948748518789708
 21
4.368767406562228
 31
0.0
  0
LINE
  5
FC
330
1F
100
AcDbEntity
  8
0
  6
Continuous
 62
     7
370
    15
100
AcDbLine
 10
2.166623734520766
 20
3.923395315279144
 30
0.0
 11
1.948748518789708
 21
3.887045622304346
 31
0.0
  0
LINE
  5
FD
330
1F
100
AcDbEntity
  8
0
  6
Continuous
 62
     7
370
    15
100
AcDbLine
 10
1.418418374491568
 20
4.092274127169774
 30
0.0
 11
1.418418374491568
 21
4.573995911427656
 31
0.0
  0
LINE
  5
FE
330
1F
100
AcDbEntity
  8
0
  6
Continuous
 62
     7
370
    15
100
AcDbLine
 10
1.948748380512647
 20
3.95019285742032
 30
0.0
 11
1.418418374491568
 21
4.092274127169774
 31
0.0
  0
LINE
  5
FF
330
1F
100
AcDbEntity
  8
0
  6
Continuous
 62
     7
370
    15
100
AcDbLine
 10
6.662793600591353
 20
5.53699135550555
 30
0.0
 11
6.662793600591353
 21
5.63171218297362
 31
0.0
  0
LINE
  5
100
330
1F
100
AcDbEntity
  8
0
  6
Continuous
 62
     7
370
    15
100
AcDbLine
 10
4.490915144181061
 20
4.791591244270575
 30
0.0
 11
5.196843381422289
 21
4.980717220852109
 31
0.0
  0
LINE
  5
101
330
1F
100
AcDbEntity
  8
0
  6
Continuous
 62
     7
370
    15
100
AcDbLine
 10
4.490915144181061
 20
4.791591244270575
 30
0.0
 11
3.312403856446021
 21
5.107327443004169
 31
0.0
  0
LINE
  5
102
330
1F
100
AcDbEntity
  8
0
  6
Continuous
 62
     7
370
    15
100
AcDbLine
 10
3.312403856446021
 20
5.107327443004169
 30
0.0
 11
3.71576696529775
 21
5.21539287778076
 31
0.0
  0
LINE
  5
103
330
1F
100
AcDbEntity
  8
0
  6
Continuous
 62
     7
370
    15
100
AcDbLine
 10
3.926695867386313
 20
5.271903061808346
 30
0.0
 11
4.018332093687249
 21
5.296453419585702
 31
0.0
  0
LINE
  5
104
330
1F
100
AcDbEntity
  8
0
  6
Continuous
 62
     7
370
    15
100
AcDbLine
 10
4.490915144181061
 20
4.734105756349275
 30
0.0
 11
4.490915144181061
 21
4.791591244270575
 31
0.0
  0
LINE
  5
105
330
1F
100
AcDbEntity
  8
0
  6
Continuous
 62
     7
370
    15
100
AcDbLine
 10
4.490915144181061
 20
4.734105756349275
 30
0.0
 11
3.312403856446021
 21
5.049841955082868
 31
0.0
  0
LINE
  5
106
330
1F
100
AcDbEntity
  8
0
  6
Continuous
 62
     7
370
    15
100
AcDbLine
 10
3.312403856446021
 20
5.049841955082868
 30
0.0
 11
3.312403856446021
 21
5.107327443004169
 31
0.0
  0
LINE
  5
107
330
1F
100
AcDbEntity
  8
0
  6
Continuous
 62
     7
370
    15
100
AcDbLine
 10
4.490915144181061
 20
4.734105756349275
 30
0.0
 11
5.196843381422289
 21
4.923231732930808
 31
0.0
  0
LINE
  5
108
330
1F
100
AcDbEntity
  8
0
  6
Continuous
 62
     7
370
    15
100
AcDbLine
 10
5.256947458522759
 20
6.040550394130593
 30
0.0
 11
5.299138163548402
 21
6.051853750293001
 31
0.0
  0
LINE
  5
109
330
1F
100
AcDbEntity
  8
0
  6
Continuous
 62
     7
370
    15
100
AcDbLine
 10
5.299138163548402
 20
5.090015859826609
 30
0.0
 11
5.299138163548402
 21
6.051853750293001
 31
0.0
  0
LINE
  5
10A
330
1F
100
AcDbEntity
  8
0
  6
Continuous
 62
     7
370
    15
100
AcDbLine
 10
5.256947458522759
 20
5.078712503664201
 30
0.0
 11
5.256947458522759
 21
6.040550394130593
 31
0.0
  0
LINE
  5
10B
330
1F
100
AcDbEntity
  8
0
  6
Continuous
 62
     7
370
    15
100
AcDbLine
 10
5.256947458522759
 20
6.040550394130593
 30
0.0
 11
4.078436170787719
 21
6.356286592864187
 31
0.0
  0
LINE
  5
10C
330
1F
100
AcDbEntity
  8
0
  6
Continuous
 62
     7
370
    15
100
AcDbLine
 10
4.078436170787719
 20
5.394448702397794
 30
0.0
 11
4.078436170787719
 21
6.356286592864187
 31
0.0
  0
LINE
  5
10D
330
1F
100
AcDbEntity
  8
0
  6
Continuous
 62
     7
370
    15
100
AcDbLine
 10
5.299138163548402
 20
6.051853750293001
 30
0.0
 11
4.120626875813361
 21
6.367589949026594
 31
0.0
  0
LINE
  5
10E
330
1F
100
AcDbEntity
  8
0
  6
Continuous
 62
     7
370
    15
100
AcDbLine
 10
4.078436170787719
 20
6.356286592864187
 30
0.0
 11
4.120626875813361
 21
6.367589949026594
 31
0.0
  0
ARC
  5
10F
330
1F
100
AcDbEntity
  8
0
  6
Continuous
 62
     7
370
    15
100
AcDbCircle
 10
5.156621943379196
 20
5.0728161456473
 30
0.0
 40
0.100498636939437
100
AcDbArc
 50
293.5918538040573
 51
3.363533693510624
  0
ARC
  5
110
330
1F
100
AcDbEntity
  8
0
  6
Continuous
 62
     7
370
    15
100
AcDbCircle
 10
3.978110655644158
 20
5.388552344380893
 30
0.0
 40
0.1004986369394358
100
AcDbArc
 50
293.5918538040568
 51
3.363533693511174
  0
LWPOLYLINE
  5
111
330
1F
100
AcDbEntity
  8
0
  6
Continuous
 62
     7
370
    15
100
AcDbPolyline
 90
        9
 70
   128
 43
0.0
 10
5.196843381422289
 20
4.923231732930808
 10
5.216800106051621
 20
4.931256484048837
 10
5.235989900722699
 20
4.944329051112579
 10
5.2536753176593
 20
4.961947119301361
 10
5.269176715648944
 20
4.983433572184074
 10
5.28189838441495
 20
5.007962755095669
 10
5.29135143649207
 20
5.034591948539907
 10
5.297172598323034
 20
5.062297913198124
 10
5.299138163548402
 20
5.090015859826609
  0
LINE
  5
112
330
1F
100
AcDbEntity
  8
0
  6
Continuous
 62
     8
370
    15
100
AcDbLine
 10
5.196843381422289
 20
4.980717220852109
 30
0.0
 11
4.018332093687249
 21
5.296453419585702
 31
0.0
  0
LINE
  5
113
330
1F
100
AcDbEntity
  8
0
  6
Continuous
 62
     8
370
    15
100
AcDbLine
 10
5.196843381422289
 20
4.923231732930808
 30
0.0
 11
5.196843381422289
 21
4.980717220852109
 31
0.0
  0
LINE
  5
114
330
1F
100
AcDbEntity
  8
0
  6
Continuous
 62
     8
370
    15
100
AcDbLine
 10
5.256947458522759
 20
5.078712503664201
 30
0.0
 11
5.299138163548402
 21
5.090015859826609
 31
0.0
  0
LINE
  5
115
330
1F
100
AcDbEntity
  8
0
  6
Continuous
 62
     8
370
    15
100
AcDbLine
 10
5.256947458522759
 20
5.078712503664201
 30
0.0
 11
4.078436170787719
 21
5.394448702397794
 31
0.0
  0
TEXT
  5
11D
330
1F
100
AcDbEntity
  8
0
100
AcDbText
 10
3.420123743259445
 20
2.489310456662714
 30
0.0
 40
0.25
  1
USP  KHL
100
AcDbText
  0
TEXT
  5
11E
330
1F
100
AcDbEntity
  8
0
100
AcDbText
 10
2.490934814827078
 20
2.015951829744444
 30
0.0
 40
0.25
  1
SIMPSON  HL
100
AcDbText
  0
ENDSEC
  0
SECTION
  2
OBJECTS
  0
DICTIONARY
  5
C
330
0
100
AcDbDictionary
281
     1
  3
ACAD_COLOR
350
11A
  3
ACAD_GROUP
350
D
  3
ACAD_LAYOUT
350
1A
  3
ACAD_MATERIAL
350
119
  3
ACAD_MLINESTYLE
350
17
  3
ACAD_PLOTSETTINGS
350
19
  3
ACAD_PLOTSTYLENAME
350
E
  0
DICTIONARY
  5
11A
102
{ACAD_REACTORS
330
C
102
}
330
C
100
AcDbDictionary
281
     1
  0
DICTIONARY
  5
D
102
{ACAD_REACTORS
330
C
102
}
330
C
100
AcDbDictionary
281
     1
  0
DICTIONARY
  5
1A
102
{ACAD_REACTORS
330
C
102
}
330
C
100
AcDbDictionary
281
     1
  3
Layout1
350
1E
  3
Layout2
350
26
  3
Model
350
22
  0
DICTIONARY
  5
119
102
{ACAD_REACTORS
330
C
102
}
330
C
100
AcDbDictionary
281
     1
  0
DICTIONARY
  5
17
102
{ACAD_REACTORS
330
C
102
}
330
C
100
AcDbDictionary
281
     1
  3
Standard
350
18
  0
DICTIONARY
  5
19
102
{ACAD_REACTORS
330
C
102
}
330
C
100
AcDbDictionary
281
     1
  0
ACDBDICTIONARYWDFLT
  5
E
102
{ACAD_REACTORS
330
C
102
}
330
C
100
AcDbDictionary
281
     1
  3
Normal
350
F
100
AcDbDictionaryWithDefault
340
F
  0
LAYOUT
  5
1E
102
{ACAD_REACTORS
330
1A
102
}
330
1A
100
AcDbPlotSettings
  1

  2
none_device
  4

  6

 40
0.0
 41
0.0
 42
0.0
 43
0.0
 44
0.0
 45
0.0
 46
0.0
 47
0.0
 48
0.0
 49
0.0
140
0.0
141
0.0
142
1.0
143
1.0
 70
   688
 72
     0
 73
     0
 74
     5
  7

 75
    16
147
1.0
 76
     0
 77
     2
 78
   300
148
0.0
149
0.0
100
AcDbLayout
  1
Layout1
 70
     1
 71
     1
 10
0.0
 20
0.0
 11
12.0
 21
9.0
 12
0.0
 22
0.0
 32
0.0
 14
1.000000000000000E+20
 24
1.000000000000000E+20
 34
1.000000000000000E+20
 15
-1.000000000000000E+20
 25
-1.000000000000000E+20
 35
-1.000000000000000E+20
146
0.0
 13
0.0
 23
0.0
 33
0.0
 16
1.0
 26
0.0
 36
0.0
 17
0.0
 27
1.0
 37
0.0
 76
     0
330
1B
  0
LAYOUT
  5
26
102
{ACAD_REACTORS
330
1A
102
}
330
1A
100
AcDbPlotSettings
  1

  2
none_device
  4

  6

 40
0.0
 41
0.0
 42
0.0
 43
0.0
 44
0.0
 45
0.0
 46
0.0
 47
0.0
 48
0.0
 49
0.0
140
0.0
141
0.0
142
1.0
143
1.0
 70
   688
 72
     0
 73
     0
 74
     5
  7

 75
    16
147
1.0
 76
     0
 77
     2
 78
   300
148
0.0
149
0.0
100
AcDbLayout
  1
Layout2
 70
     1
 71
     2
 10
0.0
 20
0.0
 11
0.0
 21
0.0
 12
0.0
 22
0.0
 32
0.0
 14
0.0
 24
0.0
 34
0.0
 15
0.0
 25
0.0
 35
0.0
146
0.0
 13
0.0
 23
0.0
 33
0.0
 16
1.0
 26
0.0
 36
0.0
 17
0.0
 27
1.0
 37
0.0
 76
     0
330
23
  0
LAYOUT
  5
22
102
{ACAD_REACTORS
330
1A
102
}
330
1A
100
AcDbPlotSettings
  1

  2
none_device
  4

  6

 40
0.0
 41
0.0
 42
0.0
 43
0.0
 44
0.0
 45
0.0
 46
0.0
 47
0.0
 48
0.0
 49
0.0
140
0.0
141
0.0
142
1.0
143
1.0
 70
  1712
 72
     0
 73
     0
 74
     0
  7

 75
     0
147
1.0
 76
     0
 77
     2
 78
   300
148
0.0
149
0.0
100
AcDbLayout
  1
Model
 70
     1
 71
     0
 10
0.0
 20
0.0
 11
8.5
 21
11.0
 12
0.0
 22
0.0
 32
0.0
 14
0.0
 24
0.0
 34
0.0
 15
8.5
 25
11.0
 35
0.0
146
0.0
 13
0.0
 23
0.0
 33
0.0
 16
1.0
 26
0.0
 36
0.0
 17
0.0
 27
1.0
 37
0.0
 76
     0
330
1F
  0
MLINESTYLE
  5
18
102
{ACAD_REACTORS
330
17
102
}
330
17
100
AcDbMlineStyle
  2
STANDARD
 70
     0
  3

 62
   256
 51
90.0
 52
90.0
 71
     2
 49
0.5
 62
   256
  6
BYLAYER
 49
-0.5
 62
   256
  6
BYLAYER
  0
ACDBPLACEHOLDER
  5
F
102
{ACAD_REACTORS
330
E
102
}
330
E
  0
ENDSEC
  0
EOF
