  0
SECTION
  2
HEADER
  9
$ACADVER
  1
AC1018
  9
$ACADMAINTVER
 70
     0
  9
$DWGCODEPAGE
  3
ANSI_1252
  9
$INSBASE
 10
0.0
 20
0.0
 30
0.0
  9
$EXTMIN
 10
1.814488798591703
 20
2.587475818896165
 30
0.0
  9
$EXTMAX
 10
7.589194181953098
 20
8.369924935735761
 30
0.0
  9
$LIMMIN
 10
0.0
 20
0.0
  9
$LIMMAX
 10
8.5
 20
11.0
  9
$ORTHOMODE
 70
     0
  9
$REGENMODE
 70
     1
  9
$FILLMODE
 70
     1
  9
$QTEXTMODE
 70
     0
  9
$MIRRTEXT
 70
     1
  9
$LTSCALE
 40
1.0
  9
$ATTMODE
 70
     1
  9
$TEXTSIZE
 40
0.25
  9
$TRACEWID
 40
0.05
  9
$TEXTSTYLE
  7
Standard
  9
$CLAYER
  8
0
  9
$CELTYPE
  6
ByLayer
  9
$CECOLOR
 62
   256
  9
$CELTSCALE
 40
1.0
  9
$DISPSILH
 70
     0
  9
$DIMSCALE
 40
1.0
  9
$DIMASZ
 40
0.156
  9
$DIMEXO
 40
0.05
  9
$DIMDLI
 40
0.38
  9
$DIMRND
 40
0.0
  9
$DIMDLE
 40
0.0
  9
$DIMEXE
 40
0.125
  9
$DIMTP
 40
0.0
  9
$DIMTM
 40
0.0
  9
$DIMTXT
 40
0.125
  9
$DIMCEN
 40
0.09
  9
$DIMTSZ
 40
0.0
  9
$DIMTOL
 70
     0
  9
$DIMLIM
 70
     0
  9
$DIMTIH
 70
     1
  9
$DIMTOH
 70
     1
  9
$DIMSE1
 70
     0
  9
$DIMSE2
 70
     0
  9
$DIMTAD
 70
     0
  9
$DIMZIN
 70
     0
  9
$DIMBLK
  1

  9
$DIMASO
 70
     1
  9
$DIMSHO
 70
     1
  9
$DIMPOST
  1

  9
$DIMAPOST
  1

  9
$DIMALT
 70
     0
  9
$DIMALTD
 70
     2
  9
$DIMALTF
 40
25.4
  9
$DIMLFAC
 40
8.0
  9
$DIMTOFL
 70
     0
  9
$DIMTVP
 40
0.0
  9
$DIMTIX
 70
     0
  9
$DIMSOXD
 70
     0
  9
$DIMSAH
 70
     0
  9
$DIMBLK1
  1

  9
$DIMBLK2
  1

  9
$DIMSTYLE
  2
Standard
  9
$DIMCLRD
 70
     0
  9
$DIMCLRE
 70
     0
  9
$DIMCLRT
 70
     0
  9
$DIMTFAC
 40
1.0
  9
$DIMGAP
 40
0.06
  9
$DIMJUST
 70
     0
  9
$DIMSD1
 70
     0
  9
$DIMSD2
 70
     0
  9
$DIMTOLJ
 70
     1
  9
$DIMTZIN
 70
     0
  9
$DIMALTZ
 70
     0
  9
$DIMALTTZ
 70
     0
  9
$DIMUPT
 70
     0
  9
$DIMDEC
 70
     3
  9
$DIMTDEC
 70
     3
  9
$DIMALTU
 70
     2
  9
$DIMALTTD
 70
     2
  9
$DIMTXSTY
  7
Standard
  9
$DIMAUNIT
 70
     0
  9
$DIMADEC
 70
     0
  9
$DIMALTRND
 40
0.0
  9
$DIMAZIN
 70
     0
  9
$DIMDSEP
 70
    46
  9
$DIMATFIT
 70
     3
  9
$DIMFRAC
 70
     0
  9
$DIMLDRBLK
  1

  9
$DIMLUNIT
 70
     2
  9
$DIMLWD
 70
    -2
  9
$DIMLWE
 70
    -2
  9
$DIMTMOVE
 70
     0
  9
$LUNITS
 70
     2
  9
$LUPREC
 70
     3
  9
$SKETCHINC
 40
0.1
  9
$FILLETRAD
 40
0.5
  9
$AUNITS
 70
     0
  9
$AUPREC
 70
     0
  9
$MENU
  1
.
  9
$ELEVATION
 40
0.0
  9
$PELEVATION
 40
0.0
  9
$THICKNESS
 40
0.0
  9
$LIMCHECK
 70
     0
  9
$CHAMFERA
 40
0.5
  9
$CHAMFERB
 40
0.5
  9
$CHAMFERC
 40
1.0
  9
$CHAMFERD
 40
0.0
  9
$SKPOLY
 70
     0
  9
$TDCREATE
 40
2456587.441615764
  9
$TDUCREATE
 40
2456587.649949097
  9
$TDUPDATE
 40
2456587.442322974
  9
$TDUUPDATE
 40
2456587.650656308
  9
$TDINDWG
 40
0.0006454745
  9
$TDUSRTIMER
 40
0.0006454745
  9
$USRTIMER
 70
     1
  9
$ANGBASE
 50
0.0
  9
$ANGDIR
 70
     0
  9
$PDMODE
 70
     0
  9
$PDSIZE
 40
-1.0
  9
$PLINEWID
 40
0.0
  9
$SPLFRAME
 70
     0
  9
$SPLINETYPE
 70
     6
  9
$SPLINESEGS
 70
     8
  9
$HANDSEED
  5
1B4
  9
$SURFTAB1
 70
     6
  9
$SURFTAB2
 70
     6
  9
$SURFTYPE
 70
     6
  9
$SURFU
 70
     6
  9
$SURFV
 70
     6
  9
$UCSBASE
  2

  9
$UCSNAME
  2

  9
$UCSORG
 10
0.0
 20
0.0
 30
0.0
  9
$UCSXDIR
 10
1.0
 20
0.0
 30
0.0
  9
$UCSYDIR
 10
0.0
 20
1.0
 30
0.0
  9
$UCSORTHOREF
  2

  9
$UCSORTHOVIEW
 70
     0
  9
$UCSORGTOP
 10
0.0
 20
0.0
 30
0.0
  9
$UCSORGBOTTOM
 10
0.0
 20
0.0
 30
0.0
  9
$UCSORGLEFT
 10
0.0
 20
0.0
 30
0.0
  9
$UCSORGRIGHT
 10
0.0
 20
0.0
 30
0.0
  9
$UCSORGFRONT
 10
0.0
 20
0.0
 30
0.0
  9
$UCSORGBACK
 10
0.0
 20
0.0
 30
0.0
  9
$PUCSBASE
  2

  9
$PUCSNAME
  2

  9
$PUCSORG
 10
0.0
 20
0.0
 30
0.0
  9
$PUCSXDIR
 10
1.0
 20
0.0
 30
0.0
  9
$PUCSYDIR
 10
0.0
 20
1.0
 30
0.0
  9
$PUCSORTHOREF
  2

  9
$PUCSORTHOVIEW
 70
     0
  9
$PUCSORGTOP
 10
0.0
 20
0.0
 30
0.0
  9
$PUCSORGBOTTOM
 10
0.0
 20
0.0
 30
0.0
  9
$PUCSORGLEFT
 10
0.0
 20
0.0
 30
0.0
  9
$PUCSORGRIGHT
 10
0.0
 20
0.0
 30
0.0
  9
$PUCSORGFRONT
 10
0.0
 20
0.0
 30
0.0
  9
$PUCSORGBACK
 10
0.0
 20
0.0
 30
0.0
  9
$USERI1
 70
     0
  9
$USERI2
 70
     0
  9
$USERI3
 70
     0
  9
$USERI4
 70
     0
  9
$USERI5
 70
     0
  9
$USERR1
 40
0.0
  9
$USERR2
 40
0.0
  9
$USERR3
 40
0.0
  9
$USERR4
 40
0.0
  9
$USERR5
 40
0.0
  9
$WORLDVIEW
 70
     1
  9
$SHADEDGE
 70
     3
  9
$SHADEDIF
 70
    70
  9
$TILEMODE
 70
     1
  9
$MAXACTVP
 70
    64
  9
$PINSBASE
 10
0.0
 20
0.0
 30
0.0
  9
$PLIMCHECK
 70
     0
  9
$PEXTMIN
 10
1.000000000000000E+20
 20
1.000000000000000E+20
 30
1.000000000000000E+20
  9
$PEXTMAX
 10
-1.000000000000000E+20
 20
-1.000000000000000E+20
 30
-1.000000000000000E+20
  9
$PLIMMIN
 10
0.0
 20
0.0
  9
$PLIMMAX
 10
12.0
 20
9.0
  9
$UNITMODE
 70
     0
  9
$VISRETAIN
 70
     1
  9
$PLINEGEN
 70
     0
  9
$PSLTSCALE
 70
     1
  9
$TREEDEPTH
 70
  3020
  9
$CMLSTYLE
  2
Standard
  9
$CMLJUST
 70
     0
  9
$CMLSCALE
 40
1.0
  9
$PROXYGRAPHICS
 70
     1
  9
$MEASUREMENT
 70
     0
  9
$CELWEIGHT
370
    -1
  9
$ENDCAPS
280
     0
  9
$JOINSTYLE
280
     0
  9
$LWDISPLAY
290
     1
  9
$INSUNITS
 70
     1
  9
$HYPERLINKBASE
  1

  9
$STYLESHEET
  1

  9
$XEDIT
290
     1
  9
$CEPSNTYPE
380
     0
  9
$PSTYLEMODE
290
     1
  9
$FINGERPRINTGUID
  2
{56888741-25DA-4AA4-8853-3334ECA8A238}
  9
$VERSIONGUID
  2
{41ADE5C2-5B5B-4CBA-A60D-0047A77AA779}
  9
$EXTNAMES
290
     1
  9
$PSVPSCALE
 40
0.0
  9
$OLESTARTUP
290
     0
  9
$SORTENTS
280
   127
  9
$INDEXCTL
280
     0
  9
$HIDETEXT
280
     0
  9
$XCLIPFRAME
290
     0
  9
$HALOGAP
280
     0
  9
$OBSCOLOR
 70
   257
  9
$OBSLTYPE
280
     0
  9
$INTERSECTIONDISPLAY
280
     0
  9
$INTERSECTIONCOLOR
 70
   257
  9
$DIMASSOC
280
     1
  9
$PROJECTNAME
  1

  0
ENDSEC
  0
SECTION
  2
CLASSES
  0
CLASS
  1
ACDBDICTIONARYWDFLT
  2
AcDbDictionaryWithDefault
  3
ObjectDBX Classes
 90
        0
 91
        1
280
     0
281
     0
  0
CLASS
  1
VISUALSTYLE
  2
AcDbVisualStyle
  3
ObjectDBX Classes
 90
     4095
 91
        0
280
     0
281
     0
  0
CLASS
  1
MATERIAL
  2
AcDbMaterial
  3
ObjectDBX Classes
 90
        0
 91
        0
280
     0
281
     0
  0
ENDSEC
  0
SECTION
  2
TABLES
  0
TABLE
  2
VPORT
  5
8
330
0
100
AcDbSymbolTable
 70
     3
  0
VPORT
  5
1B3
330
8
100
AcDbSymbolTableRecord
100
AcDbViewportTableRecord
  2
*Active
 70
     0
 10
0.0
 20
0.0
 11
1.0
 21
1.0
 12
7.770886865989581
 22
5.392109347174045
 13
0.0
 23
0.0
 14
0.5
 24
0.5
 15
0.5
 25
0.5
 16
0.0
 26
0.0
 36
1.0
 17
0.0
 27
0.0
 37
0.0
 40
8.626882260317835
 41
2.144329896907216
 42
50.0
 43
0.0
 44
0.0
 50
0.0
 51
0.0
 71
     0
 72
  2000
 73
     1
 74
     3
 75
     0
 76
     0
 77
     0
 78
     0
281
     0
 65
     1
110
0.0
120
0.0
130
0.0
111
1.0
121
0.0
131
0.0
112
0.0
122
1.0
132
0.0
 79
     0
146
0.0
  0
ENDTAB
  0
TABLE
  2
LTYPE
  5
5
330
0
100
AcDbSymbolTable
 70
     6
  0
LTYPE
  5
14
330
5
100
AcDbSymbolTableRecord
100
AcDbLinetypeTableRecord
  2
ByBlock
 70
     0
  3

 72
    65
 73
     0
 40
0.0
  0
LTYPE
  5
15
330
5
100
AcDbSymbolTableRecord
100
AcDbLinetypeTableRecord
  2
ByLayer
 70
     0
  3

 72
    65
 73
     0
 40
0.0
  0
LTYPE
  5
16
330
5
100
AcDbSymbolTableRecord
100
AcDbLinetypeTableRecord
  2
Continuous
 70
     0
  3
Solid line
 72
    65
 73
     0
 40
0.0
  0
LTYPE
  5
3F
330
5
100
AcDbSymbolTableRecord
100
AcDbLinetypeTableRecord
  2
HIDDEN
 70
     0
  3
Hidden __ __ __ __ __ __ __ __ __ __ __ __ __ __
 72
    65
 73
     2
 40
0.075
 49
0.05
 74
     0
 49
-0.025
 74
     0
  0
LTYPE
  5
40
330
5
100
AcDbSymbolTableRecord
100
AcDbLinetypeTableRecord
  2
PHANTOM
 70
     0
  3
Phantom ______  __  __  ______  __  __  ______
 72
    65
 73
     6
 40
0.5
 49
0.25
 74
     0
 49
-0.05
 74
     0
 49
0.05
 74
     0
 49
-0.05
 74
     0
 49
0.05
 74
     0
 49
-0.05
 74
     0
  0
LTYPE
  5
41
330
5
100
AcDbSymbolTableRecord
100
AcDbLinetypeTableRecord
  2
CENTER
 70
     0
  3
Center ____ _ ____ _ ____ _ ____ _ ____ _ ____
 72
    65
 73
     4
 40
0.4
 49
0.25
 74
     0
 49
-0.05
 74
     0
 49
0.05
 74
     0
 49
-0.05
 74
     0
  0
LTYPE
  5
42
330
5
100
AcDbSymbolTableRecord
100
AcDbLinetypeTableRecord
  2
CENTERX2
 70
     0
  3
Center (2x) ________  __  ________  __  _____
 72
    65
 73
     4
 40
0.8
 49
0.5
 74
     0
 49
-0.1
 74
     0
 49
0.1
 74
     0
 49
-0.1
 74
     0
  0
LTYPE
  5
43
330
5
100
AcDbSymbolTableRecord
100
AcDbLinetypeTableRecord
  2
DOT2
 70
     0
  3
Dot (.5x) ........................................
 72
    65
 73
     2
 40
0.025
 49
0.0
 74
     0
 49
-0.025
 74
     0
  0
ENDTAB
  0
TABLE
  2
LAYER
  5
2
330
0
100
AcDbSymbolTable
 70
     8
  0
LAYER
  5
10
330
2
100
AcDbSymbolTableRecord
100
AcDbLayerTableRecord
  2
0
 70
     0
 62
     7
  6
Continuous
370
    -3
390
F
  0
LAYER
  5
44
330
2
100
AcDbSymbolTableRecord
100
AcDbLayerTableRecord
  2
SLD-0
 70
     0
 62
   179
  6
Continuous
370
    -3
390
F
  0
LAYER
  5
45
330
2
100
AcDbSymbolTableRecord
100
AcDbLayerTableRecord
  2
SLD-DEFPOINTS
 70
     0
 62
   179
  6
Continuous
370
    -3
390
F
  0
LAYER
  5
46
330
2
100
AcDbSymbolTableRecord
100
AcDbLayerTableRecord
  2
OBJ
 70
     0
 62
   179
  6
Continuous
370
    -3
390
F
  0
LAYER
  5
47
330
2
100
AcDbSymbolTableRecord
100
AcDbLayerTableRecord
  2
FORMAT
 70
     0
 62
     7
  6
Continuous
370
    -3
390
F
  0
LAYER
  5
48
330
2
100
AcDbSymbolTableRecord
100
AcDbLayerTableRecord
  2
BLANK-SIZE-1
 70
     0
 62
     7
  6
Continuous
370
    -3
390
F
  0
LAYER
  5
49
330
2
100
AcDbSymbolTableRecord
100
AcDbLayerTableRecord
  2
TOLERANCES
 70
     0
 62
     7
  6
Continuous
370
    -3
390
F
  0
LAYER
  5
4A
330
2
100
AcDbSymbolTableRecord
100
AcDbLayerTableRecord
  2
QTY-BLANK-SIZE-1
 70
     0
 62
     7
  6
Continuous
370
    -3
390
F
  0
ENDTAB
  0
TABLE
  2
STYLE
  5
3
330
0
100
AcDbSymbolTable
 70
     2
  0
STYLE
  5
11
330
3
100
AcDbSymbolTableRecord
100
AcDbTextStyleTableRecord
  2
Standard
 70
     0
 40
0.0
 41
1.0
 50
0.0
 71
     0
 42
0.25
  3
txt
  4

  0
STYLE
  5
1A9
330
3
100
AcDbSymbolTableRecord
100
AcDbTextStyleTableRecord
  2
SLDTEXTSTYLE0
 70
     0
 40
0.0
 41
0.7
 50
0.0
 71
     0
 42
0.2
  3
TXT
  4

  0
ENDTAB
  0
TABLE
  2
VIEW
  5
6
330
0
100
AcDbSymbolTable
 70
     0
  0
ENDTAB
  0
TABLE
  2
UCS
  5
7
330
0
100
AcDbSymbolTable
 70
     0
  0
ENDTAB
  0
TABLE
  2
APPID
  5
9
330
0
100
AcDbSymbolTable
 70
     1
  0
APPID
  5
12
330
9
100
AcDbSymbolTableRecord
100
AcDbRegAppTableRecord
  2
ACAD
 70
     0
  0
ENDTAB
  0
TABLE
  2
DIMSTYLE
  5
A
330
0
100
AcDbSymbolTable
 70
     1
100
AcDbDimStyleTable
 71
     0
  0
DIMSTYLE
105
27
330
A
100
AcDbSymbolTableRecord
100
AcDbDimStyleTableRecord
  2
Standard
 70
     0
340
11
  0
ENDTAB
  0
TABLE
  2
BLOCK_RECORD
  5
1
330
0
100
AcDbSymbolTable
 70
     1
  0
BLOCK_RECORD
  5
1F
330
1
100
AcDbSymbolTableRecord
100
AcDbBlockTableRecord
  2
*Model_Space
340
22
  0
BLOCK_RECORD
  5
1B
330
1
100
AcDbSymbolTableRecord
100
AcDbBlockTableRecord
  2
*Paper_Space
340
1E
  0
BLOCK_RECORD
  5
23
330
1
100
AcDbSymbolTableRecord
100
AcDbBlockTableRecord
  2
*Paper_Space0
340
26
  0
ENDTAB
  0
ENDSEC
  0
SECTION
  2
BLOCKS
  0
BLOCK
  5
20
330
1F
100
AcDbEntity
  8
0
100
AcDbBlockBegin
  2
*Model_Space
 70
     0
 10
0.0
 20
0.0
 30
0.0
  3
*Model_Space
  1

  0
ENDBLK
  5
21
330
1F
100
AcDbEntity
  8
0
100
AcDbBlockEnd
  0
BLOCK
  5
1C
330
1B
100
AcDbEntity
 67
     1
  8
0
100
AcDbBlockBegin
  2
*Paper_Space
 70
     0
 10
0.0
 20
0.0
 30
0.0
  3
*Paper_Space
  1

  0
ENDBLK
  5
1D
330
1B
100
AcDbEntity
 67
     1
  8
0
100
AcDbBlockEnd
  0
BLOCK
  5
24
330
23
100
AcDbEntity
  8
0
100
AcDbBlockBegin
  2
*Paper_Space0
 70
     0
 10
0.0
 20
0.0
 30
0.0
  3
*Paper_Space0
  1

  0
ENDBLK
  5
25
330
23
100
AcDbEntity
  8
0
100
AcDbBlockEnd
  0
ENDSEC
  0
SECTION
  2
ENTITIES
  0
SPLINE
  5
4B
330
1F
100
AcDbEntity
  8
0
  6
Continuous
 62
     7
370
    15
100
AcDbSpline
210
0.0
220
0.0
230
1.0
 70
     8
 71
     3
 72
    20
 73
    16
 74
     0
 42
0.0000000001
 43
0.0000000001
 40
0.0
 40
0.0
 40
0.0
 40
0.0
 40
0.0754378873097893
 40
0.1522210615300906
 40
0.2292672722942781
 40
0.3065244709091317
 40
0.3839298112951702
 40
0.4614251668858966
 40
0.5389658337645188
 40
0.6165183600514119
 40
0.6940641966624412
 40
0.7715971850519753
 40
0.8491174871692926
 40
0.926628841867198
 40
0.9999999999999998
 40
0.9999999999999998
 40
0.9999999999999998
 40
0.9999999999999998
 10
5.253221648951503
 20
6.039577229627679
 30
0.0
 10
5.252329474533338
 20
6.038736081140457
 30
0.0
 10
5.250529215514345
 20
6.03703878393085
 30
0.0
 10
5.248141148108769
 20
6.033983888066279
 30
0.0
 10
5.245999484979615
 20
6.030574874072014
 30
0.0
 10
5.244158767805323
 20
6.026818428502957
 30
0.0
 10
5.242631271803798
 20
6.022761272054486
 30
0.0
 10
5.241433305866724
 20
6.018439914089982
 30
0.0
 10
5.240575658918527
 20
6.013897175635161
 30
0.0
 10
5.240065967641056
 20
6.009176710744654
 30
0.0
 10
5.239908838736758
 20
6.004323809547654
 30
0.0
 10
5.240102930532275
 20
5.999383724797215
 30
0.0
 10
5.240653666431833
 20
5.994405210441573
 30
0.0
 10
5.241511052320145
 20
5.989514719097873
 30
0.0
 10
5.242343464826126
 20
5.986333372642963
 30
0.0
 10
5.242748250433563
 20
5.984786347282375
 30
0.0
  0
SPLINE
  5
4C
330
1F
100
AcDbEntity
  8
0
  6
Continuous
 62
     7
370
    15
100
AcDbSpline
210
0.0
220
0.0
230
1.0
 70
     8
 71
     3
 72
    21
 73
    17
 74
     0
 42
0.0000000001
 43
0.0000000001
 40
0.0
 40
0.0
 40
0.0
 40
0.0
 40
0.0418539431581004
 40
0.1210605316435116
 40
0.2003032452624893
 40
0.2795674641605615
 40
0.3588599160720151
 40
0.4381846695008922
 40
0.5175422400380039
 40
0.5969267288360149
 40
0.6763190501538845
 40
0.7556839050972189
 40
0.8349712363360232
 40
0.9141165412448014
 40
0.9930444966252185
 40
1.0
 40
1.0
 40
1.0
 40
1.0
 10
5.242748250433563
 20
5.984786347282375
 30
0.0
 10
5.242998983139474
 20
5.983930549918589
 30
0.0
 10
5.243724215516345
 20
5.981455196916658
 30
0.0
 10
5.245169094940043
 20
5.977447035202597
 30
0.0
 10
5.247169772243339
 20
5.972851808414156
 30
0.0
 10
5.249459703799015
 20
5.968465045943348
 30
0.0
 10
5.252012383984931
 20
5.964327022976535
 30
0.0
 10
5.254806391004537
 20
5.960477238204424
 30
0.0
 10
5.257816205131969
 20
5.956952246606968
 30
0.0
 10
5.2610146948359
 20
5.953786532019607
 30
0.0
 10
5.264372837986315
 20
5.951010173770203
 30
0.0
 10
5.267859059782924
 20
5.948656015422307
 30
0.0
 10
5.271440633111109
 20
5.946730708382479
 30
0.0
 10
5.275080297734679
 20
5.945320391016377
 30
0.0
 10
5.277637907544994
 20
5.94453558241704
 30
0.0
 10
5.278963911225199
 20
5.944365539844769
 30
0.0
 10
5.279071301206998
 20
5.944351768488765
 30
0.0
  0
LINE
  5
4D
330
1F
100
AcDbEntity
  8
0
  6
Continuous
 62
     7
370
    15
100
AcDbLine
 10
5.276179513008481
 20
6.048645704146335
 30
0.0
 11
5.263805167864729
 21
6.045330480322713
 31
0.0
  0
LINE
  5
4E
330
1F
100
AcDbEntity
  8
0
  6
Continuous
 62
     7
370
    15
100
AcDbLine
 10
5.290761900848211
 20
5.944712248129881
 30
0.0
 11
5.303136245991963
 21
5.948027471953503
 31
0.0
  0
SPLINE
  5
4F
330
1F
100
AcDbEntity
  8
0
  6
Continuous
 62
     7
370
    15
100
AcDbSpline
210
0.0
220
0.0
230
1.0
 70
     8
 71
     3
 72
    34
 73
    30
 74
     0
 42
0.0000000001
 43
0.0000000001
 40
0.0
 40
0.0
 40
0.0
 40
0.0
 40
0.0075703156474057
 40
0.0463814705359955
 40
0.0853353227117112
 40
0.1244173417398783
 40
0.1635989732252735
 40
0.2028481596347157
 40
0.242136956879723
 40
0.2814443689922686
 40
0.3207545891760235
 40
0.3600603130695279
 40
0.3993593685316644
 40
0.4386522319439078
 40
0.4779412227423307
 40
0.5172295509394033
 40
0.5565209717897365
 40
0.5958184054755958
 40
0.6351255091928092
 40
0.6744457984005603
 40
0.7137818484102578
 40
0.7531343013049749
 40
0.7925012465197382
 40
0.8318753547726062
 40
0.8712402335878223
 40
0.9105736366696055
 40
0.949844555620527
 40
0.9890165517426693
 40
1.0
 40
1.0
 40
1.0
 40
1.0
 10
5.313780382112262
 20
5.953878778787369
 30
0.0
 10
5.313966476886259
 20
5.954028327378821
 30
0.0
 10
5.315106634005069
 20
5.954944574984761
 30
0.0
 10
5.316973421357514
 20
5.95703441205389
 30
0.0
 10
5.319339451545257
 20
5.960140473128411
 30
0.0
 10
5.321404563362204
 20
5.963647432576899
 30
0.0
 10
5.323174472365784
 20
5.967475256466215
 30
0.0
 10
5.324624528218087
 20
5.971599693002213
 30
0.0
 10
5.325742649481112
 20
5.975977171400136
 30
0.0
 10
5.326518389612949
 20
5.98056619672595
 30
0.0
 10
5.326944567650205
 20
5.985322153546061
 30
0.0
 10
5.327018378658375
 20
5.990199934108911
 30
0.0
 10
5.326739487234184
 20
5.995153371842204
 30
0.0
 10
5.326111178620772
 20
6.000136078934621
 30
0.0
 10
5.325139560388456
 20
6.005101419633517
 30
0.0
 10
5.32383418413068
 20
6.010003115970227
 30
0.0
 10
5.32220693726406
 20
6.014795295437903
 30
0.0
 10
5.320272794519248
 20
6.019433127454401
 30
0.0
 10
5.318049570182446
 20
6.023873229072238
 30
0.0
 10
5.315557324131826
 20
6.028073918403364
 30
0.0
 10
5.312818287589604
 20
6.031995454364997
 30
0.0
 10
5.309857428251382
 20
6.035600732463001
 30
0.0
 10
5.306700954453457
 20
6.038854570359514
 30
0.0
 10
5.303378008750346
 20
6.041726010744195
 30
0.0
 10
5.299919173209327
 20
6.044182635659769
 30
0.0
 10
5.296357178038777
 20
6.046211845173334
 30
0.0
 10
5.292727694083584
 20
6.047745179406529
 30
0.0
 10
5.289938739075923
 20
6.048656362217498
 30
0.0
 10
5.288375590587331
 20
6.048893681339655
 30
0.0
 10
5.288033279582904
 20
6.048945651416501
 30
0.0
  0
SPLINE
  5
50
330
1F
100
AcDbEntity
  8
0
  6
Continuous
 62
     7
370
    15
100
AcDbSpline
210
0.0
220
0.0
230
1.0
 70
     8
 71
     3
 72
    20
 73
    16
 74
     0
 42
0.0000000001
 43
0.0000000001
 40
0.0
 40
0.0
 40
0.0
 40
0.0
 40
0.0754377600454273
 40
0.152220653453423
 40
0.2292673219921943
 40
0.3065243597337099
 40
0.3839293606785877
 40
0.4614248059002256
 40
0.5389660199386307
 40
0.6165179913848275
 40
0.6940640160497184
 40
0.7715973790530079
 40
0.8491171279070774
 40
0.9266286648750215
 40
1.0
 40
1.0
 40
1.0
 40
1.0
 10
5.253221648951503
 20
5.4640480916295
 30
0.0
 10
5.252329475495253
 20
5.4632069458928
 30
0.0
 10
5.250529220206357
 20
5.461509655920076
 30
0.0
 10
5.248141133159589
 20
5.458454784703578
 30
0.0
 10
5.245999496470027
 20
5.455045738189819
 30
0.0
 10
5.244158768711515
 20
5.451289306356297
 30
0.0
 10
5.242631267803651
 20
5.447232162826881
 30
0.0
 10
5.241433302143854
 20
5.442910797573614
 30
0.0
 10
5.240575665513535
 20
5.438368052062047
 30
0.0
 10
5.240065964344713
 20
5.433647587821009
 30
0.0
 10
5.23990884016247
 20
5.428794684924168
 30
0.0
 10
5.240102926953838
 20
5.423854600923463
 30
0.0
 10
5.240653670815891
 20
5.418876086031844
 30
0.0
 10
5.241511051977034
 20
5.413985598993117
 30
0.0
 10
5.242343464705364
 20
5.410804244492958
 30
0.0
 10
5.242748250433563
 20
5.409257215171838
 30
0.0
  0
SPLINE
  5
51
330
1F
100
AcDbEntity
  8
0
  6
Continuous
 62
     7
370
    15
100
AcDbSpline
210
0.0
220
0.0
230
1.0
 70
     8
 71
     3
 72
    21
 73
    17
 74
     0
 42
0.0000000001
 43
0.0000000001
 40
0.0
 40
0.0
 40
0.0
 40
0.0
 40
0.0418541182942588
 40
0.1210605391920281
 40
0.2003030947841448
 40
0.279567610193866
 40
0.3588599275814471
 40
0.4381846818679232
 40
0.5175421464596775
 40
0.5969268179885466
 40
0.6763189175542887
 40
0.7556838868645756
 40
0.8349712189605744
 40
0.9141165247250114
 40
0.9930444793580216
 40
1.0
 40
1.0
 40
1.0
 40
1.0
 10
5.242748250433563
 20
5.409257215171838
 30
0.0
 10
5.242998982812627
 20
5.408401413783353
 30
0.0
 10
5.24372421125464
 20
5.405926059343845
 30
0.0
 10
5.245169094546149
 20
5.401917901927348
 30
0.0
 10
5.247169780889565
 20
5.397322683425206
 30
0.0
 10
5.249459694243028
 20
5.392935904825103
 30
0.0
 10
5.252012388673941
 20
5.388797892456104
 30
0.0
 10
5.254806386576474
 20
5.384948102061119
 30
0.0
 10
5.257816214283214
 20
5.381423134164103
 30
0.0
 10
5.261014682218498
 20
5.378257374482399
 30
0.0
 10
5.264372848939218
 20
5.375481080604672
 30
0.0
 10
5.267859055042714
 20
5.373126874762151
 30
0.0
 10
5.271440634250056
 20
5.371201575392556
 30
0.0
 10
5.275080296182901
 20
5.369791271839223
 30
0.0
 10
5.277637910751271
 20
5.369006418885987
 30
0.0
 10
5.278963911237898
 20
5.368836427195532
 30
0.0
 10
5.279071301206998
 20
5.368822659928802
 30
0.0
  0
LINE
  5
52
330
1F
100
AcDbEntity
  8
0
  6
Continuous
 62
     7
370
    15
100
AcDbLine
 10
5.276179513008481
 20
5.473116560260511
 30
0.0
 11
5.263805167864729
 21
5.469801336436891
 31
0.0
  0
LINE
  5
53
330
1F
100
AcDbEntity
  8
0
  6
Continuous
 62
     7
370
    15
100
AcDbLine
 10
5.290761900848211
 20
5.369183127794631
 30
0.0
 11
5.303136245991963
 21
5.372498351618253
 31
0.0
  0
SPLINE
  5
54
330
1F
100
AcDbEntity
  8
0
  6
Continuous
 62
     7
370
    15
100
AcDbSpline
210
0.0
220
0.0
230
1.0
 70
     8
 71
     3
 72
    34
 73
    30
 74
     0
 42
0.0000000001
 43
0.0000000001
 40
0.0
 40
0.0
 40
0.0
 40
0.0
 40
0.0075701968858888
 40
0.04638142238987
 40
0.0853352785481156
 40
0.124417066369459
 40
0.1635987850494989
 40
0.2028479754716651
 40
0.2421368671227837
 40
0.2814443759891771
 40
0.3207546944032868
 40
0.3600603275126387
 40
0.3993592924904567
 40
0.438652113264075
 40
0.4779412905626907
 40
0.5172294461534115
 40
0.5565208710207868
 40
0.5958184287089189
 40
0.6351255364447778
 40
0.6744456580123977
 40
0.7137818670566963
 40
0.7531342418290321
 40
0.7925011440619977
 40
0.8318753727534085
 40
0.871240149797434
 40
0.9105735889281989
 40
0.9498445425208494
 40
0.9890165411473217
 40
1.0
 40
1.0
 40
1.0
 40
1.0
 10
5.313780382112262
 20
5.378349682002692
 30
0.0
 10
5.313966477147894
 20
5.37849922225556
 30
0.0
 10
5.315106652572977
 20
5.379415432195282
 30
0.0
 10
5.316973413601874
 20
5.381505314083951
 30
0.0
 10
5.319339444142774
 20
5.384611359927428
 30
0.0
 10
5.321404573927777
 20
5.388118293081221
 30
0.0
 10
5.323174468570422
 20
5.391946124178822
 30
0.0
 10
5.324624530745695
 20
5.396070562863085
 30
0.0
 10
5.325742649063635
 20
5.400448051586574
 30
0.0
 10
5.326518389749601
 20
5.405037088150804
 30
0.0
 10
5.32694456690571
 20
5.409793049178224
 30
0.0
 10
5.327018378700339
 20
5.414670825472152
 30
0.0
 10
5.326739487577365
 20
5.419624253676301
 30
0.0
 10
5.326111174696234
 20
5.424606962035948
 30
0.0
 10
5.325139567562367
 20
5.429572302634816
 30
0.0
 10
5.323834179794286
 20
5.4344739966126
 30
0.0
 10
5.322206934375588
 20
5.439266173312729
 30
0.0
 10
5.320272797255322
 20
5.443904014029268
 30
0.0
 10
5.318049578205268
 20
5.448344119466567
 30
0.0
 10
5.315557308674677
 20
5.452544781978816
 30
0.0
 10
5.312818299834868
 20
5.456466346400243
 30
0.0
 10
5.309857426355136
 20
5.460071608392102
 30
0.0
 10
5.306700944989871
 20
5.463325421653712
 30
0.0
 10
5.303378022433614
 20
5.466196926881311
 30
0.0
 10
5.299919163976325
 20
5.468653475561856
 30
0.0
 10
5.296357179151596
 20
5.470682719824966
 30
0.0
 10
5.292727695966704
 20
5.472216085207772
 30
0.0
 10
5.28993873773812
 20
5.47312727797903
 30
0.0
 10
5.288375590544546
 20
5.473364567459112
 30
0.0
 10
5.288033279582904
 20
5.473416531081252
 30
0.0
  0
SPLINE
  5
55
330
1F
100
AcDbEntity
  8
0
  6
Continuous
 62
     7
370
    15
100
AcDbSpline
210
0.0
220
0.0
230
1.0
 70
     8
 71
     3
 72
    20
 73
    16
 74
     0
 42
0.0000000001
 43
0.0000000001
 40
0.0
 40
0.0
 40
0.0
 40
0.0
 40
0.0754377663407139
 40
0.1522212300457203
 40
0.2292672961627077
 40
0.3065243403513287
 40
0.3839300289207191
 40
0.4614254806093577
 40
0.538965973096434
 40
0.6165186923264968
 40
0.6940639758201341
 40
0.7715973452935883
 40
0.8491178398249411
 40
0.9266286587521781
 40
1.0
 40
1.0
 40
1.0
 40
1.0
 10
5.253221648951503
 20
6.628209188005578
 30
0.0
 10
5.252329473164072
 20
6.627368045440589
 30
0.0
 10
5.250529206502327
 20
6.625670755580387
 30
0.0
 10
5.248141156925063
 20
6.622615834403843
 30
0.0
 10
5.245999484586402
 20
6.619206833839302
 30
0.0
 10
5.244158761118819
 20
6.615450392757263
 30
0.0
 10
5.242631275141004
 20
6.611393221484603
 30
0.0
 10
5.241433307668073
 20
6.607071859779997
 30
0.0
 10
5.240575656688301
 20
6.602529121340625
 30
0.0
 10
5.240065969833991
 20
6.597808666398139
 30
0.0
 10
5.239908838244187
 20
6.592955766032318
 30
0.0
 10
5.240102931176649
 20
6.588015681367135
 30
0.0
 10
5.240653661288289
 20
6.583037166526489
 30
0.0
 10
5.241511058678936
 20
6.578146680224647
 30
0.0
 10
5.24234346559033
 20
6.574965340912117
 30
0.0
 10
5.242748250433563
 20
6.573418311547917
 30
0.0
  0
SPLINE
  5
56
330
1F
100
AcDbEntity
  8
0
  6
Continuous
 62
     7
370
    15
100
AcDbSpline
210
0.0
220
0.0
230
1.0
 70
     8
 71
     3
 72
    21
 73
    17
 74
     0
 42
0.0000000001
 43
0.0000000001
 40
0.0
 40
0.0
 40
0.0
 40
0.0
 40
0.0418541182498163
 40
0.1210605390634809
 40
0.2003030945714544
 40
0.2795676098970091
 40
0.3588599272003942
 40
0.4381846814026399
 40
0.517542145910129
 40
0.5969268173547039
 40
0.6763192136508684
 40
0.7556839558607221
 40
0.8349712878725302
 40
0.9141165935529272
 40
0.9930445481021283
 40
1.0
 40
1.0
 40
1.0
 40
1.0
 10
5.242748250433563
 20
6.573418311547917
 30
0.0
 10
5.242998982812562
 20
6.572562510159235
 30
0.0
 10
5.243724211254388
 20
6.570087155719158
 30
0.0
 10
5.245169094548274
 20
6.566078998309883
 30
0.0
 10
5.247169780881755
 20
6.56148377977755
 30
0.0
 10
5.249459694272161
 20
6.557097001289691
 30
0.0
 10
5.252012388565164
 20
6.552958988501699
 30
0.0
 10
5.254806386982679
 20
6.549109199671335
 30
0.0
 10
5.257816212766336
 20
6.545584225931602
 30
0.0
 10
5.261014691868503
 20
6.542418484119087
 30
0.0
 10
5.264372833073543
 20
6.539642108737298
 30
0.0
 10
5.267859063653745
 20
6.537287982016542
 30
0.0
 10
5.271440631587976
 20
6.535362687284032
 30
0.0
 10
5.27508030163392
 20
6.533952293701683
 30
0.0
 10
5.277637898045813
 20
6.533167689139915
 30
0.0
 10
5.278963911188254
 20
6.53299749291046
 30
0.0
 10
5.279071301206998
 20
6.532983709203733
 30
0.0
  0
LINE
  5
57
330
1F
100
AcDbEntity
  8
0
  6
Continuous
 62
     7
370
    15
100
AcDbLine
 10
5.276179513008481
 20
6.63727765663659
 30
0.0
 11
5.263805167864729
 21
6.633962432812968
 31
0.0
  0
LINE
  5
58
330
1F
100
AcDbEntity
  8
0
  6
Continuous
 62
     7
370
    15
100
AcDbLine
 10
5.290761900848211
 20
6.53334422417071
 30
0.0
 11
5.303136245991963
 21
6.536659447994331
 31
0.0
  0
SPLINE
  5
59
330
1F
100
AcDbEntity
  8
0
  6
Continuous
 62
     7
370
    15
100
AcDbSpline
210
0.0
220
0.0
230
1.0
 70
     8
 71
     3
 72
    34
 73
    30
 74
     0
 42
0.0000000001
 43
0.0000000001
 40
0.0
 40
0.0
 40
0.0
 40
0.0
 40
0.007570435213247
 40
0.0463813903012267
 40
0.0853352426184793
 40
0.1244173401896057
 40
0.1635990550061844
 40
0.2028482415582365
 40
0.2421371293353264
 40
0.2814442633852679
 40
0.3207545779232361
 40
0.3600602071569084
 40
0.3993595462682402
 40
0.4386523631674424
 40
0.477941171625306
 40
0.5172296765883121
 40
0.5565210975814088
 40
0.5958183314360423
 40
0.6351254352960761
 40
0.6744458276430862
 40
0.713781784788313
 40
0.7531343747362012
 40
0.7925012730874462
 40
0.8318753426794131
 40
0.8712402367515405
 40
0.9105736720038843
 40
0.9498445727221017
 40
0.9890165674860714
 40
1.0
 40
1.0
 40
1.0
 40
1.0
 10
5.313780382112262
 20
6.542510731277625
 30
0.0
 10
5.313966476554966
 20
6.54266028831488
 30
0.0
 10
5.315106611664352
 20
6.543576571609269
 30
0.0
 10
5.316973436731363
 20
6.545666338432607
 30
0.0
 10
5.319339451080328
 20
6.548772420008133
 30
0.0
 10
5.321404564298253
 20
6.552279384049064
 30
0.0
 10
5.323174469735371
 20
6.55610721934314
 30
0.0
 10
5.32462453100738
 20
6.56023165926489
 30
0.0
 10
5.325742643327576
 20
6.564609135296174
 30
0.0
 10
5.326518394016805
 20
6.569198150845061
 30
0.0
 10
5.326944566369339
 20
6.57395409879427
 30
0.0
 10
5.327018378156259
 20
6.578831890560552
 30
0.0
 10
5.32673948888186
 20
6.583785333791042
 30
0.0
 10
5.326111181253327
 20
6.588768043690286
 30
0.0
 10
5.325139553463852
 20
6.593733380632318
 30
0.0
 10
5.32383418799263
 20
6.598635078983042
 30
0.0
 10
5.322206942905414
 20
6.603427259272185
 30
0.0
 10
5.320272788390055
 20
6.608065074720462
 30
0.0
 10
5.318049565714044
 20
6.612505170357311
 30
0.0
 10
5.31555733410096
 20
6.616705877254623
 30
0.0
 10
5.312818275081889
 20
6.620627392018432
 30
0.0
 10
5.309857438617395
 20
6.62423270648055
 30
0.0
 10
5.306700952868865
 20
6.627486527419548
 30
0.0
 10
5.303378006542567
 20
6.630357956478898
 30
0.0
 10
5.299919172060943
 20
6.632814584342818
 30
0.0
 10
5.296357181251897
 20
6.634843822109253
 30
0.0
 10
5.292727692113705
 20
6.636377139067042
 30
0.0
 10
5.289938741157635
 20
6.637288276556106
 30
0.0
 10
5.288375590654539
 20
6.637525646342417
 30
0.0
 10
5.288033279582904
 20
6.637577627457329
 30
0.0
  0
SPLINE
  5
5A
330
1F
100
AcDbEntity
  8
0
  6
Continuous
 62
     7
370
    15
100
AcDbSpline
210
0.0
220
0.0
230
1.0
 70
     8
 71
     3
 72
    20
 73
    16
 74
     0
 42
0.0000000001
 43
0.0000000001
 40
0.0
 40
0.0
 40
0.0
 40
0.0
 40
0.0754387564826289
 40
0.1522216187637368
 40
0.229267038369071
 40
0.3065253408928493
 40
0.3839303104586442
 40
0.4614257242645342
 40
0.5389654508254363
 40
0.6165181321447558
 40
0.6940641253733945
 40
0.7715974569455647
 40
0.8491179135819269
 40
0.9266286946189035
 40
1.0
 40
1.0
 40
1.0
 40
1.0
 10
5.253221648951503
 20
7.270504994551711
 30
0.0
 10
5.252329477119248
 20
7.269663814127782
 30
0.0
 10
5.25052923746985
 20
7.267966465818067
 30
0.0
 10
5.248141157758558
 20
7.264911597197365
 30
0.0
 10
5.245999451827347
 20
7.261502627270346
 30
0.0
 10
5.244158792784158
 20
7.257746121693368
 30
0.0
 10
5.242631262238143
 20
7.253688976606512
 30
0.0
 10
5.24143331634217
 20
7.249367629185321
 30
0.0
 10
5.240575651231732
 20
7.244824915517715
 30
0.0
 10
5.240065969048336
 20
7.240104457143833
 30
0.0
 10
5.239908838252581
 20
7.235251541289513
 30
0.0
 10
5.240102931007313
 20
7.230311440829983
 30
0.0
 10
5.240653661333518
 20
7.225332925966706
 30
0.0
 10
5.241511058668331
 20
7.220442439670753
 30
0.0
 10
5.242343465586862
 20
7.217261100357471
 30
0.0
 10
5.242748250433563
 20
7.215714070992904
 30
0.0
  0
SPLINE
  5
5B
330
1F
100
AcDbEntity
  8
0
  6
Continuous
 62
     7
370
    15
100
AcDbSpline
210
0.0
220
0.0
230
1.0
 70
     8
 71
     3
 72
    21
 73
    17
 74
     0
 42
0.0000000001
 43
0.0000000001
 40
0.0
 40
0.0
 40
0.0
 40
0.0
 40
0.04185410938649
 40
0.1210598396521608
 40
0.200303013914179
 40
0.2795669211455737
 40
0.3588597631832052
 40
0.4381840139323823
 40
0.5175423160697486
 40
0.5969266069595357
 40
0.6763189864430003
 40
0.7556839388621225
 40
0.8349712540834801
 40
0.914116543003503
 40
0.993044480838358
 40
1.0
 40
1.0
 40
1.0
 40
1.0
 10
5.242748250433563
 20
7.215714070992904
 30
0.0
 10
5.242998981900353
 20
7.214858269115136
 30
0.0
 10
5.243724203667348
 20
7.212382927037254
 30
0.0
 10
5.245169118838049
 20
7.208374787875975
 30
0.0
 10
5.247169753735184
 20
7.203779549635846
 30
0.0
 10
5.24945972300916
 20
7.199392804975354
 30
0.0
 10
5.252012358639931
 20
7.19525474157063
 30
0.0
 10
5.254806424985424
 20
7.191405019809275
 30
0.0
 10
5.257816177650419
 20
7.187879920799289
 30
0.0
 10
5.261014704978952
 20
7.184714253660126
 30
0.0
 10
5.264372837648634
 20
7.181937874174491
 30
0.0
 10
5.267859056901611
 20
7.179583688323768
 30
0.0
 10
5.271440633751178
 20
7.177658382813098
 30
0.0
 10
5.275080296323281
 20
7.176248080924781
 30
0.0
 10
5.277637910749046
 20
7.17546322760011
 30
0.0
 10
5.278963911237731
 20
7.175293235915018
 30
0.0
 10
5.279071301206998
 20
7.175279468648721
 30
0.0
  0
LINE
  5
5C
330
1F
100
AcDbEntity
  8
0
  6
Continuous
 62
     7
370
    15
100
AcDbLine
 10
5.276179513008481
 20
7.279573416081578
 30
0.0
 11
5.263805167864729
 21
7.276258192257955
 31
0.0
  0
LINE
  5
5D
330
1F
100
AcDbEntity
  8
0
  6
Continuous
 62
     7
370
    15
100
AcDbLine
 10
5.290761900848211
 20
7.175639983615697
 30
0.0
 11
5.303136245991963
 21
7.178955207439319
 31
0.0
  0
SPLINE
  5
5E
330
1F
100
AcDbEntity
  8
0
  6
Continuous
 62
     7
370
    15
100
AcDbSpline
210
0.0
220
0.0
230
1.0
 70
     8
 71
     3
 72
    34
 73
    30
 74
     0
 42
0.0000000001
 43
0.0000000001
 40
0.0
 40
0.0
 40
0.0
 40
0.0
 40
0.0075701951279297
 40
0.0463814116191272
 40
0.0853352587314673
 40
0.1244173510805454
 40
0.1635990606617652
 40
0.2028485907581711
 40
0.2421371117284406
 40
0.2814446114668027
 40
0.3207545439067701
 40
0.3600605470990659
 40
0.3993591249423757
 40
0.4386519365913739
 40
0.4779414697331324
 40
0.517229262954607
 40
0.5565206786976863
 40
0.5958182272600981
 40
0.6351256245805422
 40
0.674445737017202
 40
0.7137816889064604
 40
0.753134054540346
 40
0.7925013236887109
 40
0.8318753880196169
 40
0.8712402768319096
 40
0.9105736214226659
 40
0.9498445168936077
 40
0.9890165184291369
 40
1.0
 40
1.0
 40
1.0
 40
1.0
 10
5.313780382112262
 20
7.184806490722612
 30
0.0
 10
5.313966477156998
 20
7.184956030965249
 30
0.0
 10
5.315106652637861
 20
7.185872240842292
 30
0.0
 10
5.31697341188302
 20
7.187962124735364
 30
0.0
 10
5.319339456682431
 20
7.191068170028409
 30
0.0
 10
5.321404561427328
 20
7.194575147089763
 30
0.0
 10
5.323174480866705
 20
7.198402985214118
 30
0.0
 10
5.324624513988394
 20
7.20252744708372
 30
0.0
 10
5.325742657289202
 20
7.206904917412447
 30
0.0
 10
5.326518384736155
 20
7.211493930744991
 30
0.0
 10
5.326944570398845
 20
7.216249887937815
 30
0.0
 10
5.327018379124485
 20
7.221127649825597
 30
0.0
 10
5.326739486578742
 20
7.226081078602772
 30
0.0
 10
5.32611116793224
 20
7.231063785418534
 30
0.0
 10
5.325139582182655
 20
7.236029130024439
 30
0.0
 10
5.323834169715849
 20
7.240930818232841
 30
0.0
 10
5.322206937262293
 20
7.24572298357229
 30
0.0
 10
5.320272786009289
 20
7.25036082980101
 30
0.0
 10
5.318049589080136
 20
7.254800967691945
 30
0.0
 10
5.315557317841021
 20
7.259001634062777
 30
0.0
 10
5.312818291322397
 20
7.262923162595376
 30
0.0
 10
5.309857405624176
 20
7.266528402413477
 30
0.0
 10
5.306700976238944
 20
7.269782351138911
 30
0.0
 10
5.303378002378516
 20
7.272653753113008
 30
0.0
 10
5.299919178428763
 20
7.27511040243926
 30
0.0
 10
5.296357175162226
 20
7.277139582533235
 30
0.0
 10
5.292727694091984
 20
7.278672843930777
 30
0.0
 10
5.289938734885699
 20
7.27958418974515
 30
0.0
 10
5.28837559046947
 20
7.279821394624667
 30
0.0
 10
5.288033279582904
 20
7.279873339801172
 30
0.0
  0
SPLINE
  5
5F
330
1F
100
AcDbEntity
  8
0
  6
Continuous
 62
     7
370
    15
100
AcDbSpline
210
0.0
220
0.0
230
1.0
 70
     8
 71
     3
 72
    25
 73
    21
 74
     0
 42
0.0000000001
 43
0.0000000001
 40
0.0
 40
0.0
 40
0.0
 40
0.0
 40
0.0284593660231825
 40
0.0842782627442954
 40
0.1401412473640206
 40
0.1961369092144567
 40
0.2523677330375232
 40
0.3089474594668034
 40
0.3659946299760602
 40
0.4236272922732699
 40
0.4819545728539698
 40
0.5410602645925861
 40
0.6009913831752487
 40
0.6617414118418181
 40
0.7232544623454121
 40
0.7854175123765249
 40
0.8413585794956674
 40
0.8972540730901066
 40
0.9531099326375931
 40
1.0
 40
1.0
 40
1.0
 40
1.0
 10
4.890925237340515
 20
6.947566279306945
 30
0.0
 10
4.891728851328077
 20
6.948152854558838
 30
0.0
 10
4.894108636975223
 20
6.949889911637269
 30
0.0
 10
4.897772721356894
 20
6.953153633021045
 30
0.0
 10
4.901907275179539
 20
6.957310559864476
 30
0.0
 10
4.905714258559257
 20
6.961793278691795
 30
0.0
 10
4.909193411597759
 20
6.966564267432476
 30
0.0
 10
4.912322315668697
 20
6.971615965056081
 30
0.0
 10
4.915082740658402
 20
6.976933323846363
 30
0.0
 10
4.917453308265155
 20
6.982502272388302
 30
0.0
 10
4.919410591324823
 20
6.988305765185249
 30
0.0
 10
4.920928524803099
 20
6.994322491904005
 30
0.0
 10
4.921979767440745
 20
7.000524219050657
 30
0.0
 10
4.92253714756526
 20
7.006874368635475
 30
0.0
 10
4.922576754352106
 20
7.013327129965182
 30
0.0
 10
4.922096182619422
 20
7.019593329644415
 30
0.0
 10
4.921157296100204
 20
7.025607820782701
 30
0.0
 10
4.919810624007836
 20
7.031315692679276
 30
0.0
 10
4.918176140433898
 20
7.036622504708799
 30
0.0
 10
4.916796293671582
 20
7.039939303280011
 30
0.0
 10
4.916166574230816
 20
7.041452987696601
 30
0.0
  0
LINE
  5
60
330
1F
100
AcDbEntity
  8
0
  6
Continuous
 62
     7
370
    15
100
AcDbLine
 10
4.830566089834184
 20
6.865266471011423
 30
0.0
 11
4.842822622921075
 21
6.861982810339878
 31
0.0
  0
LINE
  5
61
330
1F
100
AcDbEntity
  8
0
  6
Continuous
 62
     7
370
    15
100
AcDbLine
 10
5.327133193031667
 20
7.158669144679727
 30
0.0
 11
5.339389656980027
 21
7.161952786828296
 31
0.0
  0
LINE
  5
62
330
1F
100
AcDbEntity
  8
0
  6
Continuous
 62
     7
370
    15
100
AcDbLine
 10
4.830566089834184
 20
6.222970699791149
 30
0.0
 11
4.842822622921075
 21
6.219687039119603
 31
0.0
  0
LINE
  5
63
330
1F
100
AcDbEntity
  8
0
  6
Continuous
 62
     7
370
    15
100
AcDbLine
 10
5.327133193031667
 20
6.516373338133593
 30
0.0
 11
5.339389656980027
 21
6.519656980282162
 31
0.0
  0
SPLINE
  5
64
330
1F
100
AcDbEntity
  8
0
  6
Continuous
 62
     7
370
    15
100
AcDbSpline
210
0.0
220
0.0
230
1.0
 70
     8
 71
     3
 72
    25
 73
    21
 74
     0
 42
0.0000000001
 43
0.0000000001
 40
0.0
 40
0.0
 40
0.0
 40
0.0
 40
0.028458977255389
 40
0.0842778996058575
 40
0.1401409098751813
 40
0.1961367681154091
 40
0.2523679800358142
 40
0.3089477324437865
 40
0.3659943318480028
 40
0.4236270206073621
 40
0.4819543279691471
 40
0.5410602646534032
 40
0.6009911891844271
 40
0.661741693660014
 40
0.7232540977355058
 40
0.7854174006108226
 40
0.8413587157129718
 40
0.8972542349719361
 40
0.9531101201657499
 40
1.0
 40
1.0
 40
1.0
 40
1.0
 10
4.890925237340515
 20
5.716638602697561
 30
0.0
 10
4.891728853275831
 20
5.717225151773663
 30
0.0
 10
4.89410866694624
 20
5.718962147580152
 30
0.0
 10
4.897772714196887
 20
5.722225895149198
 30
0.0
 10
4.901907283355082
 20
5.726382812386628
 30
0.0
 10
4.905714265596263
 20
5.730865558771467
 30
0.0
 10
4.909193400406953
 20
5.735636583698943
 30
0.0
 10
4.912322296555609
 20
5.74068827454726
 30
0.0
 10
4.915082759608595
 20
5.746005590342594
 30
0.0
 10
4.917453304790066
 20
5.751574526743091
 30
0.0
 10
4.919410596764082
 20
5.757378024227612
 30
0.0
 10
4.920928517696283
 20
5.763394754051545
 30
0.0
 10
4.921979773998081
 20
5.769596494452937
 30
0.0
 10
4.922537143388547
 20
5.775946629501222
 30
0.0
 10
4.922576753703124
 20
5.78239939053444
 30
0.0
 10
4.922096181536012
 20
5.788665582139174
 30
0.0
 10
4.921157299203555
 20
5.79468008974011
 30
0.0
 10
4.919810622896697
 20
5.800387968609032
 30
0.0
 10
4.918176145486734
 20
5.805694775125084
 30
0.0
 10
4.916796294206928
 20
5.809011564077454
 30
0.0
 10
4.916166574230816
 20
5.810525240435499
 30
0.0
  0
LINE
  5
65
330
1F
100
AcDbEntity
  8
0
  6
Continuous
 62
     7
370
    15
100
AcDbLine
 10
4.830566089834184
 20
5.634338747300894
 30
0.0
 11
4.842822622921075
 21
5.631055086629348
 31
0.0
  0
LINE
  5
66
330
1F
100
AcDbEntity
  8
0
  6
Continuous
 62
     7
370
    15
100
AcDbLine
 10
5.327133193031667
 20
5.927741385643338
 30
0.0
 11
5.339389656980027
 21
5.931025027791907
 31
0.0
  0
SPLINE
  5
67
330
1F
100
AcDbEntity
  8
0
  6
Continuous
 62
     7
370
    15
100
AcDbSpline
210
0.0
220
0.0
230
1.0
 70
     8
 71
     3
 72
    25
 73
    21
 74
     0
 42
0.0000000001
 43
0.0000000001
 40
0.0
 40
0.0
 40
0.0
 40
0.0
 40
0.0284588476905412
 40
0.0842777786271611
 40
0.1401407974894178
 40
0.1961371763836167
 40
0.2523680346746906
 40
0.3089477957858462
 40
0.3659942048660886
 40
0.4236269024905955
 40
0.4819542188243754
 40
0.5410599467932169
 40
0.6009911021120696
 40
0.6617420638482593
 40
0.7232542524951241
 40
0.7854173406305418
 40
0.8413584420400784
 40
0.8972548463396295
 40
0.9531107401252802
 40
1.0
 40
1.0
 40
1.0
 40
1.0
 10
4.890925237340515
 20
5.060822506544044
 30
0.0
 10
4.891728854032922
 20
5.06140904680541
 30
0.0
 10
4.894108677363798
 20
5.063146021922634
 30
0.0
 10
4.897772708049873
 20
5.066409781694208
 30
0.0
 10
4.901907311125262
 20
5.070566692428291
 30
0.0
 10
4.90571422541116
 20
5.075049502930379
 30
0.0
 10
4.90919342004064
 20
5.07982048855264
 30
0.0
 10
4.912322286311933
 20
5.08487217672603
 30
0.0
 10
4.915082766796844
 20
5.090189474461493
 30
0.0
 10
4.917453304081553
 20
5.095758407621047
 30
0.0
 10
4.91941059259367
 20
5.10156189761115
 30
0.0
 10
4.920928523976189
 20
5.107578625137697
 30
0.0
 10
4.921979774733477
 20
5.11378038280942
 30
0.0
 10
4.922537141498617
 20
5.120130533444878
 30
0.0
 10
4.92257675342714
 20
5.126583294229499
 30
0.0
 10
4.922096184372735
 20
5.132849463148079
 30
0.0
 10
4.921157284013113
 20
5.138863982576028
 30
0.0
 10
4.919810636748533
 20
5.144571890889869
 30
0.0
 10
4.918176158984116
 20
5.149878708100739
 30
0.0
 10
4.916796295292379
 20
5.153195468438526
 30
0.0
 10
4.916166574230816
 20
5.15470912073141
 30
0.0
  0
LINE
  5
68
330
1F
100
AcDbEntity
  8
0
  6
Continuous
 62
     7
370
    15
100
AcDbLine
 10
4.584226022342464
 20
4.350642360432669
 30
0.0
 11
5.055630502867217
 21
4.476936830664617
 31
0.0
  0
SPLINE
  5
69
330
1F
100
AcDbEntity
  8
0
  6
Continuous
 62
     7
370
    15
100
AcDbSpline
210
0.0
220
0.0
230
1.0
 70
     8
 71
     3
 72
     9
 73
     5
 74
     0
 42
0.0000000001
 43
0.0000000001
 40
0.0
 40
0.0
 40
0.0
 40
0.0
 40
0.4925442611056758
 40
1.0
 40
1.0
 40
1.0
 40
1.0
 10
5.131371659893811
 20
5.004696239204106
 30
0.0
 10
5.132404640831695
 20
5.006228348952572
 30
0.0
 10
5.134501875576783
 20
5.009338952139843
 30
0.0
 10
5.138042947951854
 20
5.012230123873764
 30
0.0
 10
5.139839885450424
 20
5.013697265562271
 30
0.0
  0
ARC
  5
6A
330
1F
100
AcDbEntity
  8
0
  6
Continuous
 62
     7
370
    15
100
AcDbCircle
 10
5.270303337492177
 20
6.021070592860386
 30
0.0
 40
0.0250915307242183
100
AcDbArc
 50
78.43976006890257
 51
131.8488605506245
  0
ARC
  5
6B
330
1F
100
AcDbEntity
  8
0
  6
Continuous
 62
     7
370
    15
100
AcDbCircle
 10
5.284276373865912
 20
5.968923124309643
 30
0.0
 40
0.025044104322555
100
AcDbArc
 50
258.8863704141096
 51
311.2937136972961
  0
LWPOLYLINE
  5
6C
330
1F
100
AcDbEntity
  8
0
  6
Continuous
 62
     7
370
    15
100
AcDbPolyline
 90
       61
 70
   128
 43
0.0
 10
5.243174126500025
 20
5.98492208335482
 10
5.244781943038938
 20
5.979903197178301
 10
5.246732928676576
 20
5.975046482887431
 10
5.249005719606856
 20
5.970405165587187
 10
5.251575425958609
 20
5.966030082648307
 10
5.254413873780443
 20
5.96196917141599
 10
5.257489985302665
 20
5.958266931647934
 10
5.260770038206771
 20
5.954963920367573
 10
5.264218097741257
 20
5.952096329938028
 10
5.267796396983555
 20
5.949695580028294
 10
5.271465734386578
 20
5.947787963825109
 10
5.275185905894533
 20
5.946394379185625
 10
5.278916137058754
 20
5.94553011866652
 10
5.282615567007403
 20
5.945204622110291
 10
5.28624366327667
 20
5.945421483260261
 10
5.289760688495851
 20
5.946178301179918
 10
5.293128097933901
 20
5.947466797476235
 10
5.296308988899887
 20
5.949272848979049
 10
5.299268532858807
 20
5.951576666354617
 10
5.301974286554977
 20
5.954353028684946
 10
5.304396606843226
 20
5.957571490262678
 10
5.306508961812269
 20
5.961196803575001
 10
5.30828820733885
 20
5.965189257346765
 10
5.309714846357219
 20
5.969505089866066
 10
5.310773253559367
 20
5.974097017548886
 10
5.31145181367208
 20
5.978914751331604
 10
5.31174312887254
 20
5.983905482765233
 10
5.311643966934423
 20
5.989014545548408
 10
5.311155434074223
 20
5.994185957984264
 10
5.310282888528094
 20
5.999363070224328
 10
5.309035871413319
 20
6.004489153892889
 10
5.30742807215904
 20
6.009508041326307
 10
5.305477086521401
 20
6.014364749729534
 10
5.303204295591122
 20
6.01900607291742
 10
5.300634589239368
 20
6.023381155856301
 10
5.297796141417533
 20
6.027442061200974
 10
5.294720029895311
 20
6.031144306856673
 10
5.291439976991208
 20
6.034447312249391
 10
5.287991900172088
 20
6.037314907309681
 10
5.284413600929788
 20
6.039715663107057
 10
5.280744263526766
 20
6.041623279310243
 10
5.277024109303444
 20
6.043016853431338
 10
5.273293878139224
 20
6.043881119838086
 10
5.269594448190574
 20
6.044206610506673
 10
5.265966334636674
 20
6.04398975987509
 10
5.262449326702125
 20
6.04323293732469
 10
5.259081917264076
 20
6.041944441028372
 10
5.255901009013458
 20
6.040138394156302
 10
5.252941482339171
 20
6.037834566262349
 10
5.250235728643
 20
6.035058209819661
 10
5.247813391070119
 20
6.03183974698503
 10
5.245701036101076
 20
6.028214433672708
 10
5.243921790574495
 20
6.024221985788587
 10
5.242495151556125
 20
6.019906153269285
 10
5.241436761638611
 20
6.015314220955721
 10
5.240758184241264
 20
6.010496491803748
 10
5.240466886325437
 20
6.005505755739376
 10
5.240566048263554
 20
6.000396692956199
 10
5.241054581123754
 20
5.995225280520344
 10
5.241927126669883
 20
5.990048168280281
 10
5.243174126500025
 20
5.98492208335482
  0
ARC
  5
6D
330
1F
100
AcDbEntity
  8
0
  6
Continuous
 62
     7
370
    15
100
AcDbCircle
 10
5.296315196495651
 20
5.972777932322309
 30
0.0
 40
0.0256731767551079
100
AcDbArc
 50
285.4078251616975
 51
311.8917664853524
  0
ARC
  5
6E
330
1F
100
AcDbEntity
  8
0
  6
Continuous
 62
     7
370
    15
100
AcDbCircle
 10
5.282635743708095
 20
6.024017984025045
 30
0.0
 40
0.0254599197410216
100
AcDbArc
 50
78.64013997860798
 51
104.6897023055683
  0
ARC
  5
6F
330
1F
100
AcDbEntity
  8
0
  6
Continuous
 62
     7
370
    15
100
AcDbCircle
 10
5.270303257697837
 20
5.445541761461729
 30
0.0
 40
0.0250912578716332
100
AcDbArc
 50
78.43944664109246
 51
131.8491739784363
  0
ARC
  5
70
330
1F
100
AcDbEntity
  8
0
  6
Continuous
 62
     7
370
    15
100
AcDbCircle
 10
5.284276375781341
 20
5.39339390813348
 30
0.0
 40
0.0250440222026395
100
AcDbArc
 50
258.8863290423763
 51
311.2938728800155
  0
LWPOLYLINE
  5
71
330
1F
100
AcDbEntity
  8
0
  6
Continuous
 62
     7
370
    15
100
AcDbPolyline
 90
       61
 70
   128
 43
0.0
 10
5.243174126500025
 20
5.409392951244284
 10
5.244781943038938
 20
5.40437407684305
 10
5.246732928676576
 20
5.399517374327468
 10
5.249005719606856
 20
5.394876045251938
 10
5.251575425958609
 20
5.390500938762484
 10
5.254413873780443
 20
5.386440062856027
 10
5.257489985302665
 20
5.382737823087971
 10
5.260770038206771
 20
5.379434811807609
 10
5.264218097741257
 20
5.376567221378064
 10
5.267796396983555
 20
5.374166459693045
 10
5.271465734386578
 20
5.372258855265145
 10
5.275185905894533
 20
5.370865258850376
 10
5.278916137058754
 20
5.370000974780698
 10
5.282615567007403
 20
5.369675489999754
 10
5.28624366327667
 20
5.369892362925011
 10
5.289760688495851
 20
5.370649192619955
 10
5.293128097933901
 20
5.371937653590412
 10
5.296308988899887
 20
5.373743705093227
 10
5.299268532858807
 20
5.376047569569939
 10
5.301974286554977
 20
5.378823884799123
 10
5.304396606843226
 20
5.382042393478001
 10
5.306508961812269
 20
5.385667671464465
 10
5.30828820733885
 20
5.389660137011515
 10
5.309714846357219
 20
5.393975981306103
 10
5.310773253559367
 20
5.398567908988923
 10
5.31145181367208
 20
5.403385619221067
 10
5.31174312887254
 20
5.408376362429983
 10
5.311643966934423
 20
5.413485425213158
 10
5.311155434074223
 20
5.418656837649014
 10
5.310282888528094
 20
5.423833961664364
 10
5.309035871413319
 20
5.428960027669996
 10
5.30742807215904
 20
5.433978897440485
 10
5.305477086521401
 20
5.438835647057213
 10
5.303204295591122
 20
5.443476929031597
 10
5.300634589239368
 20
5.447852035521051
 10
5.297796141417533
 20
5.451912958528653
 10
5.294720029895311
 20
5.455615198296709
 10
5.291439976991208
 20
5.45891820957707
 10
5.287991900172088
 20
5.461785804637361
 10
5.284413600929788
 20
5.464186519221235
 10
5.280744263526766
 20
5.466094170750278
 10
5.277024109303444
 20
5.467487715433159
 10
5.273293878139224
 20
5.468351999502837
 10
5.269594448190574
 20
5.46867748428378
 10
5.265966334636674
 20
5.468460615989268
 10
5.262449326702125
 20
5.467703828764726
 10
5.259081917264076
 20
5.466415320693122
 10
5.255901009013458
 20
5.464609273821053
 10
5.252941482339171
 20
5.462305451814742
 10
5.250235728643
 20
5.459529089484412
 10
5.247813391070119
 20
5.456310632537424
 10
5.245701036101076
 20
5.452685307449814
 10
5.243921790574495
 20
5.448692841902763
 10
5.242495151556125
 20
5.444377044709322
 10
5.241436761638611
 20
5.439785112395758
 10
5.240758184241264
 20
5.434967359693213
 10
5.240466886325437
 20
5.429976658954698
 10
5.240566048263554
 20
5.424867549070377
 10
5.241054581123754
 20
5.419696136634521
 10
5.241927126669883
 20
5.414519059720317
 10
5.243174126500025
 20
5.409392951244284
  0
ARC
  5
72
330
1F
100
AcDbEntity
  8
0
  6
Continuous
 62
     7
370
    15
100
AcDbCircle
 10
5.296314892292498
 20
5.397249448599647
 30
0.0
 40
0.0256738713106455
100
AcDbArc
 50
285.4081021789128
 51
311.8912881104523
  0
ARC
  5
73
330
1F
100
AcDbEntity
  8
0
  6
Continuous
 62
     7
370
    15
100
AcDbCircle
 10
5.282635770126384
 20
5.448490134966721
 30
0.0
 40
0.025458673938819
100
AcDbArc
 50
78.63963733460977
 51
104.6904987773421
  0
ARC
  5
74
330
1F
100
AcDbEntity
  8
0
  6
Continuous
 62
     7
370
    15
100
AcDbCircle
 10
5.270303416307069
 20
6.609702271808198
 30
0.0
 40
0.0250918002283697
100
AcDbArc
 50
78.44006964280396
 51
131.8485509767209
  0
ARC
  5
75
330
1F
100
AcDbEntity
  8
0
  6
Continuous
 62
     7
370
    15
100
AcDbCircle
 10
5.284276389606985
 20
6.557555107158176
 30
0.0
 40
0.025044125591235
100
AcDbArc
 50
258.8863432719448
 51
311.2936230284092
  0
LWPOLYLINE
  5
76
330
1F
100
AcDbEntity
  8
0
  6
Continuous
 62
     7
370
    15
100
AcDbPolyline
 90
       61
 70
   128
 43
0.0
 10
5.243174126500025
 20
6.573554047620362
 10
5.244781943038938
 20
6.568535173219129
 10
5.246732928676576
 20
6.5636784236024
 10
5.249005719606856
 20
6.559037094526869
 10
5.251575425958609
 20
6.554662035138562
 10
5.254413873780443
 20
6.550601112130959
 10
5.257489985302665
 20
6.546898872362904
 10
5.260770038206771
 20
6.543595861082542
 10
5.264218097741257
 20
6.540728270652997
 10
5.267796396983555
 20
6.538327556069122
 10
5.271465734386578
 20
6.536419904540078
 10
5.275185905894533
 20
6.535026355226453
 10
5.278916137058754
 20
6.534162071156775
 10
5.282615567007403
 20
6.533836586375833
 10
5.28624366327667
 20
6.534053459301089
 10
5.289760688495851
 20
6.534810241894887
 10
5.293128097933901
 20
6.53609874996649
 10
5.296308988899887
 20
6.537904801469305
 10
5.299268532858807
 20
6.540208618844871
 10
5.301974286554977
 20
6.542984981175201
 10
5.304396606843226
 20
6.546203442752934
 10
5.306508961812269
 20
6.549828767840542
 10
5.30828820733885
 20
6.553821186286448
 10
5.309714846357219
 20
6.558137030581034
 10
5.310773253559367
 20
6.562728958263854
 10
5.31145181367208
 20
6.567546715597145
 10
5.31174312887254
 20
6.572537411704915
 10
5.311643966934423
 20
6.577646521589236
 10
5.311155434074223
 20
6.582817934025092
 10
5.310282888528094
 20
6.587995010939296
 10
5.309035871413319
 20
6.593121124046072
 10
5.30742807215904
 20
6.598139993816563
 10
5.305477086521401
 20
6.602996696332145
 10
5.303204295591122
 20
6.607638025407675
 10
5.300634589239368
 20
6.612013131897129
 10
5.297796141417533
 20
6.616074007803585
 10
5.294720029895311
 20
6.619776247571641
 10
5.291439976991208
 20
6.623079258852004
 10
5.287991900172088
 20
6.625946853912292
 10
5.284413600929788
 20
6.628347615597312
 10
5.280744263526766
 20
6.630255220025212
 10
5.277024109303444
 20
6.631648811809236
 10
5.273293878139224
 20
6.632513095878914
 10
5.269594448190574
 20
6.632838580659859
 10
5.265966334636674
 20
6.632621712365345
 10
5.262449326702125
 20
6.631864878039658
 10
5.259081917264076
 20
6.6305764170692
 10
5.255901009013458
 20
6.62877037019713
 10
5.252941482339171
 20
6.626466501089674
 10
5.250235728643
 20
6.623690185860489
 10
5.247813391070119
 20
6.620471681812356
 10
5.245701036101076
 20
6.616846403825892
 10
5.243921790574495
 20
6.612853938278842
 10
5.242495151556125
 20
6.608538093984255
 10
5.241436761638611
 20
6.60394616167069
 10
5.240758184241264
 20
6.59912845606929
 10
5.240466886325437
 20
6.594137708229631
 10
5.240566048263554
 20
6.589028645446455
 10
5.241054581123754
 20
6.5838572330106
 10
5.241927126669883
 20
6.578680108995249
 10
5.243174126500025
 20
6.573554047620362
  0
ARC
  5
77
330
1F
100
AcDbEntity
  8
0
  6
Continuous
 62
     7
370
    15
100
AcDbCircle
 10
5.296315199619813
 20
6.561409982458973
 30
0.0
 40
0.0256732473578336
100
AcDbArc
 50
285.4077745053451
 51
311.8916157840303
  0
ARC
  5
78
330
1F
100
AcDbEntity
  8
0
  6
Continuous
 62
     7
370
    15
100
AcDbCircle
 10
5.282635706070429
 20
6.612649909095611
 30
0.0
 40
0.0254599367201756
100
AcDbArc
 50
78.64006126191458
 51
104.6896047255861
  0
ARC
  5
79
330
1F
100
AcDbEntity
  8
0
  6
Continuous
 62
     7
370
    15
100
AcDbCircle
 10
5.270303265391077
 20
7.25199839233275
 30
0.0
 40
0.0250914305708782
100
AcDbArc
 50
78.43954523880253
 51
131.8488443588877
  0
ARC
  5
7A
330
1F
100
AcDbEntity
  8
0
  6
Continuous
 62
     7
370
    15
100
AcDbCircle
 10
5.284276135654771
 20
7.199851607413765
 30
0.0
 40
0.0250448497795081
100
AcDbArc
 50
258.887260797783
 51
311.2929411246047
  0
LWPOLYLINE
  5
7B
330
1F
100
AcDbEntity
  8
0
  6
Continuous
 62
     7
370
    15
100
AcDbPolyline
 90
       61
 70
   128
 43
0.0
 10
5.243174126500025
 20
7.215849854166495
 10
5.244781943038938
 20
7.210830885562971
 10
5.246732928676576
 20
7.205974230148533
 10
5.249005719606856
 20
7.201332901073002
 10
5.251575425958609
 20
7.196957841684695
 10
5.254413873780443
 20
7.192896918677092
 10
5.257489985302665
 20
7.189194631807891
 10
5.260770038206771
 20
7.185891667628675
 10
5.264218097741257
 20
7.183024030097985
 10
5.267796396983555
 20
7.18062331551411
 10
5.271465734386578
 20
7.178715663985065
 10
5.275185905894533
 20
7.177322114671441
 10
5.278916137058754
 20
7.176457830601763
 10
5.282615567007403
 20
7.17613234582082
 10
5.28624366327667
 20
7.176349171644931
 10
5.289760688495851
 20
7.17710604844102
 10
5.293128097933901
 20
7.178394556512624
 10
5.296308988899887
 20
7.180200560914292
 10
5.299268532858807
 20
7.18250437828986
 10
5.301974286554977
 20
7.185280787721334
 10
5.304396606843226
 20
7.188499202197921
 10
5.306508961812269
 20
7.19212452728553
 10
5.30828820733885
 20
7.196116992832581
 10
5.309714846357219
 20
7.200432837127167
 10
5.310773253559367
 20
7.205024717708843
 10
5.31145181367208
 20
7.209842427940986
 10
5.31174312887254
 20
7.214833218251048
 10
5.311643966934423
 20
7.219942281034223
 10
5.311155434074223
 20
7.225113646368934
 10
5.310282888528094
 20
7.230290770384285
 10
5.309035871413319
 20
7.235416836389915
 10
5.30742807215904
 20
7.240435800362695
 10
5.305477086521401
 20
7.245292455777132
 10
5.303204295591122
 20
7.249933784852663
 10
5.300634589239368
 20
7.254308844240972
 10
5.297796141417533
 20
7.258369767248574
 10
5.294720029895311
 20
7.262072054117775
 10
5.291439976991208
 20
7.265375018296992
 10
5.287991900172088
 20
7.268242660458425
 10
5.284413600929788
 20
7.2706433750423
 10
5.280744263526766
 20
7.272551026571345
 10
5.277024109303444
 20
7.273944571254224
 10
5.273293878139224
 20
7.274808855323903
 10
5.269594448190574
 20
7.275134340104846
 10
5.265966334636674
 20
7.274917518911479
 10
5.262449326702125
 20
7.274160637484647
 10
5.259081917264076
 20
7.272872129413042
 10
5.255901009013458
 20
7.271066129642118
 10
5.252941482339171
 20
7.268762307635807
 10
5.250235728643
 20
7.265985898204331
 10
5.247813391070119
 20
7.262767488358488
 10
5.245701036101076
 20
7.25914216327088
 10
5.243921790574495
 20
7.25514969772383
 10
5.242495151556125
 20
7.250833853429242
 10
5.241436761638611
 20
7.246241968216823
 10
5.240758184241264
 20
7.241424262615423
 10
5.240466886325437
 20
7.236433467674618
 10
5.240566048263554
 20
7.231324404891442
 10
5.241054581123754
 20
7.226153039556732
 10
5.241927126669883
 20
7.220975915541382
 10
5.243174126500025
 20
7.215849854166495
  0
ARC
  5
7C
330
1F
100
AcDbEntity
  8
0
  6
Continuous
 62
     7
370
    15
100
AcDbCircle
 10
5.296315694342976
 20
7.203704676767183
 30
0.0
 40
0.0256720890620029
100
AcDbArc
 50
285.4073416425602
 51
311.8924513617808
  0
ARC
  5
7D
330
1F
100
AcDbEntity
  8
0
  6
Continuous
 62
     7
370
    15
100
AcDbCircle
 10
5.282635706070429
 20
7.254945668540586
 30
0.0
 40
0.0254599367201876
100
AcDbArc
 50
78.64006126192009
 51
104.689604725579
  0
LINE
  5
7E
330
1F
100
AcDbEntity
  8
0
  6
Continuous
 62
     7
370
    15
100
AcDbLine
 10
5.08115689792092
 20
4.898241618583881
 30
0.0
 11
5.118445243579849
 21
4.979120027067021
 31
0.0
  0
ARC
  5
7F
330
1F
100
AcDbEntity
  8
0
  6
Continuous
 62
     7
370
    15
100
AcDbCircle
 10
5.190228948378847
 20
4.847959882370175
 30
0.0
 40
0.1201039765693101
100
AcDbArc
 50
155.2505059163525
 51
179.7346183627845
  0
LINE
  5
80
330
1F
100
AcDbEntity
  8
0
  6
Continuous
 62
     7
370
    15
100
AcDbLine
 10
5.070126260127577
 20
4.502043446917816
 30
0.0
 11
5.070126260127577
 21
4.848516175979295
 31
0.0
  0
LINE
  5
81
330
1F
100
AcDbEntity
  8
0
  6
Continuous
 62
     7
370
    15
100
AcDbLine
 10
5.070126260127577
 20
4.502043446917816
 30
0.0
 11
4.598721779602825
 21
4.375748976685868
 31
0.0
  0
LINE
  5
82
330
1F
100
AcDbEntity
  8
0
  6
Continuous
 62
     7
370
    15
100
AcDbLine
 10
4.598721779602825
 20
4.375748976685868
 30
0.0
 11
4.598721779602825
 21
4.722221705747347
 31
0.0
  0
ARC
  5
83
330
1F
100
AcDbEntity
  8
0
  6
Continuous
 62
     7
370
    15
100
AcDbCircle
 10
4.718824467854086
 20
4.721665412138228
 30
0.0
 40
0.1201039765693012
100
AcDbArc
 50
155.2505059163511
 51
179.7346183627849
  0
LINE
  5
84
330
1F
100
AcDbEntity
  8
0
  6
Continuous
 62
     7
370
    15
100
AcDbLine
 10
4.849226925049626
 20
5.291367684276623
 30
0.0
 11
4.609752417396168
 21
4.771947148351933
 31
0.0
  0
ARC
  5
85
330
1F
100
AcDbEntity
  8
0
  6
Continuous
 62
     7
370
    15
100
AcDbCircle
 10
4.412769237358465
 20
5.492532393165369
 30
0.0
 40
0.4805856357060716
100
AcDbArc
 50
335.2548765796763
 51
359.7302119916886
  0
LINE
  5
86
330
1F
100
AcDbEntity
  8
0
  6
Continuous
 62
     7
370
    15
100
AcDbLine
 10
4.893349545361529
 20
5.563883759284386
 30
0.0
 11
4.893349545361529
 21
5.490269473217943
 31
0.0
  0
LWPOLYLINE
  5
87
330
1F
100
AcDbEntity
  8
0
  6
Continuous
 62
     7
370
    15
100
AcDbPolyline
 90
       17
 70
   128
 43
0.0
 10
4.850137479503183
 20
5.629686415105258
 10
4.854697857009381
 20
5.62891383393799
 10
4.859124382319521
 20
5.627607297674645
 10
4.863387602419387
 20
5.625775400928119
 10
4.867459516203917
 20
5.623430377272858
 10
4.871313228784542
 20
5.620587629820806
 10
4.874923158904783
 20
5.617265928093772
 10
4.878265522909971
 20
5.613487255077393
 10
4.881318265608707
 20
5.609276600293578
 10
4.884061198549935
 20
5.604661761340731
 10
4.886476207438527
 20
5.599673163956954
 10
4.888547252135285
 20
5.594343862020047
 10
4.890260781488129
 20
5.588708989269331
 10
4.891605387639442
 20
5.582805807994202
 10
4.892572220857251
 20
5.576673349160535
 10
4.893154920396703
 20
5.57035206417969
 10
4.893349545361529
 20
5.563883759284386
  0
LWPOLYLINE
  5
88
330
1F
100
AcDbEntity
  8
0
  6
Continuous
 62
     7
370
    15
100
AcDbPolyline
 90
       18
 70
   128
 43
0.0
 10
4.796122379895615
 20
5.711939800902322
 10
4.796337953835341
 20
5.704325461911389
 10
4.796983292883899
 20
5.696871172685035
 10
4.798054732699144
 20
5.689620556290266
 10
4.799545912536222
 20
5.682616065937127
 10
4.801448190078756
 20
5.675898695756813
 10
4.803750364884721
 20
5.669507765406331
 10
4.806438954940566
 20
5.663480640901817
 10
4.809498334938281
 20
5.657852653911624
 10
4.812910459721269
 20
5.652656745057541
 10
4.816655417392596
 20
5.64792323528944
 10
4.820711291037929
 20
5.643679883041625
 10
4.825054366141126
 20
5.639951562992579
 10
4.829659199722771
 20
5.636760049082234
 10
4.834498827755767
 20
5.63412402297974
 10
4.839544972580924
 20
5.632058941247817
 10
4.844768042906967
 20
5.630576846938177
 10
4.850137479503183
 20
5.629686415105258
  0
LINE
  5
89
330
1F
100
AcDbEntity
  8
0
  6
Continuous
 62
     7
370
    15
100
AcDbLine
 10
4.796122379895615
 20
5.792226764945302
 30
0.0
 11
4.796122379895615
 21
5.711939800902322
 31
0.0
  0
ARC
  5
8A
330
1F
100
AcDbEntity
  8
0
  6
Continuous
 62
     7
370
    15
100
AcDbCircle
 10
4.931436775697573
 20
5.795212976704857
 30
0.0
 40
0.1353473426851142
100
AcDbArc
 50
126.9180080080363
 51
181.2642377132526
  0
ARC
  5
8B
330
1F
100
AcDbEntity
  8
0
  6
Continuous
 62
     7
370
    15
100
AcDbCircle
 10
4.785181924455027
 20
5.989949576361727
 30
0.0
 40
0.1081949062691022
100
AcDbArc
 50
306.8954607027648
 51
1.286791593079581
  0
LINE
  5
8C
330
1F
100
AcDbEntity
  8
0
  6
Continuous
 62
     7
370
    15
100
AcDbLine
 10
4.893349545361529
 20
6.152515699999354
 30
0.0
 11
4.893349545361529
 21
5.992379294453746
 31
0.0
  0
LWPOLYLINE
  5
8D
330
1F
100
AcDbEntity
  8
0
  6
Continuous
 62
     7
370
    15
100
AcDbPolyline
 90
       17
 70
   128
 43
0.0
 10
4.850137479503183
 20
6.218318391146086
 10
4.854697857009381
 20
6.217545762877672
 10
4.859124382319521
 20
6.216239238389613
 10
4.863387602419387
 20
6.21440736519366
 10
4.867459516203917
 20
6.212062317987827
 10
4.871313228784542
 20
6.209219570535775
 10
4.874923158904783
 20
6.205897892359313
 10
4.878265522909971
 20
6.202119231118221
 10
4.881318265608707
 20
6.19790856455912
 10
4.884061198549935
 20
6.1932937020557
 10
4.886476207438527
 20
6.188305128222495
 10
4.888547252135285
 20
6.182975802735015
 10
4.890260781488129
 20
6.17734094764723
 10
4.891605387639442
 20
6.171437772259744
 10
4.892572220857251
 20
6.165305289875504
 10
4.893154920396703
 20
6.158984016669945
 10
4.893349545361529
 20
6.152515699999354
  0
LWPOLYLINE
  5
8E
330
1F
100
AcDbEntity
  8
0
  6
Continuous
 62
     7
370
    15
100
AcDbPolyline
 90
       18
 70
   128
 43
0.0
 10
4.796122379895615
 20
6.300571765167863
 10
4.796337953835341
 20
6.292957426176932
 10
4.796983292883899
 20
6.285503113400004
 10
4.798054732699144
 20
6.278252520555808
 10
4.799545912536222
 20
6.271248030202669
 10
4.801448190078756
 20
6.264530660022354
 10
4.803750364884721
 20
6.258139729671872
 10
4.806438954940566
 20
6.252112616942645
 10
4.809498334938281
 20
6.246484629952452
 10
4.812910459721269
 20
6.241288673997223
 10
4.816655417392596
 20
6.236555187779695
 10
4.820711291037929
 20
6.232311847307166
 10
4.825054366141126
 20
6.228583515482834
 10
4.829659199722771
 20
6.225392001572489
 10
4.834498827755767
 20
6.222755987245282
 10
4.839544972580924
 20
6.220690893738073
 10
4.844768042906967
 20
6.219208799428431
 10
4.850137479503183
 20
6.218318391146086
  0
LINE
  5
8F
330
1F
100
AcDbEntity
  8
0
  6
Continuous
 62
     7
370
    15
100
AcDbLine
 10
4.796122379895615
 20
6.380858729210843
 30
0.0
 11
4.796122379895615
 21
6.300571765167863
 31
0.0
  0
ARC
  5
90
330
1F
100
AcDbEntity
  8
0
  6
Continuous
 62
     7
370
    15
100
AcDbCircle
 10
4.931436887255228
 20
6.383844898238611
 30
0.0
 40
0.1353474532728161
100
AcDbArc
 50
126.9180319042507
 51
181.2642185863389
  0
ARC
  5
91
330
1F
100
AcDbEntity
  8
0
  6
Continuous
 62
     7
370
    15
100
AcDbCircle
 10
4.785182044847417
 20
6.578581492955215
 30
0.0
 40
0.1081947864487686
100
AcDbArc
 50
306.8954286155531
 51
1.286805795402998
  0
LINE
  5
92
330
1F
100
AcDbEntity
  8
0
  6
Continuous
 62
     7
370
    15
100
AcDbLine
 10
4.893349545361529
 20
6.794811482994915
 30
0.0
 11
4.893349545361529
 21
6.581011235168714
 31
0.0
  0
LWPOLYLINE
  5
93
330
1F
100
AcDbEntity
  8
0
  6
Continuous
 62
     7
370
    15
100
AcDbPolyline
 90
       17
 70
   128
 43
0.0
 10
4.850137479503183
 20
6.860614138815787
 10
4.854697857009381
 20
6.859841557648519
 10
4.859124382319521
 20
6.858535021385174
 10
4.863387602419387
 20
6.856703124638648
 10
4.867459516203917
 20
6.854358100983388
 10
4.871313228784542
 20
6.851515353531335
 10
4.874923158904783
 20
6.848193651804301
 10
4.878265522909971
 20
6.844414978787922
 10
4.881318265608707
 20
6.840204324004107
 10
4.884061198549935
 20
6.835589485051261
 10
4.886476207438527
 20
6.830600887667483
 10
4.888547252135285
 20
6.825271585730577
 10
4.890260781488129
 20
6.819636712979861
 10
4.891605387639442
 20
6.813733531704732
 10
4.892572220857251
 20
6.807601072871065
 10
4.893154920396703
 20
6.801279787890218
 10
4.893349545361529
 20
6.794811482994915
  0
LWPOLYLINE
  5
94
330
1F
100
AcDbEntity
  8
0
  6
Continuous
 62
     7
370
    15
100
AcDbPolyline
 90
       18
 70
   128
 43
0.0
 10
4.796122379895615
 20
6.942867548163424
 10
4.796337953835341
 20
6.935253185621919
 10
4.796983292883899
 20
6.927798896395565
 10
4.798054732699144
 20
6.920548256450223
 10
4.799545912536222
 20
6.913543836748802
 10
4.801448190078756
 20
6.906826466568488
 10
4.803750364884721
 20
6.900435536218006
 10
4.806438954940566
 20
6.894408411713492
 10
4.809498334938281
 20
6.888780377622154
 10
4.812910459721269
 20
6.88358446876807
 10
4.816655417392596
 20
6.87885095899997
 10
4.820711291037929
 20
6.874607606752153
 10
4.825054366141126
 20
6.870879333804254
 10
4.829659199722771
 20
6.867687772792764
 10
4.834498827755767
 20
6.865051793791415
 10
4.839544972580924
 20
6.862986664958347
 10
4.844768042906967
 20
6.861504570648707
 10
4.850137479503183
 20
6.860614138815787
  0
LINE
  5
95
330
1F
100
AcDbEntity
  8
0
  6
Continuous
 62
     7
370
    15
100
AcDbLine
 10
4.796122379895615
 20
7.023154465105259
 30
0.0
 11
4.796122379895615
 21
6.942867548163424
 31
0.0
  0
ARC
  5
96
330
1F
100
AcDbEntity
  8
0
  6
Continuous
 62
     7
370
    15
100
AcDbCircle
 10
4.931436818873017
 20
7.026140690268846
 30
0.0
 40
0.1353473861457869
100
AcDbArc
 50
126.9180170463285
 51
181.2642429828623
  0
ARC
  5
97
330
1F
100
AcDbEntity
  8
0
  6
Continuous
 62
     7
370
    15
100
AcDbCircle
 10
4.785181833369458
 20
7.220877355128902
 30
0.0
 40
0.1081949955664577
100
AcDbArc
 50
306.8954855178586
 51
1.286748893097833
  0
LINE
  5
98
330
1F
100
AcDbEntity
  8
0
  6
Continuous
 62
     7
370
    15
100
AcDbLine
 10
4.893349545361529
 20
7.370705884488638
 30
0.0
 11
4.893349545361529
 21
7.223306994613703
 31
0.0
  0
LINE
  5
99
330
1F
100
AcDbEntity
  8
0
  6
Continuous
 62
     7
370
    15
100
AcDbLine
 10
4.893349545361529
 20
7.370705884488638
 30
0.0
 11
5.118445243579849
 21
7.431011509768924
 31
0.0
  0
LWPOLYLINE
  5
9A
330
1F
100
AcDbEntity
  8
0
  6
Continuous
 62
     7
370
    15
100
AcDbPolyline
 90
       75
 70
   128
 43
0.0
 10
4.871358514522361
 20
5.846054011116739
 10
4.86676418999743
 20
5.844557231283848
 10
4.862202913690329
 20
5.842539370445978
 10
4.857707664680353
 20
5.840015033953271
 10
4.85331073066149
 20
5.837002362916602
 10
4.849043846219479
 20
5.833523071253522
 10
4.844937708862094
 20
5.829602245375712
 10
4.841021979019143
 20
5.825268108683246
 10
4.837324796072752
 20
5.82055191545434
 10
4.833872847495895
 20
5.815487616109726
 10
4.830690954021209
 20
5.810111722524227
 10
4.827802069640994
 20
5.804462954768161
 10
4.825227005053087
 20
5.798582025712005
 10
4.822984358522332
 20
5.792511316345967
 10
4.821090239326458
 20
5.786294542631779
 10
4.819558267756078
 20
5.779976472895829
 10
4.818399575114684
 20
5.773602692323431
 10
4.817622388887467
 20
5.767219091461229
 10
4.817232447572505
 20
5.760871671197609
 10
4.817232447572505
 20
5.754606159073162
 10
4.817622388887467
 20
5.748467677985257
 10
4.818399575114684
 20
5.742500487131741
 10
4.819558267756078
 20
5.736747559688035
 10
4.821090239326458
 20
5.73125037773236
 10
4.822984358522332
 20
5.726048514950426
 10
4.825227005053087
 20
5.721179441615852
 10
4.827802069640994
 20
5.716678289084437
 10
4.830690954021209
 20
5.712577449434419
 10
4.833872847495895
 20
5.708906484704381
 10
4.837324796072752
 20
5.705691839258768
 10
4.841021979019143
 20
5.70295665482351
 10
4.844937708862094
 20
5.700720676283717
 10
4.849043846219479
 20
5.698999986012385
 10
4.85331073066149
 20
5.697806985347408
 10
4.857707664680353
 20
5.6971502887467
 10
4.862202913690329
 20
5.697034606035323
 10
4.86676418999743
 20
5.697460777864031
 10
4.871358514522361
 20
5.698425738663321
 10
4.875952908185822
 20
5.699922537019187
 10
4.880514115354393
 20
5.701940379334081
 10
4.885009433502899
 20
5.704464734349765
 10
4.889406367521763
 20
5.707477405386433
 10
4.893673251963774
 20
5.710956697049513
 10
4.897779389321158
 20
5.714877546477897
 10
4.901695119164109
 20
5.719211659619789
 10
4.905392302110501
 20
5.723927876399269
 10
4.908844250687358
 20
5.728992152193311
 10
4.912026144162043
 20
5.73436804577881
 10
4.914915028542258
 20
5.740016813534874
 10
4.917490093130166
 20
5.74589774259103
 10
4.91973273966092
 20
5.751968475507641
 10
4.921626858856794
 20
5.758185249221829
 10
4.923158761288644
 20
5.764503276884229
 10
4.92431752306857
 20
5.770877075979605
 10
4.925094640157254
 20
5.777260681869403
 10
4.925484650610748
 20
5.783608120655999
 10
4.925484650610748
 20
5.789873632780446
 10
4.925094640157254
 20
5.796012095345375
 10
4.92431752306857
 20
5.801979281171294
 10
4.923158761288644
 20
5.807732190092023
 10
4.921626858856794
 20
5.813229414121249
 10
4.91973273966092
 20
5.818431276903182
 10
4.917490093130166
 20
5.823300326687183
 10
4.914915028542258
 20
5.827801479218599
 10
4.912026144162043
 20
5.831902318868616
 10
4.908844250687358
 20
5.835573283598654
 10
4.905392302110501
 20
5.838787952594841
 10
4.901695119164109
 20
5.841523113479526
 10
4.897779389321158
 20
5.843759115569891
 10
4.893673251963774
 20
5.845479782290652
 10
4.889406367521763
 20
5.846672782955628
 10
4.885009433502899
 20
5.847329479556335
 10
4.880514115354393
 20
5.847445143744735
 10
4.875952908185822
 20
5.847018990439004
 10
4.871358514522361
 20
5.846054011116739
  0
LWPOLYLINE
  5
9B
330
1F
100
AcDbEntity
  8
0
  6
Continuous
 62
     7
370
    15
100
AcDbPolyline
 90
       61
 70
   128
 43
0.0
 10
5.011200665492718
 20
7.252269324666348
 10
5.007418856984355
 20
7.25152621433909
 10
5.003678393317545
 20
7.25133122801257
 10
5.000020342779711
 20
7.251686701724104
 10
4.99648487485738
 20
7.252588701765686
 10
4.993110568850862
 20
7.254027216263401
 10
4.989934483012781
 20
7.255986644711837
 10
4.986991324885713
 20
7.258445387293802
 10
4.984313520440709
 20
7.261376522819323
 10
4.981930246137856
 20
7.264748114617728
 10
4.979867636341882
 20
7.268522983499704
 10
4.978148368490963
 20
7.272659915451505
 10
4.976791179127005
 20
7.277113437771827
 10
4.975811002172708
 20
7.281834986545257
 10
4.975218623238914
 20
7.286772719825091
 10
4.975020403070474
 20
7.291872385564348
 10
4.975218623238914
 20
7.297078356253551
 10
4.975811002172708
 20
7.302333499259898
 10
4.976791179127005
 20
7.307580154308718
 10
4.978148368490963
 20
7.312760982891492
 10
4.979867636341882
 20
7.317819136560052
 10
4.981930246137856
 20
7.322699197362086
 10
4.984313520440709
 20
7.327347706008929
 10
4.986991324885713
 20
7.331713762547848
 10
4.989934483012781
 20
7.335749514309076
 10
4.993110568850862
 20
7.33941075975291
 10
4.99648487485738
 20
7.342657301993675
 10
5.000020342779711
 20
7.345453683895082
 10
5.003678393317545
 20
7.347769221941359
 10
5.007418856984355
 20
7.349578458725726
 10
5.011200665492718
 20
7.350861724989334
 10
5.01498254313961
 20
7.351604853839567
 10
5.018723006806421
 20
7.351799840166088
 10
5.022380988205723
 20
7.351444347931578
 10
5.025916525266585
 20
7.35054236641297
 10
5.029290831273105
 20
7.349103851915256
 10
5.032466917111184
 20
7.34714442346682
 10
5.035410006099721
 20
7.34468566236188
 10
5.038087879683256
 20
7.341754451157044
 10
5.040471153986111
 20
7.33838295356093
 10
5.042533763782083
 20
7.334608084678953
 10
5.044253031633003
 20
7.330471152727152
 10
5.045610220996961
 20
7.32601753620454
 10
5.046590397951256
 20
7.321296081633401
 10
5.047182776885051
 20
7.316358348353567
 10
5.047380997053491
 20
7.31125858841202
 10
5.047182776885051
 20
7.306052711925108
 10
5.046590397951256
 20
7.30079756891876
 10
5.045610220996961
 20
7.295550819667649
 10
5.044253031633003
 20
7.290370085287166
 10
5.042533763782083
 20
7.285311931618606
 10
5.040471153986111
 20
7.280431870816572
 10
5.038087879683256
 20
7.275783267967438
 10
5.035410006099721
 20
7.271417287107833
 10
5.032466917111184
 20
7.267381553869581
 10
5.029290831273105
 20
7.263720308425748
 10
5.025916525266585
 20
7.260473766184983
 10
5.022380988205723
 20
7.257677365760598
 10
5.018723006806421
 20
7.255361846237299
 10
5.01498254313961
 20
7.253552609452933
 10
5.011200665492718
 20
7.252269324666348
  0
LWPOLYLINE
  5
9C
330
1F
100
AcDbEntity
  8
0
  6
Continuous
 62
     7
370
    15
100
AcDbPolyline
 90
       61
 70
   128
 43
0.0
 10
4.975020403070474
 20
6.047424372246434
 10
4.975218623238914
 20
6.052630337047994
 10
4.975811002172708
 20
6.05788543884084
 10
4.976791179127005
 20
6.06313214982227
 10
4.978148368490963
 20
6.068312963685935
 10
4.979867636341882
 20
6.073371102635388
 10
4.981930246137856
 20
6.078251178156531
 10
4.984313520440709
 20
6.08289970152248
 10
4.986991324885713
 20
6.087265734510828
 10
4.989934483012781
 20
6.091301484800145
 10
4.993110568850862
 20
6.094962691974297
 10
4.99648487485738
 20
6.098209263653279
 10
5.000020342779711
 20
6.101005607285006
 10
5.003678393317545
 20
6.103321127668352
 10
5.007418856984355
 20
6.105130429216794
 10
5.011200665492718
 20
6.106413667514098
 10
5.01498254313961
 20
6.107156824330636
 10
5.018723006806421
 20
6.107351745893081
 10
5.022380988205723
 20
6.1069962713215
 10
5.025916525266585
 20
6.106094328072575
 10
5.029290831273105
 20
6.104655784136645
 10
5.032466917111184
 20
6.102696393957888
 10
5.035410006099721
 20
6.10023763432486
 10
5.038087879683256
 20
6.097306446670597
 10
5.040471153986111
 20
6.093934934355373
 10
5.042533763782083
 20
6.090160050754289
 10
5.044253031633003
 20
6.086023133521597
 10
5.045610220996961
 20
6.081569531718091
 10
5.046590397951256
 20
6.076848021214343
 10
5.047182776885051
 20
6.07191032914801
 10
5.047380997053491
 20
6.066810575094107
 10
5.047182776885051
 20
6.061604616180191
 10
5.046590397951256
 20
6.056349508499701
 10
5.045610220996961
 20
6.051102806349736
 10
5.044253031633003
 20
6.045921989542249
 10
5.042533763782083
 20
6.040863847648974
 10
5.040471153986111
 20
6.035983775071654
 10
5.038087879683256
 20
6.031335254649526
 10
5.035410006099721
 20
6.026969203138202
 10
5.032466917111184
 20
6.022933469899951
 10
5.029290831273105
 20
6.019272259781977
 10
5.025916525266585
 20
6.016025693990638
 10
5.022380988205723
 20
6.013229328892113
 10
5.018723006806421
 20
6.010913821144101
 10
5.01498254313961
 20
6.009104525483301
 10
5.011200665492718
 20
6.00782126424729
 10
5.007418856984355
 20
6.007078130369459
 10
5.003678393317545
 20
6.006883202919371
 10
5.000020342779711
 20
6.007238664855618
 10
4.99648487485738
 20
6.008140629571343
 10
4.993110568850862
 20
6.009579167619629
 10
4.989934483012781
 20
6.011538560742208
 10
4.986991324885713
 20
6.01399730332417
 10
4.984313520440709
 20
6.01692850950141
 10
4.981930246137856
 20
6.020300018872811
 10
4.979867636341882
 20
6.024074899530073
 10
4.978148368490963
 20
6.028211819706587
 10
4.976791179127005
 20
6.032665424453915
 10
4.975811002172708
 20
6.037386926126198
 10
4.975218623238914
 20
6.042324624080174
 10
4.975020403070474
 20
6.047424372246434
  0
LWPOLYLINE
  5
9D
330
1F
100
AcDbEntity
  8
0
  6
Continuous
 62
     7
370
    15
100
AcDbPolyline
 90
       75
 70
   128
 43
0.0
 10
4.871358514522361
 20
5.190237914963222
 10
4.86676418999743
 20
5.188741111579759
 10
4.862202913690329
 20
5.186723274292461
 10
4.857707664680353
 20
5.184198984900901
 10
4.85331073066149
 20
5.181186313864231
 10
4.849043846219479
 20
5.177706951549434
 10
4.844937708862094
 20
5.173786172772768
 10
4.841021979019143
 20
5.169451988979158
 10
4.837324796072752
 20
5.164735772199677
 10
4.833872847495895
 20
5.159671519956209
 10
4.830690954021209
 20
5.154295649921283
 10
4.827802069640994
 20
5.148646905715789
 10
4.825227005053087
 20
5.142765906007916
 10
4.822984358522332
 20
5.13669522019245
 10
4.821090239326458
 20
5.130478446478262
 10
4.819558267756078
 20
5.124160400292886
 10
4.818399575114684
 20
5.117786643271061
 10
4.817622388887467
 20
5.111402995307712
 10
4.817232447572505
 20
5.10505555149352
 10
4.817232447572505
 20
5.098790062919645
 10
4.817622388887467
 20
5.092651558281169
 10
4.818399575114684
 20
5.08668443807937
 10
4.819558267756078
 20
5.080931439983947
 10
4.821090239326458
 20
5.075434258028271
 10
4.822984358522332
 20
5.070232395246336
 10
4.825227005053087
 20
5.065363369012908
 10
4.827802069640994
 20
5.060862240032067
 10
4.830690954021209
 20
5.056761329730331
 10
4.833872847495895
 20
5.053090388550864
 10
4.837324796072752
 20
5.049875766655825
 10
4.841021979019143
 20
5.047140582220565
 10
4.844937708862094
 20
5.044904533029055
 10
4.849043846219479
 20
5.04318391340944
 10
4.85331073066149
 20
5.041990936295038
 10
4.857707664680353
 20
5.041334239694331
 10
4.862202913690329
 20
5.041218509881807
 10
4.86676418999743
 20
5.041644705261087
 10
4.871358514522361
 20
5.042609642509805
 10
4.875952908185822
 20
5.044106464416244
 10
4.880514115354393
 20
5.046124283180565
 10
4.885009433502899
 20
5.048648685297393
 10
4.889406367521763
 20
5.051661356334063
 10
4.893673251963774
 20
5.055140624446569
 10
4.897779389321158
 20
5.059061403223235
 10
4.901695119164109
 20
5.063395587016845
 10
4.905392302110501
 20
5.068111803796324
 10
4.908844250687358
 20
5.073176056039794
 10
4.912026144162043
 20
5.07855192607472
 10
4.914915028542258
 20
5.084200764482504
 10
4.917490093130166
 20
5.090081669988086
 10
4.91973273966092
 20
5.096152355803553
 10
4.921626858856794
 20
5.10236912951774
 10
4.923158761288644
 20
5.108687157180141
 10
4.92431752306857
 20
5.115061026927233
 10
4.925094640157254
 20
5.121444562165314
 10
4.925484650610748
 20
5.127792024502483
 10
4.925484650610748
 20
5.134057513076357
 10
4.925094640157254
 20
5.140195999191858
 10
4.92431752306857
 20
5.146163232118924
 10
4.923158761288644
 20
5.15191611748908
 10
4.921626858856794
 20
5.157413317967732
 10
4.91973273966092
 20
5.162615180749667
 10
4.917490093130166
 20
5.167484206983094
 10
4.914915028542258
 20
5.171985430166228
 10
4.912026144162043
 20
5.176086246265672
 10
4.908844250687358
 20
5.179757187445139
 10
4.905392302110501
 20
5.182971809340178
 10
4.901695119164109
 20
5.185706993775436
 10
4.897779389321158
 20
5.187943042966947
 10
4.893673251963774
 20
5.189663662586562
 10
4.889406367521763
 20
5.190856733903257
 10
4.885009433502899
 20
5.191513430503964
 10
4.880514115354393
 20
5.191629047591219
 10
4.875952908185822
 20
5.191202870734915
 10
4.871358514522361
 20
5.190237914963222
  0
LWPOLYLINE
  5
9E
330
1F
100
AcDbEntity
  8
0
  6
Continuous
 62
     7
370
    15
100
AcDbPolyline
 90
       75
 70
   128
 43
0.0
 10
4.871358514522361
 20
7.076981781928414
 10
4.86676418999743
 20
7.07548497854495
 10
4.862202913690329
 20
7.073467141257653
 10
4.857707664680353
 20
7.0709427576638
 10
4.85331073066149
 20
7.067930086627132
 10
4.849043846219479
 20
7.064450818514624
 10
4.844937708862094
 20
7.060529945535669
 10
4.841021979019143
 20
7.056195855944348
 10
4.837324796072752
 20
7.051479639164869
 10
4.833872847495895
 20
7.046415386921402
 10
4.830690954021209
 20
7.041039422684184
 10
4.827802069640994
 20
7.035390678478691
 10
4.825227005053087
 20
7.029509772973107
 10
4.822984358522332
 20
7.023438992955351
 10
4.821090239326458
 20
7.017222219241163
 10
4.819558267756078
 20
7.010904173055786
 10
4.818399575114684
 20
7.004530416033961
 10
4.817622388887467
 20
6.998146768070613
 10
4.817232447572505
 20
6.991799418458711
 10
4.817232447572505
 20
6.985533835682546
 10
4.817622388887467
 20
6.97939542524636
 10
4.818399575114684
 20
6.973428210842271
 10
4.819558267756078
 20
6.967675306949137
 10
4.821090239326458
 20
6.962178124993462
 10
4.822984358522332
 20
6.956976262211528
 10
4.825227005053087
 20
6.952107141775809
 10
4.827802069640994
 20
6.947606012794967
 10
4.830690954021209
 20
6.943505196695523
 10
4.833872847495895
 20
6.939834255516056
 10
4.837324796072752
 20
6.936619539418725
 10
4.841021979019143
 20
6.933884354983466
 10
4.844937708862094
 20
6.931648399994247
 10
4.849043846219479
 20
6.929927686172342
 10
4.85331073066149
 20
6.928734709057938
 10
4.857707664680353
 20
6.92807801245723
 10
4.862202913690329
 20
6.927962282644707
 10
4.86676418999743
 20
6.928388478023988
 10
4.871358514522361
 20
6.929353509474996
 10
4.875952908185822
 20
6.930850237179144
 10
4.880514115354393
 20
6.932868055943465
 10
4.885009433502899
 20
6.935392458060294
 10
4.889406367521763
 20
6.938405129096963
 10
4.893673251963774
 20
6.941884397209469
 10
4.897779389321158
 20
6.945805270188427
 10
4.901695119164109
 20
6.950139359779746
 10
4.905392302110501
 20
6.954855576559226
 10
4.908844250687358
 20
6.959919923004984
 10
4.912026144162043
 20
6.965295793039912
 10
4.914915028542258
 20
6.970944537245404
 10
4.917490093130166
 20
6.976825442750987
 10
4.91973273966092
 20
6.982896222768744
 10
4.921626858856794
 20
6.989112996482933
 10
4.923158761288644
 20
6.995431024145333
 10
4.92431752306857
 20
7.001804799690134
 10
4.925094640157254
 20
7.008188429130505
 10
4.925484650610748
 20
7.014535797265383
 10
4.925484650610748
 20
7.020801380041548
 10
4.925094640157254
 20
7.026939771954758
 10
4.92431752306857
 20
7.032907004881824
 10
4.923158761288644
 20
7.03865989025198
 10
4.921626858856794
 20
7.044157090730633
 10
4.91973273966092
 20
7.049358953512567
 10
4.917490093130166
 20
7.054228073948285
 10
4.914915028542258
 20
7.058729202929129
 10
4.912026144162043
 20
7.062830019028573
 10
4.908844250687358
 20
7.06650105441033
 10
4.905392302110501
 20
7.06971567630537
 10
4.901695119164109
 20
7.072450860740628
 10
4.897779389321158
 20
7.074686815729848
 10
4.893673251963774
 20
7.076407529551755
 10
4.889406367521763
 20
7.077600506666158
 10
4.885009433502899
 20
7.078257203266865
 10
4.880514115354393
 20
7.07837291455641
 10
4.875952908185822
 20
7.077946737700107
 10
4.871358514522361
 20
7.076981781928414
  0
LINE
  5
9F
330
1F
100
AcDbEntity
  8
0
  6
Continuous
 62
     7
370
    15
100
AcDbLine
 10
4.783865846808724
 20
7.026438125776803
 30
0.0
 11
4.796122379895615
 21
7.023154465105259
 31
0.0
  0
LINE
  5
A0
330
1F
100
AcDbEntity
  8
0
  6
Continuous
 62
     7
370
    15
100
AcDbLine
 10
4.837880946416291
 20
7.137634019429509
 30
0.0
 11
4.850137479503183
 21
7.134350358757965
 31
0.0
  0
ARC
  5
A1
330
1F
100
AcDbEntity
  8
0
  6
Continuous
 62
     7
370
    15
100
AcDbCircle
 10
4.919180285786121
 20
7.029424350940392
 30
0.0
 40
0.1353473861457821
100
AcDbArc
 50
126.9180170463276
 51
181.2642429828631
  0
SPLINE
  5
A2
330
1F
100
AcDbEntity
  8
0
  6
Continuous
 62
     7
370
    15
100
AcDbSpline
210
0.0
220
0.0
230
1.0
 70
    11
 71
     3
 72
    51
 73
    47
 74
     0
 42
0.0000000001
 43
0.0000000001
 40
0.0
 40
0.0
 40
0.0
 40
0.0
 40
0.0112443222797531
 40
0.0216639550325046
 40
0.031305942640791
 40
0.0476837508453796
 40
0.0625028111839951
 40
0.0778695384435671
 40
0.0931474404472937
 40
0.1239136515390632
 40
0.1387219434986946
 40
0.1550345930831325
 40
0.169781064361809
 40
0.1863305284712627
 40
0.2045959567472902
 40
0.2254245198862245
 40
0.2491118365815206
 40
0.2635453459313757
 40
0.2787509492282121
 40
0.294832329700295
 40
0.3119095260529292
 40
0.3323887398849424
 40
0.3532147258309336
 40
0.3745794357890036
 40
0.4059732686635155
 40
0.4370816093003925
 40
0.4685688330449188
 40
0.4994940642603024
 40
0.5308612407871546
 40
0.5618536595597459
 40
0.5930445525795608
 40
0.6242270449320772
 40
0.6552839277243625
 40
0.6867039039185339
 40
0.7177046445552877
 40
0.7492681102663653
 40
0.780388933939995
 40
0.8118195126882442
 40
0.8435696998473785
 40
0.8743995117858675
 40
0.8968436242558992
 40
0.9176452466617631
 40
0.9370675883481505
 40
0.9607819358077678
 40
0.9816605308201832
 40
1.0
 40
1.0
 40
1.0
 40
1.0
 10
4.885571426052311
 20
6.978683574481538
 30
0.0
 10
4.885920848231149
 20
6.979221222414995
 30
0.0
 10
4.886594065005038
 20
6.980257085703502
 30
0.0
 10
4.887441992235805
 20
6.981825600621621
 30
0.0
 10
4.888326319460112
 20
6.983697328656383
 30
0.0
 10
4.889143841283344
 20
6.985863835036038
 30
0.0
 10
4.889835126882823
 20
6.988395482529599
 30
0.0
 10
4.890262143119449
 20
6.990904798492221
 30
0.0
 10
4.890479542258771
 20
6.994302228001235
 30
0.0
 10
4.890130151105508
 20
6.997624981491409
 30
0.0
 10
4.889259812691997
 20
7.000825281477299
 30
0.0
 10
4.888374762858369
 20
7.003100854366389
 30
0.0
 10
4.887216166024861
 20
7.005334046803043
 30
0.0
 10
4.885779165484753
 20
7.007512606744366
 30
0.0
 10
4.883890105270746
 20
7.009742542241756
 30
0.0
 10
4.881449757099393
 20
7.011963235300961
 30
0.0
 10
4.878865156151625
 20
7.013696440486352
 30
0.0
 10
4.876346337108913
 20
7.014971965071278
 30
0.0
 10
4.874080450490798
 20
7.015863685922398
 30
0.0
 10
4.871584868692063
 20
7.016569998759084
 30
0.0
 10
4.86872914519709
 20
7.017071880362792
 30
0.0
 10
4.865546577790981
 20
7.017275802420642
 30
0.0
 10
4.862092642073668
 20
7.017071352417578
 30
0.0
 10
4.858057952118977
 20
7.016327339379491
 30
0.0
 10
4.853569985968514
 20
7.014783335197851
 30
0.0
 10
4.848889663218703
 20
7.012154637987945
 30
0.0
 10
4.844750728689528
 20
7.00873431432266
 30
0.0
 10
4.841300607815554
 20
7.00460510680338
 30
0.0
 10
4.838707743806969
 20
6.999954604124984
 30
0.0
 10
4.837079500187602
 20
6.994925850553972
 30
0.0
 10
4.836495007415838
 20
6.989749948526668
 30
0.0
 10
4.836990027843117
 20
6.98463259111473
 30
0.0
 10
4.83853569728213
 20
6.979782699767158
 30
0.0
 10
4.841059654196651
 20
6.975424234597423
 30
0.0
 10
4.844455511568425
 20
6.971698109089337
 30
0.0
 10
4.848554635099854
 20
6.968778511043472
 30
0.0
 10
4.853208570464157
 20
6.966736473821407
 30
0.0
 10
4.858233943225921
 20
6.965652161167136
 30
0.0
 10
4.863415035226235
 20
6.965547573056452
 30
0.0
 10
4.868091951386037
 20
6.966344405848763
 30
0.0
 10
4.872038144191069
 20
6.967656694828607
 30
0.0
 10
4.875234153868596
 20
6.969185483471679
 30
0.0
 10
4.878310415166394
 20
6.97111741123907
 30
0.0
 10
4.881142366347532
 20
6.973427007882978
 30
0.0
 10
4.883643736458819
 20
6.976021495748813
 30
0.0
 10
4.884957209253624
 20
6.977835360390126
 30
0.0
 10
4.885571426052311
 20
6.978683574481538
 30
0.0
  0
LINE
  5
A3
330
1F
100
AcDbEntity
  8
0
  6
Continuous
 62
     7
370
    15
100
AcDbLine
 10
4.890561983498526
 20
6.947229524905226
 30
0.0
 11
4.890928417712942
 21
6.947500275278084
 31
0.0
  0
LINE
  5
A4
330
1F
100
AcDbEntity
  8
0
  6
Continuous
 62
     7
370
    15
100
AcDbLine
 10
4.783865846808724
 20
6.946151208834969
 30
0.0
 11
4.796122379895615
 21
6.942867548163424
 31
0.0
  0
LINE
  5
A5
330
1F
100
AcDbEntity
  8
0
  6
Continuous
 62
     7
370
    15
100
AcDbLine
 10
4.783865846808724
 20
7.026438125776803
 30
0.0
 11
4.783865846808724
 21
6.946151208834969
 31
0.0
  0
LINE
  5
A6
330
1F
100
AcDbEntity
  8
0
  6
Continuous
 62
     7
370
    15
100
AcDbLine
 10
4.881093012274638
 20
7.226590655285247
 30
0.0
 11
4.893349545361529
 21
7.223306994613703
 31
0.0
  0
ARC
  5
A7
330
1F
100
AcDbEntity
  8
0
  6
Continuous
 62
     7
370
    15
100
AcDbCircle
 10
4.772925300282571
 20
7.224161015800445
 30
0.0
 40
0.1081949955664542
100
AcDbArc
 50
306.8954855178573
 51
1.286748893098816
  0
LINE
  5
A8
330
1F
100
AcDbEntity
  8
0
  6
Continuous
 62
     7
370
    15
100
AcDbLine
 10
4.893349545361529
 20
7.370705884488638
 30
0.0
 11
4.881093012274638
 21
7.373989545160184
 31
0.0
  0
LINE
  5
A9
330
1F
100
AcDbEntity
  8
0
  6
Continuous
 62
     7
370
    15
100
AcDbLine
 10
4.881093012274638
 20
7.373989545160184
 30
0.0
 11
4.881093012274638
 21
7.226590655285247
 31
0.0
  0
LINE
  5
AA
330
1F
100
AcDbEntity
  8
0
  6
Continuous
 62
     7
370
    15
100
AcDbLine
 10
5.118445243579849
 20
7.431011509768924
 30
0.0
 11
5.106188710492959
 21
7.43429517044047
 31
0.0
  0
LINE
  5
AB
330
1F
100
AcDbEntity
  8
0
  6
Continuous
 62
     7
370
    15
100
AcDbLine
 10
4.881093012274638
 20
7.373989545160184
 30
0.0
 11
5.106188710492959
 21
7.43429517044047
 31
0.0
  0
LWPOLYLINE
  5
AC
330
1F
100
AcDbEntity
  8
0
  6
Continuous
 62
     7
370
    15
100
AcDbPolyline
 90
       17
 70
   128
 43
0.0
 10
5.321281290481349
 20
7.157574212091198
 10
5.325841702556812
 20
7.158346783996978
 10
5.330268158728422
 20
7.159653385884445
 10
5.33453144796682
 20
7.161485169905703
 10
5.338603361751349
 20
7.163830287763254
 10
5.342457022478074
 20
7.166673049107539
 10
5.346066969882949
 20
7.16999474620383
 10
5.349409368457402
 20
7.173773315756429
 10
5.352462093871506
 20
7.177984069373279
 10
5.355205009528102
 20
7.182598865855724
 10
5.357620001132061
 20
7.187587420769101
 10
5.359691097682717
 20
7.192916803016065
 10
5.361404609750929
 20
7.198551680397526
 10
5.362749215902241
 20
7.204454861672655
 10
5.36371604912005
 20
7.210587273405176
 10
5.364298731374869
 20
7.216908610117911
 10
5.364493373624329
 20
7.223376863281326
  0
LWPOLYLINE
  5
AD
330
1F
100
AcDbEntity
  8
0
  6
Continuous
 62
     7
370
    15
100
AcDbPolyline
 90
       18
 70
   128
 43
0.0
 10
5.267266190873782
 20
7.075320802743561
 10
5.267481747528876
 20
7.08293516991581
 10
5.268127103862066
 20
7.090389454511421
 10
5.269198543677311
 20
7.097640094456761
 10
5.270689740799022
 20
7.10464460372973
 10
5.272592001056923
 20
7.111361884338498
 10
5.274894175862888
 20
7.11775290889127
 10
5.277582800487997
 20
7.123779929932004
 10
5.280642128631814
 20
7.129407977915574
 10
5.284054253414803
 20
7.134603886769659
 10
5.287799228370761
 20
7.139337391907014
 10
5.291855119300727
 20
7.143580739524087
 10
5.296198177119292
 20
7.147309111305022
 10
5.300803010700938
 20
7.150500578114222
 10
5.305642638733933
 20
7.153136651317861
 10
5.310688766274458
 20
7.155201737680528
 10
5.3159118366005
 20
7.156683784889023
 10
5.321281290481349
 20
7.157574212091198
  0
LINE
  5
AE
330
1F
100
AcDbEntity
  8
0
  6
Continuous
 62
     7
370
    15
100
AcDbLine
 10
5.267266190873782
 20
6.995033885801727
 30
0.0
 11
5.267266190873782
 21
7.075320802743561
 31
0.0
  0
ARC
  5
AF
330
1F
100
AcDbEntity
  8
0
  6
Continuous
 62
     7
370
    15
100
AcDbCircle
 10
5.402580738244268
 20
6.992047713291731
 30
0.0
 40
0.1353474933507786
100
AcDbArc
 50
178.7357803136045
 51
233.0819596572058
  0
ARC
  5
B0
330
1F
100
AcDbEntity
  8
0
  6
Continuous
 62
     7
370
    15
100
AcDbCircle
 10
5.256325944650643
 20
6.797311120511082
 30
0.0
 40
0.1081947155245337
100
AcDbArc
 50
358.7131792524659
 51
53.1046020068149
  0
LINE
  5
B1
330
1F
100
AcDbEntity
  8
0
  6
Continuous
 62
     7
370
    15
100
AcDbLine
 10
5.364493373624329
 20
6.581081103836338
 30
0.0
 11
5.364493373624329
 21
6.794881351662539
 31
0.0
  0
LWPOLYLINE
  5
B2
330
1F
100
AcDbEntity
  8
0
  6
Continuous
 62
     7
370
    15
100
AcDbPolyline
 90
       17
 70
   128
 43
0.0
 10
5.321281290481349
 20
6.51527845264621
 10
5.325841702556812
 20
6.516051024551989
 10
5.330268158728422
 20
6.517357579338312
 10
5.33453144796682
 20
6.519189457561861
 10
5.338603361751349
 20
6.521534481217121
 10
5.342457022478074
 20
6.524377242561406
 10
5.346066969882949
 20
6.527698939657696
 10
5.349409368457402
 20
6.531477603412587
 10
5.352462093871506
 20
6.535688262827146
 10
5.355205009528102
 20
6.540303106410736
 10
5.357620001132061
 20
6.545291708425258
 10
5.359691097682717
 20
6.550620996469933
 10
5.361404609750929
 20
6.556255873851392
 10
5.362749215902241
 20
6.562159055126522
 10
5.36371604912005
 20
6.568291513960188
 10
5.364298731374869
 20
6.574612803571778
 10
5.364493373624329
 20
6.581081103836338
  0
LWPOLYLINE
  5
B3
330
1F
100
AcDbEntity
  8
0
  6
Continuous
 62
     7
370
    15
100
AcDbPolyline
 90
       18
 70
   128
 43
0.0
 10
5.267266190873782
 20
6.433025066849146
 10
5.267481747528876
 20
6.440639410470821
 10
5.268127103862066
 20
6.448093718617005
 10
5.269198543677311
 20
6.455344311461201
 10
5.270689740799022
 20
6.462348797183596
 10
5.272592001056923
 20
6.469066171994655
 10
5.274894175862888
 20
6.475457102345137
 10
5.277582800487997
 20
6.481484194037589
 10
5.280642128631814
 20
6.487112194920015
 10
5.284054253414803
 20
6.492308150875245
 10
5.287799228370761
 20
6.497041632462027
 10
5.291855119300727
 20
6.501284980079099
 10
5.296198177119292
 20
6.505013304758888
 10
5.300803010700938
 20
6.508204818669233
 10
5.305642638733933
 20
6.510840844771728
 10
5.310688766274458
 20
6.512905931134395
 10
5.3159118366005
 20
6.514388025444034
 10
5.321281290481349
 20
6.51527845264621
  0
LINE
  5
B4
330
1F
100
AcDbEntity
  8
0
  6
Continuous
 62
     7
370
    15
100
AcDbLine
 10
5.267266190873782
 20
6.352738102806166
 30
0.0
 11
5.267266190873782
 21
6.433025066849146
 31
0.0
  0
ARC
  5
B5
330
1F
100
AcDbEntity
  8
0
  6
Continuous
 62
     7
370
    15
100
AcDbCircle
 10
5.40258062646497
 20
6.349751910374843
 30
0.0
 40
0.1353473820382154
100
AcDbArc
 50
178.7357708384874
 51
233.0819834402258
  0
ARC
  5
B6
330
1F
100
AcDbEntity
  8
0
  6
Continuous
 62
     7
370
    15
100
AcDbCircle
 10
5.25632582951732
 20
6.155015315948686
 30
0.0
 40
0.1081948301444882
100
AcDbArc
 50
358.7131920397728
 51
53.10457133461497
  0
LINE
  5
B7
330
1F
100
AcDbEntity
  8
0
  6
Continuous
 62
     7
370
    15
100
AcDbLine
 10
5.364493373624329
 20
5.992449163121369
 30
0.0
 11
5.364493373624329
 21
6.152585568666978
 31
0.0
  0
LWPOLYLINE
  5
B8
330
1F
100
AcDbEntity
  8
0
  6
Continuous
 62
     7
370
    15
100
AcDbPolyline
 90
       17
 70
   128
 43
0.0
 10
5.321281290481349
 20
5.926646476605382
 10
5.325841702556812
 20
5.927419095612307
 10
5.330268158728422
 20
5.928725638623343
 10
5.33453144796682
 20
5.930557493296319
 10
5.338603361751349
 20
5.932902540502152
 10
5.342457022478074
 20
5.935745301846438
 10
5.346066969882949
 20
5.939066975392155
 10
5.349409368457402
 20
5.942845627371759
 10
5.352462093871506
 20
5.947056298561603
 10
5.355205009528102
 20
5.951671165695768
 10
5.357620001132061
 20
5.956659744159717
 10
5.359691097682717
 20
5.961989055754964
 10
5.361404609750929
 20
5.967623921361137
 10
5.362749215902241
 20
5.973527090860979
 10
5.36371604912005
 20
5.97965957324522
 10
5.364298731374869
 20
5.985980851081523
 10
5.364493373624329
 20
5.992449163121369
  0
LWPOLYLINE
  5
B9
330
1F
100
AcDbEntity
  8
0
  6
Continuous
 62
     7
370
    15
100
AcDbPolyline
 90
       18
 70
   128
 43
0.0
 10
5.267266190873782
 20
5.844393102583604
 10
5.267481747528876
 20
5.85200744620528
 10
5.268127103862066
 20
5.859461754351464
 10
5.269198543677311
 20
5.866712347195659
 10
5.270689740799022
 20
5.873716832918055
 10
5.272592001056923
 20
5.880434207729114
 10
5.274894175862888
 20
5.886825138079595
 10
5.277582800487997
 20
5.89285225332262
 10
5.280642128631814
 20
5.898480254205046
 10
5.284054253414803
 20
5.903676186609703
 10
5.287799228370761
 20
5.908409691747059
 10
5.291855119300727
 20
5.912653015813559
 10
5.296198177119292
 20
5.916381352268634
 10
5.300803010700938
 20
5.919572866178978
 10
5.305642638733933
 20
5.922208892281473
 10
5.310688766274458
 20
5.92427397864414
 10
5.3159118366005
 20
5.925756072953779
 10
5.321281290481349
 20
5.926646476605382
  0
LINE
  5
BA
330
1F
100
AcDbEntity
  8
0
  6
Continuous
 62
     7
370
    15
100
AcDbLine
 10
5.267266190873782
 20
5.764106138540625
 30
0.0
 11
5.267266190873782
 21
5.844393102583604
 31
0.0
  0
ARC
  5
BB
330
1F
100
AcDbEntity
  8
0
  6
Continuous
 62
     7
370
    15
100
AcDbCircle
 10
5.402580695549165
 20
5.761119968208952
 30
0.0
 40
0.1353474506180079
100
AcDbArc
 50
178.7357808367521
 51
233.0819686726596
  0
ARC
  5
BC
330
1F
100
AcDbEntity
  8
0
  6
Continuous
 62
     7
370
    15
100
AcDbCircle
 10
5.256325944650641
 20
5.566383396800553
 30
0.0
 40
0.1081947155245352
100
AcDbArc
 50
358.7131792524654
 51
53.10460200681414
  0
LINE
  5
BD
330
1F
100
AcDbEntity
  8
0
  6
Continuous
 62
     7
370
    15
100
AcDbLine
 10
5.364493373624329
 20
5.490339341885567
 30
0.0
 11
5.364493373624329
 21
5.563953627952009
 31
0.0
  0
ARC
  5
BE
330
1F
100
AcDbEntity
  8
0
  6
Continuous
 62
     7
370
    15
100
AcDbCircle
 10
5.025008327485565
 20
5.482622541247715
 30
0.0
 40
0.3395727397243829
100
AcDbArc
 50
330.4361039886579
 51
1.302160393121368
  0
LINE
  5
BF
330
1F
100
AcDbEntity
  8
0
  6
Continuous
 62
     7
370
    15
100
AcDbLine
 10
5.139658431375758
 20
5.019943917947014
 30
0.0
 11
5.320370736027791
 21
5.315079432812725
 31
0.0
  0
LINE
  5
C0
330
1F
100
AcDbEntity
  8
0
  6
Continuous
 62
     7
370
    15
100
AcDbLine
 10
5.364493373624329
 20
7.370775753156263
 30
0.0
 11
5.139658431375758
 21
7.431011519030413
 31
0.0
  0
LINE
  5
C1
330
1F
100
AcDbEntity
  8
0
  6
Continuous
 62
     7
370
    15
100
AcDbLine
 10
5.364493373624329
 20
7.223376863281326
 30
0.0
 11
5.364493373624329
 21
7.370775753156263
 31
0.0
  0
LINE
  5
C2
330
1F
100
AcDbEntity
  8
0
  6
Continuous
 62
     7
370
    15
100
AcDbLine
 10
5.20244807480163
 20
6.903715130806502
 30
0.0
 11
5.185405323196957
 21
6.948501070147929
 31
0.0
  0
LINE
  5
C3
330
1F
100
AcDbEntity
  8
0
  6
Continuous
 62
     7
370
    15
100
AcDbLine
 10
5.226018298827867
 20
6.95302483475605
 30
0.0
 11
5.20244807480163
 21
6.903715130806502
 31
0.0
  0
LINE
  5
C4
330
1F
100
AcDbEntity
  8
0
  6
Continuous
 62
     7
370
    15
100
AcDbLine
 10
5.226018298827867
 20
6.95302483475605
 30
0.0
 11
5.226018298827867
 21
7.128036111751865
 31
0.0
  0
LINE
  5
C5
330
1F
100
AcDbEntity
  8
0
  6
Continuous
 62
     7
370
    15
100
AcDbLine
 10
5.226018298827867
 20
7.166537718493684
 30
0.0
 11
5.226018298827867
 21
7.128036111751865
 31
0.0
  0
LINE
  5
C6
330
1F
100
AcDbEntity
  8
0
  6
Continuous
 62
     7
370
    15
100
AcDbLine
 10
5.178877850775392
 20
7.179167165516879
 30
0.0
 11
5.226018298827867
 21
7.166537718493684
 31
0.0
  0
LINE
  5
C7
330
1F
100
AcDbEntity
  8
0
  6
Continuous
 62
     7
370
    15
100
AcDbLine
 10
5.178877850775392
 20
6.992702491379579
 30
0.0
 11
5.178877850775392
 21
7.023536502648913
 31
0.0
  0
LINE
  5
C8
330
1F
100
AcDbEntity
  8
0
  6
Continuous
 62
     7
370
    15
100
AcDbLine
 10
5.376749837572687
 20
7.226660505429895
 30
0.0
 11
5.364493373624329
 21
7.223376863281326
 31
0.0
  0
LINE
  5
C9
330
1F
100
AcDbEntity
  8
0
  6
Continuous
 62
     7
370
    15
100
AcDbLine
 10
5.376749837572687
 20
7.374059395304831
 30
0.0
 11
5.364493373624329
 21
7.370775753156263
 31
0.0
  0
LINE
  5
CA
330
1F
100
AcDbEntity
  8
0
  6
Continuous
 62
     7
370
    15
100
AcDbLine
 10
5.376749837572687
 20
7.226660505429895
 30
0.0
 11
5.376749837572687
 21
7.374059395304831
 31
0.0
  0
LINE
  5
CB
330
1F
100
AcDbEntity
  8
0
  6
Continuous
 62
     7
370
    15
100
AcDbLine
 10
5.151914895324118
 20
7.434295161178981
 30
0.0
 11
5.139658431375758
 21
7.431011519030413
 31
0.0
  0
LINE
  5
CC
330
1F
100
AcDbEntity
  8
0
  6
Continuous
 62
     7
370
    15
100
AcDbLine
 10
5.376749837572687
 20
7.374059395304831
 30
0.0
 11
5.151914895324118
 21
7.434295161178981
 31
0.0
  0
SPLINE
  5
CD
330
1F
100
AcDbEntity
  8
0
  6
Continuous
 62
     7
370
    15
100
AcDbSpline
210
0.0
220
0.0
230
1.0
 70
     8
 71
     3
 72
    28
 73
    24
 74
     0
 42
0.0000000001
 43
0.0000000001
 40
0.0
 40
0.0
 40
0.0
 40
0.0
 40
0.0419177857234239
 40
0.0793348593556044
 40
0.1210141489193434
 40
0.158912964145067
 40
0.1984690427162195
 40
0.2380201589645686
 40
0.3175117635851983
 40
0.3554180574322264
 40
0.3969559110373728
 40
0.4343793744411186
 40
0.4763045515570199
 40
0.5225261890084197
 40
0.5752147673631641
 40
0.6351340623312128
 40
0.6842375271336984
 40
0.7369770714518582
 40
0.7940325789738994
 40
0.8458997762820558
 40
0.8986664355165242
 40
0.9528186868102276
 40
1.0
 40
1.0
 40
1.0
 40
1.0
 10
4.876247922297692
 20
6.98560642072369
 30
0.0
 10
4.876640420289995
 20
6.986225900701524
 30
0.0
 10
4.877383273770429
 20
6.987398347100275
 30
0.0
 10
4.878294666759036
 20
6.989304277400811
 30
0.0
 10
4.879003396042974
 20
6.991209105748181
 30
0.0
 10
4.879528264115199
 20
6.993198537627348
 30
0.0
 10
4.879849269839525
 20
6.995179036689076
 30
0.0
 10
4.880009932130171
 20
6.997868080227934
 30
0.0
 10
4.879754023803555
 20
7.000500601465477
 30
0.0
 10
4.879091255705998
 20
7.003033539227031
 30
0.0
 10
4.878413067252012
 20
7.004820682842673
 30
0.0
 10
4.877520423601765
 20
7.006567842836507
 30
0.0
 10
4.876409777842258
 20
7.008266800129618
 30
0.0
 10
4.874946491459007
 20
7.010001970135725
 30
0.0
 10
4.873053578552056
 20
7.011726630743296
 30
0.0
 10
4.870878094357474
 20
7.013182993667613
 30
0.0
 10
4.868510279041527
 20
7.014331393138709
 30
0.0
 10
4.866038099603869
 20
7.015159625874193
 30
0.0
 10
4.863405227823555
 20
7.015658231949664
 30
0.0
 10
4.86070074392716
 20
7.015827711208153
 30
0.0
 10
4.858021059796511
 20
7.015647102661072
 30
0.0
 10
4.855416336033518
 20
7.015212469085593
 30
0.0
 10
4.853777443343883
 20
7.014583649278256
 30
0.0
 10
4.853014368348265
 20
7.01429086825924
 30
0.0
  0
SPLINE
  5
CE
330
1F
100
AcDbEntity
  8
0
  6
Continuous
 62
     7
370
    15
100
AcDbSpline
210
0.0
220
0.0
230
1.0
 70
     8
 71
     3
 72
    23
 73
    19
 74
     0
 42
0.0000000001
 43
0.0000000001
 40
0.0
 40
0.0
 40
0.0
 40
0.0
 40
0.0523253118889962
 40
0.1199422476526823
 40
0.1875422791709121
 40
0.2548588399928671
 40
0.3229448702818474
 40
0.3900978814758734
 40
0.4584397460872923
 40
0.5257885463227826
 40
0.5937716694115517
 40
0.6624073055521184
 40
0.7290184248040138
 40
0.8002853377884795
 40
0.8642011419078244
 40
0.9153693388820467
 40
0.9604172035233606
 40
0.9999999999999998
 40
0.9999999999999998
 40
0.9999999999999998
 40
0.9999999999999998
 10
4.839691684543752
 20
7.001366604685101
 30
0.0
 10
4.839329339736155
 20
7.000369168006314
 30
0.0
 10
4.838498757956909
 20
6.998082802329245
 30
0.0
 10
4.838144146510936
 20
6.994324164037942
 30
0.0
 10
4.838509569084251
 20
6.990340870614217
 30
0.0
 10
4.839715520308604
 20
6.986558408221859
 30
0.0
 10
4.841675113182803
 20
6.983160094626029
 30
0.0
 10
4.844313817112373
 20
6.980252743189104
 30
0.0
 10
4.847498625100716
 20
6.977972950315773
 30
0.0
 10
4.851114618189741
 20
6.976374995804687
 30
0.0
 10
4.855019129013094
 20
6.975522042342533
 30
0.0
 10
4.859045080395302
 20
6.975430780352441
 30
0.0
 10
4.863128675097099
 20
6.976116340053093
 30
0.0
 10
4.8669763621494
 20
6.977517866813307
 30
0.0
 10
4.870266697998249
 20
6.979448528120069
 30
0.0
 10
4.872814869284526
 20
6.981523854467659
 30
0.0
 10
4.874755712247221
 20
6.983537866268751
 30
0.0
 10
4.875772403397631
 20
6.984947239572337
 30
0.0
 10
4.876247922297692
 20
6.98560642072369
 30
0.0
  0
LWPOLYLINE
  5
CF
330
1F
100
AcDbEntity
  8
0
  6
Continuous
 62
     7
370
    15
100
AcDbPolyline
 90
       17
 70
   128
 43
0.0
 10
4.783865846808724
 20
6.946151208834969
 10
4.78408142074845
 20
6.938536846293465
 10
4.784726759797008
 20
6.931082557067109
 10
4.785798199612253
 20
6.923831917121769
 10
4.787289379449331
 20
6.916827497420348
 10
4.789191656991865
 20
6.910110127240033
 10
4.791493831797829
 20
6.903719196889551
 10
4.794182421853674
 20
6.897692072385037
 10
4.79724180185139
 20
6.892064038293699
 10
4.800653926634378
 20
6.886868129439615
 10
4.804398884305705
 20
6.882134619671515
 10
4.808454757951038
 20
6.877891267423699
 10
4.812797833054235
 20
6.8741629944758
 10
4.81740266663588
 20
6.870971433464308
 10
4.822242294668876
 20
6.868335454462959
 10
4.827288439494033
 20
6.866270325629892
 10
4.830566089834184
 20
6.865266471011423
  0
ARC
  5
D0
330
1F
100
AcDbEntity
  8
0
  6
Continuous
 62
     7
370
    15
100
AcDbCircle
 10
5.3144312829833
 20
7.21950210877263
 30
0.0
 40
0.0627283419899902
100
AcDbArc
 50
293.4457349618966
 51
6.552721915193015
  0
LWPOLYLINE
  5
D1
330
1F
100
AcDbEntity
  8
0
  6
Continuous
 62
     7
370
    15
100
AcDbPolyline
 90
        3
 70
   128
 43
0.0
 10
4.998944132405826
 20
7.255552985337893
 10
4.995162323897464
 20
7.254809875010635
 10
4.992052403633573
 20
7.254609167183004
  0
LWPOLYLINE
  5
D2
330
1F
100
AcDbEntity
  8
0
  6
Continuous
 62
     7
370
    15
100
AcDbPolyline
 90
       26
 70
   128
 43
0.0
 10
5.018092394264972
 20
7.351805551773212
 10
5.020210384024293
 20
7.350428084138366
 10
5.02315347301283
 20
7.347969323033425
 10
5.025831346596366
 20
7.345038111828589
 10
5.028214620899219
 20
7.341666614232475
 10
5.030277230695193
 20
7.337891745350498
 10
5.031996498546112
 20
7.333754813398697
 10
5.03335368791007
 20
7.329301196876085
 10
5.034333864864366
 20
7.324579742304946
 10
5.034926243798161
 20
7.319642009025113
 10
5.035124463966601
 20
7.314542249083565
 10
5.034926243798161
 20
7.309336372596653
 10
5.034333864864366
 20
7.304081229590305
 10
5.03335368791007
 20
7.298834480339194
 10
5.031996498546112
 20
7.293653745958711
 10
5.030277230695193
 20
7.288595592290151
 10
5.028214620899219
 20
7.283715531488117
 10
5.025831346596366
 20
7.279066928638983
 10
5.02315347301283
 20
7.274700947779378
 10
5.020210384024293
 20
7.270665214541127
 10
5.017034298186214
 20
7.267003969097293
 10
5.013659992179694
 20
7.263757426856528
 10
5.010124455118832
 20
7.260961026432143
 10
5.006466473719531
 20
7.258645506908845
 10
5.00272601005272
 20
7.256836270124477
 10
4.998944132405826
 20
7.255552985337893
  0
LINE
  5
D3
330
1F
100
AcDbEntity
  8
0
  6
Continuous
 62
     7
370
    15
100
AcDbLine
 10
4.881093012274638
 20
6.79809514366646
 30
0.0
 11
4.893349545361529
 21
6.794811482994915
 31
0.0
  0
ARC
  5
D4
330
1F
100
AcDbEntity
  8
0
  6
Continuous
 62
     7
370
    15
100
AcDbCircle
 10
4.816176613424381
 20
6.804690236985258
 30
0.0
 40
0.0652505486227473
100
AcDbArc
 50
354.1990163459514
 51
59.07050219641803
  0
LINE
  5
D5
330
1F
100
AcDbEntity
  8
0
  6
Continuous
 62
     7
370
    15
100
AcDbLine
 10
5.279522654822142
 20
7.07860444489213
 30
0.0
 11
5.267266190873782
 21
7.075320802743561
 31
0.0
  0
ARC
  5
D6
330
1F
100
AcDbEntity
  8
0
  6
Continuous
 62
     7
370
    15
100
AcDbCircle
 10
5.358801080384271
 20
7.087613354616573
 30
0.0
 40
0.079788653416594
100
AcDbArc
 50
118.9312340502369
 51
186.4830720723535
  0
LINE
  5
D7
330
1F
100
AcDbEntity
  8
0
  6
Continuous
 62
     7
370
    15
100
AcDbLine
 10
5.333537754429708
 20
6.887121634297589
 30
0.0
 11
5.321281290481349
 21
6.88383799214902
 31
0.0
  0
LINE
  5
D8
330
1F
100
AcDbEntity
  8
0
  6
Continuous
 62
     7
370
    15
100
AcDbLine
 10
5.376749837572687
 20
6.798164993811107
 30
0.0
 11
5.364493373624329
 21
6.794881351662539
 31
0.0
  0
ARC
  5
D9
330
1F
100
AcDbEntity
  8
0
  6
Continuous
 62
     7
370
    15
100
AcDbCircle
 10
5.268582408599009
 20
6.800594762659656
 30
0.0
 40
0.1081947155245265
100
AcDbArc
 50
358.7131792524625
 51
53.10460200681584
  0
LINE
  5
DA
330
1F
100
AcDbEntity
  8
0
  6
Continuous
 62
     7
370
    15
100
AcDbLine
 10
5.226018298827867
 20
7.128036111751865
 30
0.0
 11
5.179757223751458
 21
7.025624150667636
 31
0.0
  0
ARC
  5
DB
330
1F
100
AcDbEntity
  8
0
  6
Continuous
 62
     7
370
    15
100
AcDbCircle
 10
5.209855691882875
 20
7.008772039005622
 30
0.0
 40
0.0344950931485466
100
AcDbArc
 50
150.755565506615
 51
220.5739541238023
  0
LINE
  5
DC
330
1F
100
AcDbEntity
  8
0
  6
Continuous
 62
     7
370
    15
100
AcDbLine
 10
5.183654355329564
 20
6.986335430212246
 30
0.0
 11
5.187630097417442
 21
6.982855126513679
 31
0.0
  0
LINE
  5
DD
330
1F
100
AcDbEntity
  8
0
  6
Continuous
 62
     7
370
    15
100
AcDbLine
 10
5.179751761807508
 20
6.967951762221437
 30
0.0
 11
5.187630097417442
 21
6.982855126513679
 31
0.0
  0
LINE
  5
DE
330
1F
100
AcDbEntity
  8
0
  6
Continuous
 62
     7
370
    15
100
AcDbLine
 10
5.175776019719629
 20
6.971431971717714
 30
0.0
 11
5.179751761807508
 21
6.967951762221437
 31
0.0
  0
ARC
  5
DF
330
1F
100
AcDbEntity
  8
0
  6
Continuous
 62
     7
370
    15
100
AcDbCircle
 10
5.217442706547542
 20
7.006405901781903
 30
0.0
 40
0.054399343519478
100
AcDbArc
 50
151.3203139837062
 51
220.0092208875565
  0
LINE
  5
E0
330
1F
100
AcDbEntity
  8
0
  6
Continuous
 62
     7
370
    15
100
AcDbLine
 10
5.222066824364377
 20
7.148403496543338
 30
0.0
 11
5.169717271969126
 21
7.032512825569502
 31
0.0
  0
ARC
  5
E1
330
1F
100
AcDbEntity
  8
0
  6
Continuous
 62
     7
370
    15
100
AcDbCircle
 10
5.181485570461826
 20
7.16674384042426
 30
0.0
 40
0.0445332053862488
100
AcDbArc
 50
335.6798252614693
 51
359.7348055512213
  0
LINE
  5
E2
330
1F
100
AcDbEntity
  8
0
  6
Continuous
 62
     7
370
    15
100
AcDbLine
 10
4.783865846808724
 20
6.384142389882388
 30
0.0
 11
4.796122379895615
 21
6.380858729210843
 31
0.0
  0
LINE
  5
E3
330
1F
100
AcDbEntity
  8
0
  6
Continuous
 62
     7
370
    15
100
AcDbLine
 10
4.837880946416291
 20
6.495338259984523
 30
0.0
 11
4.850137479503183
 21
6.492054599312978
 31
0.0
  0
ARC
  5
E4
330
1F
100
AcDbEntity
  8
0
  6
Continuous
 62
     7
370
    15
100
AcDbCircle
 10
4.919180354168337
 20
6.387128558910156
 30
0.0
 40
0.1353474532728159
100
AcDbArc
 50
126.9180319042512
 51
181.2642185863393
  0
LINE
  5
E5
330
1F
100
AcDbEntity
  8
0
  6
Continuous
 62
     7
370
    15
100
AcDbLine
 10
5.169717271969126
 20
7.032512825569502
 30
0.0
 11
5.12257682391665
 21
7.045142272592696
 31
0.0
  0
LINE
  5
E6
330
1F
100
AcDbEntity
  8
0
  6
Continuous
 62
     7
370
    15
100
AcDbLine
 10
5.174926376311902
 20
7.161032943566532
 30
0.0
 11
5.12257682391665
 21
7.045142272592696
 31
0.0
  0
LINE
  5
E7
330
1F
100
AcDbEntity
  8
0
  6
Continuous
 62
     7
370
    15
100
AcDbLine
 10
5.222066824364377
 20
7.148403496543338
 30
0.0
 11
5.174926376311902
 21
7.161032943566532
 31
0.0
  0
LINE
  5
E8
330
1F
100
AcDbEntity
  8
0
  6
Continuous
 62
     7
370
    15
100
AcDbLine
 10
5.279522654822142
 20
6.998317527950296
 30
0.0
 11
5.267266190873782
 21
6.995033885801727
 31
0.0
  0
ARC
  5
E9
330
1F
100
AcDbEntity
  8
0
  6
Continuous
 62
     7
370
    15
100
AcDbCircle
 10
5.414837202192632
 20
6.995331355440302
 30
0.0
 40
0.1353474933507826
100
AcDbArc
 50
178.7357803136053
 51
233.0819596572047
  0
LINE
  5
EA
330
1F
100
AcDbEntity
  8
0
  6
Continuous
 62
     7
370
    15
100
AcDbLine
 10
4.881093012274638
 20
6.584294895840259
 30
0.0
 11
4.893349545361529
 21
6.581011235168714
 31
0.0
  0
LINE
  5
EB
330
1F
100
AcDbEntity
  8
0
  6
Continuous
 62
     7
370
    15
100
AcDbLine
 10
4.881093012274638
 20
6.79809514366646
 30
0.0
 11
4.881093012274638
 21
6.584294895840259
 31
0.0
  0
LINE
  5
EC
330
1F
100
AcDbEntity
  8
0
  6
Continuous
 62
     7
370
    15
100
AcDbLine
 10
5.376749837572687
 20
6.584364745984906
 30
0.0
 11
5.364493373624329
 21
6.581081103836338
 31
0.0
  0
LINE
  5
ED
330
1F
100
AcDbEntity
  8
0
  6
Continuous
 62
     7
370
    15
100
AcDbLine
 10
5.376749837572687
 20
6.584364745984906
 30
0.0
 11
5.376749837572687
 21
6.798164993811107
 31
0.0
  0
LINE
  5
EE
330
1F
100
AcDbEntity
  8
0
  6
Continuous
 62
     7
370
    15
100
AcDbLine
 10
5.175776019719629
 20
6.971431971717714
 30
0.0
 11
5.128635571667154
 21
6.984061418740908
 31
0.0
  0
ARC
  5
EF
330
1F
100
AcDbEntity
  8
0
  6
Continuous
 62
     7
370
    15
100
AcDbCircle
 10
5.170302258495072
 20
7.019035348805097
 30
0.0
 40
0.0543993435194831
100
AcDbArc
 50
151.3203139837094
 51
220.0092208875529
  0
LINE
  5
F0
330
1F
100
AcDbEntity
  8
0
  6
Continuous
 62
     7
370
    15
100
AcDbLine
 10
4.783865846808724
 20
6.303855425839408
 30
0.0
 11
4.796122379895615
 21
6.300571765167863
 31
0.0
  0
LINE
  5
F1
330
1F
100
AcDbEntity
  8
0
  6
Continuous
 62
     7
370
    15
100
AcDbLine
 10
4.783865846808724
 20
6.384142389882388
 30
0.0
 11
4.783865846808724
 21
6.303855425839408
 31
0.0
  0
ARC
  5
F2
330
1F
100
AcDbEntity
  8
0
  6
Continuous
 62
     7
370
    15
100
AcDbCircle
 10
4.772925511760534
 20
6.581865153626758
 30
0.0
 40
0.1081947864487609
100
AcDbArc
 50
306.8954286155503
 51
1.286805795404503
  0
LINE
  5
F3
330
1F
100
AcDbEntity
  8
0
  6
Continuous
 62
     7
370
    15
100
AcDbLine
 10
5.279522654822142
 20
6.998317527950296
 30
0.0
 11
5.279522654822142
 21
7.07860444489213
 31
0.0
  0
LWPOLYLINE
  5
F4
330
1F
100
AcDbEntity
  8
0
  6
Continuous
 62
     7
370
    15
100
AcDbPolyline
 90
       17
 70
   128
 43
0.0
 10
4.783865846808724
 20
6.303855425839408
 10
4.78408142074845
 20
6.296241086848477
 10
4.784726759797008
 20
6.288786774071549
 10
4.785798199612253
 20
6.281536181227354
 10
4.787289379449331
 20
6.274531690874214
 10
4.789191656991865
 20
6.267814320693899
 10
4.791493831797829
 20
6.261423390343417
 10
4.794182421853674
 20
6.25539627761419
 10
4.79724180185139
 20
6.249768290623997
 10
4.800653926634378
 20
6.244572334668768
 10
4.804398884305705
 20
6.239838848451241
 10
4.808454757951038
 20
6.235595507978711
 10
4.812797833054235
 20
6.23186717615438
 10
4.81740266663588
 20
6.228675662244034
 10
4.822242294668876
 20
6.226039647916826
 10
4.827288439494033
 20
6.223974554409617
 10
4.830566089834184
 20
6.222970699791149
  0
ARC
  5
F5
330
1F
100
AcDbEntity
  8
0
  6
Continuous
 62
     7
370
    15
100
AcDbCircle
 10
5.134345122409357
 20
7.179373287447454
 30
0.0
 40
0.0445332053862428
100
AcDbArc
 50
335.679825261466
 51
359.7348055512224
  0
LINE
  5
F6
330
1F
100
AcDbEntity
  8
0
  6
Continuous
 62
     7
370
    15
100
AcDbLine
 10
5.1861089114579
 20
6.948068768986506
 30
0.0
 11
5.131265048278975
 21
6.981759701076804
 31
0.0
  0
LINE
  5
F7
330
1F
100
AcDbEntity
  8
0
  6
Continuous
 62
     7
370
    15
100
AcDbLine
 10
5.179751761807508
 20
6.967951762221437
 30
0.0
 11
5.1861089114579
 21
6.948068768986506
 31
0.0
  0
LINE
  5
F8
330
1F
100
AcDbEntity
  8
0
  6
Continuous
 62
     7
370
    15
100
AcDbLine
 10
5.128635571667154
 20
6.984061418740908
 30
0.0
 11
5.131265048278975
 21
6.981759701076804
 31
0.0
  0
LINE
  5
F9
330
1F
100
AcDbEntity
  8
0
  6
Continuous
 62
     7
370
    15
100
AcDbLine
 10
5.187630097417442
 20
6.982855126513679
 30
0.0
 11
5.193987247067835
 21
6.962972227481039
 31
0.0
  0
LINE
  5
FA
330
1F
100
AcDbEntity
  8
0
  6
Continuous
 62
     7
370
    15
100
AcDbLine
 10
5.1861089114579
 20
6.948068768986506
 30
0.0
 11
5.193987247067835
 21
6.962972227481039
 31
0.0
  0
SPLINE
  5
FB
330
1F
100
AcDbEntity
  8
0
  6
Continuous
 62
     7
370
    15
100
AcDbSpline
210
0.0
220
0.0
230
1.0
 70
     8
 71
     3
 72
    15
 73
    11
 74
     0
 42
0.0000000001
 43
0.0000000001
 40
0.0
 40
0.0
 40
0.0
 40
0.0
 40
0.1249987365088111
 40
0.2499998543457661
 40
0.3749994218619014
 40
0.4999997151123978
 40
0.6249993120684295
 40
0.7500006434588448
 40
0.8749990603348331
 40
1.0
 40
1.0
 40
1.0
 40
1.0
 10
5.139658431375758
 20
5.019943917947014
 30
0.0
 10
5.138924760652527
 20
5.018418341463321
 30
0.0
 10
5.137457405229038
 20
5.015367159432456
 30
0.0
 10
5.134824241914198
 20
5.010631691020195
 30
0.0
 10
5.131998171720102
 20
5.005760619205967
 30
0.0
 10
5.129051907788061
 20
5.00073471720804
 30
0.0
 10
5.126105344668073
 20
4.995554607137462
 30
0.0
 10
5.123279423903603
 20
4.990219779729565
 30
0.0
 10
5.120646224531528
 20
4.984749249185661
 30
0.0
 10
5.119178908832726
 20
4.980996447063305
 30
0.0
 10
5.118445243579849
 20
4.979120027067021
 30
0.0
  0
ARC
  5
FC
330
1F
100
AcDbEntity
  8
0
  6
Continuous
 62
     7
370
    15
100
AcDbCircle
 10
5.129051857509648
 20
7.385129116852326
 30
0.0
 40
0.0470924010728797
100
AcDbArc
 50
76.98365612089155
 51
103.0163939087588
  0
ARC
  5
FD
330
1F
100
AcDbEntity
  8
0
  6
Continuous
 62
     7
370
    15
100
AcDbCircle
 10
5.129051782876803
 20
7.335393696555311
 30
0.0
 40
0.1015097119269174
100
AcDbArc
 50
76.98355028273292
 51
103.0164265076241
  0
ARC
  5
FE
330
1F
100
AcDbEntity
  8
0
  6
Continuous
 62
     7
370
    15
100
AcDbCircle
 10
5.31443123732933
 20
6.577206333796283
 30
0.0
 40
0.0627283891181149
100
AcDbArc
 50
293.4457617459718
 51
6.552731250071397
  0
LINE
  5
FF
330
1F
100
AcDbEntity
  8
0
  6
Continuous
 62
     7
370
    15
100
AcDbLine
 10
5.191134314723751
 20
6.97189502804326
 30
0.0
 11
5.191134314723751
 21
7.050810642235627
 31
0.0
  0
LINE
  5
100
330
1F
100
AcDbEntity
  8
0
  6
Continuous
 62
     7
370
    15
100
AcDbLine
 10
4.881093012274638
 20
6.155799360670899
 30
0.0
 11
4.893349545361529
 21
6.152515699999354
 31
0.0
  0
ARC
  5
101
330
1F
100
AcDbEntity
  8
0
  6
Continuous
 62
     7
370
    15
100
AcDbCircle
 10
4.816176578641305
 20
6.162394447079304
 30
0.0
 40
0.0652505825292407
100
AcDbArc
 50
354.1990254698594
 51
59.07048443021736
  0
LINE
  5
102
330
1F
100
AcDbEntity
  8
0
  6
Continuous
 62
     7
370
    15
100
AcDbLine
 10
5.193648399127297
 20
6.962331230039402
 30
0.0
 11
5.209967685143357
 21
6.919446531648414
 31
0.0
  0
LINE
  5
103
330
1F
100
AcDbEntity
  8
0
  6
Continuous
 62
     7
370
    15
100
AcDbLine
 10
5.279522654822142
 20
6.436308708997715
 30
0.0
 11
5.267266190873782
 21
6.433025066849146
 31
0.0
  0
ARC
  5
104
330
1F
100
AcDbEntity
  8
0
  6
Continuous
 62
     7
370
    15
100
AcDbCircle
 10
5.358801245492609
 20
6.445317512669975
 30
0.0
 40
0.0797888054948869
100
AcDbArc
 50
118.931309157038
 51
186.4829830170984
  0
LINE
  5
105
330
1F
100
AcDbEntity
  8
0
  6
Continuous
 62
     7
370
    15
100
AcDbLine
 10
4.836970391962734
 20
5.294651344948168
 30
0.0
 11
4.849226925049626
 21
5.291367684276623
 31
0.0
  0
LINE
  5
106
330
1F
100
AcDbEntity
  8
0
  6
Continuous
 62
     7
370
    15
100
AcDbLine
 10
4.597495884309277
 20
4.775230809023478
 30
0.0
 11
4.609752417396168
 21
4.771947148351933
 31
0.0
  0
LINE
  5
107
330
1F
100
AcDbEntity
  8
0
  6
Continuous
 62
     7
370
    15
100
AcDbLine
 10
4.836970391962734
 20
5.294651344948168
 30
0.0
 11
4.597495884309277
 21
4.775230809023478
 31
0.0
  0
LINE
  5
108
330
1F
100
AcDbEntity
  8
0
  6
Continuous
 62
     7
370
    15
100
AcDbLine
 10
4.783865846808724
 20
5.795510425616847
 30
0.0
 11
4.796122379895615
 21
5.792226764945302
 31
0.0
  0
LINE
  5
109
330
1F
100
AcDbEntity
  8
0
  6
Continuous
 62
     7
370
    15
100
AcDbLine
 10
4.837880946416291
 20
5.906706283943695
 30
0.0
 11
4.850137479503183
 21
5.90342262327215
 31
0.0
  0
ARC
  5
10A
330
1F
100
AcDbEntity
  8
0
  6
Continuous
 62
     7
370
    15
100
AcDbCircle
 10
4.919180242610681
 20
5.798496637376402
 30
0.0
 40
0.1353473426851137
100
AcDbArc
 50
126.9180080080363
 51
181.2642377132523
  0
LINE
  5
10B
330
1F
100
AcDbEntity
  8
0
  6
Continuous
 62
     7
370
    15
100
AcDbLine
 10
5.333537754429708
 20
6.244825886627887
 30
0.0
 11
5.321281290481349
 21
6.241542244479319
 31
0.0
  0
LINE
  5
10C
330
1F
100
AcDbEntity
  8
0
  6
Continuous
 62
     7
370
    15
100
AcDbLine
 10
5.376749837572687
 20
6.155869210815546
 30
0.0
 11
5.364493373624329
 21
6.152585568666978
 31
0.0
  0
ARC
  5
10D
330
1F
100
AcDbEntity
  8
0
  6
Continuous
 62
     7
370
    15
100
AcDbCircle
 10
5.268582293465694
 20
6.158298958097263
 30
0.0
 40
0.1081948301444728
100
AcDbArc
 50
358.7131920397679
 51
53.10457133461817
  0
LINE
  5
10E
330
1F
100
AcDbEntity
  8
0
  6
Continuous
 62
     7
370
    15
100
AcDbLine
 10
5.279522654822142
 20
6.356021744954735
 30
0.0
 11
5.267266190873782
 21
6.352738102806166
 31
0.0
  0
ARC
  5
10F
330
1F
100
AcDbEntity
  8
0
  6
Continuous
 62
     7
370
    15
100
AcDbCircle
 10
5.414837090413335
 20
6.353035552523414
 30
0.0
 40
0.1353473820382219
100
AcDbArc
 50
178.7357708384886
 51
233.0819834402246
  0
SPLINE
  5
110
330
1F
100
AcDbEntity
  8
0
  6
Continuous
 62
     7
370
    15
100
AcDbSpline
210
0.0
220
0.0
230
1.0
 70
    11
 71
     3
 72
    51
 73
    47
 74
     0
 42
0.0000000001
 43
0.0000000001
 40
0.0
 40
0.0
 40
0.0
 40
0.0
 40
0.0112444388526084
 40
0.0216638233852216
 40
0.031306064851976
 40
0.0476840032253879
 40
0.0625025123801005
 40
0.0778693779825871
 40
0.0931474202377872
 40
0.123913768853436
 40
0.1387217829946735
 40
0.1550346968345561
 40
0.1697810384277339
 40
0.1863307413987043
 40
0.2045960554068138
 40
0.225424515347206
 40
0.2491117430558401
 40
0.2635453222674734
 40
0.2787508017618361
 40
0.2948321798879268
 40
0.3119094087591975
 40
0.3323886392643031
 40
0.353214624373373
 40
0.3745793469533241
 40
0.4059730997022372
 40
0.4370814989704153
 40
0.4685686315088958
 40
0.4994941798067773
 40
0.5308611041145907
 40
0.5618537896865437
 40
0.5930446781561529
 40
0.6242273081054765
 40
0.6552841863671059
 40
0.6867037830649685
 40
0.7177044105119718
 40
0.7492681365127839
 40
0.7803889556464297
 40
0.8118194901162924
 40
0.8435696859157364
 40
0.8743995200326871
 40
0.8968435586442785
 40
0.9176451780155495
 40
0.9370675168685572
 40
0.9607820285324496
 40
0.9816604231828593
 40
1.0
 40
1.0
 40
1.0
 40
1.0
 10
4.885571426052311
 20
5.747755850771008
 30
0.0
 10
4.885920844317916
 20
5.748293508566837
 30
0.0
 10
4.886594042482171
 20
5.749329373822829
 30
0.0
 10
4.887442018363216
 20
5.750897872503509
 30
0.0
 10
4.888326304796381
 20
5.752769627916647
 30
0.0
 10
4.889143820590096
 20
5.754936122802168
 30
0.0
 10
4.889835144765688
 20
5.757467747846212
 30
0.0
 10
4.890262140513899
 20
5.759977052109981
 30
0.0
 10
4.890479541300269
 20
5.763374502872741
 30
0.0
 10
4.890130169198546
 20
5.766697265008886
 30
0.0
 10
4.889259792913813
 20
5.769897556652674
 30
0.0
 10
4.888374783572936
 20
5.772173142016962
 30
0.0
 10
4.887216143521151
 20
5.774406331325417
 30
0.0
 10
4.885779190052526
 20
5.77658492547698
 30
0.0
 10
4.883890098906795
 20
5.778814837539972
 30
0.0
 10
4.88144976023752
 20
5.781035518743808
 30
0.0
 10
4.878865137762861
 20
5.782768676901946
 30
0.0
 10
4.876346356562286
 20
5.784044257492088
 30
0.0
 10
4.874080436504224
 20
5.784935901049509
 30
0.0
 10
4.87158486760364
 20
5.785642226988974
 30
0.0
 10
4.868729146710694
 20
5.786144136883115
 30
0.0
 10
4.865546579794025
 20
5.786348074017324
 30
0.0
 10
4.862092639552946
 20
5.786143669584304
 30
0.0
 10
4.858057962434824
 20
5.785399589142484
 30
0.0
 10
4.853569968153263
 20
5.783855685491239
 30
0.0
 10
4.848889683130114
 20
5.781226922020153
 30
0.0
 10
4.844750691211689
 20
5.777806641617177
 30
0.0
 10
4.841300649142664
 20
5.773677369387222
 30
0.0
 10
4.838707715390645
 20
5.769026885826256
 30
0.0
 10
4.837079511150553
 20
5.763998114798234
 30
0.0
 10
4.836495004614295
 20
5.758822194167302
 30
0.0
 10
4.836990028529025
 20
5.753704828746319
 30
0.0
 10
4.838535681047647
 20
5.748854943373699
 30
0.0
 10
4.84105966649145
 20
5.744496521897663
 30
0.0
 10
4.844455540155315
 20
5.740770437078249
 30
0.0
 10
4.848554610283338
 20
5.737850756433275
 30
0.0
 10
4.853208569544354
 20
5.735808719627488
 30
0.0
 10
4.858233947357499
 20
5.73472445955575
 30
0.0
 10
4.863415038433224
 20
5.734619790151874
 30
0.0
 10
4.868091939081155
 20
5.735416741213681
 30
0.0
 10
4.872038152367045
 20
5.736728931298297
 30
0.0
 10
4.875234150607735
 20
5.738257743122407
 30
0.0
 10
4.878310432382951
 20
5.740189657024503
 30
0.0
 10
4.881142332833601
 20
5.74249931378676
 30
0.0
 10
4.883643759345845
 20
5.745093750838091
 30
0.0
 10
4.884957213100324
 20
5.746907625166032
 30
0.0
 10
4.885571426052311
 20
5.747755850771008
 30
0.0
  0
LINE
  5
111
330
1F
100
AcDbEntity
  8
0
  6
Continuous
 62
     7
370
    15
100
AcDbLine
 10
4.890561983498526
 20
5.716301777644123
 30
0.0
 11
4.890928417712942
 21
5.7165725986687
 31
0.0
  0
LINE
  5
112
330
1F
100
AcDbEntity
  8
0
  6
Continuous
 62
     7
370
    15
100
AcDbLine
 10
4.783865846808724
 20
5.715223461573867
 30
0.0
 11
4.796122379895615
 21
5.711939800902322
 31
0.0
  0
LINE
  5
113
330
1F
100
AcDbEntity
  8
0
  6
Continuous
 62
     7
370
    15
100
AcDbLine
 10
4.783865846808724
 20
5.795510425616847
 30
0.0
 11
4.783865846808724
 21
5.715223461573867
 31
0.0
  0
LINE
  5
114
330
1F
100
AcDbEntity
  8
0
  6
Continuous
 62
     7
370
    15
100
AcDbLine
 10
4.881093012274638
 20
5.995662955125291
 30
0.0
 11
4.893349545361529
 21
5.992379294453746
 31
0.0
  0
LINE
  5
115
330
1F
100
AcDbEntity
  8
0
  6
Continuous
 62
     7
370
    15
100
AcDbLine
 10
4.881093012274638
 20
6.155799360670899
 30
0.0
 11
4.881093012274638
 21
5.995662955125291
 31
0.0
  0
LINE
  5
116
330
1F
100
AcDbEntity
  8
0
  6
Continuous
 62
     7
370
    15
100
AcDbLine
 10
5.376749837572687
 20
5.995732805269938
 30
0.0
 11
5.364493373624329
 21
5.992449163121369
 31
0.0
  0
LINE
  5
117
330
1F
100
AcDbEntity
  8
0
  6
Continuous
 62
     7
370
    15
100
AcDbLine
 10
5.376749837572687
 20
5.995732805269938
 30
0.0
 11
5.376749837572687
 21
6.155869210815546
 31
0.0
  0
ARC
  5
118
330
1F
100
AcDbEntity
  8
0
  6
Continuous
 62
     7
370
    15
100
AcDbCircle
 10
4.772925391368145
 20
5.993233237033265
 30
0.0
 40
0.1081949062690917
100
AcDbArc
 50
306.8954607027627
 51
1.286791593082978
  0
SPLINE
  5
119
330
1F
100
AcDbEntity
  8
0
  6
Continuous
 62
     7
370
    15
100
AcDbSpline
210
0.0
220
0.0
230
1.0
 70
     8
 71
     3
 72
    28
 73
    24
 74
     0
 42
0.0000000001
 43
0.0000000001
 40
0.0
 40
0.0
 40
0.0
 40
0.0
 40
0.0419174218753512
 40
0.0793341054707533
 40
0.1210134216774934
 40
0.158912261129594
 40
0.1984692830793529
 40
0.2380199599613353
 40
0.3175120786741666
 40
0.3554179462442693
 40
0.3969562624205221
 40
0.4343793326656583
 40
0.4763037479489913
 40
0.5225268729264562
 40
0.5752151582000929
 40
0.6351347701081574
 40
0.6842375820042103
 40
0.7369771600355107
 40
0.7940329447887304
 40
0.8458999863969449
 40
0.8986666912640687
 40
0.9528190297295154
 40
1.0
 40
1.0
 40
1.0
 40
1.0
 10
4.876247922297692
 20
5.754678720563733
 30
0.0
 10
4.876640419926069
 20
5.755298192720673
 30
0.0
 10
4.877383272106702
 20
5.756470623353002
 30
0.0
 10
4.878294672626323
 20
5.758376535587912
 30
0.0
 10
4.879003394619089
 20
5.760281358858172
 30
0.0
 10
4.879528270479505
 20
5.762270805443218
 30
0.0
 10
4.879849264512443
 20
5.76425131343109
 30
0.0
 10
4.880009933666396
 20
5.766940371563181
 30
0.0
 10
4.879754032935494
 20
5.769572888962241
 30
0.0
 10
4.879091246641165
 20
5.772105827461774
 30
0.0
 10
4.878413076460921
 20
5.773892971143395
 30
0.0
 10
4.8775204321429
 20
5.775640119381407
 30
0.0
 10
4.876409733324401
 20
5.777339038420249
 30
0.0
 10
4.874946538327054
 20
5.779074298539165
 30
0.0
 10
4.873053552006468
 20
5.780798913764073
 30
0.0
 10
4.870878126948857
 20
5.782255340036391
 30
0.0
 10
4.8685102567161
 20
5.783403632164395
 30
0.0
 10
4.866038094739432
 20
5.784231862514085
 30
0.0
 10
4.863405241568982
 20
5.78473057865049
 30
0.0
 10
4.860700736741884
 20
5.784899890745441
 30
0.0
 10
4.85802105802558
 20
5.784719418365508
 30
0.0
 10
4.855416349286547
 20
5.784284691145146
 30
0.0
 10
4.853777445084035
 20
5.783655939529603
 30
0.0
 10
4.853014368348265
 20
5.783363191649855
 30
0.0
  0
SPLINE
  5
11A
330
1F
100
AcDbEntity
  8
0
  6
Continuous
 62
     7
370
    15
100
AcDbSpline
210
0.0
220
0.0
230
1.0
 70
     8
 71
     3
 72
    23
 73
    19
 74
     0
 42
0.0000000001
 43
0.0000000001
 40
0.0
 40
0.0
 40
0.0
 40
0.0
 40
0.0523267656096669
 40
0.1199432347525583
 40
0.1875424036672479
 40
0.2548600309913784
 40
0.3229456409500924
 40
0.3900979752485533
 40
0.4584405058040537
 40
0.5257886893200882
 40
0.5937719627797508
 40
0.6624074878304008
 40
0.7290185722060742
 40
0.8002854092721689
 40
0.86420078800693
 40
0.9153693962669585
 40
0.9604169384308473
 40
1.0
 40
1.0
 40
1.0
 40
1.0
 10
4.839691684543752
 20
5.770438928075717
 30
0.0
 10
4.839329340598951
 20
5.769441459831508
 30
0.0
 10
4.838498777036955
 20
5.767155066503361
 30
0.0
 10
4.838144138576632
 20
5.763396424654667
 30
0.0
 10
4.83850958675391
 20
5.759413135901479
 30
0.0
 10
4.839715500269553
 20
5.75563066242305
 30
0.0
 10
4.841675103139131
 20
5.752232340080965
 30
0.0
 10
4.844313859284206
 20
5.749325056724778
 30
0.0
 10
4.847498577282296
 20
5.747045146845335
 30
0.0
 10
4.851114651559113
 20
5.745447335121968
 30
0.0
 10
4.855019114575194
 20
5.744594265616372
 30
0.0
 10
4.859045084824823
 20
5.744503063760596
 30
0.0
 10
4.863128675786582
 20
5.745188639551206
 30
0.0
 10
4.866976343892368
 20
5.746590182876131
 30
0.0
 10
4.870266729590928
 20
5.748520764813713
 30
0.0
 10
4.872814844292191
 20
5.750596160576405
 30
0.0
 10
4.87475572842853
 20
5.752610143528732
 30
0.0
 10
4.875772406164645
 20
5.754019528904443
 30
0.0
 10
4.876247922297692
 20
5.754678720563733
 30
0.0
  0
LWPOLYLINE
  5
11B
330
1F
100
AcDbEntity
  8
0
  6
Continuous
 62
     7
370
    15
100
AcDbPolyline
 90
       17
 70
   128
 43
0.0
 10
4.783865846808724
 20
5.715223461573867
 10
4.78408142074845
 20
5.707609122582935
 10
4.784726759797008
 20
5.70015483335658
 10
4.785798199612253
 20
5.692904216961812
 10
4.787289379449331
 20
5.685899726608672
 10
4.789191656991865
 20
5.679182356428357
 10
4.791493831797829
 20
5.672791426077876
 10
4.794182421853674
 20
5.666764301573362
 10
4.79724180185139
 20
5.661136314583169
 10
4.800653926634378
 20
5.655940405729086
 10
4.804398884305705
 20
5.651206895960986
 10
4.808454757951038
 20
5.646963543713169
 10
4.812797833054235
 20
5.643235223664125
 10
4.81740266663588
 20
5.640043709753779
 10
4.822242294668876
 20
5.637407683651285
 10
4.827288439494033
 20
5.635342601919361
 10
4.830566089834184
 20
5.634338747300894
  0
LINE
  5
11C
330
1F
100
AcDbEntity
  8
0
  6
Continuous
 62
     7
370
    15
100
AcDbLine
 10
5.279522654822142
 20
6.356021744954735
 30
0.0
 11
5.279522654822142
 21
6.436308708997715
 31
0.0
  0
ARC
  5
11D
330
1F
100
AcDbEntity
  8
0
  6
Continuous
 62
     7
370
    15
100
AcDbCircle
 10
5.31443121589508
 20
5.988574394984135
 30
0.0
 40
0.0627284101951951
100
AcDbArc
 50
293.4457747365605
 51
6.55272728921481
  0
LINE
  5
11E
330
1F
100
AcDbEntity
  8
0
  6
Continuous
 62
     7
370
    15
100
AcDbLine
 10
4.598721779602825
 20
4.722221705747347
 30
0.0
 11
4.586465246515934
 21
4.725505366418891
 31
0.0
  0
ARC
  5
11F
330
1F
100
AcDbEntity
  8
0
  6
Continuous
 62
     7
370
    15
100
AcDbCircle
 10
4.706567934767188
 20
4.724949072809774
 30
0.0
 40
0.1201039765692941
100
AcDbArc
 50
155.2505059163505
 51
179.7346183627857
  0
LINE
  5
120
330
1F
100
AcDbEntity
  8
0
  6
Continuous
 62
     7
370
    15
100
AcDbLine
 10
4.586465246515934
 20
4.379032637357413
 30
0.0
 11
4.598721779602825
 21
4.375748976685868
 31
0.0
  0
LINE
  5
121
330
1F
100
AcDbEntity
  8
0
  6
Continuous
 62
     7
370
    15
100
AcDbLine
 10
4.586465246515934
 20
4.379032637357413
 30
0.0
 11
4.586465246515934
 21
4.725505366418891
 31
0.0
  0
LWPOLYLINE
  5
122
330
1F
100
AcDbEntity
  8
0
  6
Continuous
 62
     7
370
    15
100
AcDbPolyline
 90
       28
 70
   128
 43
0.0
 10
5.018092394264972
 20
6.107357458972115
 10
5.020210384024293
 20
6.105980054629434
 10
5.02315347301283
 20
6.103521294996403
 10
5.025831346596366
 20
6.100590107342142
 10
5.028214620899219
 20
6.097218595026919
 10
5.030277230695193
 20
6.093443711425835
 10
5.031996498546112
 20
6.089306794193142
 10
5.03335368791007
 20
6.084853192389637
 10
5.034333864864366
 20
6.080131681885887
 10
5.034926243798161
 20
6.075193989819555
 10
5.035124463966601
 20
6.070094235765652
 10
5.034926243798161
 20
6.064888276851735
 10
5.034333864864366
 20
6.059633169171247
 10
5.03335368791007
 20
6.054386467021281
 10
5.031996498546112
 20
6.049205650213794
 10
5.030277230695193
 20
6.04414750832052
 10
5.028214620899219
 20
6.039267435743199
 10
5.025831346596366
 20
6.034618915321071
 10
5.02315347301283
 20
6.030252863809747
 10
5.020210384024293
 20
6.026217130571496
 10
5.017034298186214
 20
6.022555920453521
 10
5.013659992179694
 20
6.019309354662183
 10
5.010124455118832
 20
6.016512989563659
 10
5.006466473719531
 20
6.014197481815646
 10
5.00272601005272
 20
6.012388186154846
 10
4.998944132405826
 20
6.011104924918835
 10
4.995162323897464
 20
6.010361791041004
 10
4.992052403633573
 20
6.010161142089804
  0
LINE
  5
123
330
1F
100
AcDbEntity
  8
0
  6
Continuous
 62
     7
370
    15
100
AcDbLine
 10
4.881093012274638
 20
5.56716741995593
 30
0.0
 11
4.893349545361529
 21
5.563883759284386
 31
0.0
  0
ARC
  5
124
330
1F
100
AcDbEntity
  8
0
  6
Continuous
 62
     7
370
    15
100
AcDbCircle
 10
4.816176613424384
 20
5.57376251327473
 30
0.0
 40
0.065250548622744
100
AcDbArc
 50
354.1990163459503
 51
59.07050219641991
  0
LINE
  5
125
330
1F
100
AcDbEntity
  8
0
  6
Continuous
 62
     7
370
    15
100
AcDbLine
 10
5.279522654822142
 20
5.847676744732173
 30
0.0
 11
5.267266190873782
 21
5.844393102583604
 31
0.0
  0
ARC
  5
126
330
1F
100
AcDbEntity
  8
0
  6
Continuous
 62
     7
370
    15
100
AcDbCircle
 10
5.358801193152817
 20
5.856685575410748
 30
0.0
 40
0.0797887565390244
100
AcDbArc
 50
118.9312856443558
 51
186.4830065297794
  0
LINE
  5
127
330
1F
100
AcDbEntity
  8
0
  6
Continuous
 62
     7
370
    15
100
AcDbLine
 10
4.881093012274638
 20
5.493553133889488
 30
0.0
 11
4.893349545361529
 21
5.490269473217943
 31
0.0
  0
ARC
  5
128
330
1F
100
AcDbEntity
  8
0
  6
Continuous
 62
     7
370
    15
100
AcDbCircle
 10
4.400512704271606
 20
5.49581605383691
 30
0.0
 40
0.4805856357060398
100
AcDbArc
 50
335.2548765796751
 51
359.730211991689
  0
LINE
  5
129
330
1F
100
AcDbEntity
  8
0
  6
Continuous
 62
     7
370
    15
100
AcDbLine
 10
5.333537754429708
 20
5.656193910587059
 30
0.0
 11
5.321281290481349
 21
5.652910268438491
 31
0.0
  0
LINE
  5
12A
330
1F
100
AcDbEntity
  8
0
  6
Continuous
 62
     7
370
    15
100
AcDbLine
 10
5.376749837572687
 20
5.567237270100577
 30
0.0
 11
5.364493373624329
 21
5.563953627952009
 31
0.0
  0
ARC
  5
12B
330
1F
100
AcDbEntity
  8
0
  6
Continuous
 62
     7
370
    15
100
AcDbCircle
 10
5.268582408599013
 20
5.569667038949126
 30
0.0
 40
0.108194715524523
100
AcDbArc
 50
358.7131792524629
 51
53.10460200681772
  0
LINE
  5
12C
330
1F
100
AcDbEntity
  8
0
  6
Continuous
 62
     7
370
    15
100
AcDbLine
 10
5.279522654822142
 20
5.767389780689193
 30
0.0
 11
5.267266190873782
 21
5.764106138540625
 31
0.0
  0
ARC
  5
12D
330
1F
100
AcDbEntity
  8
0
  6
Continuous
 62
     7
370
    15
100
AcDbCircle
 10
5.414837159497537
 20
5.764403610357525
 30
0.0
 40
0.1353474506180197
100
AcDbArc
 50
178.735780836754
 51
233.0819686726567
  0
LINE
  5
12E
330
1F
100
AcDbEntity
  8
0
  6
Continuous
 62
     7
370
    15
100
AcDbLine
 10
4.881093012274638
 20
5.56716741995593
 30
0.0
 11
4.881093012274638
 21
5.493553133889488
 31
0.0
  0
LINE
  5
12F
330
1F
100
AcDbEntity
  8
0
  6
Continuous
 62
     7
370
    15
100
AcDbLine
 10
5.364493373624329
 20
5.490339341885567
 30
0.0
 11
5.376749837572687
 21
5.493622984034135
 31
0.0
  0
LINE
  5
130
330
1F
100
AcDbEntity
  8
0
  6
Continuous
 62
     7
370
    15
100
AcDbLine
 10
5.376749837572687
 20
5.493622984034135
 30
0.0
 11
5.376749837572687
 21
5.567237270100577
 31
0.0
  0
SPLINE
  5
131
330
1F
100
AcDbEntity
  8
0
  6
Continuous
 62
     7
370
    15
100
AcDbSpline
210
0.0
220
0.0
230
1.0
 70
    11
 71
     3
 72
    51
 73
    47
 74
     0
 42
0.0000000001
 43
0.0000000001
 40
0.0
 40
0.0
 40
0.0
 40
0.0
 40
0.0112447926138893
 40
0.0216639296313788
 40
0.031306425608785
 40
0.0476842301398773
 40
0.062502738132601
 40
0.0778694619454593
 40
0.0931473605223954
 40
0.123914132761914
 40
0.1387218700842598
 40
0.1550350492807654
 40
0.1697810071165816
 40
0.1863309500669974
 40
0.2045963742461406
 40
0.2254249327132868
 40
0.2491119019745349
 40
0.2635454080869945
 40
0.2787510079732567
 40
0.2948323848383312
 40
0.3119095773605983
 40
0.3323887865991813
 40
0.3532147766847371
 40
0.3745795448108882
 40
0.4059732195547039
 40
0.4370815532140676
 40
0.4685687698960983
 40
0.4994944229675121
 40
0.5308610971732453
 40
0.5618540516357645
 40
0.5930449376595499
 40
0.6242274230179208
 40
0.6552842988442346
 40
0.6867037681077582
 40
0.7177045017911329
 40
0.7492683136157733
 40
0.7803891303090897
 40
0.8118197020075484
 40
0.8435698820452051
 40
0.8743997404232557
 40
0.8968437066940852
 40
0.9176453244342038
 40
0.9370676617642146
 40
0.960782339234565
 40
0.9816605349336743
 40
1.0
 40
1.0
 40
1.0
 40
1.0
 10
4.885571426052311
 20
5.091939707516345
 30
0.0
 10
4.885920838545761
 20
5.092477391961479
 30
0.0
 10
4.88659400771218
 20
5.093513281051055
 30
0.0
 10
4.887442046813659
 20
5.095081770891342
 30
0.0
 10
4.888326278519368
 20
5.096953542707768
 30
0.0
 10
4.889143830677608
 20
5.099120030809356
 30
0.0
 10
4.889835139314934
 20
5.101651644878464
 30
0.0
 10
4.890262142523173
 20
5.104160932230893
 30
0.0
 10
4.89047953791505
 20
5.107558389816282
 30
0.0
 10
4.890130192839441
 20
5.11088116198054
 30
0.0
 10
4.889259771195063
 20
5.1140814583076
 30
0.0
 10
4.888374816759244
 20
5.116357049012421
 30
0.0
 10
4.887216107764338
 20
5.118590204283696
 30
0.0
 10
4.885779204573748
 20
5.120768830960151
 30
0.0
 10
4.883890094757583
 20
5.122998759661554
 30
0.0
 10
4.881449788488241
 20
5.125219474498675
 30
0.0
 10
4.878865130103799
 20
5.126952567925017
 30
0.0
 10
4.876346339318298
 20
5.128228101065564
 30
0.0
 10
4.874080449840064
 20
5.129119818593938
 30
0.0
 10
4.871584868916047
 20
5.129826129876637
 30
0.0
 10
4.868729144974625
 20
5.130328022722468
 30
0.0
 10
4.865546578061993
 20
5.130531892299375
 30
0.0
 10
4.862092634824908
 20
5.130327650235099
 30
0.0
 10
4.858057975357455
 20
5.129583388327064
 30
0.0
 10
4.853569965914227
 20
5.128039612706285
 30
0.0
 10
4.848889671718768
 20
5.125410846748059
 30
0.0
 10
4.844750688232535
 20
5.121990544782025
 30
0.0
 10
4.841300672424103
 20
5.117861259941427
 30
0.0
 10
4.838707690033256
 20
5.113210792117334
 30
0.0
 10
4.837079521862816
 20
5.10818200745234
 30
0.0
 10
4.836495001511461
 20
5.103006082684825
 30
0.0
 10
4.83699003312028
 20
5.097888725887132
 30
0.0
 10
4.838535673791616
 20
5.093038850618487
 30
0.0
 10
4.841059680680124
 20
5.088680443736707
 30
0.0
 10
4.844455538139857
 20
5.084954342943711
 30
0.0
 10
4.848554602498823
 20
5.082034632145844
 30
0.0
 10
4.853208575014018
 20
5.079992608816724
 30
0.0
 10
4.858233940184036
 20
5.078908306253018
 30
0.0
 10
4.863415045691214
 20
5.078803655890616
 30
0.0
 10
4.868091926307799
 20
5.07960070024146
 30
0.0
 10
4.872038160607275
 20
5.080912796179688
 30
0.0
 10
4.875234147451602
 20
5.082441630037056
 30
0.0
 10
4.878310449117774
 20
5.08437353079492
 30
0.0
 10
4.881142301489781
 20
5.086683245619457
 30
0.0
 10
4.883643766825049
 20
5.0892776293184
 30
0.0
 10
4.884957214717966
 20
5.0910914877797
 30
0.0
 10
4.885571426052311
 20
5.091939707516345
 30
0.0
  0
LINE
  5
132
330
1F
100
AcDbEntity
  8
0
  6
Continuous
 62
     7
370
    15
100
AcDbLine
 10
4.890561983498526
 20
5.060485657940034
 30
0.0
 11
4.890928417712942
 21
5.060756502515183
 31
0.0
  0
LINE
  5
133
330
1F
100
AcDbEntity
  8
0
  6
Continuous
 62
     7
370
    15
100
AcDbLine
 10
5.332627199976151
 20
5.318363074961292
 30
0.0
 11
5.320370736027791
 21
5.315079432812725
 31
0.0
  0
ARC
  5
134
330
1F
100
AcDbEntity
  8
0
  6
Continuous
 62
     7
370
    15
100
AcDbCircle
 10
5.041799937081053
 20
5.484764435754764
 30
0.0
 40
0.3350670227237733
100
AcDbArc
 50
330.2232941175062
 51
1.514970264274557
  0
SPLINE
  5
135
330
1F
100
AcDbEntity
  8
0
  6
Continuous
 62
     7
370
    15
100
AcDbSpline
210
0.0
220
0.0
230
1.0
 70
     8
 71
     3
 72
    28
 73
    24
 74
     0
 42
0.0000000001
 43
0.0000000001
 40
0.0
 40
0.0
 40
0.0
 40
0.0
 40
0.0419162563435741
 40
0.0793333595979766
 40
0.1210126821582343
 40
0.1589115273875635
 40
0.1984694734609103
 40
0.238020621020953
 40
0.317512288573227
 40
0.3554186124297813
 40
0.3969564989194749
 40
0.4343799919505014
 40
0.4763036249976859
 40
0.5225267570213181
 40
0.5752153770883777
 40
0.6351347194931308
 40
0.6842373107825809
 40
0.7369768968534047
 40
0.7940329310774247
 40
0.8458999176485338
 40
0.898666642477926
 40
0.9528191468886218
 40
1.0
 40
1.0
 40
1.0
 40
1.0
 10
4.876247922297692
 20
5.098862647960789
 30
0.0
 10
4.87664042350717
 20
5.099482094663684
 30
0.0
 10
4.877383296137278
 20
5.100654498697807
 30
0.0
 10
4.878294663984794
 20
5.102560412160928
 30
0.0
 10
4.879003395563487
 20
5.104465238428285
 30
0.0
 10
4.879528276274248
 20
5.106454701154611
 30
0.0
 10
4.879849261615355
 20
5.108435233198356
 30
0.0
 10
4.88000993597958
 20
5.111124307306853
 30
0.0
 10
4.879754022503811
 20
5.113756828183575
 30
0.0
 10
4.879091257058477
 20
5.116289767394566
 30
0.0
 10
4.87841306220724
 20
5.118076906277982
 30
0.0
 10
4.877520452741228
 20
5.119824060534925
 30
0.0
 10
4.876409716614584
 20
5.121522946440477
 30
0.0
 10
4.874946533587434
 20
5.123258203550673
 30
0.0
 10
4.873053566288195
 20
5.124982843497868
 30
0.0
 10
4.870878126072058
 20
5.126439245153352
 30
0.0
 10
4.868510251522316
 20
5.127587512796392
 30
0.0
 10
4.866038087470093
 20
5.128415726040205
 30
0.0
 10
4.863405251393071
 20
5.128914536548198
 30
0.0
 10
4.860700734010054
 20
5.129083758552987
 30
0.0
 10
4.858021053049769
 20
5.128903416667015
 30
0.0
 10
4.855416357974407
 20
5.128468541333317
 30
0.0
 10
4.853777446300488
 20
5.127839825737432
 30
0.0
 10
4.853014368348265
 20
5.127547095496338
 30
0.0
  0
SPLINE
  5
136
330
1F
100
AcDbEntity
  8
0
  6
Continuous
 62
     7
370
    15
100
AcDbSpline
210
0.0
220
0.0
230
1.0
 70
     8
 71
     3
 72
    23
 73
    19
 74
     0
 42
0.0000000001
 43
0.0000000001
 40
0.0
 40
0.0
 40
0.0
 40
0.0
 40
0.0523267688018149
 40
0.1199436366602415
 40
0.1875420191074121
 40
0.2548600299427462
 40
0.3229459918553722
 40
0.3900977248946965
 40
0.4584405058710573
 40
0.5257885118409905
 40
0.5937720122476202
 40
0.6624074275752854
 40
0.7290184799320267
 40
0.8002853213456917
 40
0.864200346690287
 40
0.9153694238735797
 40
0.9604172432749411
 40
1.0
 40
1.0
 40
1.0
 40
1.0
 10
4.839691684543752
 20
5.1146228319222
 30
0.0
 10
4.839329340697158
 20
5.113625363682623
 30
0.0
 10
4.838498774627876
 20
5.111338962843291
 30
0.0
 10
4.838144137953579
 20
5.107580328229323
 30
0.0
 10
4.838509593449293
 20
5.103597040778572
 30
0.0
 10
4.839715503496798
 20
5.099814570783036
 30
0.0
 10
4.841675079257963
 20
5.096416222775569
 30
0.0
 10
4.844313886555826
 20
5.093508991054614
 30
0.0
 10
4.847498558609481
 20
5.091229033484149
 30
0.0
 10
4.851114669387215
 20
5.089631292699251
 30
0.0
 10
4.855019099867613
 20
5.088778099466457
 30
0.0
 10
4.859045088784661
 20
5.088687054726282
 30
0.0
 10
4.863128678913517
 20
5.089372544673413
 30
0.0
 10
4.866976326653726
 20
5.090774130834862
 30
0.0
 10
4.870266757119706
 20
5.092704631769551
 30
0.0
 10
4.872814839505113
 20
5.094780090959571
 30
0.0
 10
4.874755715594294
 20
5.096794088815847
 30
0.0
 10
4.875772404464234
 20
5.098203465314885
 30
0.0
 10
4.876247922297692
 20
5.098862647960789
 30
0.0
  0
LINE
  5
137
330
1F
100
AcDbEntity
  8
0
  6
Continuous
 62
     7
370
    15
100
AcDbLine
 10
5.279522654822142
 20
5.767389780689193
 30
0.0
 11
5.279522654822142
 21
5.847676744732173
 31
0.0
  0
LINE
  5
138
330
1F
100
AcDbEntity
  8
0
  6
Continuous
 62
     7
370
    15
100
AcDbLine
 10
4.575858635333347
 20
4.35072307533309
 30
0.0
 11
4.575858635333347
 21
4.367422692260289
 31
0.0
  0
LWPOLYLINE
  5
139
330
1F
100
AcDbEntity
  8
0
  6
Continuous
 62
     7
370
    15
100
AcDbPolyline
 90
        9
 70
   128
 43
0.0
 10
4.575858635333347
 20
4.367422692260289
 10
4.577927882428299
 20
4.367146026448251
 10
4.579917620212575
 20
4.367435339705586
 10
4.581751381470867
 20
4.368279466474619
 10
4.583358644901531
 20
4.36964605414517
 10
4.58467770436563
 20
4.371482678396849
 10
4.585657881319927
 20
4.373718511318783
 10
4.586261460695747
 20
4.376267947667079
 10
4.586465246515934
 20
4.379032637357413
  0
LWPOLYLINE
  5
13A
330
1F
100
AcDbEntity
  8
0
  6
Continuous
 62
     7
370
    15
100
AcDbPolyline
 90
       13
 70
   128
 43
0.0
 10
4.575858635333347
 20
4.35072307533309
 10
4.578842896317107
 20
4.350189962912715
 10
4.581776063926442
 20
4.350199013824297
 10
4.584607978157095
 20
4.350750289762022
 10
4.587290207468086
 20
4.351833780711984
 10
4.589776843874816
 20
4.353431452792938
 10
4.592025332611441
 20
4.355515707148506
 10
4.59399719808545
 20
4.358051069501746
 10
4.5956587006937
 20
4.360994014186867
 10
4.596981424499944
 20
4.364294125536013
 10
4.597942726635271
 20
4.367895107907395
 10
4.598526186698564
 20
4.371735418904279
 10
4.598721779602825
 20
4.375748976685868
  0
ARC
  5
13B
330
1F
100
AcDbEntity
  8
0
  6
Continuous
 62
     7
370
    15
100
AcDbCircle
 10
5.046557063139712
 20
4.498913546019655
 30
0.0
 40
0.0237761083082382
100
AcDbArc
 50
292.4340686653138
 51
7.564405963713236
  0
LINE
  5
13C
330
1F
100
AcDbEntity
  8
0
  6
Continuous
 62
     7
370
    15
100
AcDbLine
 10
4.571733865141851
 20
4.368527763781001
 30
0.0
 11
4.575858635333347
 21
4.367422692260289
 31
0.0
  0
LINE
  5
13D
330
1F
100
AcDbEntity
  8
0
  6
Continuous
 62
     7
370
    15
100
AcDbLine
 10
4.540567390712248
 20
4.360177989801206
 30
0.0
 11
4.575858635333347
 21
4.35072307533309
 31
0.0
  0
LINE
  5
13E
330
1F
100
AcDbEntity
  8
0
  6
Continuous
 62
     7
370
    15
100
AcDbLine
 10
5.151914895324118
 20
5.023227560095581
 30
0.0
 11
5.139658431375758
 21
5.019943917947014
 31
0.0
  0
LINE
  5
13F
330
1F
100
AcDbEntity
  8
0
  6
Continuous
 62
     7
370
    15
100
AcDbLine
 10
5.151914895324118
 20
5.023227560095581
 30
0.0
 11
5.332627199976151
 21
5.318363074961292
 31
0.0
  0
SPLINE
  5
140
330
1F
100
AcDbEntity
  8
0
  6
Continuous
 62
     7
370
    15
100
AcDbSpline
210
0.0
220
0.0
230
1.0
 70
     8
 71
     3
 72
    10
 73
     6
 74
     0
 42
0.0000000001
 43
0.0000000001
 40
0.0
 40
0.0
 40
0.0
 40
0.0
 40
0.4398611199919864
 40
0.8797246320474654
 40
1.0
 40
1.0
 40
1.0
 40
1.0
 10
5.151914895324118
 20
5.023227560095581
 30
0.0
 10
5.15032819940985
 20
5.021900107396487
 30
0.0
 10
5.147154798952506
 20
5.019245194779313
 30
0.0
 10
5.142912844396084
 20
5.016030455475656
 30
0.0
 10
5.14032281064778
 20
5.014061595034812
 30
0.0
 10
5.139766667746073
 20
5.013638833069125
 30
0.0
  0
LINE
  5
141
330
1F
100
AcDbEntity
  8
0
  6
Continuous
 62
     7
370
    15
100
AcDbLine
 10
4.132527786191473
 20
7.700832949548682
 30
0.0
 11
4.132527786191473
 21
7.680647847856056
 31
0.0
  0
LINE
  5
142
330
1F
100
AcDbEntity
  8
0
  6
Continuous
 62
     7
370
    15
100
AcDbLine
 10
4.132527786191473
 20
7.700832949548682
 30
0.0
 11
4.170198882758138
 21
7.690740446442543
 31
0.0
  0
LINE
  5
143
330
1F
100
AcDbEntity
  8
0
  6
Continuous
 62
     7
370
    15
100
AcDbLine
 10
4.132527786191473
 20
7.700832949548682
 30
0.0
 11
4.144784250139833
 21
7.704116591697251
 31
0.0
  0
LINE
  5
144
330
1F
100
AcDbEntity
  8
0
  6
Continuous
 62
     7
370
    15
100
AcDbLine
 10
4.144784250139833
 20
7.704116591697251
 30
0.0
 11
4.182455346706499
 21
7.694024088591112
 31
0.0
  0
LINE
  5
145
330
1F
100
AcDbEntity
  8
0
  6
Continuous
 62
     7
370
    15
100
AcDbLine
 10
2.482868055196681
 20
5.702909835381706
 30
0.0
 11
2.168042158985265
 21
5.439446348862292
 31
0.0
  0
LINE
  5
146
330
1F
100
AcDbEntity
  8
0
  6
Continuous
 62
     7
370
    15
100
AcDbLine
 10
2.344818873751313
 20
5.743206544663007
 30
0.0
 11
2.482868055196681
 21
5.702909835381706
 31
0.0
  0
LINE
  5
147
330
1F
100
AcDbEntity
  8
0
  6
Continuous
 62
     7
370
    15
100
AcDbLine
 10
2.344818873751313
 20
7.012259266131395
 30
0.0
 11
2.344818873751313
 21
5.743206544663007
 31
0.0
  0
LINE
  5
148
330
1F
100
AcDbEntity
  8
0
  6
Continuous
 62
     7
370
    15
100
AcDbLine
 10
2.344818873751313
 20
7.012259266131395
 30
0.0
 11
4.760767009286995
 21
7.659518472377572
 31
0.0
  0
LINE
  5
149
330
1F
100
AcDbEntity
  8
0
  6
Continuous
 62
     7
370
    15
100
AcDbLine
 10
2.521595588517361
 20
4.00871478548974
 30
0.0
 11
2.285893209977922
 21
3.945567513327813
 31
0.0
  0
LINE
  5
14A
330
1F
100
AcDbEntity
  8
0
  6
Continuous
 62
     7
370
    15
100
AcDbLine
 10
2.285893209977922
 20
5.405045491178085
 30
0.0
 11
2.285893209977922
 21
3.945567513327813
 31
0.0
  0
LINE
  5
14B
330
1F
100
AcDbEntity
  8
0
  6
Continuous
 62
     7
370
    15
100
AcDbLine
 10
2.168042158985265
 20
5.439446348862292
 30
0.0
 11
2.285893209977922
 21
5.405045491178085
 31
0.0
  0
LINE
  5
14C
330
1F
100
AcDbEntity
  8
0
  6
Continuous
 62
     7
370
    15
100
AcDbLine
 10
4.407213648893432
 20
7.754239325051535
 30
0.0
 11
4.760767009286995
 21
7.659518472377572
 31
0.0
  0
LINE
  5
14D
330
1F
100
AcDbEntity
  8
0
  6
Continuous
 62
     7
370
    15
100
AcDbLine
 10
2.344818873751313
 20
7.012259266131395
 30
0.0
 11
1.99126551335775
 21
7.106980118805356
 31
0.0
  0
LINE
  5
14E
330
1F
100
AcDbEntity
  8
0
  6
Continuous
 62
     7
370
    15
100
AcDbLine
 10
1.99126551335775
 20
7.106980118805356
 30
0.0
 11
4.407213648893432
 21
7.754239325051535
 31
0.0
  0
LINE
  5
14F
330
1F
100
AcDbEntity
  8
0
  6
Continuous
 62
     7
370
    15
100
AcDbLine
 10
2.344818873751313
 20
5.743206544663007
 30
0.0
 11
1.99126551335775
 21
5.83792739733697
 31
0.0
  0
LINE
  5
150
330
1F
100
AcDbEntity
  8
0
  6
Continuous
 62
     7
370
    15
100
AcDbLine
 10
1.99126551335775
 20
7.106980118805356
 30
0.0
 11
1.99126551335775
 21
5.83792739733697
 31
0.0
  0
LINE
  5
151
330
1F
100
AcDbEntity
  8
0
  6
Continuous
 62
     7
370
    15
100
AcDbLine
 10
2.482868055196681
 20
5.702909835381706
 30
0.0
 11
2.129314694803118
 21
5.797630688055669
 31
0.0
  0
LINE
  5
152
330
1F
100
AcDbEntity
  8
0
  6
Continuous
 62
     7
370
    15
100
AcDbLine
 10
2.168042158985265
 20
5.439446348862292
 30
0.0
 11
1.814488798591703
 21
5.534167201536253
 31
0.0
  0
LINE
  5
153
330
1F
100
AcDbEntity
  8
0
  6
Continuous
 62
     7
370
    15
100
AcDbLine
 10
2.129314694803118
 20
5.797630688055669
 30
0.0
 11
1.814488798591703
 21
5.534167201536253
 31
0.0
  0
LINE
  5
154
330
1F
100
AcDbEntity
  8
0
  6
Continuous
 62
     7
370
    15
100
AcDbLine
 10
2.285893209977922
 20
5.405045491178085
 30
0.0
 11
1.93233984958436
 21
5.499766343852046
 31
0.0
  0
LINE
  5
155
330
1F
100
AcDbEntity
  8
0
  6
Continuous
 62
     7
370
    15
100
AcDbLine
 10
1.814488798591703
 20
5.534167201536253
 30
0.0
 11
1.93233984958436
 21
5.499766343852046
 31
0.0
  0
LINE
  5
156
330
1F
100
AcDbEntity
  8
0
  6
Continuous
 62
     7
370
    15
100
AcDbLine
 10
1.99126551335775
 20
5.83792739733697
 30
0.0
 11
2.129314694803118
 21
5.797630688055669
 31
0.0
  0
LINE
  5
157
330
1F
100
AcDbEntity
  8
0
  6
Continuous
 62
     7
370
    15
100
AcDbLine
 10
2.285893209977922
 20
3.945567513327813
 30
0.0
 11
1.93233984958436
 21
4.040288366001774
 31
0.0
  0
LINE
  5
158
330
1F
100
AcDbEntity
  8
0
  6
Continuous
 62
     7
370
    15
100
AcDbLine
 10
1.93233984958436
 20
5.499766343852046
 30
0.0
 11
1.93233984958436
 21
4.040288366001774
 31
0.0
  0
LINE
  5
159
330
1F
100
AcDbEntity
  8
0
  6
Continuous
 62
     7
370
    15
100
AcDbLine
 10
7.058864093830012
 20
7.23327460756028
 30
0.0
 11
3.169776783808167
 21
8.275204079588743
 31
0.0
  0
LINE
  5
15A
330
1F
100
AcDbEntity
  8
0
  6
Continuous
 62
     7
370
    15
100
AcDbLine
 10
7.058864093830012
 20
7.23327460756028
 30
0.0
 11
7.058864093830012
 21
5.989725201671097
 31
0.0
  0
LINE
  5
15B
330
1F
100
AcDbEntity
  8
0
  6
Continuous
 62
     7
370
    15
100
AcDbLine
 10
7.058864093830012
 20
5.989725201671097
 30
0.0
 11
6.914846666971249
 21
5.961527874511881
 31
0.0
  0
LINE
  5
15C
330
1F
100
AcDbEntity
  8
0
  6
Continuous
 62
     7
370
    15
100
AcDbLine
 10
6.914846666971249
 20
5.961527874511881
 30
0.0
 11
7.23564080859606
 21
5.660461690291176
 31
0.0
  0
LINE
  5
15D
330
1F
100
AcDbEntity
  8
0
  6
Continuous
 62
     7
370
    15
100
AcDbLine
 10
7.23564080859606
 20
5.660461690291176
 30
0.0
 11
7.117789619326341
 21
5.637387505836637
 31
0.0
  0
LINE
  5
15E
330
1F
100
AcDbEntity
  8
0
  6
Continuous
 62
     7
370
    15
100
AcDbLine
 10
7.117789619326341
 20
5.637387505836637
 30
0.0
 11
7.117789619326341
 21
4.16658289180265
 31
0.0
  0
LINE
  5
15F
330
1F
100
AcDbEntity
  8
0
  6
Continuous
 62
     7
370
    15
100
AcDbLine
 10
6.882087379063966
 20
4.229730126918625
 30
0.0
 11
7.117789619326341
 21
4.16658289180265
 31
0.0
  0
LINE
  5
160
330
1F
100
AcDbEntity
  8
0
  6
Continuous
 62
     7
370
    15
100
AcDbLine
 10
3.169776783808167
 20
8.148909517361595
 30
0.0
 11
3.169776783808167
 21
8.275204079588743
 31
0.0
  0
LINE
  5
161
330
1F
100
AcDbEntity
  8
0
  6
Continuous
 62
     7
370
    15
100
AcDbLine
 10
7.412417467187051
 20
7.327995463707298
 30
0.0
 11
7.058864093830012
 21
7.23327460756028
 31
0.0
  0
LINE
  5
162
330
1F
100
AcDbEntity
  8
0
  6
Continuous
 62
     7
370
    15
100
AcDbLine
 10
7.412417467187051
 20
7.327995463707298
 30
0.0
 11
7.412417467187051
 21
6.084446057818116
 31
0.0
  0
LINE
  5
163
330
1F
100
AcDbEntity
  8
0
  6
Continuous
 62
     7
370
    15
100
AcDbLine
 10
7.412417467187051
 20
6.084446057818116
 30
0.0
 11
7.058864093830012
 21
5.989725201671097
 31
0.0
  0
LINE
  5
164
330
1F
100
AcDbEntity
  8
0
  6
Continuous
 62
     7
370
    15
100
AcDbLine
 10
3.523330157165206
 20
8.369924935735761
 30
0.0
 11
3.169776783808167
 21
8.275204079588743
 31
0.0
  0
LINE
  5
165
330
1F
100
AcDbEntity
  8
0
  6
Continuous
 62
     7
370
    15
100
AcDbLine
 10
7.412417467187051
 20
7.327995463707298
 30
0.0
 11
3.523330157165206
 21
8.369924935735761
 31
0.0
  0
LINE
  5
166
330
1F
100
AcDbEntity
  8
0
  6
Continuous
 62
     7
370
    15
100
AcDbLine
 10
7.589194181953098
 20
5.755182546438195
 30
0.0
 11
7.23564080859606
 21
5.660461690291176
 31
0.0
  0
LINE
  5
167
330
1F
100
AcDbEntity
  8
0
  6
Continuous
 62
     7
370
    15
100
AcDbLine
 10
7.277009446765249
 20
6.048168764392658
 30
0.0
 11
7.589194181953098
 21
5.755182546438195
 31
0.0
  0
LINE
  5
168
330
1F
100
AcDbEntity
  8
0
  6
Continuous
 62
     7
370
    15
100
AcDbLine
 10
7.471342992683379
 20
4.26130374794967
 30
0.0
 11
7.117789619326341
 21
4.16658289180265
 31
0.0
  0
LINE
  5
169
330
1F
100
AcDbEntity
  8
0
  6
Continuous
 62
     7
370
    15
100
AcDbLine
 10
7.471342992683379
 20
5.723608936731444
 30
0.0
 11
7.471342992683379
 21
4.26130374794967
 31
0.0
  0
LINE
  5
16A
330
1F
100
AcDbEntity
  8
0
  6
Continuous
 62
     7
370
    15
100
AcDbLine
 10
3.072123828698948
 20
5.671336245608183
 30
0.0
 11
2.757297932487532
 21
5.407872759088768
 31
0.0
  0
LINE
  5
16B
330
1F
100
AcDbEntity
  8
0
  6
Continuous
 62
     7
370
    15
100
AcDbLine
 10
2.934074647253579
 20
5.711632954889485
 30
0.0
 11
3.072123828698948
 21
5.671336245608183
 31
0.0
  0
LINE
  5
16C
330
1F
100
AcDbEntity
  8
0
  6
Continuous
 62
     7
370
    15
100
AcDbLine
 10
2.934074647253579
 20
6.980685676357873
 30
0.0
 11
2.934074647253579
 21
5.711632954889485
 31
0.0
  0
LINE
  5
16D
330
1F
100
AcDbEntity
  8
0
  6
Continuous
 62
     7
370
    15
100
AcDbLine
 10
2.934074647253579
 20
6.980685676357873
 30
0.0
 11
5.114320404249824
 21
7.564797610442123
 31
0.0
  0
LINE
  5
16E
330
1F
100
AcDbEntity
  8
0
  6
Continuous
 62
     7
370
    15
100
AcDbLine
 10
5.114320404249824
 20
7.564797610442123
 30
0.0
 11
5.114320404249824
 21
7.435881021648464
 31
0.0
  0
LINE
  5
16F
330
1F
100
AcDbEntity
  8
0
  6
Continuous
 62
     7
370
    15
100
AcDbLine
 10
5.114320404249824
 20
4.970173359943281
 30
0.0
 11
5.114320404249824
 21
4.513892694201999
 31
0.0
  0
LINE
  5
170
330
1F
100
AcDbEntity
  8
0
  6
Continuous
 62
     7
370
    15
100
AcDbLine
 10
5.114320404249824
 20
4.513892694201999
 30
0.0
 11
5.070126225558311
 21
4.502052585302382
 31
0.0
  0
LINE
  5
171
330
1F
100
AcDbEntity
  8
0
  6
Continuous
 62
     7
370
    15
100
AcDbLine
 10
4.584992008127655
 20
4.372079766814122
 30
0.0
 11
2.875148983480189
 21
3.91399392355429
 31
0.0
  0
LINE
  5
172
330
1F
100
AcDbEntity
  8
0
  6
Continuous
 62
     7
370
    15
100
AcDbLine
 10
2.875148983480189
 20
5.373471901404562
 30
0.0
 11
2.875148983480189
 21
3.91399392355429
 31
0.0
  0
LINE
  5
173
330
1F
100
AcDbEntity
  8
0
  6
Continuous
 62
     7
370
    15
100
AcDbLine
 10
2.757297932487532
 20
5.407872759088768
 30
0.0
 11
2.875148983480189
 21
5.373471901404562
 31
0.0
  0
LINE
  5
174
330
1F
100
AcDbEntity
  8
0
  6
Continuous
 62
     7
370
    15
100
AcDbLine
 10
4.760767009286995
 20
7.659518472377572
 30
0.0
 11
5.114320404249824
 21
7.564797610442123
 31
0.0
  0
LINE
  5
175
330
1F
100
AcDbEntity
  8
0
  6
Continuous
 62
     7
370
    15
100
AcDbLine
 10
2.934074647253579
 20
6.980685676357873
 30
0.0
 11
2.580521252290751
 21
7.075406538293322
 31
0.0
  0
LINE
  5
176
330
1F
100
AcDbEntity
  8
0
  6
Continuous
 62
     7
370
    15
100
AcDbLine
 10
2.580521252290751
 20
7.075406538293322
 30
0.0
 11
4.760767009286995
 21
7.659518472377572
 31
0.0
  0
LINE
  5
177
330
1F
100
AcDbEntity
  8
0
  6
Continuous
 62
     7
370
    15
100
AcDbLine
 10
2.934074647253579
 20
5.711632954889485
 30
0.0
 11
2.580521252290751
 21
5.806353816824935
 31
0.0
  0
LINE
  5
178
330
1F
100
AcDbEntity
  8
0
  6
Continuous
 62
     7
370
    15
100
AcDbLine
 10
2.580521252290751
 20
7.075406538293322
 30
0.0
 11
2.580521252290751
 21
5.806353816824935
 31
0.0
  0
LINE
  5
179
330
1F
100
AcDbEntity
  8
0
  6
Continuous
 62
     7
370
    15
100
AcDbLine
 10
3.072123828698948
 20
5.671336245608183
 30
0.0
 11
2.718570433736119
 21
5.766057107543634
 31
0.0
  0
LINE
  5
17A
330
1F
100
AcDbEntity
  8
0
  6
Continuous
 62
     7
370
    15
100
AcDbLine
 10
2.757297932487532
 20
5.407872759088768
 30
0.0
 11
2.403744537524704
 21
5.502593621024218
 31
0.0
  0
LINE
  5
17B
330
1F
100
AcDbEntity
  8
0
  6
Continuous
 62
     7
370
    15
100
AcDbLine
 10
2.718570433736119
 20
5.766057107543634
 30
0.0
 11
2.403744537524704
 21
5.502593621024218
 31
0.0
  0
LINE
  5
17C
330
1F
100
AcDbEntity
  8
0
  6
Continuous
 62
     7
370
    15
100
AcDbLine
 10
2.875148983480189
 20
5.373471901404562
 30
0.0
 11
2.521595588517361
 21
5.468192763340011
 31
0.0
  0
LINE
  5
17D
330
1F
100
AcDbEntity
  8
0
  6
Continuous
 62
     7
370
    15
100
AcDbLine
 10
2.403744537524704
 20
5.502593621024218
 30
0.0
 11
2.521595588517361
 21
5.468192763340011
 31
0.0
  0
LINE
  5
17E
330
1F
100
AcDbEntity
  8
0
  6
Continuous
 62
     7
370
    15
100
AcDbLine
 10
2.580521252290751
 20
5.806353816824935
 30
0.0
 11
2.718570433736119
 21
5.766057107543634
 31
0.0
  0
LINE
  5
17F
330
1F
100
AcDbEntity
  8
0
  6
Continuous
 62
     7
370
    15
100
AcDbLine
 10
2.875148983480189
 20
3.91399392355429
 30
0.0
 11
2.521595588517361
 21
4.00871478548974
 31
0.0
  0
LINE
  5
180
330
1F
100
AcDbEntity
  8
0
  6
Continuous
 62
     7
370
    15
100
AcDbLine
 10
2.521595588517361
 20
5.468192763340011
 30
0.0
 11
2.521595588517361
 21
4.00871478548974
 31
0.0
  0
LINE
  5
181
330
1F
100
AcDbEntity
  8
0
  6
Continuous
 62
     7
370
    15
100
AcDbLine
 10
6.469608424035542
 20
7.201700971479316
 30
0.0
 11
3.051925732815509
 21
8.117335936229876
 31
0.0
  0
LINE
  5
182
330
1F
100
AcDbEntity
  8
0
  6
Continuous
 62
     7
370
    15
100
AcDbLine
 10
6.469608424035542
 20
7.201700971479316
 30
0.0
 11
6.469608424035542
 21
5.932648250010929
 31
0.0
  0
LINE
  5
183
330
1F
100
AcDbEntity
  8
0
  6
Continuous
 62
     7
370
    15
100
AcDbLine
 10
6.469608424035542
 20
5.932648250010929
 30
0.0
 11
6.331559173451644
 21
5.892351559252603
 31
0.0
  0
LINE
  5
184
330
1F
100
AcDbEntity
  8
0
  6
Continuous
 62
     7
370
    15
100
AcDbLine
 10
6.331559173451644
 20
5.892351559252603
 30
0.0
 11
6.646385069663058
 21
5.628888072733189
 31
0.0
  0
LINE
  5
185
330
1F
100
AcDbEntity
  8
0
  6
Continuous
 62
     7
370
    15
100
AcDbLine
 10
6.646385069663058
 20
5.628888072733189
 30
0.0
 11
6.528533949531871
 21
5.594487233571959
 31
0.0
  0
LINE
  5
186
330
1F
100
AcDbEntity
  8
0
  6
Continuous
 62
     7
370
    15
100
AcDbLine
 10
6.528533949531871
 20
5.594487233571959
 30
0.0
 11
6.528533949531871
 21
4.135009255721687
 31
0.0
  0
LINE
  5
187
330
1F
100
AcDbEntity
  8
0
  6
Continuous
 62
     7
370
    15
100
AcDbLine
 10
5.114320404249824
 20
4.513892694201999
 30
0.0
 11
6.528533949531871
 21
4.135009255721687
 31
0.0
  0
LINE
  5
188
330
1F
100
AcDbEntity
  8
0
  6
Continuous
 62
     7
370
    15
100
AcDbLine
 10
3.051925732815509
 20
7.391142627334088
 30
0.0
 11
3.051925732815509
 21
8.117335936229876
 31
0.0
  0
LINE
  5
189
330
1F
100
AcDbEntity
  8
0
  6
Continuous
 62
     7
370
    15
100
AcDbLine
 10
6.823161853567638
 20
7.296421842676253
 30
0.0
 11
6.469608424035542
 21
7.201700971479316
 31
0.0
  0
LINE
  5
18A
330
1F
100
AcDbEntity
  8
0
  6
Continuous
 62
     7
370
    15
100
AcDbLine
 10
3.405479162347604
 20
8.212056807426813
 30
0.0
 11
3.051925732815509
 21
8.117335936229876
 31
0.0
  0
LINE
  5
18B
330
1F
100
AcDbEntity
  8
0
  6
Continuous
 62
     7
370
    15
100
AcDbLine
 10
6.823161853567638
 20
7.296421842676253
 30
0.0
 11
3.405479162347604
 21
8.212056807426813
 31
0.0
  0
LINE
  5
18C
330
1F
100
AcDbEntity
  8
0
  6
Continuous
 62
     7
370
    15
100
AcDbLine
 10
6.823161853567638
 20
7.296421842676253
 30
0.0
 11
6.823161853567638
 21
6.027369121207867
 31
0.0
  0
LINE
  5
18D
330
1F
100
AcDbEntity
  8
0
  6
Continuous
 62
     7
370
    15
100
AcDbLine
 10
6.823161853567638
 20
6.027369121207867
 30
0.0
 11
6.469608424035542
 21
5.932648250010929
 31
0.0
  0
LINE
  5
18E
330
1F
100
AcDbEntity
  8
0
  6
Continuous
 62
     7
370
    15
100
AcDbLine
 10
6.685112602983738
 20
5.987072430449543
 30
0.0
 11
6.331559173451644
 21
5.892351559252603
 31
0.0
  0
LINE
  5
18F
330
1F
100
AcDbEntity
  8
0
  6
Continuous
 62
     7
370
    15
100
AcDbLine
 10
6.999938499195153
 20
5.723608943930127
 30
0.0
 11
6.646385069663058
 21
5.628888072733189
 31
0.0
  0
LINE
  5
190
330
1F
100
AcDbEntity
  8
0
  6
Continuous
 62
     7
370
    15
100
AcDbLine
 10
6.685112602983738
 20
5.987072430449543
 30
0.0
 11
6.999938499195153
 21
5.723608943930127
 31
0.0
  0
LINE
  5
191
330
1F
100
AcDbEntity
  8
0
  6
Continuous
 62
     7
370
    15
100
AcDbLine
 10
6.882087379063966
 20
5.689208104768898
 30
0.0
 11
6.528533949531871
 21
5.594487233571959
 31
0.0
  0
LINE
  5
192
330
1F
100
AcDbEntity
  8
0
  6
Continuous
 62
     7
370
    15
100
AcDbLine
 10
6.999938499195153
 20
5.723608943930127
 30
0.0
 11
6.882087379063966
 21
5.689208104768898
 31
0.0
  0
LINE
  5
193
330
1F
100
AcDbEntity
  8
0
  6
Continuous
 62
     7
370
    15
100
AcDbLine
 10
6.823161853567638
 20
6.027369121207867
 30
0.0
 11
6.685112602983738
 21
5.987072430449543
 31
0.0
  0
LINE
  5
194
330
1F
100
AcDbEntity
  8
0
  6
Continuous
 62
     7
370
    15
100
AcDbLine
 10
6.882087379063966
 20
4.229730126918625
 30
0.0
 11
6.528533949531871
 21
4.135009255721687
 31
0.0
  0
LINE
  5
195
330
1F
100
AcDbEntity
  8
0
  6
Continuous
 62
     7
370
    15
100
AcDbLine
 10
6.882087379063966
 20
5.689208104768898
 30
0.0
 11
6.882087379063966
 21
4.229730126918625
 31
0.0
  0
ARC
  5
196
330
1F
100
AcDbEntity
  8
0
  6
Continuous
 62
     8
370
    15
100
AcDbCircle
 10
5.25412476743994
 20
5.988831021491193
 30
0.0
 40
0.0606505005394434
100
AcDbArc
 50
320.321041626586
 51
69.53366978802907
  0
ARC
  5
197
330
1F
100
AcDbEntity
  8
0
  6
Continuous
 62
     8
370
    15
100
AcDbCircle
 10
5.26644646377994
 20
5.992087711657357
 30
0.0
 40
0.0607144846931459
100
AcDbArc
 50
320.7418263905531
 51
69.55895395488754
  0
ARC
  5
198
330
1F
100
AcDbEntity
  8
0
  6
Continuous
 62
     8
370
    15
100
AcDbCircle
 10
5.254124770026883
 20
5.413301903116636
 30
0.0
 40
0.0606504922819696
100
AcDbArc
 50
320.3210472020597
 51
69.53366948518483
  0
ARC
  5
199
330
1F
100
AcDbEntity
  8
0
  6
Continuous
 62
     8
370
    15
100
AcDbCircle
 10
5.266446415524605
 20
5.416558572277189
 30
0.0
 40
0.0607145249086242
100
AcDbArc
 50
320.7418519155197
 51
69.55891950140787
  0
ARC
  5
19A
330
1F
100
AcDbEntity
  8
0
  6
Continuous
 62
     8
370
    15
100
AcDbCircle
 10
5.254124719106896
 20
6.577462966828107
 30
0.0
 40
0.0606505406892496
100
AcDbArc
 50
320.3210674191192
 51
69.53363520778115
  0
ARC
  5
19B
330
1F
100
AcDbEntity
  8
0
  6
Continuous
 62
     8
370
    15
100
AcDbCircle
 10
5.266446482793518
 20
6.580719658752925
 30
0.0
 40
0.0607144665570444
100
AcDbArc
 50
320.7418189778758
 51
69.55896672467639
  0
ARC
  5
19C
330
1F
100
AcDbEntity
  8
0
  6
Continuous
 62
     8
370
    15
100
AcDbCircle
 10
5.254124811936005
 20
7.219758723009142
 30
0.0
 40
0.0606504671608185
100
AcDbArc
 50
320.3210138005724
 51
69.53370288667183
  0
ARC
  5
19D
330
1F
100
AcDbEntity
  8
0
  6
Continuous
 62
     8
370
    15
100
AcDbCircle
 10
5.266446539165372
 20
7.223015452448191
 30
0.0
 40
0.0607144147759611
100
AcDbArc
 50
320.7417947036812
 51
69.55900528450879
  0
LINE
  5
19E
330
1F
100
AcDbEntity
  8
0
  6
Continuous
 62
     8
370
    15
100
AcDbLine
 10
5.118445243579849
 20
4.979120027067021
 30
0.0
 11
5.118445243579849
 21
7.001143564973177
 31
0.0
  0
LINE
  5
19F
330
1F
100
AcDbEntity
  8
0
  6
Continuous
 62
     8
370
    15
100
AcDbLine
 10
5.118445243579849
 20
7.033232068151192
 30
0.0
 11
5.118445243579849
 21
7.431011509768924
 31
0.0
  0
LWPOLYLINE
  5
1A0
330
1F
100
AcDbEntity
  8
0
  6
Continuous
 62
     8
370
    15
100
AcDbPolyline
 90
       39
 70
   128
 43
0.0
 10
4.875877789171867
 20
7.06393629028811
 10
4.871680596369126
 20
7.062547484321014
 10
4.867519217325454
 20
7.060641682449331
 10
4.863429189245797
 20
7.058235188047963
 10
4.859445288811258
 20
7.055348528246754
 10
4.855601601317633
 20
7.052006378251157
 10
4.851930967567153
 20
7.048237224753854
 10
4.848464569037313
 20
7.044073254796892
 10
4.84523206615792
 20
7.039549921806178
 10
4.84226104520285
 20
7.034705891609963
 10
4.83957681087446
 20
7.029582421656161
 10
4.837202248026516
 20
7.024223229764109
 10
4.835157683387138
 20
7.01867408026945
 10
4.833460539866146
 20
7.012982314600082
 10
4.832125336555053
 20
7.007196568669289
 10
4.831163343034416
 20
7.001366020844823
 10
4.830582855927957
 20
6.995540560243096
 10
4.830388784071378
 20
6.989769827770706
 10
4.830582855927957
 20
6.984103083288783
 10
4.831163343034416
 20
6.978588660509629
 10
4.832125336555053
 20
6.973273570077168
 10
4.833460539866146
 20
6.968203255593437
 10
4.835157683387138
 20
6.963420856935823
 10
4.837202248026516
 20
6.958967230367453
 10
4.83957681087446
 20
6.954880381736033
 10
4.84226104520285
 20
6.951195278069271
 10
4.84523206615792
 20
6.947943092369145
 10
4.848464569037313
 20
6.945151805871591
 10
4.851930967567153
 20
6.942845208867265
 10
4.855601601317633
 20
6.941042862068177
 10
4.859445288811258
 20
6.939760244791506
 10
4.863429189245797
 20
6.939008246902194
 10
4.867519217325454
 20
6.938793279950795
 10
4.871680596369126
 20
6.939117236952721
 10
4.875877789171867
 20
6.939977379662964
 10
4.880074981974607
 20
6.941366185630059
 10
4.88423643015681
 20
6.943272006024719
 10
4.888326458236467
 20
6.945678500426086
 10
4.890561983498526
 20
6.947229524905226
  0
ARC
  5
1A1
330
1F
100
AcDbEntity
  8
0
  6
Continuous
 62
     8
370
    15
100
AcDbCircle
 10
4.883914471362501
 20
7.030963384311088
 30
0.0
 40
0.0339381907178745
100
AcDbArc
 50
18.13420913666348
 51
103.6979565352009
  0
LINE
  5
1A2
330
1F
100
AcDbEntity
  8
0
  6
Continuous
 62
     8
370
    15
100
AcDbLine
 10
5.139658431375758
 20
5.019943917947014
 30
0.0
 11
5.139658431375758
 21
6.976603594833365
 31
0.0
  0
LINE
  5
1A3
330
1F
100
AcDbEntity
  8
0
  6
Continuous
 62
     8
370
    15
100
AcDbLine
 10
5.139658431375758
 20
7.082957321908339
 30
0.0
 11
5.139658431375758
 21
7.431011519030413
 31
0.0
  0
LWPOLYLINE
  5
1A4
330
1F
100
AcDbEntity
  8
0
  6
Continuous
 62
     8
370
    15
100
AcDbPolyline
 90
       39
 70
   128
 43
0.0
 10
4.875877789171867
 20
5.833008590128153
 10
4.871680596369126
 20
5.831619737059913
 10
4.867519217325454
 20
5.829713911637655
 10
4.863429189245797
 20
5.827307440786861
 10
4.859445288811258
 20
5.824420804536224
 10
4.855601601317633
 20
5.821078654540627
 10
4.851930967567153
 20
5.817309501043324
 10
4.848464569037313
 20
5.813145507535789
 10
4.84523206615792
 20
5.808622174545075
 10
4.84226104520285
 20
5.803778120798288
 10
4.83957681087446
 20
5.798654674395058
 10
4.837202248026516
 20
5.79329550605358
 10
4.835157683387138
 20
5.787746380109493
 10
4.833460539866146
 20
5.782054637990697
 10
4.832125336555053
 20
5.776268844958759
 10
4.831163343034416
 20
5.770438320684866
 10
4.830582855927957
 20
5.764612836532567
 10
4.830388784071378
 20
5.758842104060176
 10
4.830582855927957
 20
5.753175359578253
 10
4.831163343034416
 20
5.747660913248527
 10
4.832125336555053
 20
5.742345869917211
 10
4.833460539866146
 20
5.737275484781761
 10
4.835157683387138
 20
5.732493109674721
 10
4.837202248026516
 20
5.728039530207496
 10
4.83957681087446
 20
5.723952705126648
 10
4.84226104520285
 20
5.720267507257597
 10
4.84523206615792
 20
5.717015392209189
 10
4.848464569037313
 20
5.714224129262207
 10
4.851930967567153
 20
5.711917485156735
 10
4.855601601317633
 20
5.710115138357648
 10
4.859445288811258
 20
5.708832521080977
 10
4.863429189245797
 20
5.708080546742237
 10
4.867519217325454
 20
5.707865603341411
 10
4.871680596369126
 20
5.708189560343337
 10
4.875877789171867
 20
5.709049632401861
 10
4.880074981974607
 20
5.710438509020675
 10
4.88423643015681
 20
5.712344329415335
 10
4.888326458236467
 20
5.714750800266129
 10
4.890561983498526
 20
5.716301777644123
  0
ARC
  5
1A5
330
1F
100
AcDbEntity
  8
0
  6
Continuous
 62
     8
370
    15
100
AcDbCircle
 10
4.883914381844302
 20
5.800035523212378
 30
0.0
 40
0.0339383258811456
100
AcDbArc
 50
18.13442030573627
 51
103.6977453661308
  0
LWPOLYLINE
  5
1A6
330
1F
100
AcDbEntity
  8
0
  6
Continuous
 62
     8
370
    15
100
AcDbPolyline
 90
       39
 70
   128
 43
0.0
 10
4.875877789171867
 20
5.17719251752521
 10
4.871680596369126
 20
5.175803617355824
 10
4.867519217325454
 20
5.173897815484139
 10
4.863429189245797
 20
5.171491321082773
 10
4.859445288811258
 20
5.168604755483852
 10
4.855601601317633
 20
5.165262605488256
 10
4.851930967567153
 20
5.161493451990953
 10
4.848464569037313
 20
5.157329387831699
 10
4.84523206615792
 20
5.152806054840987
 10
4.84226104520285
 20
5.147962024644772
 10
4.83957681087446
 20
5.14283855469097
 10
4.837202248026516
 20
5.137479362798918
 10
4.835157683387138
 20
5.13193030750655
 10
4.833460539866146
 20
5.126238541837182
 10
4.832125336555053
 20
5.120452701704097
 10
4.831163343034416
 20
5.114622248081923
 10
4.830582855927957
 20
5.108796787480195
 10
4.830388784071378
 20
5.103026055007806
 10
4.830582855927957
 20
5.097359310525883
 10
4.831163343034416
 20
5.091844793544437
 10
4.832125336555053
 20
5.086529797314267
 10
4.833460539866146
 20
5.081459388628245
 10
4.835157683387138
 20
5.076676989970632
 10
4.837202248026516
 20
5.072223457604552
 10
4.83957681087446
 20
5.068136608973132
 10
4.84226104520285
 20
5.06445141110408
 10
4.84523206615792
 20
5.061199319606244
 10
4.848464569037313
 20
5.058408033108691
 10
4.851930967567153
 20
5.056101436104365
 10
4.855601601317633
 20
5.054299089305277
 10
4.859445288811258
 20
5.053016472028606
 10
4.863429189245797
 20
5.052264474139293
 10
4.867519217325454
 20
5.052049507187894
 10
4.871680596369126
 20
5.052373464189821
 10
4.875877789171867
 20
5.053233512697771
 10
4.880074981974607
 20
5.054622412867158
 10
4.88423643015681
 20
5.056528233261818
 10
4.888326458236467
 20
5.058934727663186
 10
4.890561983498526
 20
5.060485657940034
  0
ARC
  5
1A7
330
1F
100
AcDbEntity
  8
0
  6
Continuous
 62
     8
370
    15
100
AcDbCircle
 10
4.883914344456435
 20
5.144219383392303
 30
0.0
 40
0.0339383823331135
100
AcDbArc
 50
18.13450850139152
 51
103.6976571704728
  0
LINE
  5
1A8
330
1F
100
AcDbEntity
  8
0
  6
Continuous
 62
     8
370
    15
100
AcDbLine
 10
4.583083473548065
 20
4.369358306265959
 30
0.0
 11
4.575858635333347
 21
4.367422692260289
 31
0.0
  0
TEXT
  5
1B0
330
1F
100
AcDbEntity
  8
0
100
AcDbText
 10
3.998436809506351
 20
3.127574374319578
 30
0.0
 40
0.25
  1
USP  JUS
100
AcDbText
  0
TEXT
  5
1B1
330
1F
100
AcDbEntity
  8
0
100
AcDbText
 10
3.09651353801992
 20
2.587475818896166
 30
0.0
 40
0.25
  1
SIMPSON  LUS
100
AcDbText
  0
ENDSEC
  0
SECTION
  2
OBJECTS
  0
DICTIONARY
  5
C
330
0
100
AcDbDictionary
281
     1
  3
ACAD_COLOR
350
1AD
  3
ACAD_GROUP
350
D
  3
ACAD_LAYOUT
350
1A
  3
ACAD_MATERIAL
350
1AC
  3
ACAD_MLINESTYLE
350
17
  3
ACAD_PLOTSETTINGS
350
19
  3
ACAD_PLOTSTYLENAME
350
E
  0
DICTIONARY
  5
1AD
102
{ACAD_REACTORS
330
C
102
}
330
C
100
AcDbDictionary
281
     1
  0
DICTIONARY
  5
D
102
{ACAD_REACTORS
330
C
102
}
330
C
100
AcDbDictionary
281
     1
  0
DICTIONARY
  5
1A
102
{ACAD_REACTORS
330
C
102
}
330
C
100
AcDbDictionary
281
     1
  3
Layout1
350
1E
  3
Layout2
350
26
  3
Model
350
22
  0
DICTIONARY
  5
1AC
102
{ACAD_REACTORS
330
C
102
}
330
C
100
AcDbDictionary
281
     1
  0
DICTIONARY
  5
17
102
{ACAD_REACTORS
330
C
102
}
330
C
100
AcDbDictionary
281
     1
  3
Standard
350
18
  0
DICTIONARY
  5
19
102
{ACAD_REACTORS
330
C
102
}
330
C
100
AcDbDictionary
281
     1
  0
ACDBDICTIONARYWDFLT
  5
E
102
{ACAD_REACTORS
330
C
102
}
330
C
100
AcDbDictionary
281
     1
  3
Normal
350
F
100
AcDbDictionaryWithDefault
340
F
  0
LAYOUT
  5
1E
102
{ACAD_REACTORS
330
1A
102
}
330
1A
100
AcDbPlotSettings
  1

  2
none_device
  4

  6

 40
0.0
 41
0.0
 42
0.0
 43
0.0
 44
0.0
 45
0.0
 46
0.0
 47
0.0
 48
0.0
 49
0.0
140
0.0
141
0.0
142
1.0
143
1.0
 70
   688
 72
     0
 73
     0
 74
     5
  7

 75
    16
147
1.0
 76
     0
 77
     2
 78
   300
148
0.0
149
0.0
100
AcDbLayout
  1
Layout1
 70
     1
 71
     1
 10
0.0
 20
0.0
 11
12.0
 21
9.0
 12
0.0
 22
0.0
 32
0.0
 14
1.000000000000000E+20
 24
1.000000000000000E+20
 34
1.000000000000000E+20
 15
-1.000000000000000E+20
 25
-1.000000000000000E+20
 35
-1.000000000000000E+20
146
0.0
 13
0.0
 23
0.0
 33
0.0
 16
1.0
 26
0.0
 36
0.0
 17
0.0
 27
1.0
 37
0.0
 76
     0
330
1B
  0
LAYOUT
  5
26
102
{ACAD_REACTORS
330
1A
102
}
330
1A
100
AcDbPlotSettings
  1

  2
none_device
  4

  6

 40
0.0
 41
0.0
 42
0.0
 43
0.0
 44
0.0
 45
0.0
 46
0.0
 47
0.0
 48
0.0
 49
0.0
140
0.0
141
0.0
142
1.0
143
1.0
 70
   688
 72
     0
 73
     0
 74
     5
  7

 75
    16
147
1.0
 76
     0
 77
     2
 78
   300
148
0.0
149
0.0
100
AcDbLayout
  1
Layout2
 70
     1
 71
     2
 10
0.0
 20
0.0
 11
0.0
 21
0.0
 12
0.0
 22
0.0
 32
0.0
 14
0.0
 24
0.0
 34
0.0
 15
0.0
 25
0.0
 35
0.0
146
0.0
 13
0.0
 23
0.0
 33
0.0
 16
1.0
 26
0.0
 36
0.0
 17
0.0
 27
1.0
 37
0.0
 76
     0
330
23
  0
LAYOUT
  5
22
102
{ACAD_REACTORS
330
1A
102
}
330
1A
100
AcDbPlotSettings
  1

  2
none_device
  4

  6

 40
0.0
 41
0.0
 42
0.0
 43
0.0
 44
0.0
 45
0.0
 46
0.0
 47
0.0
 48
0.0
 49
0.0
140
0.0
141
0.0
142
1.0
143
1.0
 70
  1712
 72
     0
 73
     0
 74
     0
  7

 75
     0
147
1.0
 76
     0
 77
     2
 78
   300
148
0.0
149
0.0
100
AcDbLayout
  1
Model
 70
     1
 71
     0
 10
0.0
 20
0.0
 11
8.5
 21
11.0
 12
0.0
 22
0.0
 32
0.0
 14
0.0
 24
0.0
 34
0.0
 15
8.5
 25
11.0
 35
0.0
146
0.0
 13
0.0
 23
0.0
 33
0.0
 16
1.0
 26
0.0
 36
0.0
 17
0.0
 27
1.0
 37
0.0
 76
     0
330
1F
  0
MLINESTYLE
  5
18
102
{ACAD_REACTORS
330
17
102
}
330
17
100
AcDbMlineStyle
  2
STANDARD
 70
     0
  3

 62
   256
 51
90.0
 52
90.0
 71
     2
 49
0.5
 62
   256
  6
BYLAYER
 49
-0.5
 62
   256
  6
BYLAYER
  0
ACDBPLACEHOLDER
  5
F
102
{ACAD_REACTORS
330
E
102
}
330
E
  0
ENDSEC
  0
EOF
