  0
SECTION
  2
HEADER
  9
$ACADVER
  1
AC1018
  9
$ACADMAINTVER
 70
     0
  9
$DWGCODEPAGE
  3
ANSI_1252
  9
$INSBASE
 10
0.0
 20
0.0
 30
0.0
  9
$EXTMIN
 10
1.233833334215255
 20
1.998718289656938
 30
-0.0015258207003583
  9
$EXTMAX
 10
7.126739520145044
 20
8.552291892879054
 30
0.0000000349246037
  9
$LIMMIN
 10
0.0
 20
0.0
  9
$LIMMAX
 10
8.5
 20
11.0
  9
$ORTHOMODE
 70
     0
  9
$REGENMODE
 70
     1
  9
$FILLMODE
 70
     1
  9
$QTEXTMODE
 70
     0
  9
$MIRRTEXT
 70
     1
  9
$LTSCALE
 40
1.0
  9
$ATTMODE
 70
     1
  9
$TEXTSIZE
 40
0.1388888888888889
  9
$TRACEWID
 40
0.05
  9
$TEXTSTYLE
  7
Standard
  9
$CLAYER
  8
0
  9
$CELTYPE
  6
ByLayer
  9
$CECOLOR
 62
   256
  9
$CELTSCALE
 40
1.0
  9
$DISPSILH
 70
     0
  9
$DIMSCALE
 40
1.0
  9
$DIMASZ
 40
0.156
  9
$DIMEXO
 40
0.05
  9
$DIMDLI
 40
0.38
  9
$DIMRND
 40
0.0
  9
$DIMDLE
 40
0.0
  9
$DIMEXE
 40
0.125
  9
$DIMTP
 40
0.0
  9
$DIMTM
 40
0.0
  9
$DIMTXT
 40
0.125
  9
$DIMCEN
 40
0.09
  9
$DIMTSZ
 40
0.0
  9
$DIMTOL
 70
     0
  9
$DIMLIM
 70
     0
  9
$DIMTIH
 70
     1
  9
$DIMTOH
 70
     1
  9
$DIMSE1
 70
     0
  9
$DIMSE2
 70
     0
  9
$DIMTAD
 70
     0
  9
$DIMZIN
 70
     0
  9
$DIMBLK
  1

  9
$DIMASO
 70
     1
  9
$DIMSHO
 70
     1
  9
$DIMPOST
  1

  9
$DIMAPOST
  1

  9
$DIMALT
 70
     0
  9
$DIMALTD
 70
     2
  9
$DIMALTF
 40
25.4
  9
$DIMLFAC
 40
8.0
  9
$DIMTOFL
 70
     0
  9
$DIMTVP
 40
0.0
  9
$DIMTIX
 70
     0
  9
$DIMSOXD
 70
     0
  9
$DIMSAH
 70
     0
  9
$DIMBLK1
  1

  9
$DIMBLK2
  1

  9
$DIMSTYLE
  2
Standard
  9
$DIMCLRD
 70
     0
  9
$DIMCLRE
 70
     0
  9
$DIMCLRT
 70
     0
  9
$DIMTFAC
 40
1.0
  9
$DIMGAP
 40
0.06
  9
$DIMJUST
 70
     0
  9
$DIMSD1
 70
     0
  9
$DIMSD2
 70
     0
  9
$DIMTOLJ
 70
     1
  9
$DIMTZIN
 70
     0
  9
$DIMALTZ
 70
     0
  9
$DIMALTTZ
 70
     0
  9
$DIMUPT
 70
     0
  9
$DIMDEC
 70
     3
  9
$DIMTDEC
 70
     3
  9
$DIMALTU
 70
     2
  9
$DIMALTTD
 70
     2
  9
$DIMTXSTY
  7
Standard
  9
$DIMAUNIT
 70
     0
  9
$DIMADEC
 70
     0
  9
$DIMALTRND
 40
0.0
  9
$DIMAZIN
 70
     0
  9
$DIMDSEP
 70
    46
  9
$DIMATFIT
 70
     3
  9
$DIMFRAC
 70
     0
  9
$DIMLDRBLK
  1

  9
$DIMLUNIT
 70
     2
  9
$DIMLWD
 70
    -2
  9
$DIMLWE
 70
    -2
  9
$DIMTMOVE
 70
     0
  9
$LUNITS
 70
     2
  9
$LUPREC
 70
     3
  9
$SKETCHINC
 40
0.1
  9
$FILLETRAD
 40
0.5
  9
$AUNITS
 70
     0
  9
$AUPREC
 70
     0
  9
$MENU
  1
.
  9
$ELEVATION
 40
0.0
  9
$PELEVATION
 40
0.0
  9
$THICKNESS
 40
0.0
  9
$LIMCHECK
 70
     0
  9
$CHAMFERA
 40
0.0
  9
$CHAMFERB
 40
0.0
  9
$CHAMFERC
 40
0.0
  9
$CHAMFERD
 40
0.0
  9
$SKPOLY
 70
     0
  9
$TDCREATE
 40
2456700.440189549
  9
$TDUCREATE
 40
2456700.690189549
  9
$TDUPDATE
 40
2456700.442578796
  9
$TDUUPDATE
 40
2456700.692578797
  9
$TDINDWG
 40
0.0015917361
  9
$TDUSRTIMER
 40
0.0015917361
  9
$USRTIMER
 70
     1
  9
$ANGBASE
 50
0.0
  9
$ANGDIR
 70
     0
  9
$PDMODE
 70
     0
  9
$PDSIZE
 40
-1.0
  9
$PLINEWID
 40
0.0
  9
$SPLFRAME
 70
     0
  9
$SPLINETYPE
 70
     6
  9
$SPLINESEGS
 70
     8
  9
$HANDSEED
  5
251
  9
$SURFTAB1
 70
     6
  9
$SURFTAB2
 70
     6
  9
$SURFTYPE
 70
     6
  9
$SURFU
 70
     6
  9
$SURFV
 70
     6
  9
$UCSBASE
  2

  9
$UCSNAME
  2

  9
$UCSORG
 10
0.0
 20
0.0
 30
0.0
  9
$UCSXDIR
 10
1.0
 20
0.0
 30
0.0
  9
$UCSYDIR
 10
0.0
 20
1.0
 30
0.0
  9
$UCSORTHOREF
  2

  9
$UCSORTHOVIEW
 70
     0
  9
$UCSORGTOP
 10
0.0
 20
0.0
 30
0.0
  9
$UCSORGBOTTOM
 10
0.0
 20
0.0
 30
0.0
  9
$UCSORGLEFT
 10
0.0
 20
0.0
 30
0.0
  9
$UCSORGRIGHT
 10
0.0
 20
0.0
 30
0.0
  9
$UCSORGFRONT
 10
0.0
 20
0.0
 30
0.0
  9
$UCSORGBACK
 10
0.0
 20
0.0
 30
0.0
  9
$PUCSBASE
  2

  9
$PUCSNAME
  2

  9
$PUCSORG
 10
0.0
 20
0.0
 30
0.0
  9
$PUCSXDIR
 10
1.0
 20
0.0
 30
0.0
  9
$PUCSYDIR
 10
0.0
 20
1.0
 30
0.0
  9
$PUCSORTHOREF
  2

  9
$PUCSORTHOVIEW
 70
     0
  9
$PUCSORGTOP
 10
0.0
 20
0.0
 30
0.0
  9
$PUCSORGBOTTOM
 10
0.0
 20
0.0
 30
0.0
  9
$PUCSORGLEFT
 10
0.0
 20
0.0
 30
0.0
  9
$PUCSORGRIGHT
 10
0.0
 20
0.0
 30
0.0
  9
$PUCSORGFRONT
 10
0.0
 20
0.0
 30
0.0
  9
$PUCSORGBACK
 10
0.0
 20
0.0
 30
0.0
  9
$USERI1
 70
     0
  9
$USERI2
 70
     0
  9
$USERI3
 70
     0
  9
$USERI4
 70
     0
  9
$USERI5
 70
     0
  9
$USERR1
 40
0.0
  9
$USERR2
 40
0.0
  9
$USERR3
 40
0.0
  9
$USERR4
 40
0.0
  9
$USERR5
 40
0.0
  9
$WORLDVIEW
 70
     1
  9
$SHADEDGE
 70
     3
  9
$SHADEDIF
 70
    70
  9
$TILEMODE
 70
     1
  9
$MAXACTVP
 70
    64
  9
$PINSBASE
 10
0.0
 20
0.0
 30
0.0
  9
$PLIMCHECK
 70
     0
  9
$PEXTMIN
 10
1.000000000000000E+20
 20
1.000000000000000E+20
 30
1.000000000000000E+20
  9
$PEXTMAX
 10
-1.000000000000000E+20
 20
-1.000000000000000E+20
 30
-1.000000000000000E+20
  9
$PLIMMIN
 10
0.0
 20
0.0
  9
$PLIMMAX
 10
12.0
 20
9.0
  9
$UNITMODE
 70
     0
  9
$VISRETAIN
 70
     1
  9
$PLINEGEN
 70
     0
  9
$PSLTSCALE
 70
     1
  9
$TREEDEPTH
 70
  3020
  9
$CMLSTYLE
  2
Standard
  9
$CMLJUST
 70
     0
  9
$CMLSCALE
 40
1.0
  9
$PROXYGRAPHICS
 70
     1
  9
$MEASUREMENT
 70
     0
  9
$CELWEIGHT
370
    -1
  9
$ENDCAPS
280
     0
  9
$JOINSTYLE
280
     0
  9
$LWDISPLAY
290
     1
  9
$INSUNITS
 70
     1
  9
$HYPERLINKBASE
  1

  9
$STYLESHEET
  1
monochrome.ctb
  9
$XEDIT
290
     1
  9
$CEPSNTYPE
380
     0
  9
$PSTYLEMODE
290
     1
  9
$FINGERPRINTGUID
  2
{9334BBED-BBA8-41B5-8442-239796664183}
  9
$VERSIONGUID
  2
{22A2316E-2957-4CFC-9AF8-17C0CCC0FC5E}
  9
$EXTNAMES
290
     1
  9
$PSVPSCALE
 40
0.0
  9
$OLESTARTUP
290
     0
  9
$SORTENTS
280
   127
  9
$INDEXCTL
280
     0
  9
$HIDETEXT
280
     0
  9
$XCLIPFRAME
290
     0
  9
$HALOGAP
280
     0
  9
$OBSCOLOR
 70
   257
  9
$OBSLTYPE
280
     0
  9
$INTERSECTIONDISPLAY
280
     0
  9
$INTERSECTIONCOLOR
 70
   257
  9
$DIMASSOC
280
     1
  9
$PROJECTNAME
  1

  0
ENDSEC
  0
SECTION
  2
CLASSES
  0
CLASS
  1
ACDBDICTIONARYWDFLT
  2
AcDbDictionaryWithDefault
  3
ObjectDBX Classes
 90
        0
 91
        1
280
     0
281
     0
  0
CLASS
  1
VISUALSTYLE
  2
AcDbVisualStyle
  3
ObjectDBX Classes
 90
     4095
 91
        0
280
     0
281
     0
  0
CLASS
  1
MATERIAL
  2
AcDbMaterial
  3
ObjectDBX Classes
 90
        0
 91
        0
280
     0
281
     0
  0
CLASS
  1
SCALE
  2
AcDbScale
  3
ObjectDBX Classes
 90
     1153
 91
       33
280
     0
281
     0
  0
CLASS
  1
SUN
  2
AcDbSun
  3
SCENEOE
 90
     1153
 91
        1
280
     0
281
     0
  0
CLASS
  1
ACDBPLACEHOLDER
  2
AcDbPlaceHolder
  3
ObjectDBX Classes
 90
        0
 91
        1
280
     0
281
     0
  0
CLASS
  1
LAYOUT
  2
AcDbLayout
  3
ObjectDBX Classes
 90
        0
 91
        3
280
     0
281
     0
  0
ENDSEC
  0
SECTION
  2
TABLES
  0
TABLE
  2
VPORT
  5
8
330
0
100
AcDbSymbolTable
 70
     5
  0
VPORT
  5
250
330
8
100
AcDbSymbolTableRecord
100
AcDbViewportTableRecord
  2
*Active
 70
     0
 10
0.0
 20
0.0
 11
1.0
 21
1.0
 12
4.76907028398598
 22
5.175909987116147
 13
0.0
 23
0.0
 14
0.5
 24
0.5
 15
0.5
 25
0.5
 16
0.0
 26
0.0
 36
1.0
 17
0.0
 27
0.0
 37
0.0
 40
7.598139161801125
 41
2.144329896907216
 42
50.0
 43
0.0
 44
0.0
 50
0.0
 51
0.0
 71
     0
 72
  2000
 73
     1
 74
     3
 75
     0
 76
     0
 77
     0
 78
     0
281
     0
 65
     1
110
0.0
120
0.0
130
0.0
111
1.0
121
0.0
131
0.0
112
0.0
122
1.0
132
0.0
 79
     0
146
0.0
  0
ENDTAB
  0
TABLE
  2
LTYPE
  5
5
330
0
100
AcDbSymbolTable
 70
     6
  0
LTYPE
  5
14
330
5
100
AcDbSymbolTableRecord
100
AcDbLinetypeTableRecord
  2
ByBlock
 70
     0
  3

 72
    65
 73
     0
 40
0.0
  0
LTYPE
  5
15
330
5
100
AcDbSymbolTableRecord
100
AcDbLinetypeTableRecord
  2
ByLayer
 70
     0
  3

 72
    65
 73
     0
 40
0.0
  0
LTYPE
  5
16
330
5
100
AcDbSymbolTableRecord
100
AcDbLinetypeTableRecord
  2
Continuous
 70
     0
  3
Solid line
 72
    65
 73
     0
 40
0.0
  0
LTYPE
  5
6A
330
5
100
AcDbSymbolTableRecord
100
AcDbLinetypeTableRecord
  2
HIDDEN
 70
     0
  3
Hidden __ __ __ __ __ __ __ __ __ __ __ __ __ __
 72
    65
 73
     2
 40
0.075
 49
0.05
 74
     0
 49
-0.025
 74
     0
  0
LTYPE
  5
6B
330
5
100
AcDbSymbolTableRecord
100
AcDbLinetypeTableRecord
  2
PHANTOM
 70
     0
  3
Phantom ______  __  __  ______  __  __  ______
 72
    65
 73
     6
 40
0.5
 49
0.25
 74
     0
 49
-0.05
 74
     0
 49
0.05
 74
     0
 49
-0.05
 74
     0
 49
0.05
 74
     0
 49
-0.05
 74
     0
  0
LTYPE
  5
6C
330
5
100
AcDbSymbolTableRecord
100
AcDbLinetypeTableRecord
  2
CENTER
 70
     0
  3
Center ____ _ ____ _ ____ _ ____ _ ____ _ ____
 72
    65
 73
     4
 40
0.4
 49
0.25
 74
     0
 49
-0.05
 74
     0
 49
0.05
 74
     0
 49
-0.05
 74
     0
  0
LTYPE
  5
6D
330
5
100
AcDbSymbolTableRecord
100
AcDbLinetypeTableRecord
  2
CENTERX2
 70
     0
  3
Center (2x) ________  __  ________  __  _____
 72
    65
 73
     4
 40
0.8
 49
0.5
 74
     0
 49
-0.1
 74
     0
 49
0.1
 74
     0
 49
-0.1
 74
     0
  0
LTYPE
  5
6E
330
5
100
AcDbSymbolTableRecord
100
AcDbLinetypeTableRecord
  2
DOT2
 70
     0
  3
Dot (.5x) ........................................
 72
    65
 73
     2
 40
0.025
 49
0.0
 74
     0
 49
-0.025
 74
     0
  0
ENDTAB
  0
TABLE
  2
LAYER
  5
2
330
0
100
AcDbSymbolTable
 70
     8
  0
LAYER
  5
10
330
2
100
AcDbSymbolTableRecord
100
AcDbLayerTableRecord
  2
0
 70
     0
 62
     7
  6
Continuous
370
    -3
390
F
  0
LAYER
  5
6F
330
2
100
AcDbSymbolTableRecord
100
AcDbLayerTableRecord
  2
SLD-0
 70
     0
 62
   179
  6
Continuous
370
    -3
390
F
  0
LAYER
  5
70
330
2
100
AcDbSymbolTableRecord
100
AcDbLayerTableRecord
  2
SLD-DEFPOINTS
 70
     0
 62
   179
  6
Continuous
370
    -3
390
F
  0
LAYER
  5
71
330
2
100
AcDbSymbolTableRecord
100
AcDbLayerTableRecord
  2
OBJ
 70
     0
 62
   179
  6
Continuous
370
    -3
390
F
  0
LAYER
  5
72
330
2
100
AcDbSymbolTableRecord
100
AcDbLayerTableRecord
  2
FORMAT
 70
     0
 62
     7
  6
Continuous
370
    -3
390
F
  0
LAYER
  5
73
330
2
100
AcDbSymbolTableRecord
100
AcDbLayerTableRecord
  2
BLANK-SIZE-1
 70
     0
 62
     7
  6
Continuous
370
    -3
390
F
  0
LAYER
  5
74
330
2
100
AcDbSymbolTableRecord
100
AcDbLayerTableRecord
  2
TOLERANCES
 70
     0
 62
     7
  6
Continuous
370
    -3
390
F
  0
LAYER
  5
75
330
2
100
AcDbSymbolTableRecord
100
AcDbLayerTableRecord
  2
QTY-BLANK-SIZE-1
 70
     0
 62
     7
  6
Continuous
370
    -3
390
F
  0
ENDTAB
  0
TABLE
  2
STYLE
  5
3
330
0
100
AcDbSymbolTable
 70
     2
  0
STYLE
  5
11
330
3
100
AcDbSymbolTableRecord
100
AcDbTextStyleTableRecord
  2
Standard
 70
     0
 40
0.0
 41
1.0
 50
0.0
 71
     0
 42
0.1388888888888889
  3
txt
  4

  0
STYLE
  5
23F
330
3
100
AcDbSymbolTableRecord
100
AcDbTextStyleTableRecord
  2
SLDTEXTSTYLE0
 70
     0
 40
0.0
 41
0.7
 50
0.0
 71
     0
 42
0.1388888888888889
  3
TXT
  4

  0
ENDTAB
  0
TABLE
  2
VIEW
  5
6
330
0
100
AcDbSymbolTable
 70
     0
  0
ENDTAB
  0
TABLE
  2
UCS
  5
7
330
0
100
AcDbSymbolTable
 70
     0
  0
ENDTAB
  0
TABLE
  2
APPID
  5
9
330
0
100
AcDbSymbolTable
 70
     1
  0
APPID
  5
12
330
9
100
AcDbSymbolTableRecord
100
AcDbRegAppTableRecord
  2
ACAD
 70
     0
  0
ENDTAB
  0
TABLE
  2
DIMSTYLE
  5
A
330
0
100
AcDbSymbolTable
 70
     1
100
AcDbDimStyleTable
 71
     0
  0
DIMSTYLE
105
27
330
A
100
AcDbSymbolTableRecord
100
AcDbDimStyleTableRecord
  2
Standard
 70
     0
340
11
  0
ENDTAB
  0
TABLE
  2
BLOCK_RECORD
  5
1
330
0
100
AcDbSymbolTable
 70
     2
  0
BLOCK_RECORD
  5
1F
330
1
100
AcDbSymbolTableRecord
100
AcDbBlockTableRecord
  2
*Model_Space
340
22
  0
BLOCK_RECORD
  5
1B
330
1
100
AcDbSymbolTableRecord
100
AcDbBlockTableRecord
  2
*Paper_Space
340
1E
  0
BLOCK_RECORD
  5
23
330
1
100
AcDbSymbolTableRecord
100
AcDbBlockTableRecord
  2
*Paper_Space0
340
26
  0
ENDTAB
  0
ENDSEC
  0
SECTION
  2
BLOCKS
  0
BLOCK
  5
20
330
1F
100
AcDbEntity
  8
0
100
AcDbBlockBegin
  2
*Model_Space
 70
     0
 10
0.0
 20
0.0
 30
0.0
  3
*Model_Space
  1

  0
ENDBLK
  5
21
330
1F
100
AcDbEntity
  8
0
100
AcDbBlockEnd
  0
BLOCK
  5
1C
330
1B
100
AcDbEntity
 67
     1
  8
0
100
AcDbBlockBegin
  2
*Paper_Space
 70
     0
 10
0.0
 20
0.0
 30
0.0
  3
*Paper_Space
  1

  0
ENDBLK
  5
1D
330
1B
100
AcDbEntity
 67
     1
  8
0
100
AcDbBlockEnd
  0
BLOCK
  5
24
330
23
100
AcDbEntity
  8
0
100
AcDbBlockBegin
  2
*Paper_Space0
 70
     0
 10
0.0
 20
0.0
 30
0.0
  3
*Paper_Space0
  1

  0
ENDBLK
  5
25
330
23
100
AcDbEntity
  8
0
100
AcDbBlockEnd
  0
ENDSEC
  0
SECTION
  2
ENTITIES
  0
SPLINE
  5
76
330
1F
100
AcDbEntity
  8
0
  6
Continuous
 62
     7
370
    15
100
AcDbSpline
210
0.0
220
0.0
230
1.0
 70
     8
 71
     3
 72
    20
 73
    16
 74
     0
 42
0.0000000001
 43
0.0000000001
 40
0.0
 40
0.0
 40
0.0
 40
0.0
 40
0.0554509954801745
 40
0.1339782538696085
 40
0.2127855262957138
 40
0.2918228946433946
 40
0.3710234096085882
 40
0.4503232404407844
 40
0.5296770444800128
 40
0.6090449565960223
 40
0.6884072092014011
 40
0.7677572497192998
 40
0.8470931710070416
 40
0.9264197829728367
 40
1.0
 40
1.0
 40
1.0
 40
1.0
 10
3.604457982743786
 20
6.740885628866593
 30
0.0
 10
3.603798286147075
 20
6.74028663085596
 30
0.0
 10
3.60220435627538
 20
6.738839358235491
 30
0.0
 10
3.599974139448964
 20
6.736062857710707
 30
0.0
 10
3.597752137658567
 20
6.732658526907785
 30
0.0
 10
3.595841681874339
 20
6.728884098656843
 30
0.0
 10
3.594251615682844
 20
6.724795899752119
 30
0.0
 10
3.593000320686279
 20
6.720429985601632
 30
0.0
 10
3.592099495732492
 20
6.715831554395734
 30
0.0
 10
3.591557271414914
 20
6.711045968067333
 30
0.0
 10
3.591378978299121
 20
6.706120849752328
 30
0.0
 10
3.591563236228473
 20
6.701103578264042
 30
0.0
 10
3.592115654133959
 20
6.69604525353225
 30
0.0
 10
3.592979949002934
 20
6.691107961536288
 30
0.0
 10
3.593817616193357
 20
6.687907234618258
 30
0.0
 10
3.594220709593918
 20
6.686367014453963
 30
0.0
  0
SPLINE
  5
77
330
1F
100
AcDbEntity
  8
0
  6
Continuous
 62
     7
370
    15
100
AcDbSpline
210
0.0
220
0.0
230
1.0
 70
     8
 71
     3
 72
    20
 73
    16
 74
     0
 42
0.0000000001
 43
0.0000000001
 40
0.0
 40
0.0
 40
0.0
 40
0.0
 40
0.0431545342796998
 40
0.1248248098227586
 40
0.2065325278915714
 40
0.2882618465225317
 40
0.3700240411982361
 40
0.451818137819017
 40
0.5336477498003834
 40
0.6155031562736734
 40
0.6973644591700308
 40
0.7791927202082406
 40
0.8609297992260504
 40
0.9425070602757367
 40
1.0
 40
1.0
 40
1.0
 40
1.0
 10
3.594220709593917
 20
6.686367014453963
 30
0.0
 10
3.594475594152876
 20
6.685497540062208
 30
0.0
 10
3.595212849626252
 20
6.682982578948431
 30
0.0
 10
3.596685626946153
 20
6.678911961697074
 30
0.0
 10
3.598728193596381
 20
6.674248976139582
 30
0.0
 10
3.60106852746381
 20
6.669802834898311
 30
0.0
 10
3.603678928724868
 20
6.665616027200424
 30
0.0
 10
3.606536509039882
 20
6.661729371674856
 30
0.0
 10
3.609614659417226
 20
6.658181731701315
 30
0.0
 10
3.612884540126168
 20
6.655007678052396
 30
0.0
 10
3.616315271354586
 20
6.652241661644159
 30
0.0
 10
3.619874032819195
 20
6.649906568073681
 30
0.0
 10
3.623525359560167
 20
6.648050239833485
 30
0.0
 10
3.626870370743133
 20
6.646747830894002
 30
0.0
 10
3.628991306432113
 20
6.646289337107096
 30
0.0
 10
3.629868121357576
 20
6.64609979142795
 30
0.0
  0
LINE
  5
78
330
1F
100
AcDbEntity
  8
0
  6
Continuous
 62
     7
370
    15
100
AcDbLine
 10
3.627651954884203
 20
6.750226327127428
 30
0.0
 11
3.61527760974045
 21
6.746911103303807
 31
0.0
  0
LINE
  5
79
330
1F
100
AcDbEntity
  8
0
  6
Continuous
 62
     7
370
    15
100
AcDbLine
 10
3.642234308154667
 20
6.646292809720746
 30
0.0
 11
3.654608653298419
 21
6.649608033544367
 31
0.0
  0
SPLINE
  5
7A
330
1F
100
AcDbEntity
  8
0
  6
Continuous
 62
     7
370
    15
100
AcDbSpline
210
0.0
220
0.0
230
1.0
 70
     8
 71
     3
 72
    14
 73
    10
 74
     0
 42
0.0000000001
 43
0.0000000001
 40
0.0
 40
0.0
 40
0.0
 40
0.0
 40
0.1419588440231629
 40
0.2981722544285891
 40
0.4543753755175794
 40
0.6104926997346026
 40
0.7664033149938169
 40
0.9219627730401004
 40
1.0
 40
1.0
 40
1.0
 40
1.0
 10
3.662212716355791
 20
6.73604549853037
 30
0.0
 10
3.661276322931331
 20
6.737112017512158
 30
0.0
 10
3.659309509660032
 20
6.739352148244265
 30
0.0
 10
3.656079093668755
 20
6.742301332309023
 30
0.0
 10
3.652614072774307
 20
6.74495766982725
 30
0.0
 10
3.649025410635903
 20
6.747169505089001
 30
0.0
 10
3.645355737323038
 20
6.748890695376674
 30
0.0
 10
3.642253778819145
 20
6.750003595708488
 30
0.0
 10
3.640387516497327
 20
6.750346792753793
 30
0.0
 10
3.63976405757979
 20
6.750461443977187
 30
0.0
  0
LINE
  5
7B
330
1F
100
AcDbEntity
  8
0
  6
Continuous
 62
     7
370
    15
100
AcDbLine
 10
3.321045523794784
 20
7.498620102584007
 30
0.0
 11
3.320534797466126
 21
7.500487214706901
 31
0.0
  0
LINE
  5
7C
330
1F
100
AcDbEntity
  8
0
  6
Continuous
 62
     7
370
    15
100
AcDbLine
 10
3.220058397596312
 20
7.473006869082922
 30
0.0
 11
3.220568916509377
 21
7.471139775483003
 31
0.0
  0
SPLINE
  5
7D
330
1F
100
AcDbEntity
  8
0
  6
Continuous
 62
     7
370
    15
100
AcDbSpline
210
0.0
220
0.0
230
1.0
 70
     8
 71
     3
 72
    20
 73
    16
 74
     0
 42
0.0000000001
 43
0.0000000001
 40
0.0
 40
0.0
 40
0.0
 40
0.0
 40
0.0554498868679342
 40
0.1339781328063595
 40
0.2127840584457971
 40
0.2918225891825081
 40
0.3710216054100629
 40
0.4503227237381666
 40
0.5296749301800075
 40
0.6090427083930878
 40
0.6884063329220476
 40
0.7677547345492663
 40
0.8470920115812877
 40
0.9264184897138317
 40
1.0
 40
1.0
 40
1.0
 40
1.0
 10
3.604457982743786
 20
7.700796611471452
 30
0.0
 10
3.603798280736444
 20
7.700197653058151
 30
0.0
 10
3.602204307364365
 20
7.698750448485239
 30
0.0
 10
3.599974196824016
 20
7.695973826436042
 30
0.0
 10
3.597752083706879
 20
7.692569602861276
 30
0.0
 10
3.595841730232485
 20
7.688795096769032
 30
0.0
 10
3.594251574818028
 20
7.684706947499947
 30
0.0
 10
3.593000352117925
 20
7.680341009315114
 30
0.0
 10
3.592099482052524
 20
7.675742608384047
 30
0.0
 10
3.591557271118362
 20
7.670957012775523
 30
0.0
 10
3.591378976137145
 20
7.66603189567347
 30
0.0
 10
3.591563246094405
 20
7.661014591334905
 30
0.0
 10
3.592115643486476
 20
7.655956267629218
 30
0.0
 10
3.592979962130436
 20
7.651018915526487
 30
0.0
 10
3.593817617738583
 20
7.647818154720462
 30
0.0
 10
3.594220709593918
 20
7.64627790285653
 30
0.0
  0
SPLINE
  5
7E
330
1F
100
AcDbEntity
  8
0
  6
Continuous
 62
     7
370
    15
100
AcDbSpline
210
0.0
220
0.0
230
1.0
 70
     8
 71
     3
 72
    20
 73
    16
 74
     0
 42
0.0000000001
 43
0.0000000001
 40
0.0
 40
0.0
 40
0.0
 40
0.0
 40
0.0431531970685006
 40
0.1248222590095953
 40
0.2065314170306697
 40
0.2882596930057835
 40
0.3700231327650357
 40
0.4518173823402253
 40
0.5336462924217443
 40
0.6155025752548835
 40
0.6973640312313251
 40
0.7791924452878308
 40
0.8609296771534269
 40
0.9425069527643273
 40
1.0
 40
1.0
 40
1.0
 40
1.0
 10
3.594220709593918
 20
7.64627790285653
 30
0.0
 10
3.594475594286761
 20
7.645408459566342
 30
0.0
 10
3.595212857926745
 20
7.642893561877774
 30
0.0
 10
3.59668567071191
 20
7.638823002617055
 30
0.0
 10
3.598728142110695
 20
7.634159982152856
 30
0.0
 10
3.601068578243919
 20
7.629713896465963
 30
0.0
 10
3.603678903408743
 20
7.625527017560205
 30
0.0
 10
3.606536488675241
 20
7.621640344536068
 30
0.0
 10
3.609614700937593
 20
7.61809283072111
 30
0.0
 10
3.612884516886787
 20
7.614918640436819
 30
0.0
 10
3.616315274714133
 20
7.612152649528164
 30
0.0
 10
3.619874032510334
 20
7.60981755791331
 30
0.0
 10
3.623525355389574
 20
7.607961189343082
 30
0.0
 10
3.626870374231512
 20
7.606658928057421
 30
0.0
 10
3.628991306836908
 20
7.606200420001335
 30
0.0
 10
3.629868121357575
 20
7.6060108682351
 30
0.0
  0
LINE
  5
7F
330
1F
100
AcDbEntity
  8
0
  6
Continuous
 62
     7
370
    15
100
AcDbLine
 10
3.627651954884203
 20
7.710137403934576
 30
0.0
 11
3.61527760974045
 21
7.706822180110955
 31
0.0
  0
LINE
  5
80
330
1F
100
AcDbEntity
  8
0
  6
Continuous
 62
     7
370
    15
100
AcDbLine
 10
3.642234308154667
 20
7.606203886527893
 30
0.0
 11
3.654608653298419
 21
7.609519110351515
 31
0.0
  0
SPLINE
  5
81
330
1F
100
AcDbEntity
  8
0
  6
Continuous
 62
     7
370
    15
100
AcDbSpline
210
0.0
220
0.0
230
1.0
 70
     8
 71
     3
 72
    33
 73
    29
 74
     0
 42
0.0000000001
 43
0.0000000001
 40
0.0
 40
0.0
 40
0.0
 40
0.0
 40
0.0150436498331295
 40
0.0548232785139471
 40
0.0947483986832793
 40
0.1347983334098468
 40
0.1749404362161889
 40
0.215142546054314
 40
0.2553752186127522
 40
0.2956226328148069
 40
0.3358675614484839
 40
0.3761053529742355
 40
0.4163368647611653
 40
0.456563600863957
 40
0.4967879803005894
 40
0.5370141617865194
 40
0.577243466076685
 40
0.6174818852893988
 40
0.6577327325794843
 40
0.6979982879097627
 40
0.7382816483810935
 40
0.7785822026542083
 40
0.8188931375230675
 40
0.8592014172295844
 40
0.8994875570179672
 40
0.9397203554746845
 40
0.9798624903632918
 40
1.0
 40
1.0
 40
1.0
 40
1.0
 10
3.665584187682538
 20
7.615695182913974
 30
0.0
 10
3.665943676287489
 20
7.616003991784612
 30
0.0
 10
3.667253753571284
 20
7.617129377905028
 30
0.0
 10
3.669255069984776
 20
7.619510499453417
 30
0.0
 10
3.671561403776319
 20
7.622802475251365
 30
0.0
 10
3.673554727082019
 20
7.626486543723189
 30
0.0
 10
3.675234919542268
 20
7.63049131529908
 30
0.0
 10
3.676579596787949
 20
7.634786307035787
 30
0.0
 10
3.677576832651892
 20
7.639325965849613
 30
0.0
 10
3.6782173415701
 20
7.644065185324836
 30
0.0
 10
3.678495144315207
 20
7.648957186357414
 30
0.0
 10
3.67840852041695
 20
7.653953803053576
 30
0.0
 10
3.677959250363223
 20
7.65900671450387
 30
0.0
 10
3.677151622479744
 20
7.664067064203172
 30
0.0
 10
3.675993993377942
 20
7.669086058800271
 30
0.0
 10
3.674497515732917
 20
7.674015187324567
 30
0.0
 10
3.672676662859985
 20
7.678806967238787
 30
0.0
 10
3.670548546014944
 20
7.683415042344731
 30
0.0
 10
3.668132907091746
 20
7.687794796663773
 30
0.0
 10
3.665452714484813
 20
7.691903847806363
 30
0.0
 10
3.662532267921006
 20
7.695701883337014
 30
0.0
 10
3.659399073599979
 20
7.699151267297433
 30
0.0
 10
3.656082173646247
 20
7.702217686446251
 30
0.0
 10
3.652613247988171
 20
7.704867336962917
 30
0.0
 10
3.649025631258982
 20
7.707080945763611
 30
0.0
 10
3.645355679891723
 20
7.708801723592836
 30
0.0
 10
3.64225378580772
 20
7.709914520937634
 30
0.0
 10
3.640387518167337
 20
7.710257831618537
 30
0.0
 10
3.63976405757979
 20
7.710372520784335
 30
0.0
  0
LINE
  5
82
330
1F
100
AcDbEntity
  8
0
  6
Continuous
 62
     7
370
    15
100
AcDbLine
 10
3.221701336508983
 20
6.935962457716239
 30
0.0
 11
3.220285379393656
 21
6.933150321742695
 31
0.0
  0
LINE
  5
83
330
1F
100
AcDbEntity
  8
0
  6
Continuous
 62
     7
370
    15
100
AcDbLine
 10
3.313326621637386
 20
6.886309788179594
 30
0.0
 11
3.316038580516716
 21
6.891696796241435
 31
0.0
  0
LINE
  5
84
330
1F
100
AcDbEntity
  8
0
  6
Continuous
 62
     7
370
    15
100
AcDbLine
 10
5.474947772008436
 20
6.338081071191735
 30
0.0
 11
5.474509502860288
 21
6.337201449201641
 31
0.0
  0
LINE
  5
85
330
1F
100
AcDbEntity
  8
0
  6
Continuous
 62
     7
370
    15
100
AcDbLine
 10
5.567742051419354
 20
6.290743076948634
 30
0.0
 11
5.568582084571271
 21
6.292428779047496
 31
0.0
  0
LINE
  5
86
330
1F
100
AcDbEntity
  8
0
  6
Continuous
 62
     7
370
    15
100
AcDbLine
 10
5.545114392986537
 20
6.830555363019371
 30
0.0
 11
5.549731533226705
 21
6.832161509783627
 31
0.0
  0
LINE
  5
87
330
1F
100
AcDbEntity
  8
0
  6
Continuous
 62
     7
370
    15
100
AcDbLine
 10
5.515505817076448
 20
6.930545078465679
 30
0.0
 11
5.510888607697751
 21
6.928938724773867
 31
0.0
  0
SPLINE
  5
88
330
1F
100
AcDbEntity
  8
0
  6
Continuous
 62
     7
370
    15
100
AcDbSpline
210
0.0
220
0.0
230
1.0
 70
     8
 71
     3
 72
    20
 73
    16
 74
     0
 42
0.0000000001
 43
0.0000000001
 40
0.0
 40
0.0
 40
0.0
 40
0.0
 40
0.0554509486427799
 40
0.1339781407031579
 40
0.2127862396885813
 40
0.2918227716148385
 40
0.3710238584084981
 40
0.450323622259075
 40
0.5296773592710949
 40
0.6090452043479794
 40
0.6884073899190138
 40
0.7677574458861177
 40
0.8470933001617559
 40
0.9264198451233108
 40
1.0
 40
1.0
 40
1.0
 40
1.0
 10
5.855906885575202
 20
6.137697585085438
 30
0.0
 10
5.855247187858119
 20
6.137098588449141
 30
0.0
 10
5.85365325527943
 20
6.135651319149288
 30
0.0
 10
5.851423055956105
 20
6.13287477401717
 30
0.0
 10
5.849200945579124
 20
6.129470573175076
 30
0.0
 10
5.847290617771723
 20
6.125695986927573
 30
0.0
 10
5.84570042620399
 20
6.121607911712197
 30
0.0
 10
5.844449161947108
 20
6.117241953416754
 30
0.0
 10
5.843548325717158
 20
6.112643531318756
 30
0.0
 10
5.843006112369858
 20
6.107857941014263
 30
0.0
 10
5.842827786594349
 20
6.10293282778557
 30
0.0
 10
5.84301216417152
 20
6.097915531322161
 30
0.0
 10
5.843564550202345
 20
6.092857211064373
 30
0.0
 10
5.844428853382908
 20
6.087919917454424
 30
0.0
 10
5.845266519527863
 20
6.084719190739409
 30
0.0
 10
5.845669612425334
 20
6.083178970672806
 30
0.0
  0
SPLINE
  5
89
330
1F
100
AcDbEntity
  8
0
  6
Continuous
 62
     7
370
    15
100
AcDbSpline
210
0.0
220
0.0
230
1.0
 70
     8
 71
     3
 72
    20
 73
    16
 74
     0
 42
0.0000000001
 43
0.0000000001
 40
0.0
 40
0.0
 40
0.0
 40
0.0
 40
0.0431545137598126
 40
0.1248240140883736
 40
0.2065316933053441
 40
0.2882619629742684
 40
0.3700230159638646
 40
0.4518182786401914
 40
0.5336465563247682
 40
0.6155032970911952
 40
0.6973645610626811
 40
0.7791912948813275
 40
0.8609298594314184
 40
0.9425055361158294
 40
1.0
 40
1.0
 40
1.0
 40
1.0
 10
5.845669612425334
 20
6.083178970672806
 30
0.0
 10
5.845924499053699
 20
6.082309497176601
 30
0.0
 10
5.846661756163513
 20
6.079794553489739
 30
0.0
 10
5.848134450703275
 20
6.075723917312077
 30
0.0
 10
5.850177022535947
 20
6.071060917177047
 30
0.0
 10
5.852517438247239
 20
6.066614858816893
 30
0.0
 10
5.855127759781995
 20
6.06242792828023
 30
0.0
 10
5.85798540480835
 20
6.058541401410556
 30
0.0
 10
5.861063510981928
 20
6.05499363896176
 30
0.0
 10
5.864333432098904
 20
6.051819665870429
 30
0.0
 10
5.867764152481644
 20
6.049053638979893
 30
0.0
 10
5.871322909519325
 20
6.046718503310971
 30
0.0
 10
5.874974216441557
 20
6.044862227224579
 30
0.0
 10
5.87831925230342
 20
6.043559789183707
 30
0.0
 10
5.880440186327527
 20
6.043101297544869
 30
0.0
 10
5.881317024188993
 20
6.042911747646793
 30
0.0
  0
LINE
  5
8A
330
1F
100
AcDbEntity
  8
0
  6
Continuous
 62
     7
370
    15
100
AcDbLine
 10
5.879100857715619
 20
6.147038283346271
 30
0.0
 11
5.866726512571867
 21
6.14372305952265
 31
0.0
  0
LINE
  5
8B
330
1F
100
AcDbEntity
  8
0
  6
Continuous
 62
     7
370
    15
100
AcDbLine
 10
5.893683210986084
 20
6.043104765939588
 30
0.0
 11
5.906057556129836
 21
6.04641998976321
 31
0.0
  0
SPLINE
  5
8C
330
1F
100
AcDbEntity
  8
0
  6
Continuous
 62
     7
370
    15
100
AcDbSpline
210
0.0
220
0.0
230
1.0
 70
     8
 71
     3
 72
    33
 73
    29
 74
     0
 42
0.0000000001
 43
0.0000000001
 40
0.0
 40
0.0
 40
0.0
 40
0.0
 40
0.0150436427644328
 40
0.0548226987542418
 40
0.0947484033044563
 40
0.1347983192123965
 40
0.1749404031568034
 40
0.2151424941047972
 40
0.2553755520314049
 40
0.2956219365210684
 40
0.3358669002218175
 40
0.3761054368606806
 40
0.4163370261685017
 40
0.4565637433695908
 40
0.4967878607047777
 40
0.5370133261737119
 40
0.5772436549631982
 40
0.6174816112765839
 40
0.6577324396536373
 40
0.6979984991268288
 40
0.7382813750136722
 40
0.7785815066169279
 40
0.8188924225445212
 40
0.8592013987773965
 40
0.8994875196361642
 40
0.9397195449474844
 40
0.9798624709169413
 40
1.0
 40
1.0
 40
1.0
 40
1.0
 10
5.917033021375424
 20
6.052596175050936
 30
0.0
 10
5.917392508943622
 20
6.052904985430576
 30
0.0
 10
5.918702569210664
 20
6.05403036567792
 30
0.0
 10
5.92070395417585
 20
6.05641138965257
 30
0.0
 10
5.923010211346764
 20
6.059703471108107
 30
0.0
 10
5.925003561052409
 20
6.06338753235538
 30
0.0
 10
5.926683768346664
 20
6.067392299125644
 30
0.0
 10
5.92802837415124
 20
6.071687350397573
 30
0.0
 10
5.929025892515466
 20
6.076226811680323
 30
0.0
 10
5.929666098429142
 20
6.080966165406894
 30
0.0
 10
5.929944081608321
 20
6.085858078350347
 30
0.0
 10
5.929857438206376
 20
6.090854750557749
 30
0.0
 10
5.929408069153017
 20
6.095907704988582
 30
0.0
 10
5.928600439335336
 20
6.100968041155331
 30
0.0
 10
5.927442928177876
 20
6.1059870193129
 30
0.0
 10
5.925946392353845
 20
6.110916140016879
 30
0.0
 10
5.924125499171419
 20
6.115707885501767
 30
0.0
 10
5.921997462549731
 20
6.120316050082679
 30
0.0
 10
5.919581778924516
 20
6.124695767017414
 30
0.0
 10
5.916901663443929
 20
6.128804911513833
 30
0.0
 10
5.913981164552805
 20
6.132602858327408
 30
0.0
 10
5.910847957618311
 20
6.136052138657437
 30
0.0
 10
5.907531061303667
 20
6.139118598522706
 30
0.0
 10
5.904062099249296
 20
6.141768206722078
 30
0.0
 10
5.900474488787203
 20
6.143981843374628
 30
0.0
 10
5.896804533016295
 20
6.14570257425276
 30
0.0
 10
5.893702643003433
 20
6.146815575534075
 30
0.0
 10
5.891836351913061
 20
6.14715876985593
 30
0.0
 10
5.891212891272674
 20
6.147273418719007
 30
0.0
  0
SPLINE
  5
8D
330
1F
100
AcDbEntity
  8
0
  6
Continuous
 62
     7
370
    15
100
AcDbSpline
210
0.0
220
0.0
230
1.0
 70
     8
 71
     3
 72
    20
 73
    16
 74
     0
 42
0.0000000001
 43
0.0000000001
 40
0.0
 40
0.0
 40
0.0
 40
0.0
 40
0.0554498400293954
 40
0.1339780196349839
 40
0.2127847718441699
 40
0.2918224661694259
 40
0.3710220542336724
 40
0.4503231055760938
 40
0.5296752449890981
 40
0.6090429561601884
 40
0.6884065136506669
 40
0.7677549307269231
 40
0.8470921407427189
 40
0.9264185518681591
 40
1.0
 40
1.0
 40
1.0
 40
1.0
 10
5.855906885575202
 20
7.097608567690295
 30
0.0
 10
5.855247182447525
 20
7.097009610651301
 30
0.0
 10
5.853653206368493
 20
7.095562409398995
 30
0.0
 10
5.851423113331529
 20
7.092785742741295
 30
0.0
 10
5.849200891627571
 20
7.089381649128593
 30
0.0
 10
5.847290666129923
 20
7.085606985039771
 30
0.0
 10
5.845700385338516
 20
7.081518959461093
 30
0.0
 10
5.844449193378729
 20
7.077152977130214
 30
0.0
 10
5.843548312037188
 20
7.072554585307082
 30
0.0
 10
5.843006112073535
 20
7.067768985722406
 30
0.0
 10
5.84282778443145
 20
7.062843873706823
 30
0.0
 10
5.843012174038372
 20
7.057826544392918
 30
0.0
 10
5.843564539554655
 20
7.052768225161369
 30
0.0
 10
5.84442886651048
 20
7.047830871444613
 30
0.0
 10
5.845266521073116
 20
7.044630110841609
 30
0.0
 10
5.845669612425334
 20
7.043089859075373
 30
0.0
  0
SPLINE
  5
8E
330
1F
100
AcDbEntity
  8
0
  6
Continuous
 62
     7
370
    15
100
AcDbSpline
210
0.0
220
0.0
230
1.0
 70
     8
 71
     3
 72
    20
 73
    16
 74
     0
 42
0.0000000001
 43
0.0000000001
 40
0.0
 40
0.0
 40
0.0
 40
0.0
 40
0.0431531765497024
 40
0.1248214632640372
 40
0.2065305824334426
 40
0.2882598094642054
 40
0.3700221075502852
 40
0.4518175231840603
 40
0.5336450989540263
 40
0.6155027160711799
 40
0.6973641331235366
 40
0.7791910199584824
 40
0.8609297373599961
 40
0.9425054286009661
 40
1.0
 40
1.0
 40
1.0
 40
1.0
 10
5.845669612425334
 20
7.043089859075373
 30
0.0
 10
5.845924499187505
 20
7.042220416680734
 30
0.0
 10
5.846661764463542
 20
7.039705536419311
 30
0.0
 10
5.848134494468308
 20
7.035634958231118
 30
0.0
 10
5.850176971049935
 20
7.03097192318945
 30
0.0
 10
5.852517489027267
 20
7.026525920384436
 30
0.0
 10
5.855127734465092
 20
7.022338918639762
 30
0.0
 10
5.857985384442931
 20
7.018452374271308
 30
0.0
 10
5.861063552502254
 20
7.014904737981288
 30
0.0
 10
5.86433340885988
 20
7.011730628254747
 30
0.0
 10
5.867764155841041
 20
7.008964626863653
 30
0.0
 10
5.871322909210489
 20
7.00662949315067
 30
0.0
 10
5.874974212270786
 20
7.00477317673295
 30
0.0
 10
5.878319255791932
 20
7.003470886348093
 30
0.0
 10
5.880440186732358
 20
7.00301238043951
 30
0.0
 10
5.881317024188993
 20
7.002822824453941
 30
0.0
  0
LINE
  5
8F
330
1F
100
AcDbEntity
  8
0
  6
Continuous
 62
     7
370
    15
100
AcDbLine
 10
5.879100857715619
 20
7.106949360153419
 30
0.0
 11
5.866726512571867
 21
7.103634136329798
 31
0.0
  0
LINE
  5
90
330
1F
100
AcDbEntity
  8
0
  6
Continuous
 62
     7
370
    15
100
AcDbLine
 10
5.893683210986084
 20
7.003015842746736
 30
0.0
 11
5.906057556129836
 21
7.006331066570358
 31
0.0
  0
SPLINE
  5
91
330
1F
100
AcDbEntity
  8
0
  6
Continuous
 62
     7
370
    15
100
AcDbSpline
210
0.0
220
0.0
230
1.0
 70
     8
 71
     3
 72
    33
 73
    29
 74
     0
 42
0.0000000001
 43
0.0000000001
 40
0.0
 40
0.0
 40
0.0
 40
0.0
 40
0.0150436390845452
 40
0.0548232393430917
 40
0.0947483309862001
 40
0.1347982370973648
 40
0.1749403112224505
 40
0.2151423923364446
 40
0.2553754404214778
 40
0.29562256845727
 40
0.3358675223135322
 40
0.3761052850896585
 40
0.4163368645562642
 40
0.4565635719173297
 40
0.4967876794131289
 40
0.5370138321577289
 40
0.5772434882610131
 40
0.6174814347316259
 40
0.6577322532627578
 40
0.6979977798235738
 40
0.7382811115127208
 40
0.7785816369913669
 40
0.8188925430583404
 40
0.8592015094310704
 40
0.8994876204352836
 40
0.9397196359052816
 40
0.9798625047514038
 40
0.9999999999999998
 40
0.9999999999999998
 40
0.9999999999999998
 40
0.9999999999999998
 10
5.917033021375424
 20
7.012507157655795
 30
0.0
 10
5.917392509985982
 20
7.012815966523032
 30
0.0
 10
5.918702587290212
 20
7.013941352631048
 30
0.0
 10
5.9207039033529
 20
7.016322474392284
 30
0.0
 10
5.923010238656739
 20
7.019614449272657
 30
0.0
 10
5.925003556332109
 20
7.023298521160632
 30
0.0
 10
5.92668376986476
 20
7.027303279951047
 30
0.0
 10
5.928028372809103
 20
7.031598333905182
 30
0.0
 10
5.929025902594504
 20
7.036137820793565
 30
0.0
 10
5.929666091235168
 20
7.040877214204214
 30
0.0
 10
5.929944082484424
 20
7.045769123148482
 30
0.0
 10
5.929857435374935
 20
7.050765765470684
 30
0.0
 10
5.929408068276498
 20
7.055818687178521
 30
0.0
 10
5.928600442827771
 20
7.060879025097221
 30
0.0
 10
5.92744290839848
 20
7.065898025978038
 30
0.0
 10
5.925946431188229
 20
7.070827170631864
 30
0.0
 10
5.924125475802066
 20
7.07561888861732
 30
0.0
 10
5.921997461800809
 20
7.08022702930009
 30
0.0
 10
5.919581804081189
 20
7.084606749004063
 30
0.0
 10
5.916901618837305
 20
7.088715804899275
 30
0.0
 10
5.913981170513634
 20
7.092513839940839
 30
0.0
 10
5.91084797586415
 20
7.095963221100328
 30
0.0
 10
5.907531059360498
 20
7.099029670089588
 30
0.0
 10
5.904062099849847
 20
7.101679288612944
 30
0.0
 10
5.90047448832762
 20
7.10389290510255
 30
0.0
 10
5.896804535690785
 20
7.105613705491888
 30
0.0
 10
5.89370264329457
 20
7.106726489282378
 30
0.0
 10
5.891836351905929
 20
7.107069805846111
 30
0.0
 10
5.891212891272674
 20
7.107184495526155
 30
0.0
  0
LINE
  5
92
330
1F
100
AcDbEntity
  8
0
  6
Continuous
 62
     7
370
    15
100
AcDbLine
 10
3.2409640917755
 20
7.396079107340026
 30
0.0
 11
3.253220694000922
 21
7.392795428145505
 31
0.0
  0
SPLINE
  5
93
330
1F
100
AcDbEntity
  8
0
  6
Continuous
 62
     7
370
    15
100
AcDbSpline
210
0.0
220
0.0
230
1.0
 70
     8
 71
     3
 72
    25
 73
    21
 74
     0
 42
0.0000000001
 43
0.0000000001
 40
0.0
 40
0.0
 40
0.0
 40
0.0
 40
0.010036895983404
 40
0.0667861426464683
 40
0.1235563564476936
 40
0.1804381886941329
 40
0.2375367875653396
 40
0.2949683493024016
 40
0.352859520261055
 40
0.4113388425277461
 40
0.4705237754480488
 40
0.5305112466776972
 40
0.5913595719987138
 40
0.6530745248828472
 40
0.7156034472597785
 40
0.7788350551100442
 40
0.8357562967440749
 40
0.892631328923135
 40
0.9494618474314789
 40
1.0
 40
1.0
 40
1.0
 40
1.0
 10
3.299887543115898
 20
7.437892192057645
 30
0.0
 10
3.300174058233896
 20
7.438093764455388
 30
0.0
 10
3.302080548006498
 20
7.439435039978368
 30
0.0
 10
3.305345857392155
 20
7.442267859973403
 30
0.0
 10
3.309637589589871
 20
7.446386018505316
 30
0.0
 10
3.313586240748078
 20
7.450859132407567
 30
0.0
 10
3.317204691757236
 20
7.45562916560387
 30
0.0
 10
3.320466028770193
 20
7.460693309130151
 30
0.0
 10
3.323352837571691
 20
7.466034587155157
 30
0.0
 10
3.325842663604295
 20
7.47163942267487
 30
0.0
 10
3.327911425238685
 20
7.477490831816252
 30
0.0
 10
3.329532132459081
 20
7.48356771391756
 30
0.0
 10
3.330676449158941
 20
7.489842101653298
 30
0.0
 10
3.331314639991207
 20
7.496277382006762
 30
0.0
 10
3.331421113283012
 20
7.502826858226237
 30
0.0
 10
3.330989503974672
 20
7.509195126548382
 30
0.0
 10
3.330081967667016
 20
7.515312676251857
 30
0.0
 10
3.328751847378982
 20
7.52112119268318
 30
0.0
 10
3.327087874274704
 20
7.526615444211397
 30
0.0
 10
3.325659602603021
 20
7.53008139560065
 30
0.0
 10
3.32498731886393
 20
7.531712809851645
 30
0.0
  0
LINE
  5
94
330
1F
100
AcDbEntity
  8
0
  6
Continuous
 62
     7
370
    15
100
AcDbLine
 10
3.678605669476655
 20
7.5934078861996
 30
0.0
 11
3.690862202563546
 21
7.596691546871146
 31
0.0
  0
LINE
  5
95
330
1F
100
AcDbEntity
  8
0
  6
Continuous
 62
     7
370
    15
100
AcDbLine
 10
3.2409640917755
 20
6.834070311938019
 30
0.0
 11
3.253220694000922
 21
6.830786632743497
 31
0.0
  0
SPLINE
  5
96
330
1F
100
AcDbEntity
  8
0
  6
Continuous
 62
     7
370
    15
100
AcDbSpline
210
0.0
220
0.0
230
1.0
 70
     8
 71
     3
 72
    21
 73
    17
 74
     0
 42
0.0000000001
 43
0.0000000001
 40
0.0
 40
0.0
 40
0.0
 40
0.0
 40
0.0242807437676695
 40
0.0977755429769487
 40
0.1718585011433225
 40
0.2466941127459168
 40
0.3224326897518295
 40
0.3991982698570686
 40
0.4770654793918408
 40
0.5560417066307127
 40
0.6360595653806611
 40
0.7169766461995901
 40
0.7898183920638036
 40
0.8626010039864711
 40
0.9353266520517683
 40
1.0
 40
1.0
 40
1.0
 40
1.0
 10
3.315935149274308
 20
6.892071958027776
 30
0.0
 10
3.316339620073614
 20
6.892596418869218
 30
0.0
 10
3.317968373805334
 20
6.894708357615114
 30
0.0
 10
3.320449994536891
 20
6.898696481970994
 30
0.0
 10
3.323357195282894
 20
6.904022539078392
 30
0.0
 10
3.325841475791475
 20
6.909631513877918
 30
0.0
 10
3.327911749789732
 20
6.915481794163452
 30
0.0
 10
3.329532043648104
 20
6.921558984805677
 30
0.0
 10
3.33067647346785
 20
6.927833288106679
 30
0.0
 10
3.331314633343337
 20
6.934268591566846
 30
0.0
 10
3.331421115102876
 20
6.940818061465849
 30
0.0
 10
3.330989503538827
 20
6.947186331471697
 30
0.0
 10
3.330081967778469
 20
6.953303880766659
 30
0.0
 10
3.328751847349181
 20
6.959112397303417
 30
0.0
 10
3.327087874281198
 20
6.964606648804542
 30
0.0
 10
3.3256596026051
 20
6.968072600197091
 30
0.0
 10
3.32498731886393
 20
6.969704014449638
 30
0.0
  0
LINE
  5
97
330
1F
100
AcDbEntity
  8
0
  6
Continuous
 62
     7
370
    15
100
AcDbLine
 10
3.024651130291411
 20
6.142584485111703
 30
0.0
 11
3.386113108971497
 21
6.239424144029617
 31
0.0
  0
SPLINE
  5
98
330
1F
100
AcDbEntity
  8
0
  6
Continuous
 62
     7
370
    15
100
AcDbSpline
210
0.0
220
0.0
230
1.0
 70
     8
 71
     3
 72
    11
 73
     7
 74
     0
 42
0.0000000001
 43
0.0000000001
 40
0.0
 40
0.0
 40
0.0
 40
0.0
 40
0.19716720337128
 40
0.4279458451482538
 40
0.6945663300980845
 40
0.9999999999999998
 40
0.9999999999999998
 40
0.9999999999999998
 40
0.9999999999999998
 10
3.483762088615175
 20
6.344612684112137
 30
0.0
 10
3.48431931115115
 20
6.345241415494922
 30
0.0
 10
3.485528746924523
 20
6.346606059200246
 30
0.0
 10
3.488022688277332
 20
6.348716009674228
 30
0.0
 10
3.491338396996927
 20
6.351043447902843
 30
0.0
 10
3.494135104386698
 20
6.352546503695698
 30
0.0
 10
3.495628334694448
 20
6.353349021854138
 30
0.0
  0
LINE
  5
99
330
1F
100
AcDbEntity
  8
0
  6
Continuous
 62
     7
370
    15
100
AcDbLine
 10
5.492412994606916
 20
6.792891063558869
 30
0.0
 11
5.504669527693807
 21
6.789607402887324
 31
0.0
  0
SPLINE
  5
9A
330
1F
100
AcDbEntity
  8
0
  6
Continuous
 62
     7
370
    15
100
AcDbSpline
210
0.0
220
0.0
230
1.0
 70
     8
 71
     3
 72
    14
 73
    10
 74
     0
 42
0.0000000001
 43
0.0000000001
 40
0.0
 40
0.0
 40
0.0
 40
0.0
 40
0.1269170659579469
 40
0.2842793235853658
 40
0.4434094339684462
 40
0.5866592254248157
 40
0.7297927247097943
 40
0.872815104169036
 40
1.0
 40
1.0
 40
1.0
 40
1.0
 10
5.58215121266961
 20
6.887811901420974
 30
0.0
 10
5.582352466176248
 20
6.889561253308603
 30
0.0
 10
5.58280325039746
 20
6.893479596106512
 30
0.0
 10
5.582860030037196
 20
6.899639996426571
 30
0.0
 10
5.582440799027416
 20
6.906006811455921
 30
0.0
 10
5.581530252221443
 20
6.912124701794327
 30
0.0
 10
5.580200936304846
 20
6.917933150045602
 30
0.0
 10
5.578536647623034
 20
6.923427386595665
 30
0.0
 10
5.577108460537043
 20
6.926893355779522
 30
0.0
 10
5.576436221695347
 20
6.928524766070488
 30
0.0
  0
LINE
  5
9B
330
1F
100
AcDbEntity
  8
0
  6
Continuous
 62
     7
370
    15
100
AcDbLine
 10
5.930054503169539
 20
6.990219860941421
 30
0.0
 11
5.942311036256431
 21
6.993503521612965
 31
0.0
  0
LINE
  5
9C
330
1F
100
AcDbEntity
  8
0
  6
Continuous
 62
     7
370
    15
100
AcDbLine
 10
5.492412994606916
 20
6.230882268156862
 30
0.0
 11
5.504669527693807
 21
6.227598607485316
 31
0.0
  0
SPLINE
  5
9D
330
1F
100
AcDbEntity
  8
0
  6
Continuous
 62
     7
370
    15
100
AcDbSpline
210
0.0
220
0.0
230
1.0
 70
     8
 71
     3
 72
    22
 73
    18
 74
     0
 42
0.0000000001
 43
0.0000000001
 40
0.0
 40
0.0
 40
0.0
 40
0.0
 40
0.0315618917330568
 40
0.0990326696571445
 40
0.1668968944262201
 40
0.2353042181913286
 40
0.3044065332009665
 40
0.3743426357404539
 40
0.4452270607452191
 40
0.5171287817520719
 40
0.5900544920664922
 40
0.6639420325478741
 40
0.7386596468602904
 40
0.8059208499261629
 40
0.8731274494126839
 40
0.9402818739320547
 40
1.0
 40
1.0
 40
1.0
 40
1.0
 10
5.563119172681112
 20
6.283609196598912
 30
0.0
 10
5.563744569626242
 20
6.284300765199981
 30
0.0
 10
5.565706895889679
 20
6.286470720201227
 30
0.0
 10
5.568641479719965
 20
6.290443175248967
 30
0.0
 10
5.571918213654753
 20
6.295493530960431
 30
0.0
 10
5.574800847988113
 20
6.30083854679419
 30
0.0
 10
5.57729181133169
 20
6.306442365456059
 30
0.0
 10
5.579360254904729
 20
6.312294053329314
 30
0.0
 10
5.58098107962036
 20
6.318370855694429
 30
0.0
 10
5.582125249785447
 20
6.324645288244272
 30
0.0
 10
5.582763488819707
 20
6.331080559263303
 30
0.0
 10
5.582869919348091
 20
6.337630028942729
 30
0.0
 10
5.582438430604726
 20
6.343998296759541
 30
0.0
 10
5.581530857862427
 20
6.350115834611707
 30
0.0
 10
5.580200774362838
 20
6.355924373836973
 30
0.0
 10
5.578536682910451
 20
6.361418587011391
 30
0.0
 10
5.577108471830739
 20
6.364884559038986
 30
0.0
 10
5.576436221695347
 20
6.366515970668482
 30
0.0
  0
LINE
  5
9E
330
1F
100
AcDbEntity
  8
0
  6
Continuous
 62
     7
370
    15
100
AcDbLine
 10
5.930054503169539
 20
6.428211065539413
 30
0.0
 11
5.942311036256431
 21
6.431494726210958
 31
0.0
  0
LINE
  5
9F
330
1F
100
AcDbEntity
  8
0
  6
Continuous
 62
     7
370
    15
100
AcDbLine
 10
5.276099963984296
 20
5.539396459853523
 30
0.0
 11
5.637561942664383
 21
5.636236118771436
 31
0.0
  0
SPLINE
  5
A0
330
1F
100
AcDbEntity
  8
0
  6
Continuous
 62
     7
370
    15
100
AcDbSpline
210
0.0
220
0.0
230
1.0
 70
     8
 71
     3
 72
    11
 73
     7
 74
     0
 42
0.0000000001
 43
0.0000000001
 40
0.0
 40
0.0
 40
0.0
 40
0.0
 40
0.1971671136852752
 40
0.4279456504873139
 40
0.6945660141587286
 40
1.0
 40
1.0
 40
1.0
 40
1.0
 10
5.735210922308062
 20
5.741424658853957
 30
0.0
 10
5.735768144653286
 20
5.74205339030425
 30
0.0
 10
5.736977580012644
 20
5.743418034156099
 30
0.0
 10
5.73947152506889
 20
5.745527983319396
 30
0.0
 10
5.74278721814725
 20
5.747855429067165
 30
0.0
 10
5.745583978111063
 20
5.749358468234357
 30
0.0
 10
5.747077237525864
 20
5.750160978072981
 30
0.0
  0
ARC
  5
A1
330
1F
100
AcDbEntity
  8
0
  6
Continuous
 62
     7
370
    15
100
AcDbCircle
 10
3.62179100162015
 20
6.722607876481158
 30
0.0
 40
0.0251370155756688
100
AcDbArc
 50
77.0039363766709
 51
132.5642393086363
  0
ARC
  5
A2
330
1F
100
AcDbEntity
  8
0
  6
Continuous
 62
     7
370
    15
100
AcDbCircle
 10
3.635724616110333
 20
6.67060150255205
 30
0.0
 40
0.025141096121089
100
AcDbArc
 50
257.4488432331112
 51
313.098920195978
  0
ARC
  5
A3
330
1F
100
AcDbEntity
  8
0
  6
Continuous
 62
     7
370
    15
100
AcDbCircle
 10
3.648098747241312
 20
6.673662828807095
 30
0.0
 40
0.024920113402714
100
AcDbArc
 50
285.1431176577852
 51
304.4971887833528
  0
ARC
  5
A4
330
1F
100
AcDbEntity
  8
0
  6
Continuous
 62
     7
370
    15
100
AcDbCircle
 10
3.634116481186783
 20
6.72542296524777
 30
0.0
 40
0.0256319500009272
100
AcDbArc
 50
78.1855602681529
 51
104.6080781899227
  0
ARC
  5
A5
330
1F
100
AcDbEntity
  8
0
  6
Continuous
 62
     7
370
    15
100
AcDbCircle
 10
3.270429313072982
 20
7.486570688253188
 30
0.0
 40
0.0520022045187368
100
AcDbArc
 50
15.52234486106173
 51
119.7155911472698
  0
ARC
  5
A6
330
1F
100
AcDbEntity
  8
0
  6
Continuous
 62
     7
370
    15
100
AcDbCircle
 10
3.270075503604623
 20
7.48657431443195
 30
0.0
 40
0.0518245739658854
100
AcDbArc
 50
119.3778537891331
 51
195.1766333085258
  0
CIRCLE
  5
A7
330
1F
100
AcDbEntity
  8
0
  6
Continuous
 62
     7
370
    15
100
AcDbCircle
 10
3.270231079647618
 20
7.486692263331256
 30
0.0
 40
0.050320121260676
  0
ARC
  5
A8
330
1F
100
AcDbEntity
  8
0
  6
Continuous
 62
     7
370
    15
100
AcDbCircle
 10
3.270741362451509
 20
7.485120735232644
 30
0.0
 40
0.0520839857090191
100
AcDbArc
 50
195.5709273837578
 51
15.02168510119837
  0
ARC
  5
A9
330
1F
100
AcDbEntity
  8
0
  6
Continuous
 62
     7
370
    15
100
AcDbCircle
 10
3.621790834754034
 20
7.682519491359858
 30
0.0
 40
0.0251364370245793
100
AcDbArc
 50
77.0032416631343
 51
132.5649340221741
  0
ARC
  5
AA
330
1F
100
AcDbEntity
  8
0
  6
Continuous
 62
     7
370
    15
100
AcDbCircle
 10
3.635724723602384
 20
7.630512185729529
 30
0.0
 40
0.025140735258187
100
AcDbArc
 50
257.4484091667179
 51
313.0993542623705
  0
LWPOLYLINE
  5
AB
330
1F
100
AcDbEntity
  8
0
  6
Continuous
 62
     7
370
    15
100
AcDbPolyline
 90
       60
 70
   128
 43
0.0
 10
3.594646533806481
 20
7.646413757078691
 10
3.596284702160512
 20
7.641310918246523
 10
3.59827727462456
 20
7.636376897051135
 10
3.600601850314576
 20
7.631667433746561
 10
3.603232156588769
 20
7.627235914591051
 10
3.606138187324678
 20
7.623132581182784
 10
3.609287309135659
 20
7.619403668878502
 10
3.612643569985582
 20
7.616091968832439
 10
3.616168943682384
 20
7.613234422132341
 10
3.619823744709258
 20
7.610863704302845
 10
3.623566213393469
 20
7.609006640802097
 10
3.627354313508154
 20
7.60768429063811
 10
3.631144764332893
 20
7.606911640476694
 10
3.634894976532578
 20
7.606697462807271
 10
3.638562222495037
 20
7.607043973004843
 10
3.642104880824594
 20
7.60794762634392
 10
3.645483127727382
 20
7.609397802341249
 10
3.648658383903089
 20
7.611378271771706
 10
3.651594835592648
 20
7.61386660075823
 10
3.654259019747042
 20
7.61683445031426
 10
3.656621068520871
 20
7.620248373357657
 10
3.658654017887037
 20
7.624069623131292
 10
3.660334775576177
 20
7.628254835904298
 10
3.661644397630792
 20
7.632756710498482
 10
3.662568088405243
 20
7.637524008288331
 10
3.663095200565753
 20
7.642503060437662
 10
3.663220064752779
 20
7.64763716881474
 10
3.662940883364512
 20
7.652868409596562
 10
3.662261113327506
 20
7.658137262809327
 10
3.661188498157234
 20
7.663384190482172
 10
3.659734929681031
 20
7.668549673693137
 10
3.657917001146344
 20
7.673575194812833
 10
3.655755315835416
 20
7.678403799543381
 10
3.65327434878823
 20
7.682980699178103
 10
3.650502170248379
 20
7.687254286716346
 10
3.647470307386011
 20
7.691175985504841
 10
3.644213052912511
 20
7.694701188085815
 10
3.640767326803446
 20
7.697790235265832
 10
3.637172123190313
 20
7.700407999085879
 10
3.633468233806412
 20
7.702524898936167
 10
3.629697694878607
 20
7.704116861335372
 10
3.625902957464944
 20
7.705165919015513
 10
3.622127302285843
 20
7.705660099784092
 10
3.618413318676414
 20
7.705593834029584
 10
3.614803181140579
 20
7.704967880629517
 10
3.611337819688704
 20
7.703789360821632
 10
3.608056505006409
 20
7.702071492532554
 10
3.604996295346321
 20
7.699833926966204
 10
3.602192036528077
 20
7.697101994985461
 10
3.599675255721821
 20
7.693906438266048
 10
3.597474714556459
 20
7.690283826326463
 10
3.595615164626097
 20
7.686275005895733
 10
3.594117900598288
 20
7.681925141134196
 10
3.592999653997542
 20
7.677284010001109
 10
3.592273146313564
 20
7.672403783620451
 10
3.591946812447142
 20
7.667340042395726
 10
3.592023971047762
 20
7.662150114239872
 10
3.592504069007177
 20
7.656892552757094
 10
3.593381575242906
 20
7.651627245205912
 10
3.594646533806481
 20
7.646413757078691
  0
ARC
  5
AC
330
1F
100
AcDbEntity
  8
0
  6
Continuous
 62
     7
370
    15
100
AcDbCircle
 10
3.647742926675199
 20
7.634363704592132
 30
0.0
 40
0.0257758038680802
100
AcDbArc
 50
285.4479724648085
 51
312.8307485261611
  0
ARC
  5
AD
330
1F
100
AcDbEntity
  8
0
  6
Continuous
 62
     7
370
    15
100
AcDbCircle
 10
3.634116517123477
 20
7.685332568268791
 30
0.0
 40
0.0256333852105418
100
AcDbArc
 50
78.18631335762119
 51
104.6073251004696
  0
ARC
  5
AE
330
1F
100
AcDbEntity
  8
0
  6
Continuous
 62
     7
370
    15
100
AcDbCircle
 10
3.265190461260935
 20
6.907172315032521
 30
0.0
 40
0.0524627006784481
100
AcDbArc
 50
336.5677758219177
 51
110.6454947411615
  0
ARC
  5
AF
330
1F
100
AcDbEntity
  8
0
  6
Continuous
 62
     7
370
    15
100
AcDbCircle
 10
3.262458180490385
 20
6.911613426920704
 30
0.0
 40
0.0473538065092745
100
AcDbArc
 50
109.4464127004323
 51
152.9474121981059
  0
LWPOLYLINE
  5
B0
330
1F
100
AcDbEntity
  8
0
  6
Continuous
 62
     7
370
    15
100
AcDbPolyline
 90
       60
 70
   128
 43
0.0
 10
3.247078219489351
 20
6.954263742374471
 10
3.242315542641383
 20
6.952256138747786
 10
3.237827414900102
 20
6.949760980563845
 10
3.233664722224341
 20
6.946806458644688
 10
3.229874547953726
 20
6.943425943350947
 10
3.226499965393083
 20
6.939657929012921
 10
3.223579069873004
 20
6.935544974420169
 10
3.221145047888381
 20
6.93113361338145
 10
3.219225485713092
 20
6.926474048832646
 10
3.217842092845876
 20
6.921618948317363
 10
3.217010632871808
 20
6.916623237059375
 10
3.216740301215513
 20
6.911543662409711
 10
3.21703441652648
 20
6.906437740685891
 10
3.217889521878158
 20
6.901363435931687
 10
3.219295799599141
 20
6.896377952222907
 10
3.22123762438142
 20
6.891537888200853
 10
3.223692802756535
 20
6.886898347443508
 10
3.226633541035017
 20
6.88251143440371
 10
3.230026514444912
 20
6.878427289046935
 10
3.233833281962973
 20
6.874691977354947
 10
3.238010701145841
 20
6.871347716776337
 10
3.24251155037683
 20
6.868432746565681
 10
3.247284598004452
 20
6.865979724757186
 10
3.252276054251571
 20
6.864016540526767
 10
3.257429018107157
 20
6.862565594444853
 10
3.262685482343683
 20
6.861643372447929
 10
3.267985711270346
 20
6.86125985575218
 10
3.273269485226625
 20
6.861420031264959
 10
3.278477206798781
 20
6.862121482545997
 10
3.28354983168132
 20
6.863356740102452
 10
3.288429629200839
 20
6.865111647666229
 10
3.293061703363707
 20
6.867366152858263
 10
3.297393163193693
 20
6.870094832181501
 10
3.301375266026425
 20
6.873266764534872
 10
3.304962795262615
 20
6.876846111775205
 10
3.308114959168962
 20
6.880792177460961
 10
3.310796151401987
 20
6.885060330352182
 10
3.312976089285105
 20
6.889602344173684
 10
3.314629882947146
 20
6.894366490229957
 10
3.315738864984736
 20
6.899298822366089
 10
3.316290659600821
 20
6.90434345798724
 10
3.316278629496424
 20
6.909443479860769
 10
3.315703327779791
 20
6.914540960988863
 10
3.314570838641654
 20
6.919578014594467
 10
3.312894505818499
 20
6.924497646704147
 10
3.310692927575172
 20
6.929244296489212
 10
3.30799106292137
 20
6.933763842615359
 10
3.304819678503401
 20
6.938005332755033
 10
3.301214795495923
 20
6.941920721090952
 10
3.297216929078119
 20
6.945465411832052
 10
3.29287171068046
 20
6.948599488605498
 10
3.288228228659973
 20
6.951287371518652
 10
3.283339028300234
 20
6.953498456464729
 10
3.278259489564594
 20
6.955208078843504
 10
3.273047481403514
 20
6.956396250298157
 10
3.267761633291304
 20
6.957050197414911
 10
3.262462164888483
 20
6.957161918813103
 10
3.257208950162915
 20
6.9567305539632
 10
3.252061448251279
 20
6.955760743114502
 10
3.247078219489351
 20
6.954263742374471
  0
ARC
  5
B1
330
1F
100
AcDbEntity
  8
0
  6
Continuous
 62
     7
370
    15
100
AcDbCircle
 10
3.265028125908806
 20
6.917163230691788
 30
0.0
 40
0.047153079865401
100
AcDbArc
 50
109.3494662103289
 51
153.0452099643909
  0
ARC
  5
B2
330
1F
100
AcDbEntity
  8
0
  6
Continuous
 62
     7
370
    15
100
AcDbCircle
 10
3.267902469378656
 20
6.91255936471191
 30
0.0
 40
0.052462672050525
100
AcDbArc
 50
336.5677127345372
 51
110.6454832963987
  0
ARC
  5
B3
330
1F
100
AcDbEntity
  8
0
  6
Continuous
 62
     7
370
    15
100
AcDbCircle
 10
5.521240702263511
 20
6.314198642504311
 30
0.0
 40
0.052085834097368
100
AcDbArc
 50
153.7919007376945
 51
277.9523514055054
  0
ARC
  5
B4
330
1F
100
AcDbEntity
  8
0
  6
Continuous
 62
     7
370
    15
100
AcDbCircle
 10
5.521494318535751
 20
6.313837331007014
 30
0.0
 40
0.0516933009913869
100
AcDbArc
 50
277.7293559318145
 51
333.4643054896841
  0
CIRCLE
  5
B5
330
1F
100
AcDbEntity
  8
0
  6
Continuous
 62
     7
370
    15
100
AcDbCircle
 10
5.521295572054046
 20
6.31393481645706
 30
0.0
 40
0.0503048955096395
  0
ARC
  5
B6
330
1F
100
AcDbEntity
  8
0
  6
Continuous
 62
     7
370
    15
100
AcDbCircle
 10
5.5218108737366
 20
6.315415980314678
 30
0.0
 40
0.0521148499473922
100
AcDbArc
 50
333.8267208035824
 51
134.7769046615896
  0
ARC
  5
B7
330
1F
100
AcDbEntity
  8
0
  6
Continuous
 62
     7
370
    15
100
AcDbCircle
 10
5.531919878990297
 20
6.88009537114609
 30
0.0
 40
0.0511361916039244
100
AcDbArc
 50
290.3844688498292
 51
22.72092464859023
  0
ARC
  5
B8
330
1F
100
AcDbEntity
  8
0
  6
Continuous
 62
     7
370
    15
100
AcDbCircle
 10
5.531281438240956
 20
6.88202538202692
 30
0.0
 40
0.0510199095024225
100
AcDbArc
 50
20.44417909907934
 51
108.0113385041455
  0
LWPOLYLINE
  5
B9
330
1F
100
AcDbEntity
  8
0
  6
Continuous
 62
     7
370
    15
100
AcDbPolyline
 90
       60
 70
   128
 43
0.0
 10
5.578040443030646
 20
6.899407600570187
 10
5.57582130360044
 20
6.904291793931085
 10
5.573117641344831
 20
6.908917758528455
 10
5.569960084633065
 20
6.913233072895884
 10
5.56638437808568
 20
6.917189033913382
 10
5.562431175158915
 20
6.920740638284402
 10
5.55814507020528
 20
6.923847824101187
 10
5.553574736750615
 20
6.926475056989662
 10
5.548771959554652
 20
6.928592951658764
 10
5.543791150641312
 20
6.930177234087822
 10
5.538688727051902
 20
6.931210078881618
 10
5.53352248859836
 20
6.931679868471693
 10
5.528350995616459
 20
6.931581094151824
 10
5.523232946719039
 20
6.930914757759797
 10
5.5182260725795
 20
6.929688933716344
 10
5.513387343347409
 20
6.92791686963116
 10
5.5087714476008
 20
6.92561909579925
 10
5.504430723207658
 20
6.922821636944822
 10
5.50041439680207
 20
6.91955588256044
 10
5.496767892398918
 20
6.915859152120777
 10
5.493532623978283
 20
6.911773095231072
 10
5.490745234961608
 20
6.907343975821414
 10
5.488437252519038
 20
6.90262235408132
 10
5.486634811015299
 20
6.897661239459877
 10
5.485358375455575
 20
6.892517261313994
 10
5.484622395792849
 20
6.887248466797167
 10
5.484435168650841
 20
6.881914734714603
 10
5.484798906462547
 20
6.876576101579765
 10
5.485709460916104
 20
6.871293515232709
 10
5.487156461231859
 20
6.866126651251818
 10
5.489123590716491
 20
6.861134027266476
 10
5.491588517624481
 20
6.856372153549049
 10
5.494523240850765
 20
6.851895066765646
 10
5.497894712177512
 20
6.847753554660006
 10
5.501664490581476
 20
6.84399446117891
 10
5.505789986727546
 20
6.840660498067601
 10
5.510224532107287
 20
6.837789095919317
 10
5.514917724731577
 20
6.835413213362554
 10
5.519816466208595
 20
6.833559511758976
 10
5.524865238297933
 20
6.832249105646947
 10
5.530006794295901
 20
6.831496697985328
 10
5.53518298869791
 20
6.831311031054555
 10
5.540335122891124
 20
6.831693962956708
 10
5.545404774816829
 20
6.832641369417641
 10
5.550334559494277
 20
6.834142411866456
 10
5.555068543851872
 20
6.836180247658247
 10
5.559553214666601
 20
6.838731505081114
 10
5.563737685979634
 20
6.841767506398544
 10
5.567574528758689
 20
6.845253585148173
 10
5.571020254867755
 20
6.849150540984328
 10
5.574035939313864
 20
6.853414123683572
 10
5.576587220247099
 20
6.857996129701072
 10
5.578645405177088
 20
6.862844284683093
 10
5.58018698700328
 20
6.867903994677174
 10
5.581194611954392
 20
6.873117780918377
 10
5.581656872172804
 20
6.878426614009526
 10
5.581568443991627
 20
6.883770367997088
 10
5.580930364488827
 20
6.889088342189337
 10
5.579749962348691
 20
6.894320564640265
 10
5.578040443030646
 20
6.899407600570187
  0
ARC
  5
BA
330
1F
100
AcDbEntity
  8
0
  6
Continuous
 62
     7
370
    15
100
AcDbCircle
 10
5.529558092776085
 20
6.88028855414262
 30
0.0
 40
0.0521093923927301
100
AcDbArc
 50
110.9942867907302
 51
287.3694288619902
  0
ARC
  5
BB
330
1F
100
AcDbEntity
  8
0
  6
Continuous
 62
     7
370
    15
100
AcDbCircle
 10
5.873239924987731
 20
6.119419490409943
 30
0.0
 40
0.0251373419795379
100
AcDbArc
 50
77.00399439109
 51
132.5638335626105
  0
ARC
  5
BC
330
1F
100
AcDbEntity
  8
0
  6
Continuous
 62
     7
370
    15
100
AcDbCircle
 10
5.887173506351119
 20
6.067413517302351
 30
0.0
 40
0.0251411474619988
100
AcDbArc
 50
257.4487372561468
 51
313.0988500065218
  0
LWPOLYLINE
  5
BD
330
1F
100
AcDbEntity
  8
0
  6
Continuous
 62
     7
370
    15
100
AcDbPolyline
 90
       60
 70
   128
 43
0.0
 10
5.846095436637898
 20
6.083314636490386
 10
5.847733535853397
 20
6.078211910383485
 10
5.849726177455977
 20
6.07327787066512
 10
5.852050753145993
 20
6.068568407360547
 10
5.854680990281655
 20
6.064136906728013
 10
5.857587090156094
 20
6.060033460594479
 10
5.860736142828545
 20
6.056304661015464
 10
5.864092403678467
 20
6.052992866767111
 10
5.867617846513801
 20
6.050135395746328
 10
5.871272578402145
 20
6.047764696439807
 10
5.875015116224886
 20
6.045907614416083
 10
5.87880314720104
 20
6.044585282775073
 10
5.88259366716431
 20
6.043812614090681
 10
5.886343810225463
 20
6.043598360741942
 10
5.890011056187923
 20
6.043944965141806
 10
5.893553783656011
 20
6.044848505755615
 10
5.896931961420268
 20
6.04629870027592
 10
5.900107217595976
 20
6.048279169706377
 10
5.903043669285533
 20
6.050767498692901
 10
5.905707922578459
 20
6.053735423928246
 10
5.908069971352288
 20
6.057149252769351
 10
5.910102851579922
 20
6.060970521065963
 10
5.911783609269062
 20
6.065155733838969
 10
5.913093300462208
 20
6.069657589910177
 10
5.914016922098129
 20
6.074425000425294
 10
5.91454410339717
 20
6.079404034051647
 10
5.914668898445664
 20
6.084538160951701
 10
5.914389786195929
 20
6.089769383210549
 10
5.913710085297453
 20
6.095038217900336
 10
5.912637331850119
 20
6.100285088416844
 10
5.911183763373917
 20
6.105450571627808
 10
5.909365834839229
 20
6.110476092747505
 10
5.907204149528301
 20
6.115304697478052
 10
5.904723182481116
 20
6.119881691315065
 10
5.901951073079795
 20
6.124155166128039
 10
5.898919210217427
 20
6.128076864916536
 10
5.895661955743928
 20
6.131602161699801
 10
5.892216229634863
 20
6.134691208879818
 10
5.88862102602173
 20
6.137308972699865
 10
5.884917136637829
 20
6.139425872550154
 10
5.881146528571492
 20
6.141017759270043
 10
5.877351860296361
 20
6.142066798427208
 10
5.873576135978729
 20
6.142560997718764
 10
5.869862221507831
 20
6.142494713441277
 10
5.866252083971995
 20
6.141868760041213
 10
5.862786722520121
 20
6.140690240233326
 10
5.859505407837826
 20
6.138972371944249
 10
5.856445198177739
 20
6.136734900580189
 10
5.853640870220963
 20
6.134002892920133
 10
5.851124158553237
 20
6.130807506082325
 10
5.848923617387876
 20
6.127184799940449
 10
5.847064067457513
 20
6.123175885307428
 10
5.845566734291174
 20
6.118826133271158
 10
5.844448487690428
 20
6.11418490793578
 10
5.843722049144981
 20
6.109304757234436
 10
5.843395646140027
 20
6.104241034532688
 10
5.843472873879179
 20
6.099050993651567
 10
5.843952971838594
 20
6.093793526371079
 10
5.844830478074324
 20
6.088528218819898
 10
5.846095436637898
 20
6.083314636490386
  0
ARC
  5
BE
330
1F
100
AcDbEntity
  8
0
  6
Continuous
 62
     7
370
    15
100
AcDbCircle
 10
5.899192134884434
 20
6.071263736541503
 30
0.0
 40
0.0257749056809289
100
AcDbArc
 50
285.4478199440219
 51
312.8316737604551
  0
ARC
  5
BF
330
1F
100
AcDbEntity
  8
0
  6
Continuous
 62
     7
370
    15
100
AcDbCircle
 10
5.88556537168024
 20
6.122235427454082
 30
0.0
 40
0.0256314572587563
100
AcDbArc
 50
78.18530169434779
 51
104.6083367637356
  0
ARC
  5
C0
330
1F
100
AcDbEntity
  8
0
  6
Continuous
 62
     7
370
    15
100
AcDbCircle
 10
5.87323975812573
 20
7.07933110528083
 30
0.0
 40
0.0251367634348277
100
AcDbArc
 50
77.003299701053
 51
132.5645282526494
  0
ARC
  5
C1
330
1F
100
AcDbEntity
  8
0
  6
Continuous
 62
     7
370
    15
100
AcDbCircle
 10
5.887173613842139
 20
7.027324200481229
 30
0.0
 40
0.0251407866005898
100
AcDbArc
 50
257.4483031921031
 51
313.0992840705553
  0
LWPOLYLINE
  5
C2
330
1F
100
AcDbEntity
  8
0
  6
Continuous
 62
     7
370
    15
100
AcDbPolyline
 90
       60
 70
   128
 43
0.0
 10
5.846095436637898
 20
7.043225713297534
 10
5.847733535853397
 20
7.038122892988343
 10
5.849726177455977
 20
7.033188853269977
 10
5.852050753145993
 20
7.028479389965405
 10
5.854680990281655
 20
7.024047889332871
 10
5.857587090156094
 20
7.019944537401626
 10
5.860736142828545
 20
7.016215643620322
 10
5.864092403678467
 20
7.01290394357426
 10
5.867617846513801
 20
7.010046378351185
 10
5.871272578402145
 20
7.007675679044665
 10
5.875015116224886
 20
7.00581859702094
 10
5.87880314720104
 20
7.00449626537993
 10
5.88259366716431
 20
7.003723596695538
 10
5.886343810225463
 20
7.00350943754909
 10
5.890011056187923
 20
7.003855947746663
 10
5.893553783656011
 20
7.004759582562763
 10
5.896931961420268
 20
7.006209777083069
 10
5.900107217595976
 20
7.008190246513526
 10
5.903043669285533
 20
7.010678575500049
 10
5.905707922578459
 20
7.013646406533104
 10
5.908069971352288
 20
7.017060329576499
 10
5.910102851579922
 20
7.020881597873112
 10
5.911783609269062
 20
7.025066810646118
 10
5.913093300462208
 20
7.029568666717326
 10
5.914016922098129
 20
7.034335983030151
 10
5.91454410339717
 20
7.039315016656504
 10
5.914668898445664
 20
7.044449143556559
 10
5.914389786195929
 20
7.049680365815405
 10
5.913710085297453
 20
7.054949200505194
 10
5.912637331850119
 20
7.060196165223993
 10
5.911183763373917
 20
7.065361648434956
 10
5.909365834839229
 20
7.070387169554653
 10
5.907204149528301
 20
7.0752157742852
 10
5.904723182481116
 20
7.079792673919922
 10
5.901951073079795
 20
7.084066242935189
 10
5.898919210217427
 20
7.087987941723684
 10
5.895661955743928
 20
7.091513144304658
 10
5.892216229634863
 20
7.094602191484677
 10
5.88862102602173
 20
7.097219955304722
 10
5.884917136637829
 20
7.09933685515501
 10
5.881146528571492
 20
7.100928836077192
 10
5.877351860296361
 20
7.101977875234356
 10
5.873576135978729
 20
7.102472074525912
 10
5.869862221507831
 20
7.102405790248426
 10
5.866252083971995
 20
7.10177983684836
 10
5.862786722520121
 20
7.100601317040474
 10
5.859505407837826
 20
7.098883448751397
 10
5.856445198177739
 20
7.096645883185046
 10
5.853640870220963
 20
7.09391396972728
 10
5.851124158553237
 20
7.090718394484891
 10
5.848923617387876
 20
7.087095782545306
 10
5.847064067457513
 20
7.083086962114577
 10
5.845566734291174
 20
7.078737115876015
 10
5.844448487690428
 20
7.074095984742929
 10
5.843722049144981
 20
7.069215739839294
 10
5.843395646140027
 20
7.064152017137545
 10
5.843472873879179
 20
7.058962070458715
 10
5.843952971838594
 20
7.053704508975937
 10
5.844830478074324
 20
7.048439201424756
 10
5.846095436637898
 20
7.043225713297534
  0
ARC
  5
C3
330
1F
100
AcDbEntity
  8
0
  6
Continuous
 62
     7
370
    15
100
AcDbCircle
 10
5.899187731408491
 20
7.031183011751999
 30
0.0
 40
0.0257839808992583
100
AcDbArc
 50
285.4523990348868
 51
312.82632195608
  0
ARC
  5
C4
330
1F
100
AcDbEntity
  8
0
  6
Continuous
 62
     7
370
    15
100
AcDbCircle
 10
5.885565407616931
 20
7.082145030475146
 30
0.0
 40
0.0256328924668095
100
AcDbArc
 50
78.18605481274326
 51
104.6075836453439
  0
LINE
  5
C5
330
1F
100
AcDbEntity
  8
0
  6
Continuous
 62
     7
370
    15
100
AcDbLine
 10
3.473158657805015
 20
8.046343411431895
 30
0.0
 11
1.764317381333524
 21
7.588525947579594
 31
0.0
  0
LINE
  5
C6
330
1F
100
AcDbEntity
  8
0
  6
Continuous
 62
     7
370
    15
100
AcDbLine
 10
3.473158657805015
 20
6.280030108284037
 30
0.0
 11
3.473158657805015
 21
6.330509347916521
 31
0.0
  0
LINE
  5
C7
330
1F
100
AcDbEntity
  8
0
  6
Continuous
 62
     7
370
    15
100
AcDbLine
 10
3.473158657805015
 20
7.81976504674762
 30
0.0
 11
3.473158657805015
 21
8.046343411431895
 31
0.0
  0
LINE
  5
C8
330
1F
100
AcDbEntity
  8
0
  6
Continuous
 62
     7
370
    15
100
AcDbLine
 10
1.705391717560134
 20
5.806425807868278
 30
0.0
 11
3.018872117037422
 21
6.158321723298216
 31
0.0
  0
LINE
  5
C9
330
1F
100
AcDbEntity
  8
0
  6
Continuous
 62
     7
370
    15
100
AcDbLine
 10
3.407172083273961
 20
6.262351575692359
 30
0.0
 11
3.473158657805015
 21
6.280030108284037
 31
0.0
  0
LINE
  5
CA
330
1F
100
AcDbEntity
  8
0
  6
Continuous
 62
     7
370
    15
100
AcDbLine
 10
1.705391717560134
 20
5.806425807868278
 30
0.0
 11
1.705391717560134
 21
6.641902911896981
 31
0.0
  0
LINE
  5
CB
330
1F
100
AcDbEntity
  8
0
  6
Continuous
 62
     7
370
    15
100
AcDbLine
 10
1.705391717560134
 20
6.641902911896981
 30
0.0
 11
1.587540666567476
 21
6.658008860407196
 31
0.0
  0
LINE
  5
CC
330
1F
100
AcDbEntity
  8
0
  6
Continuous
 62
     7
370
    15
100
AcDbLine
 10
1.587540666567476
 20
6.658008860407196
 30
0.0
 11
1.764317381333524
 21
6.835940077028537
 31
0.0
  0
LINE
  5
CD
330
1F
100
AcDbEntity
  8
0
  6
Continuous
 62
     7
370
    15
100
AcDbLine
 10
1.764317381333524
 20
6.835940077028537
 30
0.0
 11
1.764317381333524
 21
7.588525947579594
 31
0.0
  0
LINE
  5
CE
330
1F
100
AcDbEntity
  8
0
  6
Continuous
 62
     7
370
    15
100
AcDbLine
 10
1.41076395180143
 20
6.930660948225475
 30
0.0
 11
1.764317381333524
 21
6.835940077028537
 31
0.0
  0
LINE
  5
CF
330
1F
100
AcDbEntity
  8
0
  6
Continuous
 62
     7
370
    15
100
AcDbLine
 10
1.41076395180143
 20
6.930660948225475
 30
0.0
 11
1.41076395180143
 21
7.683246818776532
 31
0.0
  0
LINE
  5
D0
330
1F
100
AcDbEntity
  8
0
  6
Continuous
 62
     7
370
    15
100
AcDbLine
 10
1.41076395180143
 20
7.683246818776532
 30
0.0
 11
1.764317381333524
 21
7.588525947579594
 31
0.0
  0
LINE
  5
D1
330
1F
100
AcDbEntity
  8
0
  6
Continuous
 62
     7
370
    15
100
AcDbLine
 10
3.473158657805015
 20
8.046343411431895
 30
0.0
 11
3.119605228272921
 21
8.141064282628834
 31
0.0
  0
LINE
  5
D2
330
1F
100
AcDbEntity
  8
0
  6
Continuous
 62
     7
370
    15
100
AcDbLine
 10
3.119605228272921
 20
8.141064282628834
 30
0.0
 11
1.41076395180143
 21
7.683246818776532
 31
0.0
  0
LINE
  5
D3
330
1F
100
AcDbEntity
  8
0
  6
Continuous
 62
     7
370
    15
100
AcDbLine
 10
1.233987237035382
 20
6.752729731604134
 30
0.0
 11
1.587540666567476
 21
6.658008860407196
 31
0.0
  0
LINE
  5
D4
330
1F
100
AcDbEntity
  8
0
  6
Continuous
 62
     7
370
    15
100
AcDbLine
 10
1.233987237035382
 20
6.752729731604134
 30
0.0
 11
1.41076395180143
 21
6.930660948225475
 31
0.0
  0
LINE
  5
D5
330
1F
100
AcDbEntity
  8
0
  6
Continuous
 62
     7
370
    15
100
AcDbLine
 10
1.35183828802804
 20
5.901146679065216
 30
0.0
 11
1.705391717560134
 21
5.806425807868278
 31
0.0
  0
LINE
  5
D6
330
1F
100
AcDbEntity
  8
0
  6
Continuous
 62
     7
370
    15
100
AcDbLine
 10
1.35183828802804
 20
5.901146679065216
 30
0.0
 11
1.35183828802804
 21
6.721156143727863
 31
0.0
  0
LINE
  5
D7
330
1F
100
AcDbEntity
  8
0
  6
Continuous
 62
     7
370
    15
100
AcDbLine
 10
5.724607491497901
 20
7.443155386173715
 30
0.0
 11
4.01576621502641
 21
6.985337922321413
 31
0.0
  0
LINE
  5
D8
330
1F
100
AcDbEntity
  8
0
  6
Continuous
 62
     7
370
    15
100
AcDbLine
 10
5.724607491497901
 20
5.676842083025858
 30
0.0
 11
5.724607491497901
 21
5.727321322658341
 31
0.0
  0
LINE
  5
D9
330
1F
100
AcDbEntity
  8
0
  6
Continuous
 62
     7
370
    15
100
AcDbLine
 10
5.724607491497901
 20
7.216577021489439
 30
0.0
 11
5.724607491497901
 21
7.443155386173715
 31
0.0
  0
LINE
  5
DA
330
1F
100
AcDbEntity
  8
0
  6
Continuous
 62
     7
370
    15
100
AcDbLine
 10
3.956840551253019
 20
5.203237782610098
 30
0.0
 11
5.270320950730308
 21
5.555133698040036
 31
0.0
  0
LINE
  5
DB
330
1F
100
AcDbEntity
  8
0
  6
Continuous
 62
     7
370
    15
100
AcDbLine
 10
5.658620916966847
 20
5.659163550434178
 30
0.0
 11
5.724607491497901
 21
5.676842083025858
 31
0.0
  0
LINE
  5
DC
330
1F
100
AcDbEntity
  8
0
  6
Continuous
 62
     7
370
    15
100
AcDbLine
 10
3.956840551253019
 20
5.203237782610098
 30
0.0
 11
3.956840551253019
 21
6.038714886638801
 31
0.0
  0
LINE
  5
DD
330
1F
100
AcDbEntity
  8
0
  6
Continuous
 62
     7
370
    15
100
AcDbLine
 10
3.956840551253019
 20
6.038714886638801
 30
0.0
 11
3.838989500260362
 21
6.054820835149016
 31
0.0
  0
LINE
  5
DE
330
1F
100
AcDbEntity
  8
0
  6
Continuous
 62
     7
370
    15
100
AcDbLine
 10
3.838989500260362
 20
6.054820835149016
 30
0.0
 11
4.01576621502641
 21
6.232752051770357
 31
0.0
  0
LINE
  5
DF
330
1F
100
AcDbEntity
  8
0
  6
Continuous
 62
     7
370
    15
100
AcDbLine
 10
4.01576621502641
 20
6.232752051770357
 30
0.0
 11
4.01576621502641
 21
6.985337922321413
 31
0.0
  0
LINE
  5
E0
330
1F
100
AcDbEntity
  8
0
  6
Continuous
 62
     7
370
    15
100
AcDbLine
 10
5.724607491497901
 20
7.443155386173715
 30
0.0
 11
5.371054096535073
 21
7.537876248109165
 31
0.0
  0
LINE
  5
E1
330
1F
100
AcDbEntity
  8
0
  6
Continuous
 62
     7
370
    15
100
AcDbLine
 10
3.662212820063582
 20
7.080058784256864
 30
0.0
 11
4.01576621502641
 21
6.985337922321413
 31
0.0
  0
LINE
  5
E2
330
1F
100
AcDbEntity
  8
0
  6
Continuous
 62
     7
370
    15
100
AcDbLine
 10
5.371054096535073
 20
7.537876248109165
 30
0.0
 11
3.662212820063582
 21
7.080058784256864
 31
0.0
  0
LINE
  5
E3
330
1F
100
AcDbEntity
  8
0
  6
Continuous
 62
     7
370
    15
100
AcDbLine
 10
3.662212820063582
 20
6.327472913705806
 30
0.0
 11
4.01576621502641
 21
6.232752051770357
 31
0.0
  0
LINE
  5
E4
330
1F
100
AcDbEntity
  8
0
  6
Continuous
 62
     7
370
    15
100
AcDbLine
 10
3.662212820063582
 20
6.327472913705806
 30
0.0
 11
3.662212820063582
 21
7.080058784256864
 31
0.0
  0
LINE
  5
E5
330
1F
100
AcDbEntity
  8
0
  6
Continuous
 62
     7
370
    15
100
AcDbLine
 10
3.485436105297533
 20
6.149541697084465
 30
0.0
 11
3.838989500260362
 21
6.054820835149016
 31
0.0
  0
LINE
  5
E6
330
1F
100
AcDbEntity
  8
0
  6
Continuous
 62
     7
370
    15
100
AcDbLine
 10
3.485436105297533
 20
6.149541697084465
 30
0.0
 11
3.662212820063582
 21
6.327472913705806
 31
0.0
  0
LINE
  5
E7
330
1F
100
AcDbEntity
  8
0
  6
Continuous
 62
     7
370
    15
100
AcDbLine
 10
3.603287156290191
 20
5.297958644545547
 30
0.0
 11
3.956840551253019
 21
5.203237782610098
 31
0.0
  0
LINE
  5
E8
330
1F
100
AcDbEntity
  8
0
  6
Continuous
 62
     7
370
    15
100
AcDbLine
 10
3.603287156290191
 20
5.297958644545547
 30
0.0
 11
3.603287156290191
 21
6.117968109208194
 31
0.0
  0
LINE
  5
E9
330
1F
100
AcDbEntity
  8
0
  6
Continuous
 62
     7
370
    15
100
AcDbLine
 10
3.448148209039063
 20
6.289355037915686
 30
0.0
 11
3.469917720024837
 21
6.324848617451706
 31
0.0
  0
LWPOLYLINE
  5
EA
330
1F
100
AcDbEntity
  8
0
  6
Continuous
 62
     7
370
    15
100
AcDbPolyline
 90
       12
 70
   128
 43
0.0
 10
3.418148170766328
 20
6.281317696106002
 10
3.420435549926653
 20
6.284631007337742
 10
3.422981783747125
 20
6.287542751341264
 10
3.425734949190944
 20
6.289993517654632
 10
3.428638974909453
 20
6.291933335093904
 10
3.431634816597159
 20
6.293322834464349
 10
3.434661494069701
 20
6.294133714809677
 10
3.437657335757406
 20
6.294349453634791
 10
3.440561430614446
 20
6.293965695888282
 10
3.443314596058266
 20
6.292990136474946
 10
3.445860760740206
 20
6.291442702310727
 10
3.448148209039063
 20
6.289355037915686
  0
LINE
  5
EB
330
1F
100
AcDbEntity
  8
0
  6
Continuous
 62
     7
370
    15
100
AcDbLine
 10
3.418148170766328
 20
6.281317696106002
 30
0.0
 11
3.409276452742671
 21
6.266852921025048
 31
0.0
  0
LINE
  5
EC
330
1F
100
AcDbEntity
  8
0
  6
Continuous
 62
     7
370
    15
100
AcDbLine
 10
3.409276452742671
 20
6.266852921025048
 30
0.0
 11
3.040977917838087
 21
6.168181673137884
 31
0.0
  0
ARC
  5
ED
330
1F
100
AcDbEntity
  8
0
  6
Continuous
 62
     7
370
    15
100
AcDbCircle
 10
3.017693479335754
 20
6.163246243210486
 30
0.0
 40
0.0238017550810268
100
AcDbArc
 50
11.9674351976819
 51
40.95462041279325
  0
LINE
  5
EE
330
1F
100
AcDbEntity
  8
0
  6
Continuous
 62
     7
370
    15
100
AcDbLine
 10
3.286488772357996
 20
6.58779006368468
 30
0.0
 11
3.035669254010639
 21
6.178847367201242
 31
0.0
  0
ARC
  5
EF
330
1F
100
AcDbEntity
  8
0
  6
Continuous
 62
     7
370
    15
100
AcDbCircle
 10
3.184477091354578
 20
6.649590055036942
 30
0.0
 40
0.1192712119175563
100
AcDbArc
 50
328.7919786485088
 51
359.8055558461644
  0
LINE
  5
F0
330
1F
100
AcDbEntity
  8
0
  6
Continuous
 62
     7
370
    15
100
AcDbLine
 10
3.303747616441376
 20
6.763615258297389
 30
0.0
 11
3.303747616441376
 21
6.649185286211756
 31
0.0
  0
LWPOLYLINE
  5
F1
330
1F
100
AcDbEntity
  8
0
  6
Continuous
 62
     7
370
    15
100
AcDbPolyline
 90
       16
 70
   128
 43
0.0
 10
3.26053555058303
 20
6.829418008320552
 10
3.265395574482676
 20
6.828574699461337
 10
3.270100935488427
 20
6.827124740957787
 10
3.274616303810931
 20
6.82507863845456
 10
3.278907663292923
 20
6.822451771242833
 10
3.28294286451748
 20
6.819264163634948
 10
3.286691555669483
 20
6.815539524418538
 10
3.290125528228274
 20
6.811305904685141
 10
3.293218993521783
 20
6.806595206708373
 10
3.295948721003586
 20
6.801442938383
 10
3.298294107391438
 20
6.79588757233188
 10
3.300237591498461
 20
6.789970939650698
 10
3.301764515956078
 20
6.783737627648264
 10
3.30286347290667
 20
6.777234318843069
 10
3.303526165726514
 20
6.770510036524205
 10
3.303747616441376
 20
6.763615258297389
  0
LWPOLYLINE
  5
F2
330
1F
100
AcDbEntity
  8
0
  6
Continuous
 62
     7
370
    15
100
AcDbPolyline
 90
       36
 70
   128
 43
0.0
 10
3.26053555058303
 20
7.022867122916313
 10
3.255317596508282
 20
7.01921453771978
 10
3.250237020694676
 20
7.01507706539037
 10
3.245321755108742
 20
7.010477261577171
 10
3.240599040331705
 20
7.005440887981979
 10
3.236094872451227
 20
6.999995445343414
 10
3.231834210477008
 20
6.994171171028757
 10
3.227840561509596
 20
6.988000362682345
 10
3.224135911601854
 20
6.981516982893436
 10
3.220740864036029
 20
6.97475669624215
 10
3.217674086215494
 20
6.967757097924835
 10
3.214952517080352
 20
6.960556638895496
 10
3.212591159691832
 20
6.953195135510611
 10
3.210603081232301
 20
6.945713392719973
 10
3.208999343866719
 20
6.938152431925378
 10
3.207788659049996
 20
6.930554340388659
 10
3.206977871496703
 20
6.922960893655861
 10
3.206571336934295
 20
6.915414142468787
 10
3.206571336934295
 20
6.907955770284519
 10
3.206977871496703
 20
6.900626849301913
 10
3.207788659049996
 20
6.893467840461603
 10
3.208999343866719
 20
6.886518460610338
 10
3.210603081232301
 20
6.879817006149386
 10
3.212591159691832
 20
6.873400331336739
 10
3.214952517080352
 20
6.867304095435435
 10
3.217674086215494
 20
6.861561913305543
 10
3.220740864036029
 20
6.856205562331708
 10
3.224135911601854
 20
6.851264417209417
 10
3.227840561509596
 20
6.846766070727666
 10
3.231834210477008
 20
6.842735147772546
 10
3.236094872451227
 20
6.839193830320209
 10
3.240599040331705
 20
6.836161820390929
 10
3.245321755108742
 20
6.833655981762898
 10
3.250237020694676
 20
6.83168988589636
 10
3.255317596508282
 20
6.830274698387572
 10
3.26053555058303
 20
6.829418008320552
  0
ARC
  5
F3
330
1F
100
AcDbEntity
  8
0
  6
Continuous
 62
     7
370
    15
100
AcDbCircle
 10
3.196349849193406
 20
7.109020106683587
 30
0.0
 40
0.107434356119829
100
AcDbArc
 50
306.6868499152304
 51
1.495384495726572
  0
LINE
  5
F4
330
1F
100
AcDbEntity
  8
0
  6
Continuous
 62
     7
370
    15
100
AcDbLine
 10
3.303747616441376
 20
7.325624147901686
 30
0.0
 11
3.303747616441376
 21
7.111823758772049
 31
0.0
  0
LWPOLYLINE
  5
F5
330
1F
100
AcDbEntity
  8
0
  6
Continuous
 62
     7
370
    15
100
AcDbPolyline
 90
       16
 70
   128
 43
0.0
 10
3.26053555058303
 20
7.391426803722558
 10
3.265395574482676
 20
7.390583494863343
 10
3.270100935488427
 20
7.389133536359794
 10
3.274616303810931
 20
7.387087433856568
 10
3.278907663292923
 20
7.38446056664484
 10
3.28294286451748
 20
7.381272959036956
 10
3.286691555669483
 20
7.377548319820545
 10
3.290125528228274
 20
7.373314700087148
 10
3.293218993521783
 20
7.368604002110381
 10
3.295948721003586
 20
7.363451639582716
 10
3.298294107391438
 20
7.357896367733887
 10
3.300237591498461
 20
7.351979829254997
 10
3.301764515956078
 20
7.34574632884798
 10
3.30286347290667
 20
7.339243114245077
 10
3.303526165726514
 20
7.332518831926213
 10
3.303747616441376
 20
7.325624147901686
  0
LWPOLYLINE
  5
F6
330
1F
100
AcDbEntity
  8
0
  6
Continuous
 62
     7
370
    15
100
AcDbPolyline
 90
       36
 70
   128
 43
0.0
 10
3.26053555058303
 20
7.584875918318321
 10
3.255317596508282
 20
7.581223333121788
 10
3.250237020694676
 20
7.577085860792379
 10
3.245321755108742
 20
7.572486056979178
 10
3.240599040331705
 20
7.567449683383986
 10
3.236094872451227
 20
7.562004240745421
 10
3.231834210477008
 20
7.556179966430764
 10
3.227840561509596
 20
7.550009158084352
 10
3.224135911601854
 20
7.543525778295442
 10
3.220740864036029
 20
7.536765491644157
 10
3.217674086215494
 20
7.529765893326842
 10
3.214952517080352
 20
7.522565434297503
 10
3.212591159691832
 20
7.515203930912619
 10
3.210603081232301
 20
7.507722188121979
 10
3.208999343866719
 20
7.500161227327385
 10
3.207788659049996
 20
7.492563135790667
 10
3.206977871496703
 20
7.48496968905787
 10
3.206571336934295
 20
7.477422937870795
 10
3.206571336934295
 20
7.469964565686526
 10
3.206977871496703
 20
7.462635644703921
 10
3.207788659049996
 20
7.455476635863611
 10
3.208999343866719
 20
7.448527256012346
 10
3.210603081232301
 20
7.441825801551394
 10
3.212591159691832
 20
7.435409126738747
 10
3.214952517080352
 20
7.429312890837443
 10
3.217674086215494
 20
7.423570708707551
 10
3.220740864036029
 20
7.418214357733716
 10
3.224135911601854
 20
7.413273212611425
 10
3.227840561509596
 20
7.408774866129674
 10
3.231834210477008
 20
7.404743943174554
 10
3.236094872451227
 20
7.401202625722216
 10
3.240599040331705
 20
7.398170615792935
 10
3.245321755108742
 20
7.395664777164906
 10
3.250237020694676
 20
7.393698681298368
 10
3.255317596508282
 20
7.392283493789579
 10
3.26053555058303
 20
7.391426803722558
  0
ARC
  5
F7
330
1F
100
AcDbEntity
  8
0
  6
Continuous
 62
     7
370
    15
100
AcDbCircle
 10
3.196349849193409
 20
7.671028902085595
 30
0.0
 40
0.107434356119827
100
AcDbArc
 50
306.6868499152294
 51
1.495384495727076
  0
LINE
  5
F8
330
1F
100
AcDbEntity
  8
0
  6
Continuous
 62
     7
370
    15
100
AcDbLine
 10
3.303747616441376
 20
7.769653240490201
 30
0.0
 11
3.303747616441376
 21
7.673832554174058
 31
0.0
  0
LINE
  5
F9
330
1F
100
AcDbEntity
  8
0
  6
Continuous
 62
     7
370
    15
100
AcDbLine
 10
3.303747616441376
 20
7.769653240490201
 30
0.0
 11
3.469917720024837
 21
7.814172047730005
 31
0.0
  0
LINE
  5
FA
330
1F
100
AcDbEntity
  8
0
  6
Continuous
 62
     7
370
    15
100
AcDbLine
 10
3.469917720024837
 20
6.324848617451706
 30
0.0
 11
3.469917720024837
 21
7.814172047730005
 31
0.0
  0
LWPOLYLINE
  5
FB
330
1F
100
AcDbEntity
  8
0
  6
Continuous
 62
     7
370
    15
100
AcDbPolyline
 90
       60
 70
   128
 43
0.0
 10
3.355955711402157
 20
7.6697933178179
 10
3.356160638008106
 20
7.675088128152674
 10
3.356773205392959
 20
7.680432802514006
 10
3.357786499703614
 20
7.68576670637468
 10
3.359188974805392
 20
7.691029283000125
 10
3.360964728836156
 20
7.696161257967809
 10
3.363093642483379
 20
7.701104299404036
 10
3.365551655538267
 20
7.705802410907912
 10
3.368310836034285
 20
7.710202326883497
 10
3.371340002493943
 20
7.714254244460339
 10
3.374604793067324
 20
7.717912218825606
 10
3.378068218640331
 20
7.721134688217075
 10
3.381691008527342
 20
7.723885320156328
 10
3.385432163579463
 20
7.726132971227995
 10
3.389249301877177
 20
7.727852156503796
 10
3.393099142700065
 20
7.729023179203373
 10
3.396938059635051
 20
7.729633032496438
 10
3.400722564546123
 20
7.729674775545276
 10
3.404409722405516
 20
7.729147644642606
 10
3.407957911817554
 20
7.728058010582647
 10
3.411326755880123
 20
7.726418041306082
 10
3.414478228401159
 20
7.724246186672245
 10
3.417376515621594
 20
7.72156732981776
 10
3.419988776739191
 20
7.718411483672636
 10
3.422285558739735
 20
7.714814844121018
 10
3.42424065811997
 20
7.710817680504849
 10
3.425832019688499
 20
7.706465706850045
 10
3.427041598288725
 20
7.70180797237015
 10
3.427855635352976
 20
7.696897312367403
 10
3.428265004595156
 20
7.691789498824705
 10
3.428265004595156
 20
7.68654224281379
 10
3.427855635352976
 20
7.681214891777962
 10
3.427041598288725
 20
7.675868052722932
 10
3.425832019688499
 20
7.670562199292833
 10
3.42424065811997
 20
7.665357538934581
 10
3.422285558739735
 20
7.660312978260068
 10
3.419988776739191
 20
7.655485483740521
 10
3.417376515621594
 20
7.650930118752448
 10
3.414478228401159
 20
7.646698107137708
 10
3.411326755880123
 20
7.642837812272373
 10
3.407957911817554
 20
7.639392553478471
 10
3.404409722405516
 20
7.636401721103314
 10
3.400722564546123
 20
7.63389911792421
 10
3.396938059635051
 20
7.631912851185427
 10
3.393099142700065
 20
7.630465727930332
 10
3.389249301877177
 20
7.629574109225735
 10
3.385432163579463
 20
7.629247799024033
 10
3.381691008527342
 20
7.629490856525281
 10
3.378068218640331
 20
7.630300317565893
 10
3.374604793067324
 20
7.631667195385293
 10
3.371340002493943
 20
7.633575822797285
 10
3.368310836034285
 20
7.636004457624573
 10
3.365551655538267
 20
7.638925943702204
 10
3.363093642483379
 20
7.642306997480006
 10
3.360964728836156
 20
7.646109319927111
 10
3.359188974805392
 20
7.65028980663432
 10
3.357786499703614
 20
7.654801094504879
 10
3.356773205392959
 20
7.659592052876316
 10
3.356160638008106
 20
7.664608311688236
 10
3.355955711402157
 20
7.6697933178179
  0
LWPOLYLINE
  5
FC
330
1F
100
AcDbEntity
  8
0
  6
Continuous
 62
     7
370
    15
100
AcDbPolyline
 90
       16
 70
   128
 43
0.0
 10
3.672753784210969
 20
7.592312948980326
 10
3.677613808110616
 20
7.593156257839543
 10
3.682319099977836
 20
7.594606234866068
 10
3.686834399161808
 20
7.596652355892271
 10
3.691125827782332
 20
7.599279204581022
 10
3.695161029006888
 20
7.602466812188906
 10
3.698909720158891
 20
7.606191451405318
 10
3.702343692717682
 20
7.610425071138713
 10
3.705437227149722
 20
7.615135750592506
 10
3.708166816354463
 20
7.620288150166122
 10
3.710512271880847
 20
7.625843403491975
 10
3.71245575598787
 20
7.631759941970866
 10
3.713982749584017
 20
7.637993423854906
 10
3.715081637396078
 20
7.644496656980786
 10
3.715744399354452
 20
7.651220920776673
 10
3.715965780930785
 20
7.658115623324176
  0
LWPOLYLINE
  5
FD
330
1F
100
AcDbEntity
  8
0
  6
Continuous
 62
     7
370
    15
100
AcDbPolyline
 90
       36
 70
   128
 43
0.0
 10
3.672753784210969
 20
7.398863834384566
 10
3.667535760997691
 20
7.402516438104076
 10
3.662455185184084
 20
7.406653910433485
 10
3.657539988736682
 20
7.411253695723708
 10
3.652817135682583
 20
7.416290106364853
 10
3.648313036940636
 20
7.42173553048044
 10
3.644052444104948
 20
7.427559786272123
 10
3.640058725999004
 20
7.43373061314151
 10
3.636354145229793
 20
7.440213974407444
 10
3.632959028525436
 20
7.446974279581706
 10
3.629892181566372
 20
7.453973896421997
 10
3.627170612431229
 20
7.461174355451336
 10
3.624809393319772
 20
7.468535821790268
 10
3.622821245721709
 20
7.476017771508464
 10
3.621217508356127
 20
7.483578543898478
 10
3.620006892677936
 20
7.491176616912221
 10
3.619196035986111
 20
7.498770082167993
 10
3.618789501423703
 20
7.506316833355068
 10
3.618789501423703
 20
7.513775205539336
 10
3.619196035986111
 20
7.521104126521942
 10
3.620006892677936
 20
7.528263116839275
 10
3.621217508356127
 20
7.535212515213517
 10
3.622821245721709
 20
7.541914158079051
 10
3.624809393319772
 20
7.54833062596414
 10
3.627170612431229
 20
7.554426898911397
 10
3.629892181566372
 20
7.56016908104129
 10
3.632959028525436
 20
7.565525413492147
 10
3.636354145229793
 20
7.570466540091461
 10
3.640058725999004
 20
7.574964905096188
 10
3.644052444104948
 20
7.578995809528333
 10
3.648313036940636
 20
7.582537145503647
 10
3.652817135682583
 20
7.585569173955905
 10
3.657539988736682
 20
7.58807497553798
 10
3.662455185184084
 20
7.590041089927495
 10
3.667535760997691
 20
7.591456277436284
 10
3.672753784210969
 20
7.592312948980326
  0
ARC
  5
FE
330
1F
100
AcDbEntity
  8
0
  6
Continuous
 62
     7
370
    15
100
AcDbCircle
 10
3.608567701669082
 20
7.312710749521976
 30
0.0
 40
0.107434664905767
100
AcDbArc
 50
358.5046836183847
 51
53.31301928968624
  0
LINE
  5
FF
330
1F
100
AcDbEntity
  8
0
  6
Continuous
 62
     7
370
    15
100
AcDbLine
 10
3.715965780930785
 20
7.096106827922168
 30
0.0
 11
3.715965780930785
 21
7.309907217051805
 31
0.0
  0
LINE
  5
100
330
1F
100
AcDbEntity
  8
0
  6
Continuous
 62
     7
370
    15
100
AcDbLine
 10
3.715953335995201
 20
7.094456535042483
 30
0.0
 11
3.715965780930785
 21
7.096106827922168
 31
0.0
  0
LWPOLYLINE
  5
101
330
1F
100
AcDbEntity
  8
0
  6
Continuous
 62
     7
370
    15
100
AcDbPolyline
 90
       32
 70
   128
 43
0.0
 10
3.66221264721726
 20
6.844857802825509
 10
3.657539988736682
 20
6.8492449003217
 10
3.652817135682583
 20
6.854281310962845
 10
3.648313036940636
 20
6.859726735078434
 10
3.644052444104948
 20
6.865550990870115
 10
3.640058725999004
 20
6.871721817739503
 10
3.636354145229793
 20
6.878205179005437
 10
3.632959028525436
 20
6.884965484179699
 10
3.629892181566372
 20
6.89196510101999
 10
3.627170612431229
 20
6.899165560049328
 10
3.624809393319772
 20
6.90652702638826
 10
3.622821245721709
 20
6.914008976106457
 10
3.621217508356127
 20
6.921569748496469
 10
3.620006892677936
 20
6.929167821510212
 10
3.619196035986111
 20
6.936761286765984
 10
3.618789501423703
 20
6.94430803795306
 10
3.618789501423703
 20
6.951766410137329
 10
3.619196035986111
 20
6.959095331119933
 10
3.620006892677936
 20
6.966254321437268
 10
3.621217508356127
 20
6.97320371981151
 10
3.622821245721709
 20
6.979905362677044
 10
3.624809393319772
 20
6.986321830562133
 10
3.627170612431229
 20
6.99241810350939
 10
3.629892181566372
 20
6.998160285639282
 10
3.632959028525436
 20
7.003516618090139
 10
3.636354145229793
 20
7.008457744689454
 10
3.640058725999004
 20
7.012956109694181
 10
3.644052444104948
 20
7.016987014126326
 10
3.648313036940636
 20
7.020528350101638
 10
3.652817135682583
 20
7.023560378553896
 10
3.657539988736682
 20
7.026066180135972
 10
3.66221264721726
 20
7.027949563935075
  0
LINE
  5
102
330
1F
100
AcDbEntity
  8
0
  6
Continuous
 62
     7
370
    15
100
AcDbLine
 10
3.491130873251479
 20
6.354107208130043
 30
0.0
 11
3.66221264721726
 21
6.541374006635609
 31
0.0
  0
LINE
  5
103
330
1F
100
AcDbEntity
  8
0
  6
Continuous
 62
     7
370
    15
100
AcDbLine
 10
3.715965780930785
 20
7.753936309640319
 30
0.0
 11
3.491130873251479
 21
7.814172066252981
 31
0.0
  0
LINE
  5
104
330
1F
100
AcDbEntity
  8
0
  6
Continuous
 62
     7
370
    15
100
AcDbLine
 10
3.715965780930785
 20
7.658115623324176
 30
0.0
 11
3.715965780930785
 21
7.753936309640319
 31
0.0
  0
LINE
  5
105
330
1F
100
AcDbEntity
  8
0
  6
Continuous
 62
     7
370
    15
100
AcDbLine
 10
3.568651898051433
 20
7.43033017598076
 30
0.0
 11
3.551609111877495
 21
7.47511598328024
 31
0.0
  0
LINE
  5
106
330
1F
100
AcDbEntity
  8
0
  6
Continuous
 62
     7
370
    15
100
AcDbLine
 10
3.592222191216202
 20
7.479639814306185
 30
0.0
 11
3.568651898051433
 21
7.43033017598076
 31
0.0
  0
LINE
  5
107
330
1F
100
AcDbEntity
  8
0
  6
Continuous
 62
     7
370
    15
100
AcDbLine
 10
3.592222191216202
 20
7.479639814306185
 30
0.0
 11
3.592222191216202
 21
7.654651091302
 31
0.0
  0
LINE
  5
108
330
1F
100
AcDbEntity
  8
0
  6
Continuous
 62
     7
370
    15
100
AcDbLine
 10
3.592222191216202
 20
7.69315269804382
 30
0.0
 11
3.592222191216202
 21
7.676032562089787
 31
0.0
  0
LINE
  5
109
330
1F
100
AcDbEntity
  8
0
  6
Continuous
 62
     7
370
    15
100
AcDbLine
 10
3.592222191216202
 20
7.655671678922234
 30
0.0
 11
3.592222191216202
 21
7.654651091302
 31
0.0
  0
LINE
  5
10A
330
1F
100
AcDbEntity
  8
0
  6
Continuous
 62
     7
370
    15
100
AcDbLine
 10
3.545081743163726
 20
7.705782145067014
 30
0.0
 11
3.592222191216202
 21
7.69315269804382
 31
0.0
  0
LINE
  5
10B
330
1F
100
AcDbEntity
  8
0
  6
Continuous
 62
     7
370
    15
100
AcDbLine
 10
3.545081743163726
 20
7.519317565132006
 30
0.0
 11
3.545081743163726
 21
7.550151482199048
 31
0.0
  0
LINE
  5
10C
330
1F
100
AcDbEntity
  8
0
  6
Continuous
 62
     7
370
    15
100
AcDbLine
 10
3.50338740633837
 20
7.817455726924526
 30
0.0
 11
3.491130873251479
 21
7.814172066252981
 31
0.0
  0
LINE
  5
10D
330
1F
100
AcDbEntity
  8
0
  6
Continuous
 62
     7
370
    15
100
AcDbLine
 10
3.728222314017676
 20
7.757219970311865
 30
0.0
 11
3.50338740633837
 21
7.817455726924526
 31
0.0
  0
LINE
  5
10E
330
1F
100
AcDbEntity
  8
0
  6
Continuous
 62
     7
370
    15
100
AcDbLine
 10
3.728222314017676
 20
7.757219970311865
 30
0.0
 11
3.715965780930785
 21
7.753936309640319
 31
0.0
  0
LINE
  5
10F
330
1F
100
AcDbEntity
  8
0
  6
Continuous
 62
     7
370
    15
100
AcDbLine
 10
3.728222314017676
 20
7.661399283995721
 30
0.0
 11
3.715965780930785
 21
7.658115623324176
 31
0.0
  0
LINE
  5
110
330
1F
100
AcDbEntity
  8
0
  6
Continuous
 62
     7
370
    15
100
AcDbLine
 10
3.728222314017676
 20
7.661399283995721
 30
0.0
 11
3.728222314017676
 21
7.757219970311865
 31
0.0
  0
LINE
  5
111
330
1F
100
AcDbEntity
  8
0
  6
Continuous
 62
     7
370
    15
100
AcDbLine
 10
3.248278948357607
 20
7.588159597512841
 30
0.0
 11
3.26053555058303
 21
7.584875918318321
 31
0.0
  0
LWPOLYLINE
  5
112
330
1F
100
AcDbEntity
  8
0
  6
Continuous
 62
     7
370
    15
100
AcDbPolyline
 90
       35
 70
   128
 43
0.0
 10
3.248278948357607
 20
7.588159597512841
 10
3.24306099428286
 20
7.584507012316309
 10
3.237980418469254
 20
7.580369539986899
 10
3.23306515288332
 20
7.575769736173699
 10
3.228342438106283
 20
7.570733362578509
 10
3.223838270225805
 20
7.565287919939943
 10
3.219577608251586
 20
7.559463645625285
 10
3.215583959284173
 20
7.553292837278874
 10
3.211879309376432
 20
7.546809457489964
 10
3.208484261810606
 20
7.540049170838678
 10
3.205417483990072
 20
7.533049572521363
 10
3.20269591485493
 20
7.525849113492025
 10
3.200334557466411
 20
7.51848761010714
 10
3.198346479006879
 20
7.511005867316502
 10
3.196742741641297
 20
7.503444906521907
 10
3.195532056824573
 20
7.495846814985188
 10
3.194721269271281
 20
7.488253368252391
 10
3.194314734708873
 20
7.480706617065317
 10
3.194314734708873
 20
7.473248244881048
 10
3.194721269271281
 20
7.465919323898443
 10
3.195532056824573
 20
7.458760315058132
 10
3.196742741641297
 20
7.451810935206867
 10
3.198346479006879
 20
7.445109480745915
 10
3.200334557466411
 20
7.438692805933268
 10
3.20269591485493
 20
7.432596570031964
 10
3.205417483990072
 20
7.426854387902072
 10
3.208484261810606
 20
7.421498036928237
 10
3.211879309376432
 20
7.416556891805947
 10
3.215583959284173
 20
7.412058545324197
 10
3.219577608251586
 20
7.408027622369075
 10
3.223838270225805
 20
7.404486304916738
 10
3.228342438106283
 20
7.401454294987457
 10
3.23306515288332
 20
7.398948456359428
 10
3.237980418469254
 20
7.39698236049289
 10
3.2409640917755
 20
7.396079107340026
  0
LWPOLYLINE
  5
113
330
1F
100
AcDbEntity
  8
0
  6
Continuous
 62
     7
370
    15
100
AcDbPolyline
 90
        3
 70
   128
 43
0.0
 10
3.299148383080744
 20
7.437306049592137
 10
3.299360776648042
 20
7.437460734154175
 10
3.299840114083617
 20
7.4378156162582
  0
LINE
  5
114
330
1F
100
AcDbEntity
  8
0
  6
Continuous
 62
     7
370
    15
100
AcDbLine
 10
3.324983447106193
 20
7.531778215963218
 30
0.0
 11
3.324686773669579
 21
7.532456685503798
 31
0.0
  0
ARC
  5
115
330
1F
100
AcDbEntity
  8
0
  6
Continuous
 62
     7
370
    15
100
AcDbCircle
 10
3.666636424201917
 20
7.653817827741718
 30
0.0
 40
0.0620507880959645
100
AcDbArc
 50
292.9805449542437
 51
7.018017954170839
  0
LINE
  5
116
330
1F
100
AcDbEntity
  8
0
  6
Continuous
 62
     7
370
    15
100
AcDbLine
 10
3.291491014215954
 20
7.677116233368579
 30
0.0
 11
3.303747616441376
 21
7.673832554174058
 31
0.0
  0
ARC
  5
117
330
1F
100
AcDbEntity
  8
0
  6
Continuous
 62
     7
370
    15
100
AcDbCircle
 10
3.184093246967986
 20
7.674312581280116
 30
0.0
 40
0.1074343561198277
100
AcDbArc
 50
306.6868499152292
 51
1.49538449572659
  0
LINE
  5
118
330
1F
100
AcDbEntity
  8
0
  6
Continuous
 62
     7
370
    15
100
AcDbLine
 10
3.303747616441376
 20
7.769653240490201
 30
0.0
 11
3.291491014215954
 21
7.772936919684723
 31
0.0
  0
LINE
  5
119
330
1F
100
AcDbEntity
  8
0
  6
Continuous
 62
     7
370
    15
100
AcDbLine
 10
3.291491014215954
 20
7.772936919684723
 30
0.0
 11
3.291491014215954
 21
7.677116233368579
 31
0.0
  0
LINE
  5
11A
330
1F
100
AcDbEntity
  8
0
  6
Continuous
 62
     7
370
    15
100
AcDbLine
 10
3.469917720024837
 20
7.814172047730005
 30
0.0
 11
3.457661117799415
 21
7.817455726924526
 31
0.0
  0
LINE
  5
11B
330
1F
100
AcDbEntity
  8
0
  6
Continuous
 62
     7
370
    15
100
AcDbLine
 10
3.291491014215954
 20
7.772936919684723
 30
0.0
 11
3.457661117799415
 21
7.817455726924526
 31
0.0
  0
LINE
  5
11C
330
1F
100
AcDbEntity
  8
0
  6
Continuous
 62
     7
370
    15
100
AcDbLine
 10
3.592222191216202
 20
7.654651091302
 30
0.0
 11
3.545961116139792
 21
7.552239036015481
 31
0.0
  0
ARC
  5
11D
330
1F
100
AcDbEntity
  8
0
  6
Continuous
 62
     7
370
    15
100
AcDbCircle
 10
3.576059593160594
 20
7.535386979031343
 30
0.0
 40
0.0344950741928231
100
AcDbArc
 50
150.7556519635311
 51
220.5738946549855
  0
LINE
  5
11E
330
1F
100
AcDbEntity
  8
0
  6
Continuous
 62
     7
370
    15
100
AcDbLine
 10
3.549858247717899
 20
7.512950409762383
 30
0.0
 11
3.553833989805777
 21
7.509470106063815
 31
0.0
  0
LINE
  5
11F
330
1F
100
AcDbEntity
  8
0
  6
Continuous
 62
     7
370
    15
100
AcDbLine
 10
3.545955654195842
 20
7.494566741771572
 30
0.0
 11
3.553833989805777
 21
7.509470106063815
 31
0.0
  0
LINE
  5
120
330
1F
100
AcDbEntity
  8
0
  6
Continuous
 62
     7
370
    15
100
AcDbLine
 10
3.541979912107964
 20
7.498047045470139
 30
0.0
 11
3.545955654195842
 21
7.494566741771572
 31
0.0
  0
ARC
  5
121
330
1F
100
AcDbEntity
  8
0
  6
Continuous
 62
     7
370
    15
100
AcDbCircle
 10
3.58341677374865
 20
7.532998178655301
 30
0.0
 40
0.0542088112169633
100
AcDbArc
 50
151.1825979778206
 51
220.146936893441
  0
LINE
  5
122
330
1F
100
AcDbEntity
  8
0
  6
Continuous
 62
     7
370
    15
100
AcDbLine
 10
3.588270716752712
 20
7.675018570295764
 30
0.0
 11
3.535921164357461
 21
7.559127899321928
 31
0.0
  0
ARC
  5
123
330
1F
100
AcDbEntity
  8
0
  6
Continuous
 62
     7
370
    15
100
AcDbCircle
 10
3.547690769591044
 20
7.693358630505383
 30
0.0
 40
0.0445318977827839
100
AcDbArc
 50
335.6794654390735
 51
359.7350415420456
  0
LINE
  5
124
330
1F
100
AcDbEntity
  8
0
  6
Continuous
 62
     7
370
    15
100
AcDbLine
 10
3.68501031729786
 20
7.402147495056111
 30
0.0
 11
3.672753784210969
 21
7.398863834384566
 31
0.0
  0
LWPOLYLINE
  5
125
330
1F
100
AcDbEntity
  8
0
  6
Continuous
 62
     7
370
    15
100
AcDbPolyline
 90
       34
 70
   128
 43
0.0
 10
3.68501031729786
 20
7.402147495056111
 10
3.679792294084582
 20
7.405800098775621
 10
3.674711718270975
 20
7.409937571105031
 10
3.669796521823573
 20
7.414537356395253
 10
3.665073668769473
 20
7.419573767036398
 10
3.660569570027527
 20
7.425019191151986
 10
3.656308977191839
 20
7.430843446943668
 10
3.652315259085895
 20
7.437014273813056
 10
3.648610678316685
 20
7.44349763507899
 10
3.645215561612328
 20
7.450257940253251
 10
3.642148714653263
 20
7.457257557093543
 10
3.63942714551812
 20
7.464458016122881
 10
3.637065926406663
 20
7.471819482461813
 10
3.635077778808601
 20
7.47930143218001
 10
3.633474041443018
 20
7.486862204570023
 10
3.632263425764826
 20
7.494460277583765
 10
3.631452569073003
 20
7.502053742839538
 10
3.631046034510594
 20
7.509600494026613
 10
3.631046034510594
 20
7.517058866210882
 10
3.631452569073003
 20
7.524387787193487
 10
3.632263425764826
 20
7.53154677751082
 10
3.633474041443018
 20
7.538496175885062
 10
3.635077778808601
 20
7.545197818750597
 10
3.637065926406663
 20
7.551614286635685
 10
3.63942714551812
 20
7.557710559582942
 10
3.642148714653263
 20
7.563452741712834
 10
3.645215561612328
 20
7.568809074163691
 10
3.648610678316685
 20
7.573750200763006
 10
3.652315259085895
 20
7.578248565767733
 10
3.656308977191839
 20
7.582279470199877
 10
3.660569570027527
 20
7.585820806175192
 10
3.665073668769473
 20
7.588852834627449
 10
3.669796521823573
 20
7.591358636209525
 10
3.671675015711436
 20
7.59218324242944
  0
LINE
  5
126
330
1F
100
AcDbEntity
  8
0
  6
Continuous
 62
     7
370
    15
100
AcDbLine
 10
3.535921164357461
 20
7.559127899321928
 30
0.0
 11
3.488780716304986
 21
7.571757346345123
 31
0.0
  0
LINE
  5
127
330
1F
100
AcDbEntity
  8
0
  6
Continuous
 62
     7
370
    15
100
AcDbLine
 10
3.541130268700237
 20
7.687648017318958
 30
0.0
 11
3.488780716304986
 21
7.571757346345123
 31
0.0
  0
LINE
  5
128
330
1F
100
AcDbEntity
  8
0
  6
Continuous
 62
     7
370
    15
100
AcDbLine
 10
3.588270716752712
 20
7.675018570295764
 30
0.0
 11
3.541130268700237
 21
7.687648017318958
 31
0.0
  0
LINE
  5
129
330
1F
100
AcDbEntity
  8
0
  6
Continuous
 62
     7
370
    15
100
AcDbLine
 10
3.728222314017676
 20
7.31319087772335
 30
0.0
 11
3.715965780930785
 21
7.309907217051805
 31
0.0
  0
ARC
  5
12A
330
1F
100
AcDbEntity
  8
0
  6
Continuous
 62
     7
370
    15
100
AcDbCircle
 10
3.620824234755974
 20
7.315994410193522
 30
0.0
 40
0.107434664905766
100
AcDbArc
 50
358.5046836183843
 51
53.31301928968615
  0
LINE
  5
12B
330
1F
100
AcDbEntity
  8
0
  6
Continuous
 62
     7
370
    15
100
AcDbLine
 10
3.291491014215954
 20
7.328907827096209
 30
0.0
 11
3.303747616441376
 21
7.325624147901686
 31
0.0
  0
ARC
  5
12C
330
1F
100
AcDbEntity
  8
0
  6
Continuous
 62
     7
370
    15
100
AcDbCircle
 10
3.226152006118816
 20
7.335290930402284
 30
0.0
 40
0.0656500570215596
100
AcDbArc
 50
354.4203616463642
 51
58.84919146520274
  0
LINE
  5
12D
330
1F
100
AcDbEntity
  8
0
  6
Continuous
 62
     7
370
    15
100
AcDbLine
 10
3.541979912107964
 20
7.498047045470139
 30
0.0
 11
3.494839464055489
 21
7.510676492493335
 31
0.0
  0
ARC
  5
12E
330
1F
100
AcDbEntity
  8
0
  6
Continuous
 62
     7
370
    15
100
AcDbCircle
 10
3.536276325696173
 20
7.545627625678497
 30
0.0
 40
0.0542088112169614
100
AcDbArc
 50
151.1825979778209
 51
220.1469368934433
  0
LINE
  5
12F
330
1F
100
AcDbEntity
  8
0
  6
Continuous
 62
     7
370
    15
100
AcDbLine
 10
3.728222314017676
 20
7.099390488593713
 30
0.0
 11
3.715965780930785
 21
7.096106827922168
 31
0.0
  0
LINE
  5
130
330
1F
100
AcDbEntity
  8
0
  6
Continuous
 62
     7
370
    15
100
AcDbLine
 10
3.728222314017676
 20
7.099390488593713
 30
0.0
 11
3.728222314017676
 21
7.31319087772335
 31
0.0
  0
LWPOLYLINE
  5
131
330
1F
100
AcDbEntity
  8
0
  6
Continuous
 62
     7
370
    15
100
AcDbPolyline
 90
       29
 70
   128
 43
0.0
 10
3.399027633458123
 20
7.72972650254974
 10
3.399070153654701
 20
7.729701720500604
 10
3.402221626175737
 20
7.727529865866766
 10
3.405119913396172
 20
7.724851009012282
 10
3.407732174513768
 20
7.721695162867158
 10
3.410028956514313
 20
7.71809852331554
 10
3.411984055894548
 20
7.71410135969937
 10
3.413575417463076
 20
7.709749386044567
 10
3.414784996063303
 20
7.705091651564671
 10
3.415599033127554
 20
7.700180991561925
 10
3.416008402369734
 20
7.695073178019227
 10
3.416008402369734
 20
7.689825922008313
 10
3.415599033127554
 20
7.684498570972484
 10
3.414784996063303
 20
7.679151731917452
 10
3.413575417463076
 20
7.673845878487355
 10
3.411984055894548
 20
7.668641218129102
 10
3.410028956514313
 20
7.663596657454591
 10
3.407732174513768
 20
7.658769162935043
 10
3.405119913396172
 20
7.654213797946969
 10
3.402221626175737
 20
7.649981786332229
 10
3.399070153654701
 20
7.646121491466895
 10
3.395701309592133
 20
7.642676232672993
 10
3.392153120180093
 20
7.639685400297836
 10
3.3884659623207
 20
7.637182797118732
 10
3.384681457409628
 20
7.63519653037995
 10
3.380842540474643
 20
7.633749407124853
 10
3.376992699651755
 20
7.632857788420256
 10
3.373175561354041
 20
7.632531478218554
 10
3.372987642826724
 20
7.632530117959533
  0
LINE
  5
132
330
1F
100
AcDbEntity
  8
0
  6
Continuous
 62
     7
370
    15
100
AcDbLine
 10
3.023412651785217
 20
6.182131046395764
 30
0.0
 11
3.035669254010639
 21
6.178847367201242
 31
0.0
  0
LINE
  5
133
330
1F
100
AcDbEntity
  8
0
  6
Continuous
 62
     7
370
    15
100
AcDbLine
 10
3.274232170132574
 20
6.591073742879202
 30
0.0
 11
3.286488772357996
 21
6.58779006368468
 31
0.0
  0
LINE
  5
134
330
1F
100
AcDbEntity
  8
0
  6
Continuous
 62
     7
370
    15
100
AcDbLine
 10
3.274232170132574
 20
6.591073742879202
 30
0.0
 11
3.023412651785217
 21
6.182131046395764
 31
0.0
  0
ARC
  5
135
330
1F
100
AcDbEntity
  8
0
  6
Continuous
 62
     7
370
    15
100
AcDbCircle
 10
3.500550321538553
 20
7.70598807752858
 30
0.0
 40
0.0445318977827995
100
AcDbArc
 50
335.6794654390802
 51
359.7350415420423
  0
LINE
  5
136
330
1F
100
AcDbEntity
  8
0
  6
Continuous
 62
     7
370
    15
100
AcDbLine
 10
3.552312734707704
 20
7.474683767059617
 30
0.0
 11
3.49746894066731
 21
7.508374586424648
 31
0.0
  0
LINE
  5
137
330
1F
100
AcDbEntity
  8
0
  6
Continuous
 62
     7
370
    15
100
AcDbLine
 10
3.545955654195842
 20
7.494566741771572
 30
0.0
 11
3.552312734707704
 21
7.474683767059617
 31
0.0
  0
LINE
  5
138
330
1F
100
AcDbEntity
  8
0
  6
Continuous
 62
     7
370
    15
100
AcDbLine
 10
3.494839464055489
 20
7.510676492493335
 30
0.0
 11
3.49746894066731
 21
7.508374586424648
 31
0.0
  0
LINE
  5
139
330
1F
100
AcDbEntity
  8
0
  6
Continuous
 62
     7
370
    15
100
AcDbLine
 10
3.553833989805777
 20
7.509470106063815
 30
0.0
 11
3.560191070317639
 21
7.48958713135186
 31
0.0
  0
LINE
  5
13A
330
1F
100
AcDbEntity
  8
0
  6
Continuous
 62
     7
370
    15
100
AcDbLine
 10
3.552312734707704
 20
7.474683767059617
 30
0.0
 11
3.560191070317639
 21
7.48958713135186
 31
0.0
  0
LINE
  5
13B
330
1F
100
AcDbEntity
  8
0
  6
Continuous
 62
     7
370
    15
100
AcDbLine
 10
3.248278948357607
 20
7.026150802110834
 30
0.0
 11
3.26053555058303
 21
7.022867122916313
 31
0.0
  0
LWPOLYLINE
  5
13C
330
1F
100
AcDbEntity
  8
0
  6
Continuous
 62
     7
370
    15
100
AcDbPolyline
 90
       35
 70
   128
 43
0.0
 10
3.248278948357607
 20
7.026150802110834
 10
3.24306099428286
 20
7.022498216914302
 10
3.237980418469254
 20
7.018360744584892
 10
3.23306515288332
 20
7.013760940771693
 10
3.228342438106283
 20
7.008724567176502
 10
3.223838270225805
 20
7.003279124537935
 10
3.219577608251586
 20
6.997454850223278
 10
3.215583959284173
 20
6.991284041876866
 10
3.211879309376432
 20
6.984800662087956
 10
3.208484261810606
 20
6.978040375436671
 10
3.205417483990072
 20
6.971040777119357
 10
3.20269591485493
 20
6.963840318090017
 10
3.200334557466411
 20
6.956478814705133
 10
3.198346479006879
 20
6.948997071914495
 10
3.196742741641297
 20
6.941436111119899
 10
3.195532056824573
 20
6.933838019583181
 10
3.194721269271281
 20
6.926244572850384
 10
3.194314734708873
 20
6.918697821663309
 10
3.194314734708873
 20
6.911239449479039
 10
3.194721269271281
 20
6.903910528496435
 10
3.195532056824573
 20
6.896751519656125
 10
3.196742741641297
 20
6.88980213980486
 10
3.198346479006879
 20
6.883100685343908
 10
3.200334557466411
 20
6.876684010531261
 10
3.20269591485493
 20
6.870587774629957
 10
3.205417483990072
 20
6.864845592500065
 10
3.208484261810606
 20
6.85948924152623
 10
3.211879309376432
 20
6.854548096403939
 10
3.215583959284173
 20
6.850049749922189
 10
3.219577608251586
 20
6.846018826967068
 10
3.223838270225805
 20
6.84247750951473
 10
3.228342438106283
 20
6.839445499585449
 10
3.23306515288332
 20
6.836939660957421
 10
3.237980418469254
 20
6.834973565090882
 10
3.2409640917755
 20
6.834070311938019
  0
LINE
  5
13D
330
1F
100
AcDbEntity
  8
0
  6
Continuous
 62
     7
370
    15
100
AcDbLine
 10
3.324983447106193
 20
6.969769420561211
 30
0.0
 11
3.324686773669579
 21
6.97044789010179
 31
0.0
  0
LINE
  5
13E
330
1F
100
AcDbEntity
  8
0
  6
Continuous
 62
     7
370
    15
100
AcDbLine
 10
3.291491014215954
 20
7.115107437966572
 30
0.0
 11
3.303747616441376
 21
7.111823758772049
 31
0.0
  0
LINE
  5
13F
330
1F
100
AcDbEntity
  8
0
  6
Continuous
 62
     7
370
    15
100
AcDbLine
 10
3.291491014215954
 20
7.328907827096209
 30
0.0
 11
3.291491014215954
 21
7.115107437966572
 31
0.0
  0
LINE
  5
140
330
1F
100
AcDbEntity
  8
0
  6
Continuous
 62
     7
370
    15
100
AcDbLine
 10
3.728209869082092
 20
7.097740195714028
 30
0.0
 11
3.728222314017676
 21
7.099390488593713
 31
0.0
  0
LINE
  5
141
330
1F
100
AcDbEntity
  8
0
  6
Continuous
 62
     7
370
    15
100
AcDbLine
 10
3.557338276250618
 20
7.498510120318663
 30
0.0
 11
3.557338276250618
 21
7.577425640308738
 31
0.0
  0
ARC
  5
142
330
1F
100
AcDbEntity
  8
0
  6
Continuous
 62
     7
370
    15
100
AcDbCircle
 10
3.184093246967986
 20
7.112303785878109
 30
0.0
 40
0.1074343561198272
100
AcDbArc
 50
306.6868499152293
 51
1.49538449572707
  0
SPLINE
  5
143
330
1F
100
AcDbEntity
  8
0
  6
Continuous
 62
     7
370
    15
100
AcDbSpline
210
0.0
220
0.0
230
1.0
 70
     8
 71
     3
 72
    15
 73
    11
 74
     0
 42
0.0000000001
 43
0.0000000001
 40
0.0
 40
0.0
 40
0.0
 40
0.0
 40
0.1249983737668223
 40
0.2499999975708886
 40
0.3749983602459966
 40
0.4999993736314507
 40
0.6249981932688275
 40
0.7499979306093117
 40
0.875000075035515
 40
0.9999999999999998
 40
0.9999999999999998
 40
0.9999999999999998
 40
0.9999999999999998
 10
3.491130873251479
 20
6.354107208130043
 30
0.0
 10
3.490397227551206
 20
6.353063489676677
 30
0.0
 10
3.488929917075402
 20
6.350976025632599
 30
0.0
 10
3.486296584138671
 20
6.347686412942816
 30
0.0
 10
3.48347080137541
 20
6.344260819643373
 30
0.0
 10
3.480524241392068
 20
6.340680780824769
 30
0.0
 10
3.477577898088762
 20
6.336946242576899
 30
0.0
 10
3.474751958369074
 20
6.333057058448946
 30
0.0
 10
3.472118782475031
 20
6.329032160515256
 30
0.0
 10
3.470651403165882
 20
6.326243123552744
 30
0.0
 10
3.469917720024837
 20
6.324848617451706
 30
0.0
  0
ARC
  5
144
330
1F
100
AcDbEntity
  8
0
  6
Continuous
 62
     7
370
    15
100
AcDbCircle
 10
3.480524336701624
 20
7.768289989041008
 30
0.0
 40
0.0470920760518042
100
AcDbArc
 50
76.98361130544403
 51
103.016488754017
  0
ARC
  5
145
330
1F
100
AcDbEntity
  8
0
  6
Continuous
 62
     7
370
    15
100
AcDbCircle
 10
3.480524262068893
 20
7.719219323333905
 30
0.0
 40
0.1008618577873043
100
AcDbArc
 50
76.89844138400106
 51
103.1015586159989
  0
LINE
  5
146
330
1F
100
AcDbEntity
  8
0
  6
Continuous
 62
     7
370
    15
100
AcDbLine
 10
3.028721315612664
 20
6.171465352332405
 30
0.0
 11
3.040977917838087
 21
6.168181673137884
 31
0.0
  0
ARC
  5
147
330
1F
100
AcDbEntity
  8
0
  6
Continuous
 62
     7
370
    15
100
AcDbCircle
 10
3.005436877110316
 20
6.166529922405001
 30
0.0
 40
0.0238017550810432
100
AcDbArc
 50
11.96743519768669
 51
40.95462041278163
  0
LINE
  5
148
330
1F
100
AcDbEntity
  8
0
  6
Continuous
 62
     7
370
    15
100
AcDbLine
 10
3.409276452742671
 20
6.266852921025048
 30
0.0
 11
3.406161554504546
 21
6.260190107130128
 31
0.0
  0
SPLINE
  5
149
330
1F
100
AcDbEntity
  8
0
  6
Continuous
 62
     7
370
    15
100
AcDbSpline
210
0.0
220
0.0
230
1.0
 70
     8
 71
     3
 72
    15
 73
    11
 74
     0
 42
0.0000000001
 43
0.0000000001
 40
0.0
 40
0.0
 40
0.0
 40
0.0
 40
0.1645348552784538
 40
0.3256475003687508
 40
0.4843943497822972
 40
0.6418789225739743
 40
0.7468052828551191
 40
0.8520141407526097
 40
0.9441227898301459
 40
1.0
 40
1.0
 40
1.0
 40
1.0
 10
3.406161554504545
 20
6.260190107130128
 30
0.0
 10
3.405273179129558
 20
6.258562936245623
 30
0.0
 10
3.403514905967529
 20
6.255342438495679
 30
0.0
 10
3.400548871606031
 20
6.250902751260788
 30
0.0
 10
3.397394106618929
 20
6.246983215062898
 30
0.0
 10
3.394421961601506
 20
6.244077198885584
 30
0.0
 10
3.391745033161458
 20
6.24202673642534
 30
0.0
 10
3.389504951889485
 20
6.240705837656713
 30
0.0
 10
3.387635783551147
 20
6.239860149051112
 30
0.0
 10
3.386524940991913
 20
6.239563181422651
 30
0.0
 10
3.386105503733085
 20
6.239451050961852
 30
0.0
  0
SPLINE
  5
14A
330
1F
100
AcDbEntity
  8
0
  6
Continuous
 62
     7
370
    15
100
AcDbSpline
210
0.0
220
0.0
230
1.0
 70
     8
 71
     3
 72
    18
 73
    14
 74
     0
 42
0.0000000001
 43
0.0000000001
 40
0.0
 40
0.0
 40
0.0
 40
0.0
 40
0.122606442452657
 40
0.239456618918094
 40
0.3145655818673293
 40
0.3876699945625137
 40
0.4590282746227223
 40
0.5644037541683261
 40
0.6891935665422463
 40
0.7592018111551663
 40
0.8343104780212852
 40
0.9145637033326671
 40
1.0
 40
1.0
 40
1.0
 40
1.0
 10
3.012452258739391
 20
6.141638627278711
 30
0.0
 10
3.014495129990105
 20
6.14155627482768
 30
0.0
 10
3.018484961460578
 20
6.14139543630167
 30
0.0
 10
3.023447539252804
 20
6.142177817438546
 30
0.0
 10
3.027336728405032
 20
6.143372426952377
 30
0.0
 10
3.030311493979513
 20
6.144746138208465
 30
0.0
 10
3.033372242028188
 20
6.146722041001821
 30
0.0
 10
3.036423640689674
 20
6.149688793273456
 30
0.0
 10
3.038622295564535
 20
6.153331259209331
 30
0.0
 10
3.039989867186774
 20
6.157027862923241
 30
0.0
 10
3.040745932843857
 20
6.160344250304703
 30
0.0
 10
3.041154858692292
 20
6.164088437840925
 30
0.0
 10
3.041038115437019
 20
6.166789100812802
 30
0.0
 10
3.040977917838087
 20
6.168181673137884
 30
0.0
  0
SPLINE
  5
14B
330
1F
100
AcDbEntity
  8
0
  6
Continuous
 62
     7
370
    15
100
AcDbSpline
210
0.0
220
0.0
230
1.0
 70
     8
 71
     3
 72
    15
 73
    11
 74
     0
 42
0.0000000001
 43
0.0000000001
 40
0.0
 40
0.0
 40
0.0
 40
0.0
 40
0.0426753507933679
 40
0.1988820239763754
 40
0.2711128600154974
 40
0.3399713764219942
 40
0.4705070269948769
 40
0.6217603842812835
 40
0.7974653935523053
 40
0.9999999999999998
 40
0.9999999999999998
 40
0.9999999999999998
 40
0.9999999999999998
 10
3.01894982874629
 20
6.159077750741841
 30
0.0
 10
3.019230580605811
 20
6.159125152539339
 30
0.0
 10
3.020538982224511
 20
6.159346061454002
 30
0.0
 10
3.022221977379888
 20
6.159946859442709
 30
0.0
 10
3.023933895612396
 20
6.160743429965448
 30
0.0
 10
3.025384238184559
 20
6.161607981508173
 30
0.0
 10
3.026940275372237
 20
6.162958928723517
 30
0.0
 10
3.0282738180513
 20
6.165104426623549
 30
0.0
 10
3.029055124427071
 20
6.167979903612637
 30
0.0
 10
3.028837725457099
 20
6.170249864526974
 30
0.0
 10
3.028721315612664
 20
6.171465352332405
 30
0.0
  0
LINE
  5
14C
330
1F
100
AcDbEntity
  8
0
  6
Continuous
 62
     7
370
    15
100
AcDbLine
 10
3.012452258739392
 20
6.141638627278711
 30
0.0
 11
3.012452258739392
 21
6.1566017191744
 31
0.0
  0
LINE
  5
14D
330
1F
100
AcDbEntity
  8
0
  6
Continuous
 62
     7
370
    15
100
AcDbLine
 10
3.559852291515633
 20
7.488946340837782
 30
0.0
 11
3.576171612100958
 21
7.446061491881869
 31
0.0
  0
LINE
  5
14E
330
1F
100
AcDbEntity
  8
0
  6
Continuous
 62
     7
370
    15
100
AcDbLine
 10
2.975910816631091
 20
6.137392327514795
 30
0.0
 11
2.975910816631091
 21
6.146811897194506
 31
0.0
  0
ARC
  5
14F
330
1F
100
AcDbEntity
  8
0
  6
Continuous
 62
     7
370
    15
100
AcDbCircle
 10
2.992226126375877
 20
6.074108010540939
 30
0.0
 40
0.0653536082164996
100
AcDbArc
 50
96.33506462833844
 51
104.4566040968925
  0
LINE
  5
150
330
1F
100
AcDbEntity
  8
0
  6
Continuous
 62
     7
370
    15
100
AcDbLine
 10
2.958331100625238
 20
6.142102127721436
 30
0.0
 11
2.975910816631091
 21
6.137392327514795
 31
0.0
  0
LINE
  5
151
330
1F
100
AcDbEntity
  8
0
  6
Continuous
 62
     7
370
    15
100
AcDbLine
 10
3.001042465241925
 20
6.140956981740914
 30
0.0
 11
2.985014840118981
 21
6.139062544312161
 31
0.0
  0
ARC
  5
152
330
1F
100
AcDbEntity
  8
0
  6
Continuous
 62
     7
370
    15
100
AcDbCircle
 10
3.012913965266617
 20
6.03807748535842
 30
0.0
 40
0.1035621711280324
100
AcDbArc
 50
90.25544001954743
 51
96.58237823943544
  0
LWPOLYLINE
  5
153
330
1F
100
AcDbEntity
  8
0
  6
Continuous
 62
     7
370
    15
100
AcDbPolyline
 90
       28
 70
   128
 43
0.0
 10
3.662212716355791
 20
6.860945377574368
 10
3.660569570027527
 20
6.863010395749979
 10
3.656308977191839
 20
6.868834651541661
 10
3.652315259085895
 20
6.875005478411048
 10
3.648610678316685
 20
6.881488839676982
 10
3.645215561612328
 20
6.888249144851243
 10
3.642148714653263
 20
6.895248761691535
 10
3.63942714551812
 20
6.902449220720874
 10
3.637065926406663
 20
6.909810687059804
 10
3.635077778808601
 20
6.917292636778002
 10
3.633474041443018
 20
6.924853409168014
 10
3.632263425764826
 20
6.932451482181757
 10
3.631452569073003
 20
6.94004494743753
 10
3.631046034510594
 20
6.947591698624605
 10
3.631046034510594
 20
6.955050070808874
 10
3.631452569073003
 20
6.962378991791478
 10
3.632263425764826
 20
6.969537982108814
 10
3.633474041443018
 20
6.976487380483055
 10
3.635077778808601
 20
6.983189023348589
 10
3.637065926406663
 20
6.989605491233678
 10
3.63942714551812
 20
6.995701764180934
 10
3.642148714653263
 20
7.001443946310827
 10
3.645215561612328
 20
7.006800278761684
 10
3.648610678316685
 20
7.011741405360999
 10
3.652315259085895
 20
7.016239770365727
 10
3.656308977191839
 20
7.020270674797871
 10
3.660569570027527
 20
7.023812010773183
 10
3.662212716355791
 20
7.024996594826443
  0
LINE
  5
154
330
1F
100
AcDbEntity
  8
0
  6
Continuous
 62
     7
370
    15
100
AcDbLine
 10
3.291491014215954
 20
6.76689893749191
 30
0.0
 11
3.303747616441376
 21
6.763615258297389
 31
0.0
  0
ARC
  5
155
330
1F
100
AcDbEntity
  8
0
  6
Continuous
 62
     7
370
    15
100
AcDbCircle
 10
3.226152141438395
 20
6.773282193255332
 30
0.0
 40
0.0656499371666368
100
AcDbArc
 50
354.4202177373616
 51
58.84926623585073
  0
LINE
  5
156
330
1F
100
AcDbEntity
  8
0
  6
Continuous
 62
     7
370
    15
100
AcDbLine
 10
3.291491014215954
 20
6.652468965406277
 30
0.0
 11
3.303747616441376
 21
6.649185286211756
 31
0.0
  0
LINE
  5
157
330
1F
100
AcDbEntity
  8
0
  6
Continuous
 62
     7
370
    15
100
AcDbLine
 10
3.291491014215954
 20
6.76689893749191
 30
0.0
 11
3.291491014215954
 21
6.652468965406277
 31
0.0
  0
LINE
  5
158
330
1F
100
AcDbEntity
  8
0
  6
Continuous
 62
     7
370
    15
100
AcDbLine
 10
3.50338740633837
 20
6.357390868801589
 30
0.0
 11
3.491130873251479
 21
6.354107208130043
 31
0.0
  0
LINE
  5
159
330
1F
100
AcDbEntity
  8
0
  6
Continuous
 62
     7
370
    15
100
AcDbLine
 10
3.50338740633837
 20
6.357390868801589
 30
0.0
 11
3.662212716355791
 21
6.531241692528524
 31
0.0
  0
ARC
  5
15A
330
1F
100
AcDbEntity
  8
0
  6
Continuous
 62
     7
370
    15
100
AcDbCircle
 10
3.172220489129145
 20
6.652873734231465
 30
0.0
 40
0.1192712119175671
100
AcDbArc
 50
328.7919786485109
 51
359.8055558461632
  0
LINE
  5
15B
330
1F
100
AcDbEntity
  8
0
  6
Continuous
 62
     7
370
    15
100
AcDbLine
 10
3.448148209039063
 20
6.289355037915686
 30
0.0
 11
3.435891606813641
 21
6.292638717110206
 31
0.0
  0
LINE
  5
15C
330
1F
100
AcDbEntity
  8
0
  6
Continuous
 62
     7
370
    15
100
AcDbLine
 10
3.434399873868314
 20
6.294086937507143
 30
0.0
 11
3.435891606813641
 21
6.292638717110206
 31
0.0
  0
SPLINE
  5
15D
330
1F
100
AcDbEntity
  8
0
  6
Continuous
 62
     7
370
    15
100
AcDbSpline
210
0.0
220
0.0
230
1.0
 70
     8
 71
     3
 72
     9
 73
     5
 74
     0
 42
0.0000000001
 43
0.0000000001
 40
0.0
 40
0.0
 40
0.0
 40
0.0
 40
0.651493204198833
 40
0.9999999999999998
 40
0.9999999999999998
 40
0.9999999999999998
 40
0.9999999999999998
 10
3.50338740633837
 20
6.357390868801589
 30
0.0
 10
3.501829127514135
 20
6.356560936324602
 30
0.0
 10
3.499437270140655
 20
6.355287043563115
 30
0.0
 10
3.496515606092517
 20
6.353800599500636
 30
0.0
 10
3.495497386316693
 20
6.353282563643285
 30
0.0
  0
LINE
  5
15E
330
1F
100
AcDbEntity
  8
0
  6
Continuous
 62
     7
370
    15
100
AcDbLine
 10
5.699597042731949
 20
5.686167012657505
 30
0.0
 11
5.721366553717723
 21
5.721660592193527
 31
0.0
  0
LWPOLYLINE
  5
15F
330
1F
100
AcDbEntity
  8
0
  6
Continuous
 62
     7
370
    15
100
AcDbPolyline
 90
       12
 70
   128
 43
0.0
 10
5.669597004459213
 20
5.678129670847821
 10
5.671884383619539
 20
5.681442982079561
 10
5.67443061744001
 20
5.684354726083083
 10
5.67718378288383
 20
5.686805492396452
 10
5.680087808602338
 20
5.688745309835725
 10
5.683083650290044
 20
5.690134809206169
 10
5.686110327762587
 20
5.690945689551498
 10
5.689106169450293
 20
5.69116142837661
 10
5.692010264307333
 20
5.690777670630102
 10
5.694763429751152
 20
5.689802111216765
 10
5.697309594433092
 20
5.688254677052547
 10
5.699597042731949
 20
5.686167012657505
  0
LINE
  5
160
330
1F
100
AcDbEntity
  8
0
  6
Continuous
 62
     7
370
    15
100
AcDbLine
 10
5.669597004459213
 20
5.678129670847821
 30
0.0
 11
5.660725286435558
 21
5.663664895766867
 31
0.0
  0
LINE
  5
161
330
1F
100
AcDbEntity
  8
0
  6
Continuous
 62
     7
370
    15
100
AcDbLine
 10
5.660725286435558
 20
5.663664895766867
 30
0.0
 11
5.292426751530972
 21
5.564993647879703
 31
0.0
  0
ARC
  5
162
330
1F
100
AcDbEntity
  8
0
  6
Continuous
 62
     7
370
    15
100
AcDbCircle
 10
5.269142313028656
 20
5.560058217952314
 30
0.0
 40
0.023801755081008
100
AcDbArc
 50
11.96743519766963
 51
40.95462041280442
  0
LINE
  5
163
330
1F
100
AcDbEntity
  8
0
  6
Continuous
 62
     7
370
    15
100
AcDbLine
 10
5.537937606050881
 20
5.9846020384265
 30
0.0
 11
5.287118087703524
 21
5.575659341943061
 31
0.0
  0
ARC
  5
164
330
1F
100
AcDbEntity
  8
0
  6
Continuous
 62
     7
370
    15
100
AcDbCircle
 10
5.435925925047439
 20
6.046402029778768
 30
0.0
 40
0.1192712119175804
100
AcDbArc
 50
328.7919786485123
 51
359.805555846161
  0
LINE
  5
165
330
1F
100
AcDbEntity
  8
0
  6
Continuous
 62
     7
370
    15
100
AcDbLine
 10
5.555196450134262
 20
6.160427233039208
 30
0.0
 11
5.555196450134262
 21
6.045997260953575
 31
0.0
  0
LWPOLYLINE
  5
166
330
1F
100
AcDbEntity
  8
0
  6
Continuous
 62
     7
370
    15
100
AcDbPolyline
 90
       16
 70
   128
 43
0.0
 10
5.511984384275915
 20
6.226229983062371
 10
5.516844408175562
 20
6.225386674203155
 10
5.521549769181312
 20
6.223936715699607
 10
5.526065137503817
 20
6.22189061319638
 10
5.530356496985809
 20
6.219263745984652
 10
5.534391698210365
 20
6.216076138376768
 10
5.538140389362368
 20
6.212351499160358
 10
5.541574361921159
 20
6.208117879426962
 10
5.544667827214667
 20
6.203407181450193
 10
5.547397554696471
 20
6.198254913124819
 10
5.549742941084323
 20
6.192699547073699
 10
5.551686425191347
 20
6.186782914392518
 10
5.553213349648964
 20
6.180549602390083
 10
5.554312306599554
 20
6.174046293584888
 10
5.554974999419399
 20
6.167322011266025
 10
5.555196450134262
 20
6.160427233039208
  0
LWPOLYLINE
  5
167
330
1F
100
AcDbEntity
  8
0
  6
Continuous
 62
     7
370
    15
100
AcDbPolyline
 90
       36
 70
   128
 43
0.0
 10
5.511984384275915
 20
6.419679097658132
 10
5.506766430201168
 20
6.416026512461599
 10
5.501685854387561
 20
6.411889040132189
 10
5.496770588801628
 20
6.40728923631899
 10
5.49204787402459
 20
6.402252862723798
 10
5.487543706144113
 20
6.396807420085234
 10
5.483283044169893
 20
6.390983145770576
 10
5.479289395202481
 20
6.384812337424165
 10
5.475584745294739
 20
6.378328957635255
 10
5.472189697728913
 20
6.371568670983969
 10
5.469122919908379
 20
6.364569072666655
 10
5.466401350773237
 20
6.357368613637316
 10
5.464039993384719
 20
6.350007110252431
 10
5.462051914925186
 20
6.342525367461792
 10
5.460448177559603
 20
6.334964406667197
 10
5.459237492742881
 20
6.327366315130478
 10
5.458426705189588
 20
6.319772868397683
 10
5.458020170627181
 20
6.312226117210608
 10
5.458020170627181
 20
6.304767745026338
 10
5.458426705189588
 20
6.297438824043734
 10
5.459237492742881
 20
6.290279815203423
 10
5.460448177559603
 20
6.283330435352158
 10
5.462051914925186
 20
6.276628980891206
 10
5.464039993384719
 20
6.270212306078558
 10
5.466401350773237
 20
6.264116070177255
 10
5.469122919908379
 20
6.258373888047362
 10
5.472189697728913
 20
6.253017537073527
 10
5.475584745294739
 20
6.248076391951237
 10
5.479289395202481
 20
6.243578045469487
 10
5.483283044169893
 20
6.239547122514365
 10
5.487543706144113
 20
6.236005805062029
 10
5.49204787402459
 20
6.232973795132747
 10
5.496770588801628
 20
6.230467956504718
 10
5.501685854387561
 20
6.22850186063818
 10
5.506766430201168
 20
6.227086673129392
 10
5.511984384275915
 20
6.226229983062371
  0
ARC
  5
168
330
1F
100
AcDbEntity
  8
0
  6
Continuous
 62
     7
370
    15
100
AcDbCircle
 10
5.447798682886287
 20
6.50583208142541
 30
0.0
 40
0.1074343561198342
100
AcDbArc
 50
306.6868499152314
 51
1.495384495725551
  0
LINE
  5
169
330
1F
100
AcDbEntity
  8
0
  6
Continuous
 62
     7
370
    15
100
AcDbLine
 10
5.555196450134262
 20
6.722436122643506
 30
0.0
 11
5.555196450134262
 21
6.50863573351387
 31
0.0
  0
LWPOLYLINE
  5
16A
330
1F
100
AcDbEntity
  8
0
  6
Continuous
 62
     7
370
    15
100
AcDbPolyline
 90
       16
 70
   128
 43
0.0
 10
5.511984384275915
 20
6.788238778464378
 10
5.516844408175562
 20
6.787395469605162
 10
5.521549769181312
 20
6.785945511101616
 10
5.526065137503817
 20
6.783899408598387
 10
5.530356496985809
 20
6.78127254138666
 10
5.534391698210365
 20
6.778084933778775
 10
5.538140389362368
 20
6.774360294562365
 10
5.541574361921159
 20
6.770126674828969
 10
5.544667827214667
 20
6.7654159768522
 10
5.547397554696471
 20
6.760263614324536
 10
5.549742941084323
 20
6.754708342475707
 10
5.551686425191347
 20
6.748791803996817
 10
5.553213349648964
 20
6.742558303589801
 10
5.554312306599554
 20
6.736055088986896
 10
5.554974999419399
 20
6.729330806668032
 10
5.555196450134262
 20
6.722436122643506
  0
LWPOLYLINE
  5
16B
330
1F
100
AcDbEntity
  8
0
  6
Continuous
 62
     7
370
    15
100
AcDbPolyline
 90
       36
 70
   128
 43
0.0
 10
5.511984384275915
 20
6.98168789306014
 10
5.506766430201168
 20
6.978035307863607
 10
5.501685854387561
 20
6.973897835534198
 10
5.496770588801628
 20
6.969298031720998
 10
5.49204787402459
 20
6.964261658125806
 10
5.487543706144113
 20
6.958816215487241
 10
5.483283044169893
 20
6.952991941172584
 10
5.479289395202481
 20
6.946821132826173
 10
5.475584745294739
 20
6.940337753037261
 10
5.472189697728913
 20
6.933577466385977
 10
5.469122919908379
 20
6.926577868068662
 10
5.466401350773237
 20
6.919377409039323
 10
5.464039993384719
 20
6.912015905654438
 10
5.462051914925186
 20
6.904534162863799
 10
5.460448177559603
 20
6.896973202069205
 10
5.459237492742881
 20
6.889375110532486
 10
5.458426705189588
 20
6.88178166379969
 10
5.458020170627181
 20
6.874234912612616
 10
5.458020170627181
 20
6.866776540428346
 10
5.458426705189588
 20
6.859447619445742
 10
5.459237492742881
 20
6.85228861060543
 10
5.460448177559603
 20
6.845339230754166
 10
5.462051914925186
 20
6.838637776293214
 10
5.464039993384719
 20
6.832221101480566
 10
5.466401350773237
 20
6.826124865579262
 10
5.469122919908379
 20
6.82038268344937
 10
5.472189697728913
 20
6.815026332475535
 10
5.475584745294739
 20
6.810085187353244
 10
5.479289395202481
 20
6.805586840871494
 10
5.483283044169893
 20
6.801555917916373
 10
5.487543706144113
 20
6.798014600464036
 10
5.49204787402459
 20
6.794982590534756
 10
5.496770588801628
 20
6.792476751906725
 10
5.501685854387561
 20
6.790510656040187
 10
5.506766430201168
 20
6.7890954685314
 10
5.511984384275915
 20
6.788238778464378
  0
ARC
  5
16C
330
1F
100
AcDbEntity
  8
0
  6
Continuous
 62
     7
370
    15
100
AcDbCircle
 10
5.447798682886291
 20
7.067840876827415
 30
0.0
 40
0.1074343561198307
100
AcDbArc
 50
306.6868499152307
 51
1.495384495726547
  0
LINE
  5
16D
330
1F
100
AcDbEntity
  8
0
  6
Continuous
 62
     7
370
    15
100
AcDbLine
 10
5.555196450134262
 20
7.166465215232021
 30
0.0
 11
5.555196450134262
 21
7.070644528915877
 31
0.0
  0
LINE
  5
16E
330
1F
100
AcDbEntity
  8
0
  6
Continuous
 62
     7
370
    15
100
AcDbLine
 10
5.555196450134262
 20
7.166465215232021
 30
0.0
 11
5.721366553717723
 21
7.210984022471825
 31
0.0
  0
LINE
  5
16F
330
1F
100
AcDbEntity
  8
0
  6
Continuous
 62
     7
370
    15
100
AcDbLine
 10
5.721366553717723
 20
5.721660592193527
 30
0.0
 11
5.721366553717723
 21
7.210984022471825
 31
0.0
  0
LWPOLYLINE
  5
170
330
1F
100
AcDbEntity
  8
0
  6
Continuous
 62
     7
370
    15
100
AcDbPolyline
 90
       60
 70
   128
 43
0.0
 10
5.607404545095042
 20
7.066605292559719
 10
5.607609471700992
 20
7.071900102894494
 10
5.608222039085844
 20
7.077244777255826
 10
5.6092353333965
 20
7.0825786811165
 10
5.610637808498278
 20
7.087841257741945
 10
5.612413562529042
 20
7.092973232709629
 10
5.614542476176264
 20
7.097916274145855
 10
5.617000489231153
 20
7.102614385649731
 10
5.619759669727171
 20
7.107014301625317
 10
5.622788836186829
 20
7.111066219202158
 10
5.62605362676021
 20
7.114724193567426
 10
5.629517052333217
 20
7.117946662958894
 10
5.633139842220229
 20
7.120697294898148
 10
5.636880997272349
 20
7.122944945969814
 10
5.640698135570064
 20
7.124664131245615
 10
5.64454797639295
 20
7.125835153945192
 10
5.648386893327937
 20
7.126445007238257
 10
5.652171398239008
 20
7.126486750287095
 10
5.655858556098401
 20
7.125959619384425
 10
5.65940674551044
 20
7.124869985324467
 10
5.662775589573008
 20
7.123230016047902
 10
5.665927062094045
 20
7.121058161414064
 10
5.668825349314479
 20
7.118379304559581
 10
5.671437610432076
 20
7.115223458414456
 10
5.673734392432621
 20
7.111626818862837
 10
5.675689491812855
 20
7.107629655246668
 10
5.677280853381383
 20
7.103277681591865
 10
5.678490431981611
 20
7.09861994711197
 10
5.679304469045861
 20
7.093709287109223
 10
5.679713838288042
 20
7.088601473566525
 10
5.679713838288042
 20
7.08335421755561
 10
5.679304469045861
 20
7.078026866519782
 10
5.678490431981611
 20
7.072680027464751
 10
5.677280853381383
 20
7.067374174034653
 10
5.675689491812855
 20
7.0621695136764
 10
5.673734392432621
 20
7.057124953001888
 10
5.671437610432076
 20
7.052297458482341
 10
5.668825349314479
 20
7.047742093494267
 10
5.665927062094045
 20
7.043510081879527
 10
5.662775589573008
 20
7.039649787014193
 10
5.65940674551044
 20
7.036204528220292
 10
5.655858556098401
 20
7.033213695845133
 10
5.652171398239008
 20
7.030711092666029
 10
5.648386893327937
 20
7.028724825927247
 10
5.64454797639295
 20
7.027277702672152
 10
5.640698135570064
 20
7.026386083967555
 10
5.636880997272349
 20
7.026059773765852
 10
5.633139842220229
 20
7.0263028312671
 10
5.629517052333217
 20
7.027112292307712
 10
5.62605362676021
 20
7.028479170127113
 10
5.622788836186829
 20
7.030387797539105
 10
5.619759669727171
 20
7.032816432366392
 10
5.617000489231153
 20
7.035737918444024
 10
5.614542476176264
 20
7.039118972221825
 10
5.612413562529042
 20
7.04292129466893
 10
5.610637808498278
 20
7.047101781376139
 10
5.6092353333965
 20
7.051613069246699
 10
5.608222039085844
 20
7.056404027618135
 10
5.607609471700992
 20
7.061420286430055
 10
5.607404545095042
 20
7.066605292559719
  0
LWPOLYLINE
  5
171
330
1F
100
AcDbEntity
  8
0
  6
Continuous
 62
     7
370
    15
100
AcDbPolyline
 90
       16
 70
   128
 43
0.0
 10
5.924202617903854
 20
6.989124923722147
 10
5.929062641803501
 20
6.989968232581363
 10
5.933768002809252
 20
6.991418191084911
 10
5.938283301993225
 20
6.993464312111115
 10
5.942574730613749
 20
6.996091160799866
 10
5.946609931838305
 20
6.99927876840775
 10
5.950358622990308
 20
7.003003407624161
 10
5.953792595549099
 20
7.007237027357557
 10
5.956886060842608
 20
7.011947725334326
 10
5.95961571918588
 20
7.017100106384966
 10
5.961961174712263
 20
7.022655359710818
 10
5.963904658819286
 20
7.02857189818971
 10
5.965431583276902
 20
7.034805398596725
 10
5.966530540227494
 20
7.041308613199629
 10
5.967193233047338
 20
7.048032895518493
 10
5.967414683762202
 20
7.054927579543019
  0
LWPOLYLINE
  5
172
330
1F
100
AcDbEntity
  8
0
  6
Continuous
 62
     7
370
    15
100
AcDbPolyline
 90
       36
 70
   128
 43
0.0
 10
5.924202617903854
 20
6.795675809126385
 10
5.918984663829108
 20
6.799328394322919
 10
5.913904088015502
 20
6.803465866652328
 10
5.908988822429567
 20
6.808065670465527
 10
5.904266038513999
 20
6.813102062583697
 10
5.899761939772052
 20
6.818547486699285
 10
5.895501277797833
 20
6.824371761013942
 10
5.89150755969189
 20
6.83054258788333
 10
5.887802978922679
 20
6.837025949149264
 10
5.884407931356854
 20
6.843786235800549
 10
5.881341153536319
 20
6.850785834117863
 10
5.878619515262646
 20
6.857986311670179
 10
5.876258227012658
 20
6.865347796532088
 10
5.874270148553127
 20
6.872829727727308
 10
5.872666411187544
 20
6.880390500117322
 10
5.871455726370821
 20
6.88798859165404
 10
5.870644938817529
 20
6.895582038386836
 10
5.87023840425512
 20
6.903128789573911
 10
5.87023840425512
 20
6.910587161758179
 10
5.870644938817529
 20
6.917916082740785
 10
5.871455726370821
 20
6.925075091581095
 10
5.872666411187544
 20
6.93202447143236
 10
5.874270148553127
 20
6.938726114297893
 10
5.876258227012658
 20
6.94514260070596
 10
5.878619515262646
 20
6.95123885513024
 10
5.881341153536319
 20
6.956981018737155
 10
5.884407931356854
 20
6.96233736971099
 10
5.887802978922679
 20
6.967278514833281
 10
5.89150755969189
 20
6.971776879838007
 10
5.895501277797833
 20
6.975807784270152
 10
5.899761939772052
 20
6.97934910172249
 10
5.904266038513999
 20
6.982381130174748
 10
5.908988822429567
 20
6.9848869502798
 10
5.913904088015502
 20
6.986853046146339
 10
5.918984663829108
 20
6.988268233655126
 10
5.924202617903854
 20
6.989124923722147
  0
ARC
  5
173
330
1F
100
AcDbEntity
  8
0
  6
Continuous
 62
     7
370
    15
100
AcDbCircle
 10
5.860016769025176
 20
6.709522753714014
 30
0.0
 40
0.1074345016890003
100
AcDbArc
 50
358.5046557529038
 51
53.31310983614153
  0
LINE
  5
174
330
1F
100
AcDbEntity
  8
0
  6
Continuous
 62
     7
370
    15
100
AcDbLine
 10
5.967414683762202
 20
6.492918784141012
 30
0.0
 11
5.967414683762202
 21
6.706719173270649
 31
0.0
  0
LWPOLYLINE
  5
175
330
1F
100
AcDbEntity
  8
0
  6
Continuous
 62
     7
370
    15
100
AcDbPolyline
 90
       16
 70
   128
 43
0.0
 10
5.924202617903854
 20
6.42711612832014
 10
5.929062641803501
 20
6.427959437179355
 10
5.933768002809252
 20
6.429409395682903
 10
5.938283301993225
 20
6.431455516709106
 10
5.942574730613749
 20
6.434082365397859
 10
5.946609931838305
 20
6.437269973005743
 10
5.950358622990308
 20
6.440994612222153
 10
5.953792595549099
 20
6.44522823195555
 10
5.956886060842608
 20
6.449938929932318
 10
5.95961571918588
 20
6.455091310982959
 10
5.961961174712263
 20
6.46064656430881
 10
5.963904658819286
 20
6.466563102787702
 10
5.965431583276902
 20
6.472796603194718
 10
5.966530540227494
 20
6.479299817797622
 10
5.967193233047338
 20
6.486024100116485
 10
5.967414683762202
 20
6.492918784141012
  0
LWPOLYLINE
  5
176
330
1F
100
AcDbEntity
  8
0
  6
Continuous
 62
     7
370
    15
100
AcDbPolyline
 90
       36
 70
   128
 43
0.0
 10
5.924202617903854
 20
6.233667013724379
 10
5.918984663829108
 20
6.237319598920912
 10
5.913904088015502
 20
6.241457071250321
 10
5.908988822429567
 20
6.24605687506352
 10
5.904266038513999
 20
6.251093267181689
 10
5.899761939772052
 20
6.256538691297278
 10
5.895501277797833
 20
6.262362965611935
 10
5.89150755969189
 20
6.268533792481322
 10
5.887802978922679
 20
6.275017153747256
 10
5.884407931356854
 20
6.281777440398542
 10
5.881341153536319
 20
6.288777038715855
 10
5.878619515262646
 20
6.295977516268172
 10
5.876258227012658
 20
6.303339001130081
 10
5.874270148553127
 20
6.310820932325301
 10
5.872666411187544
 20
6.318381704715313
 10
5.871455726370821
 20
6.325979796252033
 10
5.870644938817529
 20
6.333573242984829
 10
5.87023840425512
 20
6.341119994171903
 10
5.87023840425512
 20
6.348578366356172
 10
5.870644938817529
 20
6.355907287338777
 10
5.871455726370821
 20
6.363066296179089
 10
5.872666411187544
 20
6.370015676030353
 10
5.874270148553127
 20
6.376717318895887
 10
5.876258227012658
 20
6.383133805303953
 10
5.878619515262646
 20
6.389230059728233
 10
5.881341153536319
 20
6.394972223335149
 10
5.884407931356854
 20
6.400328574308983
 10
5.887802978922679
 20
6.405269719431274
 10
5.89150755969189
 20
6.409768084436001
 10
5.895501277797833
 20
6.413798988868146
 10
5.899761939772052
 20
6.417340306320483
 10
5.904266038513999
 20
6.420372334772739
 10
5.908988822429567
 20
6.422878154877793
 10
5.913904088015502
 20
6.424844250744331
 10
5.918984663829108
 20
6.426259438253119
 10
5.924202617903854
 20
6.42711612832014
  0
ARC
  5
177
330
1F
100
AcDbEntity
  8
0
  6
Continuous
 62
     7
370
    15
100
AcDbCircle
 10
5.86001667747737
 20
6.147513910872336
 30
0.0
 40
0.1074345944259427
100
AcDbArc
 50
358.5046320965716
 51
53.31308579945909
  0
LINE
  5
178
330
1F
100
AcDbEntity
  8
0
  6
Continuous
 62
     7
370
    15
100
AcDbLine
 10
5.967414683762202
 20
6.030280311580717
 30
0.0
 11
5.967414683762202
 21
6.144710283666349
 31
0.0
  0
ARC
  5
179
330
1F
100
AcDbEntity
  8
0
  6
Continuous
 62
     7
370
    15
100
AcDbCircle
 10
5.889805202441902
 20
6.027036392438577
 30
0.0
 40
0.0776772463608663
100
AcDbArc
 50
320.9812619910957
 51
2.393454350642596
  0
LINE
  5
17A
330
1F
100
AcDbEntity
  8
0
  6
Continuous
 62
     7
370
    15
100
AcDbLine
 10
5.742579776082896
 20
5.750919164348887
 30
0.0
 11
5.950155770540289
 21
5.978132777721374
 31
0.0
  0
LINE
  5
17B
330
1F
100
AcDbEntity
  8
0
  6
Continuous
 62
     7
370
    15
100
AcDbLine
 10
5.967414683762202
 20
7.150748265859163
 30
0.0
 11
5.742579776082896
 21
7.210984022471825
 31
0.0
  0
LINE
  5
17C
330
1F
100
AcDbEntity
  8
0
  6
Continuous
 62
     7
370
    15
100
AcDbLine
 10
5.967414683762202
 20
7.054927579543019
 30
0.0
 11
5.967414683762202
 21
7.150748265859163
 31
0.0
  0
LINE
  5
17D
330
1F
100
AcDbEntity
  8
0
  6
Continuous
 62
     7
370
    15
100
AcDbLine
 10
5.82010080088285
 20
6.827142132199603
 30
0.0
 11
5.803058014708913
 21
6.871927939499082
 31
0.0
  0
LINE
  5
17E
330
1F
100
AcDbEntity
  8
0
  6
Continuous
 62
     7
370
    15
100
AcDbLine
 10
5.843671024909086
 20
6.876451789048005
 30
0.0
 11
5.82010080088285
 21
6.827142132199603
 31
0.0
  0
LINE
  5
17F
330
1F
100
AcDbEntity
  8
0
  6
Continuous
 62
     7
370
    15
100
AcDbLine
 10
5.843671024909086
 20
6.876451789048005
 30
0.0
 11
5.843671024909086
 21
7.05146306604382
 31
0.0
  0
LINE
  5
180
330
1F
100
AcDbEntity
  8
0
  6
Continuous
 62
     7
370
    15
100
AcDbLine
 10
5.843671024909086
 20
7.089964672785639
 30
0.0
 11
5.843671024909086
 21
7.072844536831606
 31
0.0
  0
LINE
  5
181
330
1F
100
AcDbEntity
  8
0
  6
Continuous
 62
     7
370
    15
100
AcDbLine
 10
5.843671024909086
 20
7.052483653664054
 30
0.0
 11
5.843671024909086
 21
7.05146306604382
 31
0.0
  0
LINE
  5
182
330
1F
100
AcDbEntity
  8
0
  6
Continuous
 62
     7
370
    15
100
AcDbLine
 10
5.796530576856611
 20
7.102594119808833
 30
0.0
 11
5.843671024909086
 21
7.089964672785639
 31
0.0
  0
LINE
  5
183
330
1F
100
AcDbEntity
  8
0
  6
Continuous
 62
     7
370
    15
100
AcDbLine
 10
5.796530576856611
 20
6.916129539873825
 30
0.0
 11
5.796530576856611
 21
6.946963456940867
 31
0.0
  0
LINE
  5
184
330
1F
100
AcDbEntity
  8
0
  6
Continuous
 62
     7
370
    15
100
AcDbLine
 10
5.754836309169787
 20
7.214267683143369
 30
0.0
 11
5.742579776082896
 21
7.210984022471825
 31
0.0
  0
LINE
  5
185
330
1F
100
AcDbEntity
  8
0
  6
Continuous
 62
     7
370
    15
100
AcDbLine
 10
5.979671216849093
 20
7.154031926530708
 30
0.0
 11
5.754836309169787
 21
7.214267683143369
 31
0.0
  0
LINE
  5
186
330
1F
100
AcDbEntity
  8
0
  6
Continuous
 62
     7
370
    15
100
AcDbLine
 10
5.979671216849093
 20
7.154031926530708
 30
0.0
 11
5.967414683762202
 21
7.150748265859163
 31
0.0
  0
LINE
  5
187
330
1F
100
AcDbEntity
  8
0
  6
Continuous
 62
     7
370
    15
100
AcDbLine
 10
5.979671216849093
 20
7.058211240214564
 30
0.0
 11
5.967414683762202
 21
7.054927579543019
 31
0.0
  0
LINE
  5
188
330
1F
100
AcDbEntity
  8
0
  6
Continuous
 62
     7
370
    15
100
AcDbLine
 10
5.979671216849093
 20
7.058211240214564
 30
0.0
 11
5.979671216849093
 21
7.154031926530708
 31
0.0
  0
LINE
  5
189
330
1F
100
AcDbEntity
  8
0
  6
Continuous
 62
     7
370
    15
100
AcDbLine
 10
5.499727851189024
 20
6.984971553731685
 30
0.0
 11
5.511984384275915
 21
6.98168789306014
 31
0.0
  0
LWPOLYLINE
  5
18A
330
1F
100
AcDbEntity
  8
0
  6
Continuous
 62
     7
370
    15
100
AcDbPolyline
 90
       35
 70
   128
 43
0.0
 10
5.499727851189024
 20
6.984971553731685
 10
5.494509897114277
 20
6.981318968535152
 10
5.489429321300671
 20
6.977181496205743
 10
5.484514055714737
 20
6.972581692392543
 10
5.4797913409377
 20
6.967545318797351
 10
5.475287173057221
 20
6.962099876158786
 10
5.471026511083003
 20
6.956275601844128
 10
5.46703286211559
 20
6.950104793497717
 10
5.463328212207849
 20
6.943621413708807
 10
5.459933164642023
 20
6.936861127057522
 10
5.456866386821489
 20
6.929861528740207
 10
5.454144817686345
 20
6.922661069710868
 10
5.451783460297827
 20
6.915299566325984
 10
5.449795381838295
 20
6.907817823535344
 10
5.448191644472713
 20
6.90025686274075
 10
5.446980959655991
 20
6.892658771204031
 10
5.446170172102698
 20
6.885065324471235
 10
5.445763637540289
 20
6.87751857328416
 10
5.445763637540289
 20
6.870060201099891
 10
5.446170172102698
 20
6.862731280117286
 10
5.446980959655991
 20
6.855572271276975
 10
5.448191644472713
 20
6.84862289142571
 10
5.449795381838295
 20
6.841921436964758
 10
5.451783460297827
 20
6.835504762152111
 10
5.454144817686345
 20
6.829408526250808
 10
5.456866386821489
 20
6.823666344120915
 10
5.459933164642023
 20
6.81830999314708
 10
5.463328212207849
 20
6.81336884802479
 10
5.46703286211559
 20
6.808870501543039
 10
5.471026511083003
 20
6.804839578587918
 10
5.475287173057221
 20
6.801298261135581
 10
5.4797913409377
 20
6.798266251206301
 10
5.484514055714737
 20
6.79576041257827
 10
5.489429321300671
 20
6.793794316711733
 10
5.492412994606916
 20
6.792891063558869
  0
LINE
  5
18B
330
1F
100
AcDbEntity
  8
0
  6
Continuous
 62
     7
370
    15
100
AcDbLine
 10
5.576432280799079
 20
6.928590190705038
 30
0.0
 11
5.576135607362465
 21
6.929268660245617
 31
0.0
  0
ARC
  5
18C
330
1F
100
AcDbEntity
  8
0
  6
Continuous
 62
     7
370
    15
100
AcDbCircle
 10
5.918085209149439
 20
7.0506298942603
 30
0.0
 40
0.0620508916201856
100
AcDbArc
 50
292.9805533065263
 51
7.017903570561689
  0
LINE
  5
18D
330
1F
100
AcDbEntity
  8
0
  6
Continuous
 62
     7
370
    15
100
AcDbLine
 10
5.542939917047371
 20
7.073928189587422
 30
0.0
 11
5.555196450134262
 21
7.070644528915877
 31
0.0
  0
ARC
  5
18E
330
1F
100
AcDbEntity
  8
0
  6
Continuous
 62
     7
370
    15
100
AcDbCircle
 10
5.435542149799398
 20
7.071124537498962
 30
0.0
 40
0.1074343561198325
100
AcDbArc
 50
306.6868499152302
 51
1.495384495725102
  0
LINE
  5
18F
330
1F
100
AcDbEntity
  8
0
  6
Continuous
 62
     7
370
    15
100
AcDbLine
 10
5.555196450134262
 20
7.166465215232021
 30
0.0
 11
5.542939917047371
 21
7.169748875903565
 31
0.0
  0
LINE
  5
190
330
1F
100
AcDbEntity
  8
0
  6
Continuous
 62
     7
370
    15
100
AcDbLine
 10
5.542939917047371
 20
7.169748875903565
 30
0.0
 11
5.542939917047371
 21
7.073928189587422
 31
0.0
  0
LINE
  5
191
330
1F
100
AcDbEntity
  8
0
  6
Continuous
 62
     7
370
    15
100
AcDbLine
 10
5.721366553717723
 20
7.210984022471825
 30
0.0
 11
5.709110020630832
 21
7.214267683143369
 31
0.0
  0
LINE
  5
192
330
1F
100
AcDbEntity
  8
0
  6
Continuous
 62
     7
370
    15
100
AcDbLine
 10
5.542939917047371
 20
7.169748875903565
 30
0.0
 11
5.709110020630832
 21
7.214267683143369
 31
0.0
  0
LINE
  5
193
330
1F
100
AcDbEntity
  8
0
  6
Continuous
 62
     7
370
    15
100
AcDbLine
 10
5.843671024909086
 20
7.05146306604382
 30
0.0
 11
5.797409949832679
 21
6.9490510107573
 31
0.0
  0
ARC
  5
194
330
1F
100
AcDbEntity
  8
0
  6
Continuous
 62
     7
370
    15
100
AcDbCircle
 10
5.827508426853476
 20
6.932198953773162
 30
0.0
 40
0.0344950741928197
100
AcDbArc
 50
150.7556519635262
 51
220.5738946549882
  0
LINE
  5
195
330
1F
100
AcDbEntity
  8
0
  6
Continuous
 62
     7
370
    15
100
AcDbLine
 10
5.801307081410785
 20
6.909762384504202
 30
0.0
 11
5.805282823498663
 21
6.906282080805635
 31
0.0
  0
LINE
  5
196
330
1F
100
AcDbEntity
  8
0
  6
Continuous
 62
     7
370
    15
100
AcDbLine
 10
5.797404487888728
 20
6.891378716513392
 30
0.0
 11
5.805282823498663
 21
6.906282080805635
 31
0.0
  0
LINE
  5
197
330
1F
100
AcDbEntity
  8
0
  6
Continuous
 62
     7
370
    15
100
AcDbLine
 10
5.79342874580085
 20
6.894859020211958
 30
0.0
 11
5.797404487888728
 21
6.891378716513392
 31
0.0
  0
ARC
  5
198
330
1F
100
AcDbEntity
  8
0
  6
Continuous
 62
     7
370
    15
100
AcDbCircle
 10
5.834865607441535
 20
6.92981015339712
 30
0.0
 40
0.0542088112169629
100
AcDbArc
 50
151.1825979778204
 51
220.1469368934417
  0
LINE
  5
199
330
1F
100
AcDbEntity
  8
0
  6
Continuous
 62
     7
370
    15
100
AcDbLine
 10
5.839719550445598
 20
7.071830545037584
 30
0.0
 11
5.787369998050347
 21
6.955939874063747
 31
0.0
  0
ARC
  5
19A
330
1F
100
AcDbEntity
  8
0
  6
Continuous
 62
     7
370
    15
100
AcDbCircle
 10
5.799139603283919
 20
7.090170605247204
 30
0.0
 40
0.0445318977827928
100
AcDbArc
 50
335.6794654390776
 51
359.7350415420434
  0
LINE
  5
19B
330
1F
100
AcDbEntity
  8
0
  6
Continuous
 62
     7
370
    15
100
AcDbLine
 10
5.936459150990746
 20
6.79895946979793
 30
0.0
 11
5.924202617903854
 21
6.795675809126385
 31
0.0
  0
LWPOLYLINE
  5
19C
330
1F
100
AcDbEntity
  8
0
  6
Continuous
 62
     7
370
    15
100
AcDbPolyline
 90
       34
 70
   128
 43
0.0
 10
5.936459150990746
 20
6.79895946979793
 10
5.931241196915999
 20
6.802612054994464
 10
5.926160621102392
 20
6.806749527323874
 10
5.921245355516458
 20
6.811349331137073
 10
5.916522571600889
 20
6.816385723255241
 10
5.912018472858944
 20
6.82183114737083
 10
5.907757810884725
 20
6.827655421685488
 10
5.90376409277878
 20
6.833826248554875
 10
5.900059512009571
 20
6.840309609820809
 10
5.896664464443745
 20
6.847069896472095
 10
5.89359768662321
 20
6.854069494789408
 10
5.890876048349537
 20
6.861269972341724
 10
5.888514760099549
 20
6.868631457203633
 10
5.886526681640017
 20
6.876113388398853
 10
5.884922944274435
 20
6.883674160788866
 10
5.883712259457712
 20
6.891272252325586
 10
5.882901471904419
 20
6.898865699058382
 10
5.882494937342011
 20
6.906412450245456
 10
5.882494937342011
 20
6.913870822429725
 10
5.882901471904419
 20
6.92119974341233
 10
5.883712259457712
 20
6.928358752252639
 10
5.884922944274435
 20
6.935308132103906
 10
5.886526681640017
 20
6.942009774969438
 10
5.888514760099549
 20
6.948426261377505
 10
5.890876048349537
 20
6.954522515801786
 10
5.89359768662321
 20
6.960264679408701
 10
5.896664464443745
 20
6.965621030382535
 10
5.900059512009571
 20
6.970562175504825
 10
5.90376409277878
 20
6.975060540509552
 10
5.907757810884725
 20
6.979091444941698
 10
5.912018472858944
 20
6.982632762394035
 10
5.916522571600889
 20
6.985664790846293
 10
5.921245355516458
 20
6.988170610951345
 10
5.923123918542852
 20
6.988995198648283
  0
LINE
  5
19D
330
1F
100
AcDbEntity
  8
0
  6
Continuous
 62
     7
370
    15
100
AcDbLine
 10
5.787369998050347
 20
6.955939874063747
 30
0.0
 11
5.740229549997872
 21
6.968569321086942
 31
0.0
  0
LINE
  5
19E
330
1F
100
AcDbEntity
  8
0
  6
Continuous
 62
     7
370
    15
100
AcDbLine
 10
5.792579102393123
 20
7.084459992060778
 30
0.0
 11
5.740229549997872
 21
6.968569321086942
 31
0.0
  0
LINE
  5
19F
330
1F
100
AcDbEntity
  8
0
  6
Continuous
 62
     7
370
    15
100
AcDbLine
 10
5.839719550445598
 20
7.071830545037584
 30
0.0
 11
5.792579102393123
 21
7.084459992060778
 31
0.0
  0
LINE
  5
1A0
330
1F
100
AcDbEntity
  8
0
  6
Continuous
 62
     7
370
    15
100
AcDbLine
 10
5.979671216849093
 20
6.710002833942194
 30
0.0
 11
5.967414683762202
 21
6.706719173270649
 31
0.0
  0
ARC
  5
1A1
330
1F
100
AcDbEntity
  8
0
  6
Continuous
 62
     7
370
    15
100
AcDbCircle
 10
5.872273302112066
 20
6.712806414385557
 30
0.0
 40
0.1074345016890015
100
AcDbArc
 50
358.5046557529052
 51
53.31310983614134
  0
LINE
  5
1A2
330
1F
100
AcDbEntity
  8
0
  6
Continuous
 62
     7
370
    15
100
AcDbLine
 10
5.542939917047371
 20
6.725719783315051
 30
0.0
 11
5.555196450134262
 21
6.722436122643506
 31
0.0
  0
ARC
  5
1A3
330
1F
100
AcDbEntity
  8
0
  6
Continuous
 62
     7
370
    15
100
AcDbCircle
 10
5.477600908950233
 20
6.732102886621127
 30
0.0
 40
0.0656500570215586
100
AcDbArc
 50
354.4203616463633
 51
58.84919146520439
  0
LINE
  5
1A4
330
1F
100
AcDbEntity
  8
0
  6
Continuous
 62
     7
370
    15
100
AcDbLine
 10
5.79342874580085
 20
6.894859020211958
 30
0.0
 11
5.746288297748375
 21
6.907488467235154
 31
0.0
  0
ARC
  5
1A5
330
1F
100
AcDbEntity
  8
0
  6
Continuous
 62
     7
370
    15
100
AcDbCircle
 10
5.787725159389061
 20
6.942439600420317
 30
0.0
 40
0.0542088112169638
100
AcDbArc
 50
151.1825979778225
 51
220.1469368934412
  0
LINE
  5
1A6
330
1F
100
AcDbEntity
  8
0
  6
Continuous
 62
     7
370
    15
100
AcDbLine
 10
5.979671216849093
 20
6.496202444812556
 30
0.0
 11
5.967414683762202
 21
6.492918784141012
 31
0.0
  0
LINE
  5
1A7
330
1F
100
AcDbEntity
  8
0
  6
Continuous
 62
     7
370
    15
100
AcDbLine
 10
5.979671216849093
 20
6.496202444812556
 30
0.0
 11
5.979671216849093
 21
6.710002833942194
 31
0.0
  0
LWPOLYLINE
  5
1A8
330
1F
100
AcDbEntity
  8
0
  6
Continuous
 62
     7
370
    15
100
AcDbPolyline
 90
       29
 70
   128
 43
0.0
 10
5.650476536289539
 20
7.126538458768584
 10
5.650519056486118
 20
7.126513676719446
 10
5.653670529007154
 20
7.12434182208561
 10
5.656568816227588
 20
7.121662965231125
 10
5.659181077345184
 20
7.118507119086
 10
5.66147785934573
 20
7.114910479534382
 10
5.663432958725965
 20
7.110913315918213
 10
5.665024320294493
 20
7.10656134226341
 10
5.66623389889472
 20
7.101903607783515
 10
5.66704793595897
 20
7.096992947780768
 10
5.66745730520115
 20
7.091885134238069
 10
5.66745730520115
 20
7.086637878227155
 10
5.66704793595897
 20
7.081310527191327
 10
5.66623389889472
 20
7.075963688136297
 10
5.665024320294493
 20
7.070657834706198
 10
5.663432958725965
 20
7.065453174347945
 10
5.66147785934573
 20
7.060408613673433
 10
5.659181077345184
 20
7.055581119153886
 10
5.656568816227588
 20
7.051025754165813
 10
5.653670529007154
 20
7.046793742551073
 10
5.650519056486118
 20
7.042933447685737
 10
5.647150212423549
 20
7.039488188891836
 10
5.643602023011511
 20
7.036497356516679
 10
5.639914865152118
 20
7.033994753337575
 10
5.636130360241045
 20
7.032008486598792
 10
5.63229144330606
 20
7.030561363343696
 10
5.628441602483172
 20
7.0296697446391
 10
5.624624464185458
 20
7.029343434437397
 10
5.624436545658141
 20
7.029342074178376
  0
LINE
  5
1A9
330
1F
100
AcDbEntity
  8
0
  6
Continuous
 62
     7
370
    15
100
AcDbLine
 10
5.274861554616634
 20
5.578943002614606
 30
0.0
 11
5.287118087703524
 21
5.575659341943061
 31
0.0
  0
LINE
  5
1AA
330
1F
100
AcDbEntity
  8
0
  6
Continuous
 62
     7
370
    15
100
AcDbLine
 10
5.52568107296399
 20
5.987885699098045
 30
0.0
 11
5.537937606050881
 21
5.9846020384265
 31
0.0
  0
LINE
  5
1AB
330
1F
100
AcDbEntity
  8
0
  6
Continuous
 62
     7
370
    15
100
AcDbLine
 10
5.52568107296399
 20
5.987885699098045
 30
0.0
 11
5.274861554616634
 21
5.578943002614606
 31
0.0
  0
ARC
  5
1AC
330
1F
100
AcDbEntity
  8
0
  6
Continuous
 62
     7
370
    15
100
AcDbCircle
 10
5.751999155231426
 20
7.102800052270403
 30
0.0
 40
0.0445318977828115
100
AcDbArc
 50
335.6794654390823
 51
359.7350415420378
  0
LINE
  5
1AD
330
1F
100
AcDbEntity
  8
0
  6
Continuous
 62
     7
370
    15
100
AcDbLine
 10
5.803761637539121
 20
6.87149572327846
 30
0.0
 11
5.748917774360196
 21
6.905186561166469
 31
0.0
  0
LINE
  5
1AE
330
1F
100
AcDbEntity
  8
0
  6
Continuous
 62
     7
370
    15
100
AcDbLine
 10
5.797404487888728
 20
6.891378716513392
 30
0.0
 11
5.803761637539121
 21
6.87149572327846
 31
0.0
  0
LINE
  5
1AF
330
1F
100
AcDbEntity
  8
0
  6
Continuous
 62
     7
370
    15
100
AcDbLine
 10
5.746288297748375
 20
6.907488467235154
 30
0.0
 11
5.748917774360196
 21
6.905186561166469
 31
0.0
  0
LINE
  5
1B0
330
1F
100
AcDbEntity
  8
0
  6
Continuous
 62
     7
370
    15
100
AcDbLine
 10
5.805282823498663
 20
6.906282080805635
 30
0.0
 11
5.811639973149056
 21
6.886399087570703
 31
0.0
  0
LINE
  5
1B1
330
1F
100
AcDbEntity
  8
0
  6
Continuous
 62
     7
370
    15
100
AcDbLine
 10
5.803761637539121
 20
6.87149572327846
 30
0.0
 11
5.811639973149056
 21
6.886399087570703
 31
0.0
  0
LINE
  5
1B2
330
1F
100
AcDbEntity
  8
0
  6
Continuous
 62
     7
370
    15
100
AcDbLine
 10
5.499727851189024
 20
6.422962758329678
 30
0.0
 11
5.511984384275915
 21
6.419679097658132
 31
0.0
  0
LWPOLYLINE
  5
1B3
330
1F
100
AcDbEntity
  8
0
  6
Continuous
 62
     7
370
    15
100
AcDbPolyline
 90
       35
 70
   128
 43
0.0
 10
5.499727851189024
 20
6.422962758329678
 10
5.494509897114277
 20
6.419310173133145
 10
5.489429321300671
 20
6.415172700803734
 10
5.484514055714737
 20
6.410572896990536
 10
5.4797913409377
 20
6.405536523395343
 10
5.475287173057221
 20
6.400091080756778
 10
5.471026511083003
 20
6.394266806442121
 10
5.46703286211559
 20
6.38809599809571
 10
5.463328212207849
 20
6.3816126183068
 10
5.459933164642023
 20
6.374852331655515
 10
5.456866386821489
 20
6.3678527333382
 10
5.454144817686345
 20
6.36065227430886
 10
5.451783460297827
 20
6.353290770923976
 10
5.449795381838295
 20
6.345809028133338
 10
5.448191644472713
 20
6.338248067338742
 10
5.446980959655991
 20
6.330649975802024
 10
5.446170172102698
 20
6.323056529069227
 10
5.445763637540289
 20
6.315509777882152
 10
5.445763637540289
 20
6.308051405697884
 10
5.446170172102698
 20
6.300722484715278
 10
5.446980959655991
 20
6.293563475874968
 10
5.448191644472713
 20
6.286614096023703
 10
5.449795381838295
 20
6.279912641562751
 10
5.451783460297827
 20
6.273495966750104
 10
5.454144817686345
 20
6.2673997308488
 10
5.456866386821489
 20
6.261657548718908
 10
5.459933164642023
 20
6.256301197745073
 10
5.463328212207849
 20
6.251360052622782
 10
5.46703286211559
 20
6.246861706141031
 10
5.471026511083003
 20
6.242830783185911
 10
5.475287173057221
 20
6.239289465733573
 10
5.4797913409377
 20
6.236257455804292
 10
5.484514055714737
 20
6.233751617176263
 10
5.489429321300671
 20
6.231785521309725
 10
5.492412994606916
 20
6.230882268156862
  0
LINE
  5
1B4
330
1F
100
AcDbEntity
  8
0
  6
Continuous
 62
     7
370
    15
100
AcDbLine
 10
5.576432280799079
 20
6.36658139530303
 30
0.0
 11
5.576135607362465
 21
6.36725986484361
 31
0.0
  0
LINE
  5
1B5
330
1F
100
AcDbEntity
  8
0
  6
Continuous
 62
     7
370
    15
100
AcDbLine
 10
5.542939917047371
 20
6.511919394185415
 30
0.0
 11
5.555196450134262
 21
6.50863573351387
 31
0.0
  0
LINE
  5
1B6
330
1F
100
AcDbEntity
  8
0
  6
Continuous
 62
     7
370
    15
100
AcDbLine
 10
5.542939917047371
 20
6.725719783315051
 30
0.0
 11
5.542939917047371
 21
6.511919394185415
 31
0.0
  0
ARC
  5
1B7
330
1F
100
AcDbEntity
  8
0
  6
Continuous
 62
     7
370
    15
100
AcDbCircle
 10
5.918085209149438
 20
6.488621098858293
 30
0.0
 40
0.0620508916201864
100
AcDbArc
 50
292.9805533065271
 51
7.017903570560774
  0
LINE
  5
1B8
330
1F
100
AcDbEntity
  8
0
  6
Continuous
 62
     7
370
    15
100
AcDbLine
 10
5.808787109943503
 20
6.895322095060482
 30
0.0
 11
5.808787109943503
 21
6.974237615050558
 31
0.0
  0
ARC
  5
1B9
330
1F
100
AcDbEntity
  8
0
  6
Continuous
 62
     7
370
    15
100
AcDbCircle
 10
5.4355421497994
 20
6.509115742096954
 30
0.0
 40
0.1074343561198308
100
AcDbArc
 50
306.6868499152298
 51
1.4953844957256
  0
SPLINE
  5
1BA
330
1F
100
AcDbEntity
  8
0
  6
Continuous
 62
     7
370
    15
100
AcDbSpline
210
0.0
220
0.0
230
1.0
 70
     8
 71
     3
 72
    15
 73
    11
 74
     0
 42
0.0000000001
 43
0.0000000001
 40
0.0
 40
0.0
 40
0.0
 40
0.0
 40
0.1249997726935234
 40
0.2499997526021455
 40
0.3749993376718966
 40
0.499998993878042
 40
0.6249986500841875
 40
0.7499982351539386
 40
0.8750002273064763
 40
1.0
 40
1.0
 40
1.0
 40
1.0
 10
5.742579776082896
 20
5.750919164348887
 30
0.0
 10
5.74184609836789
 20
5.749875466242064
 30
0.0
 10
5.74037874172164
 20
5.747788068298255
 30
0.0
 10
5.737745502044513
 20
5.744498291717503
 30
0.0
 10
5.734919616857357
 20
5.741072869803139
 30
0.0
 10
5.731973163854985
 20
5.737492671403163
 30
0.0
 10
5.729026717124558
 20
5.733758252124633
 30
0.0
 10
5.726200797957772
 20
5.729869026643816
 30
0.0
 10
5.723567614693983
 20
5.725844136893793
 30
0.0
 10
5.722100236367459
 20
5.723055098840132
 30
0.0
 10
5.721366553717723
 20
5.721660592193527
 30
0.0
  0
ARC
  5
1BB
330
1F
100
AcDbEntity
  8
0
  6
Continuous
 62
     7
370
    15
100
AcDbCircle
 10
5.731973164900309
 20
7.165101595058309
 30
0.0
 40
0.0470924340646684
100
AcDbArc
 50
76.98361880097419
 51
103.0163811990237
  0
ARC
  5
1BC
330
1F
100
AcDbEntity
  8
0
  6
Continuous
 62
     7
370
    15
100
AcDbCircle
 10
5.731973164900309
 20
7.116031923951214
 30
0.0
 40
0.1008612301627641
100
AcDbArc
 50
76.89835840621092
 51
103.1016415937881
  0
LINE
  5
1BD
330
1F
100
AcDbEntity
  8
0
  6
Continuous
 62
     7
370
    15
100
AcDbLine
 10
5.280170218444082
 20
5.568277308551248
 30
0.0
 11
5.292426751530972
 21
5.564993647879703
 31
0.0
  0
ARC
  5
1BE
330
1F
100
AcDbEntity
  8
0
  6
Continuous
 62
     7
370
    15
100
AcDbCircle
 10
5.256885779941708
 20
5.56334187862383
 30
0.0
 40
0.0238017550810714
100
AcDbArc
 50
11.9674351977073
 51
40.95462041276522
  0
LINE
  5
1BF
330
1F
100
AcDbEntity
  8
0
  6
Continuous
 62
     7
370
    15
100
AcDbLine
 10
5.660725286435558
 20
5.663664895766867
 30
0.0
 11
5.657610457335962
 21
5.657002063348971
 31
0.0
  0
SPLINE
  5
1C0
330
1F
100
AcDbEntity
  8
0
  6
Continuous
 62
     7
370
    15
100
AcDbSpline
210
0.0
220
0.0
230
1.0
 70
     8
 71
     3
 72
    15
 73
    11
 74
     0
 42
0.0000000001
 43
0.0000000001
 40
0.0
 40
0.0
 40
0.0
 40
0.0
 40
0.1645349753091022
 40
0.3256488462780375
 40
0.4843942909746925
 40
0.6418789786537312
 40
0.7468076161769922
 40
0.8520141474360103
 40
0.9441254268521483
 40
1.0
 40
1.0
 40
1.0
 40
1.0
 10
5.657610457335962
 20
5.657002063348971
 30
0.0
 10
5.656722088733699
 20
5.655374885381248
 30
0.0
 10
5.654963822992002
 20
5.652154362651157
 30
0.0
 10
5.651997691509526
 20
5.647714783352744
 30
0.0
 10
5.648843013198977
 20
5.643795147723844
 30
0.0
 10
5.645870860651338
 20
5.640889104016839
 30
0.0
 10
5.643193886237695
 20
5.638838777563114
 30
0.0
 10
5.640953831518307
 20
5.637517729424406
 30
0.0
 10
5.639084648979566
 20
5.636672165007738
 30
0.0
 10
5.637973819216349
 20
5.636375150176847
 30
0.0
 10
5.637554406564501
 20
5.636263007180695
 30
0.0
  0
SPLINE
  5
1C1
330
1F
100
AcDbEntity
  8
0
  6
Continuous
 62
     7
370
    15
100
AcDbSpline
210
0.0
220
0.0
230
1.0
 70
     8
 71
     3
 72
    18
 73
    14
 74
     0
 42
0.0000000001
 43
0.0000000001
 40
0.0
 40
0.0
 40
0.0
 40
0.0
 40
0.1226063169614157
 40
0.2394563738273163
 40
0.3145652599003548
 40
0.3876711575236161
 40
0.4590278966585691
 40
0.5644032683493208
 40
0.6891940127463795
 40
0.7592021857038355
 40
0.8343107756940607
 40
0.9145639188639446
 40
1.0
 40
1.0
 40
1.0
 40
1.0
 10
5.263901092432278
 20
5.538450602020531
 30
0.0
 10
5.265943963483415
 20
5.538368250670965
 30
0.0
 10
5.26993379456411
 20
5.538207414296171
 30
0.0
 10
5.274896374844414
 20
5.538989781701195
 30
0.0
 10
5.278785580672999
 20
5.540184432514672
 30
0.0
 10
5.28176036488776
 20
5.541558038037789
 30
0.0
 10
5.284821085118315
 20
5.543534061852785
 30
0.0
 10
5.28787247222933
 20
5.54650078476291
 30
0.0
 10
5.290071200770353
 20
5.550143192016667
 30
0.0
 10
5.291438769223322
 20
5.553839820760301
 30
0.0
 10
5.292194831977923
 20
5.557156207449879
 30
0.0
 10
5.292603778587588
 20
5.56090038600746
 30
0.0
 10
5.29248697842824
 20
5.563601067180548
 30
0.0
 10
5.292426751530972
 20
5.564993647879703
 30
0.0
  0
SPLINE
  5
1C2
330
1F
100
AcDbEntity
  8
0
  6
Continuous
 62
     7
370
    15
100
AcDbSpline
210
0.0
220
0.0
230
1.0
 70
     8
 71
     3
 72
    15
 73
    11
 74
     0
 42
0.0000000001
 43
0.0000000001
 40
0.0
 40
0.0
 40
0.0
 40
0.0
 40
0.0426752893947057
 40
0.198881737837188
 40
0.2711124699550389
 40
0.3399744471761199
 40
0.470509909942361
 40
0.6217602886974928
 40
0.797465045174986
 40
1.0
 40
1.0
 40
1.0
 40
1.0
 10
5.270398662439176
 20
5.55588972548366
 30
0.0
 10
5.270679414260091
 20
5.555937127436425
 30
0.0
 10
5.271987815698873
 20
5.556158037074682
 30
0.0
 10
5.273670814037996
 20
5.556758822258973
 30
0.0
 10
5.275382745262741
 20
5.557555432510347
 30
0.0
 10
5.276833131099229
 20
5.558419889736975
 30
0.0
 10
5.27838917735346
 20
5.559770870403457
 30
0.0
 10
5.279722642220302
 20
5.561916434326649
 30
0.0
 10
5.280503948088234
 20
5.564791882698401
 30
0.0
 10
5.280286600790531
 20
5.567061827558665
 30
0.0
 10
5.280170218444082
 20
5.568277308551248
 30
0.0
  0
LINE
  5
1C3
330
1F
100
AcDbEntity
  8
0
  6
Continuous
 62
     7
370
    15
100
AcDbLine
 10
5.263901092432278
 20
5.538450602020531
 30
0.0
 11
5.263901092432278
 21
5.553413693916219
 31
0.0
  0
LINE
  5
1C4
330
1F
100
AcDbEntity
  8
0
  6
Continuous
 62
     7
370
    15
100
AcDbLine
 10
5.811301194347049
 20
6.885758297056625
 30
0.0
 11
5.827620445793844
 21
6.842873466623689
 31
0.0
  0
LINE
  5
1C5
330
1F
100
AcDbEntity
  8
0
  6
Continuous
 62
     7
370
    15
100
AcDbLine
 10
5.227359684893243
 20
5.534204292995125
 30
0.0
 11
5.227359684893243
 21
5.543623862674838
 31
0.0
  0
ARC
  5
1C6
330
1F
100
AcDbEntity
  8
0
  6
Continuous
 62
     7
370
    15
100
AcDbCircle
 10
5.243676036064758
 20
5.470915318372337
 30
0.0
 40
0.0653583783791809
100
AcDbArc
 50
96.3355799198892
 51
104.4564688186518
  0
LINE
  5
1C7
330
1F
100
AcDbEntity
  8
0
  6
Continuous
 62
     7
370
    15
100
AcDbLine
 10
5.209780003456655
 20
5.538914083940279
 30
0.0
 11
5.227359684893243
 21
5.534204292995125
 31
0.0
  0
LINE
  5
1C8
330
1F
100
AcDbEntity
  8
0
  6
Continuous
 62
     7
370
    15
100
AcDbLine
 10
5.252491368073342
 20
5.537768937959758
 30
0.0
 11
5.236463639242601
 21
5.535874528315469
 31
0.0
  0
ARC
  5
1C9
330
1F
100
AcDbEntity
  8
0
  6
Continuous
 62
     7
370
    15
100
AcDbCircle
 10
5.264363116210653
 20
5.434888149574631
 30
0.0
 40
0.1035634830554718
100
AcDbArc
 50
90.25561230239468
 51
96.58243266345872
  0
LINE
  5
1CA
330
1F
100
AcDbEntity
  8
0
  6
Continuous
 62
     7
370
    15
100
AcDbLine
 10
5.936459150990746
 20
6.236950674395924
 30
0.0
 11
5.924202617903854
 21
6.233667013724379
 31
0.0
  0
LWPOLYLINE
  5
1CB
330
1F
100
AcDbEntity
  8
0
  6
Continuous
 62
     7
370
    15
100
AcDbPolyline
 90
       34
 70
   128
 43
0.0
 10
5.936459150990746
 20
6.236950674395924
 10
5.931241196915999
 20
6.240603259592456
 10
5.926160621102392
 20
6.244740731921866
 10
5.921245355516458
 20
6.249340535735065
 10
5.916522571600889
 20
6.254376927853234
 10
5.912018472858944
 20
6.259822351968823
 10
5.907757810884725
 20
6.26564662628348
 10
5.90376409277878
 20
6.271817453152868
 10
5.900059512009571
 20
6.278300814418802
 10
5.896664464443745
 20
6.285061101070087
 10
5.89359768662321
 20
6.292060699387401
 10
5.890876048349537
 20
6.299261176939717
 10
5.888514760099549
 20
6.306622661801625
 10
5.886526681640017
 20
6.314104592996845
 10
5.884922944274435
 20
6.321665365386857
 10
5.883712259457712
 20
6.329263456923578
 10
5.882901471904419
 20
6.336856903656374
 10
5.882494937342011
 20
6.344403654843449
 10
5.882494937342011
 20
6.351862027027717
 10
5.882901471904419
 20
6.359190948010322
 10
5.883712259457712
 20
6.366349956850633
 10
5.884922944274435
 20
6.373299336701898
 10
5.886526681640017
 20
6.380000979567432
 10
5.888514760099549
 20
6.386417465975497
 10
5.890876048349537
 20
6.392513720399778
 10
5.89359768662321
 20
6.398255884006694
 10
5.896664464443745
 20
6.403612234980528
 10
5.900059512009571
 20
6.408553380102819
 10
5.90376409277878
 20
6.413051745107546
 10
5.907757810884725
 20
6.417082649539691
 10
5.912018472858944
 20
6.420623966992027
 10
5.916522571600889
 20
6.423655995444285
 10
5.921245355516458
 20
6.426161815549337
 10
5.923123918542852
 20
6.426986403246275
  0
LINE
  5
1CC
330
1F
100
AcDbEntity
  8
0
  6
Continuous
 62
     7
370
    15
100
AcDbLine
 10
5.979671216849093
 20
6.147993944337895
 30
0.0
 11
5.967414683762202
 21
6.144710283666349
 31
0.0
  0
ARC
  5
1CD
330
1F
100
AcDbEntity
  8
0
  6
Continuous
 62
     7
370
    15
100
AcDbCircle
 10
5.872273210564256
 20
6.150797571543879
 30
0.0
 40
0.1074345944259479
100
AcDbArc
 50
358.5046320965731
 51
53.313085799457
  0
LINE
  5
1CE
330
1F
100
AcDbEntity
  8
0
  6
Continuous
 62
     7
370
    15
100
AcDbLine
 10
5.542939917047371
 20
6.163710893710753
 30
0.0
 11
5.555196450134262
 21
6.160427233039208
 31
0.0
  0
ARC
  5
1CF
330
1F
100
AcDbEntity
  8
0
  6
Continuous
 62
     7
370
    15
100
AcDbCircle
 10
5.477601044269822
 20
6.170094149474178
 30
0.0
 40
0.0656499371666272
100
AcDbArc
 50
354.4202177373585
 51
58.84926623585701
  0
LINE
  5
1D0
330
1F
100
AcDbEntity
  8
0
  6
Continuous
 62
     7
370
    15
100
AcDbLine
 10
5.967414683762202
 20
6.030280311580717
 30
0.0
 11
5.979671216849093
 21
6.033563972252262
 31
0.0
  0
LINE
  5
1D1
330
1F
100
AcDbEntity
  8
0
  6
Continuous
 62
     7
370
    15
100
AcDbLine
 10
5.979671216849093
 20
6.033563972252262
 30
0.0
 11
5.979671216849093
 21
6.147993944337895
 31
0.0
  0
LINE
  5
1D2
330
1F
100
AcDbEntity
  8
0
  6
Continuous
 62
     7
370
    15
100
AcDbLine
 10
5.962412303627181
 20
5.98141643839292
 30
0.0
 11
5.950155770540289
 21
5.978132777721374
 31
0.0
  0
ARC
  5
1D3
330
1F
100
AcDbEntity
  8
0
  6
Continuous
 62
     7
370
    15
100
AcDbCircle
 10
5.902840718814662
 20
6.030062238330838
 30
0.0
 40
0.0769102565895807
100
AcDbArc
 50
320.7651299573037
 51
2.609586384436073
  0
LINE
  5
1D4
330
1F
100
AcDbEntity
  8
0
  6
Continuous
 62
     7
370
    15
100
AcDbLine
 10
5.542939917047371
 20
6.04928092162512
 30
0.0
 11
5.555196450134262
 21
6.045997260953575
 31
0.0
  0
LINE
  5
1D5
330
1F
100
AcDbEntity
  8
0
  6
Continuous
 62
     7
370
    15
100
AcDbLine
 10
5.542939917047371
 20
6.163710893710753
 30
0.0
 11
5.542939917047371
 21
6.04928092162512
 31
0.0
  0
LINE
  5
1D6
330
1F
100
AcDbEntity
  8
0
  6
Continuous
 62
     7
370
    15
100
AcDbLine
 10
5.754836309169787
 20
5.754202825020432
 30
0.0
 11
5.742579776082896
 21
5.750919164348887
 31
0.0
  0
LINE
  5
1D7
330
1F
100
AcDbEntity
  8
0
  6
Continuous
 62
     7
370
    15
100
AcDbLine
 10
5.754836309169787
 20
5.754202825020432
 30
0.0
 11
5.962412303627181
 21
5.98141643839292
 31
0.0
  0
ARC
  5
1D8
330
1F
100
AcDbEntity
  8
0
  6
Continuous
 62
     7
370
    15
100
AcDbCircle
 10
5.423669391960569
 20
6.049685690450306
 30
0.0
 40
0.1192712119175599
100
AcDbArc
 50
328.7919786485096
 51
359.805555846164
  0
LINE
  5
1D9
330
1F
100
AcDbEntity
  8
0
  6
Continuous
 62
     7
370
    15
100
AcDbLine
 10
5.699597042731949
 20
5.686167012657505
 30
0.0
 11
5.687340509645057
 21
5.689450673329051
 31
0.0
  0
LINE
  5
1DA
330
1F
100
AcDbEntity
  8
0
  6
Continuous
 62
     7
370
    15
100
AcDbLine
 10
5.685848776699732
 20
5.690898893725986
 30
0.0
 11
5.687340509645057
 21
5.689450673329051
 31
0.0
  0
SPLINE
  5
1DB
330
1F
100
AcDbEntity
  8
0
  6
Continuous
 62
     7
370
    15
100
AcDbSpline
210
0.0
220
0.0
230
1.0
 70
     8
 71
     3
 72
     9
 73
     5
 74
     0
 42
0.0000000001
 43
0.0000000001
 40
0.0
 40
0.0
 40
0.0
 40
0.0
 40
0.6514885928237195
 40
0.9999999999999998
 40
0.9999999999999998
 40
0.9999999999999998
 40
0.9999999999999998
 10
5.754836309169787
 20
5.754202825020432
 30
0.0
 10
5.753278031521
 20
5.753372882270524
 30
0.0
 10
5.750886159021695
 20
5.752098964723772
 30
0.0
 10
5.747964464039251
 20
5.750612565477906
 30
0.0
 10
5.746946220009578
 20
5.750094538385104
 30
0.0
  0
LINE
  5
1DC
330
1F
100
AcDbEntity
  8
0
  6
Continuous
 62
     7
370
    15
100
AcDbLine
 10
7.126543572002794
 20
7.027870011332218
 30
0.0
 11
6.831915754390191
 21
6.948935962806506
 31
0.0
  0
LINE
  5
1DD
330
1F
100
AcDbEntity
  8
0
  6
Continuous
 62
     7
370
    15
100
AcDbLine
 10
6.831915806244088
 20
6.885788704536811
 30
0.0
 11
6.559308368777074
 21
6.907475030415342
 31
0.0
  0
LINE
  5
1DE
330
1F
100
AcDbEntity
  8
0
  6
Continuous
 62
     7
370
    15
100
AcDbLine
 10
6.559308368777074
 20
6.907475030415342
 30
0.0
 11
6.242660153734251
 21
6.822641474051581
 31
0.0
  0
LINE
  5
1DF
330
1F
100
AcDbEntity
  8
0
  6
Continuous
 62
     7
370
    15
100
AcDbLine
 10
3.557338276250618
 20
7.542068882848244
 30
0.0
 11
3.592222122077671
 21
7.532723115019571
 31
0.0
  0
LINE
  5
1E0
330
1F
100
AcDbEntity
  8
0
  6
Continuous
 62
     7
370
    15
100
AcDbLine
 10
3.631291476295722
 20
7.522256003235269
 30
0.0
 11
4.472020991495137
 21
7.297015274483014
 31
0.0
  0
LINE
  5
1E1
330
1F
100
AcDbEntity
  8
0
  6
Continuous
 62
     7
370
    15
100
AcDbLine
 10
5.808787109943503
 20
6.938880857590064
 30
0.0
 11
5.843671024909086
 21
6.929535071238414
 31
0.0
  0
LINE
  5
1E2
330
1F
100
AcDbEntity
  8
0
  6
Continuous
 62
     7
370
    15
100
AcDbLine
 10
5.882740309988608
 20
6.919067977977089
 30
0.0
 11
6.242660153734251
 21
6.822641474051581
 31
0.0
  0
LINE
  5
1E3
330
1F
100
AcDbEntity
  8
0
  6
Continuous
 62
     7
370
    15
100
AcDbLine
 10
6.242660153734251
 20
6.34091978399599
 30
0.0
 11
6.242660153734251
 21
6.822641474051581
 31
0.0
  0
LINE
  5
1E4
330
1F
100
AcDbEntity
  8
0
  6
Continuous
 62
     7
370
    15
100
AcDbLine
 10
5.922458875012953
 20
6.426705245387199
 30
0.0
 11
6.242660153734251
 21
6.34091978399599
 31
0.0
  0
LINE
  5
1E5
330
1F
100
AcDbEntity
  8
0
  6
Continuous
 62
     7
370
    15
100
AcDbLine
 10
6.559308368777074
 20
6.425753340359749
 30
0.0
 11
6.559308368777074
 21
6.907475030415342
 31
0.0
  0
LINE
  5
1E6
330
1F
100
AcDbEntity
  8
0
  6
Continuous
 62
     7
370
    15
100
AcDbLine
 10
6.559308368777074
 20
6.425753340359749
 30
0.0
 11
6.242660153734251
 21
6.34091978399599
 31
0.0
  0
LINE
  5
1E7
330
1F
100
AcDbEntity
  8
0
  6
Continuous
 62
     7
370
    15
100
AcDbLine
 10
6.831915806244088
 20
6.40406701448122
 30
0.0
 11
6.831915806244088
 21
6.885788704536811
 31
0.0
  0
LINE
  5
1E8
330
1F
100
AcDbEntity
  8
0
  6
Continuous
 62
     7
370
    15
100
AcDbLine
 10
6.831915806244088
 20
6.40406701448122
 30
0.0
 11
6.559308368777074
 21
6.425753340359749
 31
0.0
  0
LINE
  5
1E9
330
1F
100
AcDbEntity
  8
0
  6
Continuous
 62
     7
370
    15
100
AcDbLine
 10
7.126543572002794
 20
6.546148321276627
 30
0.0
 11
7.126543572002794
 21
7.027870011332218
 31
0.0
  0
LINE
  5
1EA
330
1F
100
AcDbEntity
  8
0
  6
Continuous
 62
     7
370
    15
100
AcDbLine
 10
7.126543572002794
 20
6.546148321276627
 30
0.0
 11
6.831915754390191
 21
6.467214272750915
 31
0.0
  0
LINE
  5
1EB
330
1F
100
AcDbEntity
  8
0
  6
Continuous
 62
     7
370
    15
100
AcDbLine
 10
6.559308368777074
 20
7.389196908875514
 30
0.0
 11
6.831915806244088
 21
7.367510582996985
 31
0.0
  0
LINE
  5
1EC
330
1F
100
AcDbEntity
  8
0
  6
Continuous
 62
     7
370
    15
100
AcDbLine
 10
6.242660153734251
 20
7.304363352511753
 30
0.0
 11
6.559308368777074
 21
7.389196908875514
 31
0.0
  0
LINE
  5
1ED
330
1F
100
AcDbEntity
  8
0
  6
Continuous
 62
     7
370
    15
100
AcDbLine
 10
6.242660153734251
 20
7.304363352511753
 30
0.0
 11
2.471423894705063
 21
8.314719225505205
 31
0.0
  0
LINE
  5
1EE
330
1F
100
AcDbEntity
  8
0
  6
Continuous
 62
     7
370
    15
100
AcDbLine
 10
2.788072109747885
 20
8.399552781868964
 30
0.0
 11
2.471423894705063
 21
8.314719225505205
 31
0.0
  0
LINE
  5
1EF
330
1F
100
AcDbEntity
  8
0
  6
Continuous
 62
     7
370
    15
100
AcDbLine
 10
2.707126117682806
 20
8.472587327187373
 30
0.0
 11
2.788072109747885
 21
8.399552781868964
 31
0.0
  0
LINE
  5
1F0
330
1F
100
AcDbEntity
  8
0
  6
Continuous
 62
     7
370
    15
100
AcDbLine
 10
2.859971273174863
 20
8.450388887314108
 30
0.0
 11
2.707126117682806
 21
8.472587327187373
 31
0.0
  0
LINE
  5
1F1
330
1F
100
AcDbEntity
  8
0
  6
Continuous
 62
     7
370
    15
100
AcDbLine
 10
3.237456400258011
 20
8.551521324774899
 30
0.0
 11
2.859971273174863
 21
8.450388887314108
 31
0.0
  0
LINE
  5
1F2
330
1F
100
AcDbEntity
  8
0
  6
Continuous
 62
     7
370
    15
100
AcDbLine
 10
3.237456400258011
 20
8.551521324774899
 30
0.0
 11
7.126543572002794
 21
7.509591889792392
 31
0.0
  0
LINE
  5
1F3
330
1F
100
AcDbEntity
  8
0
  6
Continuous
 62
     7
370
    15
100
AcDbLine
 10
6.749058444919646
 20
7.4084594523316
 30
0.0
 11
7.126543572002794
 21
7.509591889792392
 31
0.0
  0
LINE
  5
1F4
330
1F
100
AcDbEntity
  8
0
  6
Continuous
 62
     7
370
    15
100
AcDbLine
 10
6.831915806244088
 20
7.367510582996985
 30
0.0
 11
6.749058444919646
 21
7.4084594523316
 31
0.0
  0
LINE
  5
1F5
330
1F
100
AcDbEntity
  8
0
  6
Continuous
 62
     7
370
    15
100
AcDbLine
 10
6.242660153734251
 20
7.304363352511753
 30
0.0
 11
6.242660153734251
 21
6.822641474051581
 31
0.0
  0
LINE
  5
1F6
330
1F
100
AcDbEntity
  8
0
  6
Continuous
 62
     7
370
    15
100
AcDbLine
 10
6.559308368777074
 20
7.389196908875514
 30
0.0
 11
6.559308368777074
 21
6.907475030415342
 31
0.0
  0
LINE
  5
1F7
330
1F
100
AcDbEntity
  8
0
  6
Continuous
 62
     7
370
    15
100
AcDbLine
 10
2.471423894705063
 20
8.314719225505205
 30
0.0
 11
2.471423894705063
 21
7.967409320683986
 31
0.0
  0
LINE
  5
1F8
330
1F
100
AcDbEntity
  8
0
  6
Continuous
 62
     7
370
    15
100
AcDbLine
 10
6.831915806244088
 20
7.367510582996985
 30
0.0
 11
6.831915806244088
 21
6.885788704536811
 31
0.0
  0
LINE
  5
1F9
330
1F
100
AcDbEntity
  8
0
  6
Continuous
 62
     7
370
    15
100
AcDbLine
 10
7.126543572002794
 20
7.509591889792392
 30
0.0
 11
7.126543572002794
 21
7.027870011332218
 31
0.0
  0
LINE
  5
1FA
330
1F
100
AcDbEntity
  8
0
  6
Continuous
 62
     7
370
    15
100
AcDbLine
 10
2.707126117682806
 20
8.472587327187373
 30
0.0
 11
2.707126117682806
 21
8.377866546820449
 31
0.0
  0
LINE
  5
1FB
330
1F
100
AcDbEntity
  8
0
  6
Continuous
 62
     7
370
    15
100
AcDbLine
 10
6.714064703397535
 20
4.571900499248672
 30
0.0
 11
7.008692521010138
 21
4.650834547774384
 31
0.0
  0
LINE
  5
1FC
330
1F
100
AcDbEntity
  8
0
  6
Continuous
 62
     7
370
    15
100
AcDbLine
 10
7.008692521010138
 20
4.650834547774384
 30
0.0
 11
7.008692521010138
 21
6.385574304567746
 31
0.0
  0
LINE
  5
1FD
330
1F
100
AcDbEntity
  8
0
  6
Continuous
 62
     7
370
    15
100
AcDbLine
 10
6.183734628237923
 20
4.429819210976241
 30
0.0
 11
2.530349558478453
 21
5.408601447888728
 31
0.0
  0
LINE
  5
1FE
330
1F
100
AcDbEntity
  8
0
  6
Continuous
 62
     7
370
    15
100
AcDbLine
 10
2.530349558478453
 20
5.408601447888728
 30
0.0
 11
2.530349558478453
 21
6.027441119492173
 31
0.0
  0
LINE
  5
1FF
330
1F
100
AcDbEntity
  8
0
  6
Continuous
 62
     7
370
    15
100
AcDbLine
 10
3.652812503401004
 20
6.874194569882404
 30
0.0
 11
3.662212716355791
 21
6.871676148941919
 31
0.0
  0
LINE
  5
200
330
1F
100
AcDbEntity
  8
0
  6
Continuous
 62
     7
370
    15
100
AcDbLine
 10
5.90426133709389
 20
6.271006544624224
 30
0.0
 11
6.183734628237923
 21
6.196132561225245
 31
0.0
  0
LINE
  5
201
330
1F
100
AcDbEntity
  8
0
  6
Continuous
 62
     7
370
    15
100
AcDbLine
 10
6.183734628237923
 20
6.196132561225245
 30
0.0
 11
6.183734628237923
 21
4.429819210976241
 31
0.0
  0
LINE
  5
202
330
1F
100
AcDbEntity
  8
0
  6
Continuous
 62
     7
370
    15
100
AcDbLine
 10
6.537287988631486
 20
6.259279820443564
 30
0.0
 11
6.537287988631486
 21
4.524540063650203
 31
0.0
  0
LINE
  5
203
330
1F
100
AcDbEntity
  8
0
  6
Continuous
 62
     7
370
    15
100
AcDbLine
 10
6.537287988631486
 20
4.524540063650203
 30
0.0
 11
6.183734628237923
 21
4.429819210976241
 31
0.0
  0
LINE
  5
204
330
1F
100
AcDbEntity
  8
0
  6
Continuous
 62
     7
370
    15
100
AcDbLine
 10
7.067618046506466
 20
6.401361098505881
 30
0.0
 11
7.067618046506466
 21
6.53036133893391
 31
0.0
  0
LINE
  5
205
330
1F
100
AcDbEntity
  8
0
  6
Continuous
 62
     7
370
    15
100
AcDbLine
 10
6.714064651543637
 20
6.306640236570431
 30
0.0
 11
7.067618046506466
 21
6.401361098505881
 31
0.0
  0
LINE
  5
206
330
1F
100
AcDbEntity
  8
0
  6
Continuous
 62
     7
370
    15
100
AcDbLine
 10
6.714064651543637
 20
3.57688327070452
 30
0.0
 11
6.714064651543637
 21
6.306640236570431
 31
0.0
  0
LINE
  5
207
330
1F
100
AcDbEntity
  8
0
  6
Continuous
 62
     7
370
    15
100
AcDbLine
 10
6.714064651543637
 20
3.57688327070452
 30
0.0
 11
7.067618046506466
 21
3.671604132639969
 31
0.0
  0
LINE
  5
208
330
1F
100
AcDbEntity
  8
0
  6
Continuous
 62
     7
370
    15
100
AcDbLine
 10
7.067618046506466
 20
3.671604132639969
 30
0.0
 11
7.067618046506466
 21
3.511030110351718
 31
0.0
  0
LINE
  5
209
330
1F
100
AcDbEntity
  8
0
  6
Continuous
 62
     7
370
    15
100
AcDbLine
 10
6.242660153734251
 20
3.290014773553576
 30
0.0
 11
7.067618046506466
 21
3.511030110351718
 31
0.0
  0
LINE
  5
20A
330
1F
100
AcDbEntity
  8
0
  6
Continuous
 62
     7
370
    15
100
AcDbLine
 10
6.242660153734251
 20
3.450588795841827
 30
0.0
 11
6.242660153734251
 21
3.290014773553576
 31
0.0
  0
LINE
  5
20B
330
1F
100
AcDbEntity
  8
0
  6
Continuous
 62
     7
370
    15
100
AcDbLine
 10
6.596213514127816
 20
3.545309648515788
 30
0.0
 11
6.242660153734251
 21
3.450588795841827
 31
0.0
  0
LINE
  5
20C
330
1F
100
AcDbEntity
  8
0
  6
Continuous
 62
     7
370
    15
100
AcDbLine
 10
6.596213514127816
 20
3.545309648515788
 30
0.0
 11
6.596213514127816
 21
6.275066614381699
 31
0.0
  0
LINE
  5
20D
330
1F
100
AcDbEntity
  8
0
  6
Continuous
 62
     7
370
    15
100
AcDbLine
 10
6.596213514127816
 20
6.275066614381699
 30
0.0
 11
6.242660153734251
 21
6.180345761707738
 31
0.0
  0
LINE
  5
20E
330
1F
100
AcDbEntity
  8
0
  6
Continuous
 62
     7
370
    15
100
AcDbLine
 10
6.242660153734251
 20
6.180345761707738
 30
0.0
 11
6.242660153734251
 21
6.34091978399599
 31
0.0
  0
LINE
  5
20F
330
1F
100
AcDbEntity
  8
0
  6
Continuous
 62
     7
370
    15
100
AcDbLine
 10
6.242660153734251
 20
6.180345761707738
 30
0.0
 11
5.90426133709389
 21
6.271006544624224
 31
0.0
  0
LINE
  5
210
330
1F
100
AcDbEntity
  8
0
  6
Continuous
 62
     7
370
    15
100
AcDbLine
 10
6.596213514127816
 20
3.545309648515788
 30
0.0
 11
2.824977255098627
 21
4.55566552150924
 31
0.0
  0
LINE
  5
211
330
1F
100
AcDbEntity
  8
0
  6
Continuous
 62
     7
370
    15
100
AcDbLine
 10
2.824977255098627
 20
4.55566552150924
 30
0.0
 11
2.824977255098627
 21
5.329667411538292
 31
0.0
  0
LINE
  5
212
330
1F
100
AcDbEntity
  8
0
  6
Continuous
 62
     7
370
    15
100
AcDbLine
 10
6.242660153734251
 20
3.450588795841827
 30
0.0
 11
2.471423894705063
 21
4.460944668835279
 31
0.0
  0
LINE
  5
213
330
1F
100
AcDbEntity
  8
0
  6
Continuous
 62
     7
370
    15
100
AcDbLine
 10
2.824977255098627
 20
4.55566552150924
 30
0.0
 11
2.471423894705063
 21
4.460944668835279
 31
0.0
  0
LINE
  5
214
330
1F
100
AcDbEntity
  8
0
  6
Continuous
 62
     7
370
    15
100
AcDbLine
 10
6.242660153734251
 20
3.290014773553576
 30
0.0
 11
2.471423894705063
 21
4.300370646547027
 31
0.0
  0
LINE
  5
215
330
1F
100
AcDbEntity
  8
0
  6
Continuous
 62
     7
370
    15
100
AcDbLine
 10
2.471423894705063
 20
4.460944668835279
 30
0.0
 11
2.471423894705063
 21
4.300370646547027
 31
0.0
  0
LINE
  5
216
330
1F
100
AcDbEntity
  8
0
  6
Continuous
 62
     7
370
    15
100
AcDbLine
 10
7.067618046506466
 20
3.671604132639969
 30
0.0
 11
6.714064686112903
 21
3.766324985313931
 31
0.0
  0
ARC
  5
217
330
1F
100
AcDbEntity
  8
0
  6
Continuous
 62
     7
370
    15
100
AcDbCircle
 10
3.610133645632451
 20
6.696514836582719
 30
0.0
 40
0.0534659470132418
100
AcDbArc
 50
13.07859634843904
 51
71.10937861663316
  0
ARC
  5
218
330
1F
100
AcDbEntity
  8
0
  6
Continuous
 62
     7
370
    15
100
AcDbCircle
 10
3.627306090782585
 20
6.678986316628649
 30
0.0
 40
0.0370178807056923
100
AcDbArc
 50
313.7458930317649
 51
340.5558819532627
  0
LWPOLYLINE
  5
219
330
1F
100
AcDbEntity
  8
0
  6
Continuous
 62
     7
370
    15
100
AcDbPolyline
 90
       25
 70
   128
 43
0.0
 10
3.594646533806481
 20
6.686502680271542
 10
3.596284702160512
 20
6.681399935641665
 10
3.59827727462456
 20
6.676465914446277
 10
3.600601850314576
 20
6.671756451141704
 10
3.603232156588769
 20
6.667324931986193
 10
3.606138187324678
 20
6.663221504375635
 10
3.609287309135659
 20
6.659492686273644
 10
3.612643569985582
 20
6.656180892025291
 10
3.616168943682384
 20
6.653323439527484
 10
3.619823744709258
 20
6.650952721697987
 10
3.623566213393469
 20
6.649095658197238
 10
3.627354313508154
 20
6.647773308033253
 10
3.631144764332893
 20
6.647000657871838
 10
3.634894976532578
 20
6.646786386000122
 10
3.638562222495037
 20
6.647132990399986
 10
3.642104880824594
 20
6.648036549536772
 10
3.645483127727382
 20
6.649486725534101
 10
3.648658383903089
 20
6.651467194964558
 10
3.651594835592648
 20
6.653955523951081
 10
3.654259019747042
 20
6.656923467709403
 10
3.656621068520871
 20
6.660337296550508
 10
3.658654017887037
 20
6.664158546324144
 10
3.660334775576177
 20
6.66834375909715
 10
3.661644397630792
 20
6.672845633691334
 10
3.662212716355791
 20
6.675500320487586
  0
LWPOLYLINE
  5
21A
330
1F
100
AcDbEntity
  8
0
  6
Continuous
 62
     7
370
    15
100
AcDbPolyline
 90
       33
 70
   128
 43
0.0
 10
3.662212716355791
 20
6.69851384596621
 10
3.661188498157234
 20
6.703473113675024
 10
3.659734929681031
 20
6.708638596885988
 10
3.657917001146344
 20
6.713664118005684
 10
3.655755315835416
 20
6.718492722736232
 10
3.65327434878823
 20
6.723069716573246
 10
3.650502170248379
 20
6.727343209909196
 10
3.647470307386011
 20
6.731264908697694
 10
3.644213052912511
 20
6.734790205480958
 10
3.640767326803446
 20
6.737879252660976
 10
3.637172123190313
 20
6.740497016481022
 10
3.633468233806412
 20
6.74261391633131
 10
3.629697694878607
 20
6.744205784528224
 10
3.625902957464944
 20
6.745254842208365
 10
3.622127302285843
 20
6.745749022976945
 10
3.618413318676414
 20
6.745682757222434
 10
3.614803181140579
 20
6.74505680382237
 10
3.611337819688704
 20
6.743878284014484
 10
3.608056505006409
 20
6.742160415725406
 10
3.604996295346321
 20
6.739922944361347
 10
3.602192036528077
 20
6.737190918178313
 10
3.599675255721821
 20
6.733995549863482
 10
3.597474714556459
 20
6.730372843721605
 10
3.595615164626097
 20
6.726363929088586
 10
3.594117900598288
 20
6.722014158529338
 10
3.592999653997542
 20
6.717372933193961
 10
3.592273146313564
 20
6.712492801015593
 10
3.591946812447142
 20
6.707429059790869
 10
3.592023971047762
 20
6.702239037432723
 10
3.592504069007177
 20
6.696981570152237
 10
3.593381575242906
 20
6.691716262601055
 10
3.594646533806481
 20
6.686502680271542
 10
3.594646533806481
 20
6.686502680271542
  0
ARC
  5
21B
330
1F
100
AcDbEntity
  8
0
  6
Continuous
 62
     7
370
    15
100
AcDbCircle
 10
3.629731851413673
 20
6.711098500195667
 30
0.0
 40
0.0405734473833161
100
AcDbArc
 50
36.81799828388211
 51
76.26621030978411
  0
ARC
  5
21C
330
1F
100
AcDbEntity
  8
0
  6
Continuous
 62
     7
370
    15
100
AcDbCircle
 10
3.270230813569295
 20
7.486987567824017
 30
0.0
 40
0.0520838867775369
100
AcDbArc
 50
195.5706596443293
 51
15.02203269022721
  0
ARC
  5
21D
330
1F
100
AcDbEntity
  8
0
  6
Continuous
 62
     7
370
    15
100
AcDbCircle
 10
3.604899720563251
 20
7.650116542099503
 30
0.0
 40
0.0611991361633764
100
AcDbArc
 50
321.662500936745
 51
68.38460136937872
  0
ARC
  5
21E
330
1F
100
AcDbEntity
  8
0
  6
Continuous
 62
     7
370
    15
100
AcDbCircle
 10
3.617407277600319
 20
7.653420351168769
 30
0.0
 40
0.0610853406513252
100
AcDbArc
 50
321.5800116240803
 51
68.9335437650367
  0
ARC
  5
21F
330
1F
100
AcDbEntity
  8
0
  6
Continuous
 62
     7
370
    15
100
AcDbCircle
 10
5.521020345356116
 20
6.313760682827763
 30
0.0
 40
0.0520838554435688
100
AcDbArc
 50
333.7726821817117
 51
153.2525817598059
  0
ARC
  5
220
330
1F
100
AcDbEntity
  8
0
  6
Continuous
 62
     7
370
    15
100
AcDbCircle
 10
5.534173667431091
 20
6.881894245475447
 30
0.0
 40
0.0521094251312254
100
AcDbArc
 50
110.9923477607317
 51
287.3712212630301
  0
ARC
  5
221
330
1F
100
AcDbEntity
  8
0
  6
Continuous
 62
     7
370
    15
100
AcDbCircle
 10
5.856348341585452
 20
6.087017407701318
 30
0.0
 40
0.0611993486403462
100
AcDbArc
 50
321.6626747322467
 51
68.38432677484236
  0
ARC
  5
222
330
1F
100
AcDbEntity
  8
0
  6
Continuous
 62
     7
370
    15
100
AcDbCircle
 10
5.868856150253113
 20
6.090321260004866
 30
0.0
 40
0.061085324041263
100
AcDbArc
 50
321.5800768177696
 51
68.93350743001011
  0
ARC
  5
223
330
1F
100
AcDbEntity
  8
0
  6
Continuous
 62
     7
370
    15
100
AcDbCircle
 10
5.856348475879372
 20
7.046928464048573
 30
0.0
 40
0.0611992306128623
100
AcDbArc
 50
321.6626117688059
 51
68.3844182289118
  0
ARC
  5
224
330
1F
100
AcDbEntity
  8
0
  6
Continuous
 62
     7
370
    15
100
AcDbCircle
 10
5.868856048290306
 20
7.050232271344929
 30
0.0
 40
0.0610854217834737
100
AcDbArc
 50
321.5801151319701
 51
68.93344025714824
  0
ARC
  5
225
330
1F
100
AcDbEntity
  8
0
  6
Continuous
 62
     7
370
    15
100
AcDbCircle
 10
3.30925949762119
 20
6.930179810966044
 30
0.0
 40
0.08047764318815
100
AcDbArc
 50
111.1842793740617
 51
165.6612820754324
  0
LWPOLYLINE
  5
226
330
1F
100
AcDbEntity
  8
0
  6
Continuous
 62
     7
370
    15
100
AcDbPolyline
 90
       52
 70
   128
 43
0.0
 10
3.232313755328175
 20
6.884005154881651
 10
3.23250284921052
 20
6.883574253111197
 10
3.234891239764669
 20
6.878759816690387
 10
3.237614883055742
 20
6.874335138277379
 10
3.240653659771212
 20
6.870333073816114
 10
3.243985099888498
 20
6.866783211805193
 10
3.247584451813493
 20
6.863711703416256
 10
3.251425166350286
 20
6.86114120375024
 10
3.255478689285563
 20
6.859091193077619
 10
3.259715083635394
 20
6.857576447903952
 10
3.264103029645224
 20
6.856608359801949
 10
3.268609963066942
 20
6.856193842029948
 10
3.273202489990066
 20
6.856336382692671
 10
3.277846663395862
 20
6.857034611596478
 10
3.282508121434415
 20
6.858283467722817
 10
3.287152363978742
 20
6.860073708106382
 10
3.291744890901866
 20
6.862391944881057
 10
3.296251824323585
 20
6.865221377200469
 10
3.300639701194884
 20
6.868540605241547
 10
3.304876095544715
 20
6.872325304147985
 10
3.308929687618523
 20
6.87654730053029
 10
3.312770333016785
 20
6.88117572141627
 10
3.31636968494178
 20
6.886175842125735
 10
3.319701125059066
 20
6.89151076338876
 10
3.322739901774536
 20
6.897141071582482
 10
3.32546361420414
 20
6.90302515679651
 10
3.327852004758288
 20
6.909119345668578
 10
3.329887443111571
 20
6.915378407854552
 10
3.331554787925693
 20
6.921756272600791
 10
3.332841801680664
 20
6.928205386263699
 10
3.333738943259202
 20
6.934678352382008
 10
3.3342395062238
 20
6.941127026699842
 10
3.334339757093782
 20
6.94750368464015
 10
3.334039073622368
 20
6.953761246755246
 10
3.33333959910402
 20
6.959853186111926
 10
3.332246518928565
 20
6.965734544406283
 10
3.330767991442664
 20
6.971361725036143
 10
3.328914802257156
 20
6.976693154104522
 10
3.326700848216775
 20
6.98168922167587
 10
3.324142446014845
 20
6.986313038569218
 10
3.321258539608863
 20
6.990530303522525
 10
3.318070492804916
 20
6.994309812837498
 10
3.314601881842083
 20
6.997623593215237
 10
3.310878426253904
 20
7.000447071637847
 10
3.306927643175725
 20
7.0027595479673
 10
3.302778847344699
 20
7.00454362973168
 10
3.29846266713007
 20
7.005786232891858
 10
3.29401118281023
 20
7.006478053673677
 10
3.289457235187417
 20
7.006614136956528
 10
3.284834563864768
 20
7.006193348105555
 10
3.280177392415139
 20
7.005219015452121
 10
3.280177392415139
 20
7.005219015452121
  0
ARC
  5
227
330
1F
100
AcDbEntity
  8
0
  6
Continuous
 62
     7
370
    15
100
AcDbCircle
 10
3.305439837459308
 20
7.497250518442584
 30
0.0
 40
0.074397665170761
100
AcDbArc
 50
109.8500477638086
 51
156.8749865727272
  0
LWPOLYLINE
  5
228
330
1F
100
AcDbEntity
  8
0
  6
Continuous
 62
     7
370
    15
100
AcDbPolyline
 90
       53
 70
   128
 43
0.0
 10
3.229758533498671
 20
7.452900039430653
 10
3.230467410857238
 20
7.450751477838704
 10
3.23250284921052
 20
7.445583048513204
 10
3.234891239764669
 20
7.440768612092395
 10
3.237614883055742
 20
7.436343933679386
 10
3.240653659771212
 20
7.432341869218121
 10
3.243985099888498
 20
7.428792007207201
 10
3.247584451813493
 20
7.425720498818263
 10
3.251425166350286
 20
7.423149999152248
 10
3.255478689285563
 20
7.421099988479627
 10
3.259715083635394
 20
7.419585243305959
 10
3.264103029645224
 20
7.418617155203957
 10
3.268609963066942
 20
7.418202637431956
 10
3.273202489990066
 20
7.418345178094678
 10
3.277846663395862
 20
7.419043406998486
 10
3.282508121434415
 20
7.420292263124825
 10
3.287152363978742
 20
7.422082503508389
 10
3.291744890901866
 20
7.424400740283066
 10
3.296251824323585
 20
7.427230172602476
 10
3.300639701194884
 20
7.430549400643555
 10
3.304876095544715
 20
7.434334099549991
 10
3.308929687618523
 20
7.438556095932298
 10
3.312770333016785
 20
7.443184516818278
 10
3.31636968494178
 20
7.448184637527742
 10
3.319701125059066
 20
7.453519558790769
 10
3.322739901774536
 20
7.459149866984489
 10
3.32546361420414
 20
7.465033952198516
 10
3.327852004758288
 20
7.471128141070585
 10
3.329887443111571
 20
7.477387203256558
 10
3.331554787925693
 20
7.4837650680028
 10
3.332841801680664
 20
7.490214181665707
 10
3.333738943259202
 20
7.496687147784015
 10
3.3342395062238
 20
7.50313582210185
 10
3.334339757093782
 20
7.509512480042157
 10
3.334039073622368
 20
7.515770042157254
 10
3.33333959910402
 20
7.521861981513934
 10
3.332246518928565
 20
7.52774333980829
 10
3.330767991442664
 20
7.53337052043815
 10
3.328914802257156
 20
7.53870194950653
 10
3.326700848216775
 20
7.543698017077877
 10
3.324142446014845
 20
7.548321833971225
 10
3.321258539608863
 20
7.552539098924532
 10
3.318070492804916
 20
7.556318608239505
 10
3.314601881842083
 20
7.559632388617245
 10
3.310878426253904
 20
7.562455867039855
 10
3.306927643175725
 20
7.564768343369307
 10
3.302778847344699
 20
7.566552425133689
 10
3.29846266713007
 20
7.567795028293867
 10
3.29401118281023
 20
7.568486849075684
 10
3.289457235187417
 20
7.568622932358536
 10
3.284834563864768
 20
7.568202143507563
 10
3.280177392415139
 20
7.567227810854129
 10
3.280177392415139
 20
7.567227810854129
  0
LINE
  5
229
330
1F
100
AcDbEntity
  8
0
  6
Continuous
 62
     7
370
    15
100
AcDbLine
 10
3.491130873251479
 20
6.354107208130043
 30
0.0
 11
3.491130873251479
 21
7.51461857804641
 31
0.0
  0
LINE
  5
22A
330
1F
100
AcDbEntity
  8
0
  6
Continuous
 62
     7
370
    15
100
AcDbLine
 10
3.491130873251479
 20
7.576960146965425
 30
0.0
 11
3.491130873251479
 21
7.814172066252981
 31
0.0
  0
ARC
  5
22B
330
1F
100
AcDbEntity
  8
0
  6
Continuous
 62
     7
370
    15
100
AcDbCircle
 10
3.300711351627841
 20
7.503559406347105
 30
0.0
 40
0.0530957335522228
100
AcDbArc
 50
107.5548337025742
 51
140.3446447484125
  0
ARC
  5
22C
330
1F
100
AcDbEntity
  8
0
  6
Continuous
 62
     7
370
    15
100
AcDbCircle
 10
3.276920465194582
 20
7.463643649791213
 30
0.0
 40
0.0344637420748291
100
AcDbArc
 50
237.6519684975992
 51
310.1630741365992
  0
ARC
  5
22D
330
1F
100
AcDbEntity
  8
0
  6
Continuous
 62
     7
370
    15
100
AcDbCircle
 10
3.292724257285909
 20
7.521291256163286
 30
0.0
 40
0.0338565985582477
100
AcDbArc
 50
19.25578193413085
 51
103.7157149670229
  0
ARC
  5
22E
330
1F
100
AcDbEntity
  8
0
  6
Continuous
 62
     7
370
    15
100
AcDbCircle
 10
3.304493084031942
 20
6.935373388685211
 30
0.0
 40
0.0601511575595622
100
AcDbArc
 50
109.2148002632814
 51
153.6612020121052
  0
ARC
  5
22F
330
1F
100
AcDbEntity
  8
0
  6
Continuous
 62
     7
370
    15
100
AcDbCircle
 10
3.292724257285911
 20
6.959282460761281
 30
0.0
 40
0.0338565985582451
100
AcDbArc
 50
19.25578193412758
 51
103.7157149670269
  0
LINE
  5
230
330
1F
100
AcDbEntity
  8
0
  6
Continuous
 62
     7
370
    15
100
AcDbLine
 10
2.985014840118981
 20
6.139062544312161
 30
0.0
 11
2.985014840118981
 21
6.149250898888378
 31
0.0
  0
LINE
  5
231
330
1F
100
AcDbEntity
  8
0
  6
Continuous
 62
     7
370
    15
100
AcDbLine
 10
3.001042465241925
 20
6.140956981740914
 30
0.0
 11
3.001042465241925
 21
6.153544951274692
 31
0.0
  0
ARC
  5
232
330
1F
100
AcDbEntity
  8
0
  6
Continuous
 62
     7
370
    15
100
AcDbCircle
 10
5.559511499363861
 20
6.328519314121566
 30
0.0
 40
0.078622865526019
100
AcDbArc
 50
110.7732999446938
 51
162.9106568177818
  0
LWPOLYLINE
  5
233
330
1F
100
AcDbEntity
  8
0
  6
Continuous
 62
     7
370
    15
100
AcDbPolyline
 90
       51
 70
   128
 43
0.0
 10
5.486323964179827
 20
6.275600823189664
 10
5.486340073457554
 20
6.275571791432208
 10
5.489063716748627
 20
6.271147113019197
 10
5.492102493464098
 20
6.267145048557934
 10
5.495433933581383
 20
6.263595186547012
 10
5.499033285506379
 20
6.260523678158075
 10
5.502874000043171
 20
6.25795317849206
 10
5.506927522978449
 20
6.25590316781944
 10
5.511163917328279
 20
6.254388422645771
 10
5.515551863338109
 20
6.253420334543769
 10
5.520058796759827
 20
6.253005816771768
 10
5.524651323682951
 20
6.25314835743449
 10
5.529295497088749
 20
6.253846586338298
 10
5.533956955127301
 20
6.255095442464638
 10
5.538601197671629
 20
6.256885682848201
 10
5.543193724594753
 20
6.259203919622877
 10
5.547700658016471
 20
6.262033351942288
 10
5.552088534887769
 20
6.265352579983367
 10
5.5563249292376
 20
6.269137278889804
 10
5.560378521311408
 20
6.273359275272111
 10
5.56421916670967
 20
6.27798769615809
 10
5.567818518634665
 20
6.282987816867555
 10
5.571149958751951
 20
6.288322738130579
 10
5.574188735467422
 20
6.293953046324301
 10
5.576912447897026
 20
6.299837131538329
 10
5.579300838451174
 20
6.305931320410397
 10
5.581336276804456
 20
6.312190382596371
 10
5.583003621618577
 20
6.318568247342612
 10
5.58429063537355
 20
6.325017361005518
 10
5.585187776952088
 20
6.331490327123828
 10
5.585688339916686
 20
6.337939001441662
 10
5.585788590786667
 20
6.344315659381969
 10
5.585487907315254
 20
6.350573221497066
 10
5.584788432796906
 20
6.356665160853746
 10
5.583695352621451
 20
6.362546519148102
 10
5.582216825135549
 20
6.368173699777964
 10
5.580363635950042
 20
6.373505128846341
 10
5.578149681909661
 20
6.37850119641769
 10
5.57559127970773
 20
6.383125013311037
 10
5.572707373301748
 20
6.387342278264345
 10
5.569519326497802
 20
6.391121787579318
 10
5.566050715534968
 20
6.394435567957057
 10
5.56232725994679
 20
6.397259046379667
 10
5.55837647686861
 20
6.399571522709119
 10
5.554227681037585
 20
6.401355604473502
 10
5.549911500822955
 20
6.402598207633678
 10
5.545460016503116
 20
6.403290028415496
 10
5.540906068880302
 20
6.403426111698347
 10
5.536283397557653
 20
6.403005322847375
 10
5.531626226108024
 20
6.402030990193941
 10
5.531626226108024
 20
6.402030990193941
  0
LWPOLYLINE
  5
234
330
1F
100
AcDbEntity
  8
0
  6
Continuous
 62
     7
370
    15
100
AcDbPolyline
 90
       46
 70
   128
 43
0.0
 10
5.531626226108024
 20
6.964039785595948
 10
5.526969123796927
 20
6.962518721368774
 10
5.522346452474277
 20
6.96046258074678
 10
5.517792504851464
 20
6.957886391668382
 10
5.513340951393093
 20
6.954809348670597
 10
5.509024840316995
 20
6.951254059270703
 10
5.504875975347439
 20
6.947246942473206
 10
5.500925192269259
 20
6.942817549243412
 10
5.49720173668108
 20
6.937998961014387
 10
5.493733125718247
 20
6.932826622213511
 10
5.4905450789143
 20
6.92733888695325
 10
5.487661172508319
 20
6.921576361202521
 10
5.485102770306387
 20
6.915581695859139
 10
5.482888816266008
 20
6.909399342776307
 10
5.48103569621903
 20
6.903074952502909
 10
5.479557099594598
 20
6.896655525642149
 10
5.478464019419142
 20
6.890188470828634
 10
5.477764544900796
 20
6.883721737564025
 10
5.477463861429381
 20
6.877303062598717
 10
5.477564181437895
 20
6.87098013981344
 10
5.478064744402492
 20
6.864799678196348
 10
5.4789618168425
 20
6.858807401843021
 10
5.480248830597471
 20
6.853047898597836
 10
5.481916244550123
 20
6.847563452580523
 10
5.483951682903406
 20
6.842395023255023
 10
5.486340073457554
 20
6.837580586834214
 10
5.489063716748627
 20
6.833155908421206
 10
5.492102493464098
 20
6.829153843959941
 10
5.495433933581383
 20
6.82560398194902
 10
5.499033285506379
 20
6.822532473560083
 10
5.502874000043171
 20
6.819961973894067
 10
5.506927522978449
 20
6.817911963221447
 10
5.511163917328279
 20
6.816397218047779
 10
5.515551863338109
 20
6.815429129945776
 10
5.520058796759827
 20
6.815014612173776
 10
5.524651323682951
 20
6.815157152836498
 10
5.529295497088749
 20
6.815855381740306
 10
5.533956955127301
 20
6.817104237866645
 10
5.538601197671629
 20
6.818894478250208
 10
5.543193724594753
 20
6.821212715024885
 10
5.547700658016471
 20
6.824042147344296
 10
5.552088534887769
 20
6.827361375385375
 10
5.5563249292376
 20
6.831146074291812
 10
5.560378521311408
 20
6.835368070674118
 10
5.56421916670967
 20
6.839996491560097
 10
5.564690000105928
 20
6.840611166111449
  0
LWPOLYLINE
  5
235
330
1F
100
AcDbEntity
  8
0
  6
Continuous
 62
     7
370
    15
100
AcDbPolyline
 90
       24
 70
   128
 43
0.0
 10
5.582856494824564
 20
6.879946223867847
 10
5.583003621618577
 20
6.88057704274462
 10
5.58429063537355
 20
6.887026156407526
 10
5.585187776952088
 20
6.893499122525835
 10
5.585688339916686
 20
6.899947796843669
 10
5.585788590786667
 20
6.906324454783977
 10
5.585487907315254
 20
6.912582016899073
 10
5.584788432796906
 20
6.918673956255753
 10
5.583695352621451
 20
6.92455531455011
 10
5.582216825135549
 20
6.93018249517997
 10
5.580363635950042
 20
6.93551392424835
 10
5.578149681909661
 20
6.940509991819697
 10
5.57559127970773
 20
6.945133808713045
 10
5.572707373301748
 20
6.949351073666353
 10
5.569519326497802
 20
6.953130582981325
 10
5.566050715534968
 20
6.956444363359064
 10
5.56232725994679
 20
6.959267841781676
 10
5.55837647686861
 20
6.961580318111127
 10
5.554227681037585
 20
6.963364399875509
 10
5.549911500822955
 20
6.964607003035686
 10
5.545460016503116
 20
6.965298823817504
 10
5.540906068880302
 20
6.965434907100356
 10
5.536283397557653
 20
6.965014118249382
 10
5.531626226108024
 20
6.964039785595948
  0
LINE
  5
236
330
1F
100
AcDbEntity
  8
0
  6
Continuous
 62
     7
370
    15
100
AcDbLine
 10
5.742579776082896
 20
5.750919164348887
 30
0.0
 11
5.742579776082896
 21
6.911430534265253
 31
0.0
  0
LINE
  5
237
330
1F
100
AcDbEntity
  8
0
  6
Continuous
 62
     7
370
    15
100
AcDbLine
 10
5.742579776082896
 20
6.973772103184268
 30
0.0
 11
5.742579776082896
 21
7.210984022471825
 31
0.0
  0
ARC
  5
238
330
1F
100
AcDbEntity
  8
0
  6
Continuous
 62
     7
370
    15
100
AcDbCircle
 10
5.553617705739147
 20
6.897602430937361
 30
0.0
 40
0.0561780815423959
100
AcDbArc
 50
108.1203500590543
 51
148.772868755416
  0
ARC
  5
239
330
1F
100
AcDbEntity
  8
0
  6
Continuous
 62
     7
370
    15
100
AcDbCircle
 10
5.528063884585908
 20
6.8585157722521
 30
0.0
 40
0.0326348994560842
100
AcDbArc
 50
232.5786632720375
 51
300.4379605449975
  0
ARC
  5
23A
330
1F
100
AcDbEntity
  8
0
  6
Continuous
 62
     7
370
    15
100
AcDbCircle
 10
5.544173090978794
 20
6.918103230905106
 30
0.0
 40
0.0338565985582477
100
AcDbArc
 50
19.25578193413085
 51
103.7157149670222
  0
ARC
  5
23B
330
1F
100
AcDbEntity
  8
0
  6
Continuous
 62
     7
370
    15
100
AcDbCircle
 10
5.553567489495462
 20
6.335689149825967
 30
0.0
 40
0.0560716891919012
100
AcDbArc
 50
108.1019371754461
 51
148.4891583643526
  0
ARC
  5
23C
330
1F
100
AcDbEntity
  8
0
  6
Continuous
 62
     7
370
    15
100
AcDbCircle
 10
5.544173090978796
 20
6.356094435503101
 30
0.0
 40
0.0338565985582451
100
AcDbArc
 50
19.25578193412758
 51
103.7157149670262
  0
LINE
  5
23D
330
1F
100
AcDbEntity
  8
0
  6
Continuous
 62
     7
370
    15
100
AcDbLine
 10
5.236463639242601
 20
5.535874528315469
 30
0.0
 11
5.236463639242601
 21
5.546062882891686
 31
0.0
  0
LINE
  5
23E
330
1F
100
AcDbEntity
  8
0
  6
Continuous
 62
     7
370
    15
100
AcDbLine
 10
5.252491368073342
 20
5.537768937959758
 30
0.0
 11
5.252491368073342
 21
5.550356907493535
 31
0.0
  0
TEXT
  5
246
330
1F
100
AcDbEntity
  8
0
100
AcDbText
 10
3.024026033202844
 20
2.400067763077146
 30
0.0
 40
0.25
  1
USP  JUS28
100
AcDbText
  0
TEXT
  5
24D
330
1F
100
AcDbEntity
  8
0
100
AcDbText
 10
2.120113752030057
 20
1.998783682704686
 30
0.0
 40
0.25
  1
SIMPSON  LUS28
100
AcDbText
  0
ENDSEC
  0
SECTION
  2
OBJECTS
  0
DICTIONARY
  5
C
330
0
100
AcDbDictionary
281
     1
  3
ACAD_COLOR
350
243
  3
ACAD_GROUP
350
D
  3
ACAD_LAYOUT
350
1A
  3
ACAD_MATERIAL
350
242
  3
ACAD_MLINESTYLE
350
17
  3
ACAD_PLOTSETTINGS
350
19
  3
ACAD_PLOTSTYLENAME
350
E
  3
ACAD_SCALELIST
350
47
  0
DICTIONARY
  5
243
102
{ACAD_REACTORS
330
C
102
}
330
C
100
AcDbDictionary
281
     1
  0
DICTIONARY
  5
D
102
{ACAD_REACTORS
330
C
102
}
330
C
100
AcDbDictionary
281
     1
  0
DICTIONARY
  5
1A
102
{ACAD_REACTORS
330
C
102
}
330
C
100
AcDbDictionary
281
     1
  3
Layout1
350
1E
  3
Layout2
350
26
  3
Model
350
22
  0
DICTIONARY
  5
242
102
{ACAD_REACTORS
330
C
102
}
330
C
100
AcDbDictionary
281
     1
  0
DICTIONARY
  5
17
102
{ACAD_REACTORS
330
C
102
}
330
C
100
AcDbDictionary
281
     1
  3
Standard
350
18
  0
DICTIONARY
  5
19
102
{ACAD_REACTORS
330
C
102
}
330
C
100
AcDbDictionary
281
     1
  0
ACDBDICTIONARYWDFLT
  5
E
102
{ACAD_REACTORS
330
C
102
}
330
C
100
AcDbDictionary
281
     1
  3
Normal
350
F
100
AcDbDictionaryWithDefault
340
F
  0
DICTIONARY
  5
47
102
{ACAD_REACTORS
330
C
102
}
330
C
100
AcDbDictionary
281
     1
  3
A0
350
48
  3
A1
350
49
  3
A2
350
4A
  3
A3
350
4B
  3
A4
350
4C
  3
A5
350
4D
  3
A6
350
4E
  3
A7
350
4F
  3
A8
350
50
  3
A9
350
51
  3
B0
350
52
  3
B1
350
53
  3
B2
350
54
  3
B3
350
55
  3
B4
350
56
  3
B5
350
57
  3
B6
350
58
  3
B7
350
59
  3
B8
350
5A
  3
B9
350
5B
  3
C0
350
5C
  3
C1
350
5D
  3
C2
350
5E
  3
C3
350
5F
  3
C4
350
60
  3
C5
350
61
  3
C6
350
62
  3
C7
350
63
  3
C8
350
64
  3
C9
350
65
  3
D0
350
66
  3
D1
350
67
  3
D2
350
68
  0
LAYOUT
  5
1E
102
{ACAD_REACTORS
330
1A
102
}
330
1A
100
AcDbPlotSettings
  1

  2
none_device
  4

  6

 40
0.0
 41
0.0
 42
0.0
 43
0.0
 44
0.0
 45
0.0
 46
0.0
 47
0.0
 48
0.0
 49
0.0
140
0.0
141
0.0
142
1.0
143
1.0
 70
   688
 72
     0
 73
     0
 74
     5
  7

 75
    16
147
1.0
 76
     0
 77
     2
 78
   300
148
0.0
149
0.0
100
AcDbLayout
  1
Layout1
 70
     1
 71
     1
 10
0.0
 20
0.0
 11
12.0
 21
9.0
 12
0.0
 22
0.0
 32
0.0
 14
1.000000000000000E+20
 24
1.000000000000000E+20
 34
1.000000000000000E+20
 15
-1.000000000000000E+20
 25
-1.000000000000000E+20
 35
-1.000000000000000E+20
146
0.0
 13
0.0
 23
0.0
 33
0.0
 16
1.0
 26
0.0
 36
0.0
 17
0.0
 27
1.0
 37
0.0
 76
     0
330
1B
  0
LAYOUT
  5
26
102
{ACAD_REACTORS
330
1A
102
}
330
1A
100
AcDbPlotSettings
  1

  2
none_device
  4

  6

 40
0.0
 41
0.0
 42
0.0
 43
0.0
 44
0.0
 45
0.0
 46
0.0
 47
0.0
 48
0.0
 49
0.0
140
0.0
141
0.0
142
1.0
143
1.0
 70
   688
 72
     0
 73
     0
 74
     5
  7

 75
    16
147
1.0
 76
     0
 77
     2
 78
   300
148
0.0
149
0.0
100
AcDbLayout
  1
Layout2
 70
     1
 71
     2
 10
0.0
 20
0.0
 11
0.0
 21
0.0
 12
0.0
 22
0.0
 32
0.0
 14
0.0
 24
0.0
 34
0.0
 15
0.0
 25
0.0
 35
0.0
146
0.0
 13
0.0
 23
0.0
 33
0.0
 16
1.0
 26
0.0
 36
0.0
 17
0.0
 27
1.0
 37
0.0
 76
     0
330
23
  0
LAYOUT
  5
22
102
{ACAD_REACTORS
330
1A
102
}
330
1A
100
AcDbPlotSettings
  1

  2
CutePDF Writer
  4
Letter
  6

 40
3.174999999999999
 41
3.174999999999999
 42
3.175002999999999
 43
3.174987999999999
 44
215.899994
 45
279.399994
 46
0.508
 47
0.0
 48
0.7415099231153875
 49
1.633299330140729
140
7.517901990651338
141
8.866310547214304
142
1.0
143
0.8213808919486575
 70
  1712
 72
     0
 73
     0
 74
     4
  7
monochrome.ctb
 75
     0
147
1.217461971421788
 76
     1
 77
     2
 78
   300
148
-18.83435204713084
149
-41.48580298557454
100
AcDbLayout
  1
Model
 70
     1
 71
     0
 10
0.0
 20
0.0
 11
8.5
 21
11.0
 12
0.0
 22
0.0
 32
0.0
 14
0.0
 24
0.0
 34
0.0
 15
8.5
 25
11.0
 35
0.0
146
0.0
 13
0.0
 23
0.0
 33
0.0
 16
1.0
 26
0.0
 36
0.0
 17
0.0
 27
1.0
 37
0.0
 76
     0
330
1F
  0
MLINESTYLE
  5
18
102
{ACAD_REACTORS
330
17
102
}
330
17
100
AcDbMlineStyle
  2
STANDARD
 70
     0
  3

 62
   256
 51
90.0
 52
90.0
 71
     2
 49
0.5
 62
   256
  6
BYLAYER
 49
-0.5
 62
   256
  6
BYLAYER
  0
ACDBPLACEHOLDER
  5
F
102
{ACAD_REACTORS
330
E
102
}
330
E
  0
ACAD_PROXY_OBJECT
  5
48
102
{ACAD_REACTORS
330
47
102
}
330
47
100
AcDbProxyObject
 90
      499
 91
      503
 95
   393239
 70
     0
 93
       41
310
903313A31580
 94
        0
  0
ACAD_PROXY_OBJECT
  5
49
102
{ACAD_REACTORS
330
47
102
}
330
47
100
AcDbProxyObject
 90
      499
 91
      503
 95
   393239
 70
     0
 93
      105
310
903313A324000000000000004000
 94
        0
  0
ACAD_PROXY_OBJECT
  5
4A
102
{ACAD_REACTORS
330
47
102
}
330
47
100
AcDbProxyObject
 90
      499
 91
      503
 95
   393239
 70
     0
 93
      105
310
903313A344000000000000104000
 94
        0
  0
ACAD_PROXY_OBJECT
  5
4B
102
{ACAD_REACTORS
330
47
102
}
330
47
100
AcDbProxyObject
 90
      499
 91
      503
 95
   393239
 70
     0
 93
      105
310
903313A354000000000000144000
 94
        0
  0
ACAD_PROXY_OBJECT
  5
4C
102
{ACAD_REACTORS
330
47
102
}
330
47
100
AcDbProxyObject
 90
      499
 91
      503
 95
   393239
 70
     0
 93
      105
310
903313A384000000000000204000
 94
        0
  0
ACAD_PROXY_OBJECT
  5
4D
102
{ACAD_REACTORS
330
47
102
}
330
47
100
AcDbProxyObject
 90
      499
 91
      503
 95
   393239
 70
     0
 93
      113
310
904313A31304000000000000244000
 94
        0
  0
ACAD_PROXY_OBJECT
  5
4E
102
{ACAD_REACTORS
330
47
102
}
330
47
100
AcDbProxyObject
 90
      499
 91
      503
 95
   393239
 70
     0
 93
      113
310
904313A31364000000000000304000
 94
        0
  0
ACAD_PROXY_OBJECT
  5
4F
102
{ACAD_REACTORS
330
47
102
}
330
47
100
AcDbProxyObject
 90
      499
 91
      503
 95
   393239
 70
     0
 93
      113
310
904313A32304000000000000344000
 94
        0
  0
ACAD_PROXY_OBJECT
  5
50
102
{ACAD_REACTORS
330
47
102
}
330
47
100
AcDbProxyObject
 90
      499
 91
      503
 95
   393239
 70
     0
 93
      113
310
904313A333040000000000003E4000
 94
        0
  0
ACAD_PROXY_OBJECT
  5
51
102
{ACAD_REACTORS
330
47
102
}
330
47
100
AcDbProxyObject
 90
      499
 91
      503
 95
   393239
 70
     0
 93
      113
310
904313A34304000000000000444000
 94
        0
  0
ACAD_PROXY_OBJECT
  5
52
102
{ACAD_REACTORS
330
47
102
}
330
47
100
AcDbProxyObject
 90
      499
 91
      503
 95
   393239
 70
     0
 93
      113
310
904313A35304000000000000494000
 94
        0
  0
ACAD_PROXY_OBJECT
  5
53
102
{ACAD_REACTORS
330
47
102
}
330
47
100
AcDbProxyObject
 90
      499
 91
      503
 95
   393239
 70
     0
 93
      121
310
905313A3130304000000000000594000
 94
        0
  0
ACAD_PROXY_OBJECT
  5
54
102
{ACAD_REACTORS
330
47
102
}
330
47
100
AcDbProxyObject
 90
      499
 91
      503
 95
   393239
 70
     0
 93
      105
310
903323A310000000000000010140
 94
        0
  0
ACAD_PROXY_OBJECT
  5
55
102
{ACAD_REACTORS
330
47
102
}
330
47
100
AcDbProxyObject
 90
      499
 91
      503
 95
   393239
 70
     0
 93
      105
310
903343A310000000000000410159
 94
        0
  0
ACAD_PROXY_OBJECT
  5
56
102
{ACAD_REACTORS
330
47
102
}
330
47
100
AcDbProxyObject
 90
      499
 91
      503
 95
   393239
 70
     0
 93
      105
310
903383A310000000000000810140
 94
        0
  0
ACAD_PROXY_OBJECT
  5
57
102
{ACAD_REACTORS
330
47
102
}
330
47
100
AcDbProxyObject
 90
      499
 91
      503
 95
   393239
 70
     0
 93
      113
310
90431303A310000000000000910140
 94
        0
  0
ACAD_PROXY_OBJECT
  5
58
102
{ACAD_REACTORS
330
47
102
}
330
47
100
AcDbProxyObject
 90
      499
 91
      503
 95
   393239
 70
     0
 93
      121
310
9053130303A310000000000001650100
 94
        0
  0
ACAD_PROXY_OBJECT
  5
59
102
{ACAD_REACTORS
330
47
102
}
330
47
100
AcDbProxyObject
 90
      499
 91
      503
 95
   393239
 70
     0
 93
      257
310
90E312F31323822203D2031272D3022000000000000200FC000000000000284000
 94
        0
  0
ACAD_PROXY_OBJECT
  5
5A
102
{ACAD_REACTORS
330
47
102
}
330
47
100
AcDbProxyObject
 90
      499
 91
      503
 95
   393239
 70
     0
 93
      249
310
90D312F363422203D2031272D3022000000000000240FC000000000000284000
 94
        0
  0
ACAD_PROXY_OBJECT
  5
5B
102
{ACAD_REACTORS
330
47
102
}
330
47
100
AcDbProxyObject
 90
      499
 91
      503
 95
   393239
 70
     0
 93
      249
310
90D312F333222203D2031272D3022000000000000280FC000000000000284040
 94
        0
  0
ACAD_PROXY_OBJECT
  5
5C
102
{ACAD_REACTORS
330
47
102
}
330
47
100
AcDbProxyObject
 90
      499
 91
      503
 95
   393239
 70
     0
 93
      249
310
90D312F313622203D2031272D30220000000000002C0FC000000000000284000
 94
        0
  0
ACAD_PROXY_OBJECT
  5
5D
102
{ACAD_REACTORS
330
47
102
}
330
47
100
AcDbProxyObject
 90
      499
 91
      503
 95
   393239
 70
     0
 93
      249
310
90D332F333222203D2031272D30220000000000002E0FC000000000000284040
 94
        0
  0
ACAD_PROXY_OBJECT
  5
5E
102
{ACAD_REACTORS
330
47
102
}
330
47
100
AcDbProxyObject
 90
      499
 91
      503
 95
   393239
 70
     0
 93
      241
310
90C312F3822203D2031272D3022000000000000300FC000000000000284040
 94
        0
  0
ACAD_PROXY_OBJECT
  5
5F
102
{ACAD_REACTORS
330
47
102
}
330
47
100
AcDbProxyObject
 90
      499
 91
      503
 95
   393239
 70
     0
 93
      249
310
90D332F313622203D2031272D3022000000000000320FC000000000000284040
 94
        0
  0
ACAD_PROXY_OBJECT
  5
60
102
{ACAD_REACTORS
330
47
102
}
330
47
100
AcDbProxyObject
 90
      499
 91
      503
 95
   393239
 70
     0
 93
      241
310
90C312F3422203D2031272D3022000000000000340FC000000000000284040
 94
        0
  0
ACAD_PROXY_OBJECT
  5
61
102
{ACAD_REACTORS
330
47
102
}
330
47
100
AcDbProxyObject
 90
      499
 91
      503
 95
   393239
 70
     0
 93
      241
310
90C332F3822203D2031272D3022000000000000360FC000000000000284040
 94
        0
  0
ACAD_PROXY_OBJECT
  5
62
102
{ACAD_REACTORS
330
47
102
}
330
47
100
AcDbProxyObject
 90
      499
 91
      503
 95
   393239
 70
     0
 93
      241
310
90C312F3222203D2031272D3022000000000000380FC000000000000284040
 94
        0
  0
ACAD_PROXY_OBJECT
  5
63
102
{ACAD_REACTORS
330
47
102
}
330
47
100
AcDbProxyObject
 90
      499
 91
      503
 95
   393239
 70
     0
 93
      241
310
90C332F3422203D2031272D30220000000000003A0FC000000000000284040
 94
        0
  0
ACAD_PROXY_OBJECT
  5
64
102
{ACAD_REACTORS
330
47
102
}
330
47
100
AcDbProxyObject
 90
      499
 91
      503
 95
   393239
 70
     0
 93
      161
310
90A3122203D2031272D30224000000000000284000
 94
        0
  0
ACAD_PROXY_OBJECT
  5
65
102
{ACAD_REACTORS
330
47
102
}
330
47
100
AcDbProxyObject
 90
      499
 91
      503
 95
   393239
 70
     0
 93
      257
310
90E312D312F3222203D2031272D30220000000000003E0FC000000000000284000
 94
        0
  0
ACAD_PROXY_OBJECT
  5
66
102
{ACAD_REACTORS
330
47
102
}
330
47
100
AcDbProxyObject
 90
      499
 91
      503
 95
   393239
 70
     0
 93
      225
310
90A3322203D2031272D302200000000000002100000000000000284028
 94
        0
  0
ACAD_PROXY_OBJECT
  5
67
102
{ACAD_REACTORS
330
47
102
}
330
47
100
AcDbProxyObject
 90
      499
 91
      503
 95
   393239
 70
     0
 93
      225
310
90A3622203D2031272D302200000000000006100000000000000284000
 94
        0
  0
ACAD_PROXY_OBJECT
  5
68
102
{ACAD_REACTORS
330
47
102
}
330
47
100
AcDbProxyObject
 90
      499
 91
      503
 95
   393239
 70
     0
 93
      249
310
90D31272D3022203D2031272D30220000000000000A100000000000000284000
 94
        0
  0
ENDSEC
  0
EOF
