  0
SECTION
  2
HEADER
  9
$ACADVER
  1
AC1018
  9
$ACADMAINTVER
 70
     0
  9
$DWGCODEPAGE
  3
ANSI_1252
  9
$INSBASE
 10
0.0
 20
0.0
 30
0.0
  9
$EXTMIN
 10
1.89865932186377
 20
1.628556129875164
 30
0.0
  9
$EXTMAX
 10
12.59117880339473
 20
8.906292236726018
 30
0.0
  9
$LIMMIN
 10
0.0
 20
0.0
  9
$LIMMAX
 10
8.5
 20
11.0
  9
$ORTHOMODE
 70
     0
  9
$REGENMODE
 70
     1
  9
$FILLMODE
 70
     1
  9
$QTEXTMODE
 70
     0
  9
$MIRRTEXT
 70
     1
  9
$LTSCALE
 40
1.0
  9
$ATTMODE
 70
     1
  9
$TEXTSIZE
 40
0.25
  9
$TRACEWID
 40
0.05
  9
$TEXTSTYLE
  7
Standard
  9
$CLAYER
  8
0
  9
$CELTYPE
  6
ByLayer
  9
$CECOLOR
 62
   256
  9
$CELTSCALE
 40
1.0
  9
$DISPSILH
 70
     0
  9
$DIMSCALE
 40
1.0
  9
$DIMASZ
 40
0.156
  9
$DIMEXO
 40
0.05
  9
$DIMDLI
 40
0.38
  9
$DIMRND
 40
0.0
  9
$DIMDLE
 40
0.0
  9
$DIMEXE
 40
0.125
  9
$DIMTP
 40
0.0
  9
$DIMTM
 40
0.0
  9
$DIMTXT
 40
0.125
  9
$DIMCEN
 40
0.09
  9
$DIMTSZ
 40
0.0
  9
$DIMTOL
 70
     0
  9
$DIMLIM
 70
     0
  9
$DIMTIH
 70
     1
  9
$DIMTOH
 70
     1
  9
$DIMSE1
 70
     0
  9
$DIMSE2
 70
     0
  9
$DIMTAD
 70
     0
  9
$DIMZIN
 70
     0
  9
$DIMBLK
  1

  9
$DIMASO
 70
     1
  9
$DIMSHO
 70
     1
  9
$DIMPOST
  1

  9
$DIMAPOST
  1

  9
$DIMALT
 70
     0
  9
$DIMALTD
 70
     2
  9
$DIMALTF
 40
25.4
  9
$DIMLFAC
 40
8.0
  9
$DIMTOFL
 70
     0
  9
$DIMTVP
 40
0.0
  9
$DIMTIX
 70
     0
  9
$DIMSOXD
 70
     0
  9
$DIMSAH
 70
     0
  9
$DIMBLK1
  1

  9
$DIMBLK2
  1

  9
$DIMSTYLE
  2
Standard
  9
$DIMCLRD
 70
     0
  9
$DIMCLRE
 70
     0
  9
$DIMCLRT
 70
     0
  9
$DIMTFAC
 40
1.0
  9
$DIMGAP
 40
0.06
  9
$DIMJUST
 70
     0
  9
$DIMSD1
 70
     0
  9
$DIMSD2
 70
     0
  9
$DIMTOLJ
 70
     1
  9
$DIMTZIN
 70
     0
  9
$DIMALTZ
 70
     0
  9
$DIMALTTZ
 70
     0
  9
$DIMUPT
 70
     0
  9
$DIMDEC
 70
     3
  9
$DIMTDEC
 70
     3
  9
$DIMALTU
 70
     2
  9
$DIMALTTD
 70
     2
  9
$DIMTXSTY
  7
Standard
  9
$DIMAUNIT
 70
     0
  9
$DIMADEC
 70
     0
  9
$DIMALTRND
 40
0.0
  9
$DIMAZIN
 70
     0
  9
$DIMDSEP
 70
    46
  9
$DIMATFIT
 70
     3
  9
$DIMFRAC
 70
     0
  9
$DIMLDRBLK
  1

  9
$DIMLUNIT
 70
     2
  9
$DIMLWD
 70
    -2
  9
$DIMLWE
 70
    -2
  9
$DIMTMOVE
 70
     0
  9
$LUNITS
 70
     2
  9
$LUPREC
 70
     3
  9
$SKETCHINC
 40
0.1
  9
$FILLETRAD
 40
0.5
  9
$AUNITS
 70
     0
  9
$AUPREC
 70
     0
  9
$MENU
  1
.
  9
$ELEVATION
 40
0.0
  9
$PELEVATION
 40
0.0
  9
$THICKNESS
 40
0.0
  9
$LIMCHECK
 70
     0
  9
$CHAMFERA
 40
0.0
  9
$CHAMFERB
 40
0.0
  9
$CHAMFERC
 40
0.0
  9
$CHAMFERD
 40
0.0
  9
$SKPOLY
 70
     0
  9
$TDCREATE
 40
2456700.451297570
  9
$TDUCREATE
 40
2456700.701297570
  9
$TDUPDATE
 40
2456700.452240405
  9
$TDUUPDATE
 40
2456700.702240405
  9
$TDINDWG
 40
0.0008680208
  9
$TDUSRTIMER
 40
0.0008680208
  9
$USRTIMER
 70
     1
  9
$ANGBASE
 50
0.0
  9
$ANGDIR
 70
     0
  9
$PDMODE
 70
     0
  9
$PDSIZE
 40
-1.0
  9
$PLINEWID
 40
0.0
  9
$SPLFRAME
 70
     0
  9
$SPLINETYPE
 70
     6
  9
$SPLINESEGS
 70
     8
  9
$HANDSEED
  5
1E2
  9
$SURFTAB1
 70
     6
  9
$SURFTAB2
 70
     6
  9
$SURFTYPE
 70
     6
  9
$SURFU
 70
     6
  9
$SURFV
 70
     6
  9
$UCSBASE
  2

  9
$UCSNAME
  2

  9
$UCSORG
 10
0.0
 20
0.0
 30
0.0
  9
$UCSXDIR
 10
1.0
 20
0.0
 30
0.0
  9
$UCSYDIR
 10
0.0
 20
1.0
 30
0.0
  9
$UCSORTHOREF
  2

  9
$UCSORTHOVIEW
 70
     0
  9
$UCSORGTOP
 10
0.0
 20
0.0
 30
0.0
  9
$UCSORGBOTTOM
 10
0.0
 20
0.0
 30
0.0
  9
$UCSORGLEFT
 10
0.0
 20
0.0
 30
0.0
  9
$UCSORGRIGHT
 10
0.0
 20
0.0
 30
0.0
  9
$UCSORGFRONT
 10
0.0
 20
0.0
 30
0.0
  9
$UCSORGBACK
 10
0.0
 20
0.0
 30
0.0
  9
$PUCSBASE
  2

  9
$PUCSNAME
  2

  9
$PUCSORG
 10
0.0
 20
0.0
 30
0.0
  9
$PUCSXDIR
 10
1.0
 20
0.0
 30
0.0
  9
$PUCSYDIR
 10
0.0
 20
1.0
 30
0.0
  9
$PUCSORTHOREF
  2

  9
$PUCSORTHOVIEW
 70
     0
  9
$PUCSORGTOP
 10
0.0
 20
0.0
 30
0.0
  9
$PUCSORGBOTTOM
 10
0.0
 20
0.0
 30
0.0
  9
$PUCSORGLEFT
 10
0.0
 20
0.0
 30
0.0
  9
$PUCSORGRIGHT
 10
0.0
 20
0.0
 30
0.0
  9
$PUCSORGFRONT
 10
0.0
 20
0.0
 30
0.0
  9
$PUCSORGBACK
 10
0.0
 20
0.0
 30
0.0
  9
$USERI1
 70
     0
  9
$USERI2
 70
     0
  9
$USERI3
 70
     0
  9
$USERI4
 70
     0
  9
$USERI5
 70
     0
  9
$USERR1
 40
0.0
  9
$USERR2
 40
0.0
  9
$USERR3
 40
0.0
  9
$USERR4
 40
0.0
  9
$USERR5
 40
0.0
  9
$WORLDVIEW
 70
     1
  9
$SHADEDGE
 70
     3
  9
$SHADEDIF
 70
    70
  9
$TILEMODE
 70
     1
  9
$MAXACTVP
 70
    64
  9
$PINSBASE
 10
0.0
 20
0.0
 30
0.0
  9
$PLIMCHECK
 70
     0
  9
$PEXTMIN
 10
1.000000000000000E+20
 20
1.000000000000000E+20
 30
1.000000000000000E+20
  9
$PEXTMAX
 10
-1.000000000000000E+20
 20
-1.000000000000000E+20
 30
-1.000000000000000E+20
  9
$PLIMMIN
 10
0.0
 20
0.0
  9
$PLIMMAX
 10
12.0
 20
9.0
  9
$UNITMODE
 70
     0
  9
$VISRETAIN
 70
     1
  9
$PLINEGEN
 70
     0
  9
$PSLTSCALE
 70
     1
  9
$TREEDEPTH
 70
  3020
  9
$CMLSTYLE
  2
Standard
  9
$CMLJUST
 70
     0
  9
$CMLSCALE
 40
1.0
  9
$PROXYGRAPHICS
 70
     1
  9
$MEASUREMENT
 70
     0
  9
$CELWEIGHT
370
    -1
  9
$ENDCAPS
280
     0
  9
$JOINSTYLE
280
     0
  9
$LWDISPLAY
290
     1
  9
$INSUNITS
 70
     1
  9
$HYPERLINKBASE
  1

  9
$STYLESHEET
  1

  9
$XEDIT
290
     1
  9
$CEPSNTYPE
380
     0
  9
$PSTYLEMODE
290
     1
  9
$FINGERPRINTGUID
  2
{5B1119B4-D034-46FC-9884-086AA02245E2}
  9
$VERSIONGUID
  2
{B2DEC09B-5C98-40FD-B561-2FF2C4709D9F}
  9
$EXTNAMES
290
     1
  9
$PSVPSCALE
 40
0.0
  9
$OLESTARTUP
290
     0
  9
$SORTENTS
280
   127
  9
$INDEXCTL
280
     0
  9
$HIDETEXT
280
     0
  9
$XCLIPFRAME
290
     0
  9
$HALOGAP
280
     0
  9
$OBSCOLOR
 70
   257
  9
$OBSLTYPE
280
     0
  9
$INTERSECTIONDISPLAY
280
     0
  9
$INTERSECTIONCOLOR
 70
   257
  9
$DIMASSOC
280
     1
  9
$PROJECTNAME
  1

  0
ENDSEC
  0
SECTION
  2
CLASSES
  0
CLASS
  1
ACDBDICTIONARYWDFLT
  2
AcDbDictionaryWithDefault
  3
ObjectDBX Classes
 90
        0
 91
        1
280
     0
281
     0
  0
CLASS
  1
VISUALSTYLE
  2
AcDbVisualStyle
  3
ObjectDBX Classes
 90
     4095
 91
        0
280
     0
281
     0
  0
CLASS
  1
MATERIAL
  2
AcDbMaterial
  3
ObjectDBX Classes
 90
        0
 91
        0
280
     0
281
     0
  0
CLASS
  1
SCALE
  2
AcDbScale
  3
ObjectDBX Classes
 90
     1153
 91
       33
280
     0
281
     0
  0
CLASS
  1
SUN
  2
AcDbSun
  3
SCENEOE
 90
     1153
 91
        1
280
     0
281
     0
  0
CLASS
  1
ACDBPLACEHOLDER
  2
AcDbPlaceHolder
  3
ObjectDBX Classes
 90
        0
 91
        1
280
     0
281
     0
  0
CLASS
  1
LAYOUT
  2
AcDbLayout
  3
ObjectDBX Classes
 90
        0
 91
        3
280
     0
281
     0
  0
ENDSEC
  0
SECTION
  2
TABLES
  0
TABLE
  2
VPORT
  5
8
330
0
100
AcDbSymbolTable
 70
     4
  0
VPORT
  5
1E1
330
8
100
AcDbSymbolTableRecord
100
AcDbViewportTableRecord
  2
*Active
 70
     0
 10
0.0
 20
0.0
 11
1.0
 21
1.0
 12
5.098914152324191
 22
5.833095803235748
 13
0.0
 23
0.0
 14
0.5
 24
0.5
 15
0.5
 25
0.5
 16
0.0
 26
0.0
 36
1.0
 17
0.0
 27
0.0
 37
0.0
 40
7.681777062995178
 41
2.144329896907216
 42
50.0
 43
0.0
 44
0.0
 50
0.0
 51
0.0
 71
     0
 72
  2000
 73
     1
 74
     3
 75
     0
 76
     0
 77
     0
 78
     0
281
     0
 65
     1
110
0.0
120
0.0
130
0.0
111
1.0
121
0.0
131
0.0
112
0.0
122
1.0
132
0.0
 79
     0
146
0.0
  0
ENDTAB
  0
TABLE
  2
LTYPE
  5
5
330
0
100
AcDbSymbolTable
 70
     6
  0
LTYPE
  5
14
330
5
100
AcDbSymbolTableRecord
100
AcDbLinetypeTableRecord
  2
ByBlock
 70
     0
  3

 72
    65
 73
     0
 40
0.0
  0
LTYPE
  5
15
330
5
100
AcDbSymbolTableRecord
100
AcDbLinetypeTableRecord
  2
ByLayer
 70
     0
  3

 72
    65
 73
     0
 40
0.0
  0
LTYPE
  5
16
330
5
100
AcDbSymbolTableRecord
100
AcDbLinetypeTableRecord
  2
Continuous
 70
     0
  3
Solid line
 72
    65
 73
     0
 40
0.0
  0
LTYPE
  5
6A
330
5
100
AcDbSymbolTableRecord
100
AcDbLinetypeTableRecord
  2
HIDDEN
 70
     0
  3
Hidden __ __ __ __ __ __ __ __ __ __ __ __ __ __
 72
    65
 73
     2
 40
0.075
 49
0.05
 74
     0
 49
-0.025
 74
     0
  0
LTYPE
  5
6B
330
5
100
AcDbSymbolTableRecord
100
AcDbLinetypeTableRecord
  2
PHANTOM
 70
     0
  3
Phantom ______  __  __  ______  __  __  ______
 72
    65
 73
     6
 40
0.5
 49
0.25
 74
     0
 49
-0.05
 74
     0
 49
0.05
 74
     0
 49
-0.05
 74
     0
 49
0.05
 74
     0
 49
-0.05
 74
     0
  0
LTYPE
  5
6C
330
5
100
AcDbSymbolTableRecord
100
AcDbLinetypeTableRecord
  2
CENTER
 70
     0
  3
Center ____ _ ____ _ ____ _ ____ _ ____ _ ____
 72
    65
 73
     4
 40
0.4
 49
0.25
 74
     0
 49
-0.05
 74
     0
 49
0.05
 74
     0
 49
-0.05
 74
     0
  0
LTYPE
  5
6D
330
5
100
AcDbSymbolTableRecord
100
AcDbLinetypeTableRecord
  2
CENTERX2
 70
     0
  3
Center (2x) ________  __  ________  __  _____
 72
    65
 73
     4
 40
0.8
 49
0.5
 74
     0
 49
-0.1
 74
     0
 49
0.1
 74
     0
 49
-0.1
 74
     0
  0
LTYPE
  5
6E
330
5
100
AcDbSymbolTableRecord
100
AcDbLinetypeTableRecord
  2
DOT2
 70
     0
  3
Dot (.5x) ........................................
 72
    65
 73
     2
 40
0.025
 49
0.0
 74
     0
 49
-0.025
 74
     0
  0
ENDTAB
  0
TABLE
  2
LAYER
  5
2
330
0
100
AcDbSymbolTable
 70
     8
  0
LAYER
  5
10
330
2
100
AcDbSymbolTableRecord
100
AcDbLayerTableRecord
  2
0
 70
     0
 62
     7
  6
Continuous
370
    -3
390
F
  0
LAYER
  5
6F
330
2
100
AcDbSymbolTableRecord
100
AcDbLayerTableRecord
  2
SLD-0
 70
     0
 62
   179
  6
Continuous
370
    -3
390
F
  0
LAYER
  5
70
330
2
100
AcDbSymbolTableRecord
100
AcDbLayerTableRecord
  2
SLD-DEFPOINTS
 70
     0
 62
   179
  6
Continuous
370
    -3
390
F
  0
LAYER
  5
71
330
2
100
AcDbSymbolTableRecord
100
AcDbLayerTableRecord
  2
OBJ
 70
     0
 62
   179
  6
Continuous
370
    -3
390
F
  0
LAYER
  5
72
330
2
100
AcDbSymbolTableRecord
100
AcDbLayerTableRecord
  2
FORMAT
 70
     0
 62
     7
  6
Continuous
370
    -3
390
F
  0
LAYER
  5
73
330
2
100
AcDbSymbolTableRecord
100
AcDbLayerTableRecord
  2
BLANK-SIZE-1
 70
     0
 62
     7
  6
Continuous
370
    -3
390
F
  0
LAYER
  5
74
330
2
100
AcDbSymbolTableRecord
100
AcDbLayerTableRecord
  2
TOLERANCES
 70
     0
 62
     7
  6
Continuous
370
    -3
390
F
  0
LAYER
  5
75
330
2
100
AcDbSymbolTableRecord
100
AcDbLayerTableRecord
  2
QTY-BLANK-SIZE-1
 70
     0
 62
     7
  6
Continuous
370
    -3
390
F
  0
ENDTAB
  0
TABLE
  2
STYLE
  5
3
330
0
100
AcDbSymbolTable
 70
     2
  0
STYLE
  5
11
330
3
100
AcDbSymbolTableRecord
100
AcDbTextStyleTableRecord
  2
Standard
 70
     0
 40
0.0
 41
1.0
 50
0.0
 71
     0
 42
0.25
  3
txt
  4

  0
STYLE
  5
1D1
330
3
100
AcDbSymbolTableRecord
100
AcDbTextStyleTableRecord
  2
SLDTEXTSTYLE0
 70
     0
 40
0.0
 41
0.7
 50
0.0
 71
     0
 42
0.1388888888888889
  3
TXT
  4

  0
ENDTAB
  0
TABLE
  2
VIEW
  5
6
330
0
100
AcDbSymbolTable
 70
     0
  0
ENDTAB
  0
TABLE
  2
UCS
  5
7
330
0
100
AcDbSymbolTable
 70
     0
  0
ENDTAB
  0
TABLE
  2
APPID
  5
9
330
0
100
AcDbSymbolTable
 70
     1
  0
APPID
  5
12
330
9
100
AcDbSymbolTableRecord
100
AcDbRegAppTableRecord
  2
ACAD
 70
     0
  0
ENDTAB
  0
TABLE
  2
DIMSTYLE
  5
A
330
0
100
AcDbSymbolTable
 70
     1
100
AcDbDimStyleTable
 71
     0
  0
DIMSTYLE
105
27
330
A
100
AcDbSymbolTableRecord
100
AcDbDimStyleTableRecord
  2
Standard
 70
     0
340
11
  0
ENDTAB
  0
TABLE
  2
BLOCK_RECORD
  5
1
330
0
100
AcDbSymbolTable
 70
     2
  0
BLOCK_RECORD
  5
1F
330
1
100
AcDbSymbolTableRecord
100
AcDbBlockTableRecord
  2
*Model_Space
340
22
  0
BLOCK_RECORD
  5
1B
330
1
100
AcDbSymbolTableRecord
100
AcDbBlockTableRecord
  2
*Paper_Space
340
1E
  0
BLOCK_RECORD
  5
23
330
1
100
AcDbSymbolTableRecord
100
AcDbBlockTableRecord
  2
*Paper_Space0
340
26
  0
ENDTAB
  0
ENDSEC
  0
SECTION
  2
BLOCKS
  0
BLOCK
  5
20
330
1F
100
AcDbEntity
  8
0
100
AcDbBlockBegin
  2
*Model_Space
 70
     0
 10
0.0
 20
0.0
 30
0.0
  3
*Model_Space
  1

  0
ENDBLK
  5
21
330
1F
100
AcDbEntity
  8
0
100
AcDbBlockEnd
  0
BLOCK
  5
1C
330
1B
100
AcDbEntity
 67
     1
  8
0
100
AcDbBlockBegin
  2
*Paper_Space
 70
     0
 10
0.0
 20
0.0
 30
0.0
  3
*Paper_Space
  1

  0
ENDBLK
  5
1D
330
1B
100
AcDbEntity
 67
     1
  8
0
100
AcDbBlockEnd
  0
BLOCK
  5
24
330
23
100
AcDbEntity
  8
0
100
AcDbBlockBegin
  2
*Paper_Space0
 70
     0
 10
0.0
 20
0.0
 30
0.0
  3
*Paper_Space0
  1

  0
ENDBLK
  5
25
330
23
100
AcDbEntity
  8
0
100
AcDbBlockEnd
  0
ENDSEC
  0
SECTION
  2
ENTITIES
  0
SPLINE
  5
76
330
1F
100
AcDbEntity
  8
0
  6
Continuous
 62
     7
370
    15
100
AcDbSpline
210
0.0
220
0.0
230
1.0
 70
     8
 71
     3
 72
    22
 73
    18
 74
     0
 42
0.0000000001
 43
0.0000000001
 40
0.0
 40
0.0
 40
0.0
 40
0.0
 40
0.0344862906745216
 40
0.1066198033485556
 40
0.1790098467959888
 40
0.2516346223965487
 40
0.3244461516542419
 40
0.3973891740127996
 40
0.4704127317648432
 40
0.5434776446863414
 40
0.616554395486555
 40
0.6896253803704017
 40
0.7626848382171121
 40
0.8357320137860384
 40
0.9087699957372928
 40
0.9779786405080781
 40
1.0
 40
1.0
 40
1.0
 40
1.0
 10
4.866920785313489
 20
6.592451730131133
 30
0.0
 10
4.866475851907791
 20
6.592106221695265
 30
0.0
 10
4.865100270153686
 20
6.591038027906745
 30
0.0
 10
4.86302614066042
 20
6.588827623431255
 30
0.0
 10
4.860713001841679
 20
6.585866805909823
 30
0.0
 10
4.858669762306936
 20
6.582540898678614
 30
0.0
 10
4.856900735964824
 20
6.578906335847751
 30
0.0
 10
4.855425913984876
 20
6.574988405294173
 30
0.0
 10
4.854257722009351
 20
6.570824588721695
 30
0.0
 10
4.853406492039032
 20
6.566452158319759
 30
0.0
 10
4.852879204905323
 20
6.561910584634747
 30
0.0
 10
4.852679855675187
 20
6.557240326271158
 30
0.0
 10
4.852809787744234
 20
6.552482665522518
 30
0.0
 10
4.853266235769796
 20
6.547678957860118
 30
0.0
 10
4.854034867054786
 20
6.542956268840886
 30
0.0
 10
4.854844375308298
 20
6.539377659831505
 30
0.0
 10
4.855384043752209
 20
6.537414390190025
 30
0.0
 10
4.855514310465511
 20
6.536940490545888
 30
0.0
  0
SPLINE
  5
77
330
1F
100
AcDbEntity
  8
0
  6
Continuous
 62
     7
370
    15
100
AcDbSpline
210
0.0
220
0.0
230
1.0
 70
     8
 71
     3
 72
    21
 73
    17
 74
     0
 42
0.0000000001
 43
0.0000000001
 40
0.0
 40
0.0
 40
0.0
 40
0.0
 40
0.0396001260388443
 40
0.1145359507376221
 40
0.1895033929855296
 40
0.2644900265552184
 40
0.3395017331229061
 40
0.4145420645680111
 40
0.4896122502020002
 40
0.5647086023651796
 40
0.6398174595342871
 40
0.714910603417886
 40
0.7899483733561305
 40
0.8648770041077021
 40
0.9396333076667582
 40
1.0
 40
1.0
 40
1.0
 40
1.0
 10
4.855514310465511
 20
6.536940490545888
 30
0.0
 10
4.855756100433413
 20
6.536114016519077
 30
0.0
 10
4.856455432648299
 20
6.533723595126785
 30
0.0
 10
4.857841167810402
 20
6.52984975393441
 30
0.0
 10
4.859752905620871
 20
6.525400860944282
 30
0.0
 10
4.861935880898777
 20
6.521142902395094
 30
0.0
 10
4.864366206581711
 20
6.517112238388325
 30
0.0
 10
4.86702496389766
 20
6.513344700964295
 30
0.0
 10
4.869889471912447
 20
6.509873631816116
 30
0.0
 10
4.872935833630338
 20
6.506730386821452
 30
0.0
 10
4.876138087708681
 20
6.503943418601489
 30
0.0
 10
4.879468597706389
 20
6.501540152472688
 30
0.0
 10
4.88289801289099
 20
6.49953900030585
 30
0.0
 10
4.886394870214621
 20
6.497976614537765
 30
0.0
 10
4.889704904118522
 20
6.496878467630751
 30
0.0
 10
4.891838217351364
 20
6.496519152212683
 30
0.0
 10
4.892791282836087
 20
6.496358626736246
 30
0.0
  0
LINE
  5
78
330
1F
100
AcDbEntity
  8
0
  6
Continuous
 62
     7
370
    15
100
AcDbLine
 10
4.88894552118653
 20
6.600799840939216
 30
0.0
 11
4.876571176042778
 21
6.597484617115594
 31
0.0
  0
LINE
  5
79
330
1F
100
AcDbEntity
  8
0
  6
Continuous
 62
     7
370
    15
100
AcDbLine
 10
4.90352790902626
 20
6.496866384922762
 30
0.0
 11
4.915902254170013
 21
6.500181608746384
 31
0.0
  0
SPLINE
  5
7A
330
1F
100
AcDbEntity
  8
0
  6
Continuous
 62
     7
370
    15
100
AcDbSpline
210
0.0
220
0.0
230
1.0
 70
     8
 71
     3
 72
    35
 73
    31
 74
     0
 42
0.0000000001
 43
0.0000000001
 40
0.0
 40
0.0
 40
0.0
 40
0.0
 40
0.0327529656034357
 40
0.0694013002651828
 40
0.1061776651320201
 40
0.1430648186075062
 40
0.1800357663254813
 40
0.2170628742969406
 40
0.2541223071589347
 40
0.2911966602225393
 40
0.3282723786771882
 40
0.3653436480328092
 40
0.4024086668504958
 40
0.4394679242616073
 40
0.4765233027607633
 40
0.5135776308328638
 40
0.5506342437563749
 40
0.5876955585503501
 40
0.6247652004814562
 40
0.6618460584456862
 40
0.6989403797422832
 40
0.736049650761327
 40
0.7731729966845212
 40
0.8103061551780484
 40
0.8474371951392022
 40
0.8845495185135236
 40
0.9216190828316596
 40
0.9586156060334436
 40
0.9955070998872884
 40
1.0
 40
1.0
 40
1.0
 40
1.0
 10
4.925489417712682
 20
6.50511935503567
 30
0.0
 10
4.926301672463743
 20
6.50580483654124
 30
0.0
 10
4.928022784883078
 20
6.50725732509969
 30
0.0
 10
4.930375650159574
 20
6.509945545012798
 30
0.0
 10
4.932585790441336
 20
6.513052324912068
 30
0.0
 10
4.934524807015733
 20
6.516501526663057
 30
0.0
 10
4.936181266093421
 20
6.52025030891423
 30
0.0
 10
4.937538421315218
 20
6.524268079882321
 30
0.0
 10
4.938584469569369
 20
6.528517546043909
 30
0.0
 10
4.939310543955174
 20
6.532960438980704
 30
0.0
 10
4.939710761636992
 20
6.537556866960196
 30
0.0
 10
4.939782175510115
 20
6.542266001717721
 30
0.0
 10
4.939524935119216
 20
6.547046461624094
 30
0.0
 10
4.938941732568578
 20
6.551856468925467
 30
0.0
 10
4.938037900617236
 20
6.556654044118306
 30
0.0
 10
4.936821703212694
 20
6.561397500098256
 30
0.0
 10
4.935303488927206
 20
6.56604544716699
 30
0.0
 10
4.933496545598345
 20
6.570557462907879
 30
0.0
 10
4.931416037330619
 20
6.574894070561718
 30
0.0
 10
4.929079681401995
 20
6.579017400049533
 30
0.0
 10
4.926507094514496
 20
6.582891258539888
 30
0.0
 10
4.923719807316471
 20
6.586481326436041
 30
0.0
 10
4.92074105716679
 20
6.589755568292363
 30
0.0
 10
4.917596216030489
 20
6.59268391945534
 30
0.0
 10
4.914312079934849
 20
6.595240275043777
 30
0.0
 10
4.910917637143733
 20
6.597396104786149
 30
0.0
 10
4.907442607765265
 20
6.599146108812888
 30
0.0
 10
4.903921733950123
 20
6.600415213922868
 30
0.0
 10
4.901412203788674
 20
6.601117706312233
 30
0.0
 10
4.900094529897923
 20
6.601260163212447
 30
0.0
 10
4.899951476524299
 20
6.60127562905746
 30
0.0
  0
LINE
  5
7B
330
1F
100
AcDbEntity
  8
0
  6
Continuous
 62
     7
370
    15
100
AcDbLine
 10
4.435123591347404
 20
6.333405591738467
 30
0.0
 11
4.434054986211932
 21
6.332225256657682
 31
0.0
  0
LINE
  5
7C
330
1F
100
AcDbEntity
  8
0
  6
Continuous
 62
     7
370
    15
100
AcDbLine
 10
4.511276157202843
 20
6.262313969113365
 30
0.0
 11
4.512621765862856
 21
6.263800267931458
 31
0.0
  0
SPLINE
  5
7D
330
1F
100
AcDbEntity
  8
0
  6
Continuous
 62
     7
370
    15
100
AcDbSpline
210
0.0
220
0.0
230
1.0
 70
     8
 71
     3
 72
    22
 73
    18
 74
     0
 42
0.0000000001
 43
0.0000000001
 40
0.0
 40
0.0
 40
0.0
 40
0.0
 40
0.0344860166293713
 40
0.1066196800208401
 40
0.179009816614319
 40
0.2516347652969542
 40
0.3244461996594374
 40
0.3973894121468233
 40
0.4704123900994838
 40
0.5434777038343916
 40
0.6165542528761882
 40
0.6896253756844427
 40
0.7626846067373567
 40
0.8357319871694222
 40
0.9087702566511113
 40
0.9779788134841673
 40
1.0
 40
1.0
 40
1.0
 40
1.0
 10
4.866920785313489
 20
6.016922592132954
 30
0.0
 10
4.866475851179957
 20
6.016577094849513
 30
0.0
 10
4.865100257835634
 20
6.015508928287849
 30
0.0
 10
4.863026145071727
 20
6.013298497179704
 30
0.0
 10
4.860712998733826
 20
6.010337681648688
 30
0.0
 10
4.858669767881179
 20
6.007011761418164
 30
0.0
 10
4.856900730122704
 20
6.00337720512399
 30
0.0
 10
4.855425924337611
 20
5.999459274240714
 30
0.0
 10
4.854257711823182
 20
5.995295473752746
 30
0.0
 10
4.853406497229803
 20
5.990923043830448
 30
0.0
 10
4.852879202971307
 20
5.986381468220998
 30
0.0
 10
4.852679856060654
 20
5.981711216517651
 30
0.0
 10
4.852809788486857
 20
5.976953554899849
 30
0.0
 10
4.853266236412463
 20
5.972149843093987
 30
0.0
 10
4.854034865009975
 20
5.967427146731209
 30
0.0
 10
4.854844372206248
 20
5.963848537653566
 30
0.0
 10
4.855384043673186
 20
5.961885275593128
 30
0.0
 10
4.855514310465511
 20
5.961411380146036
 30
0.0
  0
SPLINE
  5
7E
330
1F
100
AcDbEntity
  8
0
  6
Continuous
 62
     7
370
    15
100
AcDbSpline
210
0.0
220
0.0
230
1.0
 70
     8
 71
     3
 72
    21
 73
    17
 74
     0
 42
0.0000000001
 43
0.0000000001
 40
0.0
 40
0.0
 40
0.0
 40
0.0
 40
0.0395999917978896
 40
0.1145359189534021
 40
0.1895033603142011
 40
0.264489974741389
 40
0.3395016300137444
 40
0.4145422342251904
 40
0.4896122034489611
 40
0.5647085547235066
 40
0.6398173916731589
 40
0.714910565167894
 40
0.7899483893619528
 40
0.8648769991264696
 40
0.9396333040991857
 40
0.9999999999999998
 40
0.9999999999999998
 40
0.9999999999999998
 40
0.9999999999999998
 10
4.855514310465511
 20
5.961411380146036
 30
0.0
 10
4.855756100724955
 20
5.960584909299075
 30
0.0
 10
4.856455435959691
 20
5.958194489663942
 30
0.0
 10
4.857841165581545
 20
5.954320646769637
 30
0.0
 10
4.859752906090486
 20
5.949871753335822
 30
0.0
 10
4.861935878895682
 20
5.945613793759749
 30
0.0
 10
4.864366215143259
 20
5.941583136701048
 30
0.0
 10
4.867024951166613
 20
5.937815569769366
 30
0.0
 10
4.8698894788445
 20
5.934344529579676
 30
0.0
 10
4.872935831952576
 20
5.931201278935073
 30
0.0
 10
4.876138089232536
 20
5.928414316841986
 30
0.0
 10
4.879468598436447
 20
5.926011047321178
 30
0.0
 10
4.882898010633913
 20
5.924009869797608
 30
0.0
 10
4.886394871127294
 20
5.922447505838957
 30
0.0
 10
4.889704904084733
 20
5.921349346620472
 30
0.0
 10
4.891838217326283
 20
5.920990037775785
 30
0.0
 10
4.892791282836087
 20
5.920829515232461
 30
0.0
  0
LINE
  5
7F
330
1F
100
AcDbEntity
  8
0
  6
Continuous
 62
     7
370
    15
100
AcDbLine
 10
4.88894552118653
 20
6.025270720603965
 30
0.0
 11
4.876571176042778
 21
6.021955496780344
 31
0.0
  0
LINE
  5
80
330
1F
100
AcDbEntity
  8
0
  6
Continuous
 62
     7
370
    15
100
AcDbLine
 10
4.90352790902626
 20
5.92133724103694
 30
0.0
 11
4.915902254170013
 21
5.924652464860561
 31
0.0
  0
SPLINE
  5
81
330
1F
100
AcDbEntity
  8
0
  6
Continuous
 62
     7
370
    15
100
AcDbSpline
210
0.0
220
0.0
230
1.0
 70
     8
 71
     3
 72
    35
 73
    31
 74
     0
 42
0.0000000001
 43
0.0000000001
 40
0.0
 40
0.0
 40
0.0
 40
0.0
 40
0.0327531520963261
 40
0.0694014838078755
 40
0.1061778457142085
 40
0.1430648216103271
 40
0.1800359354468353
 40
0.2170628477272333
 40
0.2541223640961137
 40
0.2911966766159708
 40
0.32827250716017
 40
0.3653436114758645
 40
0.4024086965610775
 40
0.4394679852099312
 40
0.476523170803386
 40
0.5135776909884893
 40
0.5506344050303051
 40
0.5876956574996628
 40
0.6247651479127568
 40
0.6618459341300797
 40
0.6989402837680972
 40
0.7360497197973618
 40
0.7731729894543794
 40
0.8103061655960811
 40
0.8474372192333527
 40
0.884549514537935
 40
0.9216190592752614
 40
0.9586155993492527
 40
0.9955070906429824
 40
0.9999999999999998
 40
0.9999999999999998
 40
0.9999999999999998
 40
0.9999999999999998
 10
4.925489417712682
 20
5.929590217037491
 30
0.0
 10
4.926301671333453
 20
5.930275712771862
 30
0.0
 10
4.92802277610969
 20
5.931728227051083
 30
0.0
 10
4.930375652473398
 20
5.934416440485693
 30
0.0
 10
4.932585782518
 20
5.937523223741548
 30
0.0
 10
4.934524819517777
 20
5.940972403066751
 30
0.0
 10
4.936181254609398
 20
5.944721198778624
 30
0.0
 10
4.937538428886226
 20
5.948738956689876
 30
0.0
 10
4.938584466336094
 20
5.952988424395057
 30
0.0
 10
4.93931054601543
 20
5.957431321180536
 30
0.0
 10
4.939710760233051
 20
5.962027747145862
 30
0.0
 10
4.939782175650537
 20
5.966736882360869
 30
0.0
 10
4.939524934511223
 20
5.971517339710199
 30
0.0
 10
4.938941736426916
 20
5.976327343597986
 30
0.0
 10
4.938037893339558
 20
5.981124919129321
 30
0.0
 10
4.936821705584631
 20
5.985868381829536
 30
0.0
 10
4.935303492571696
 20
5.990516341236252
 30
0.0
 10
4.933496548449403
 20
5.995028351974531
 30
0.0
 10
4.931416034354202
 20
5.99936494049979
 30
0.0
 10
4.929079678929865
 20
6.003488260030222
 30
0.0
 10
4.926507087086359
 20
6.007362118253259
 30
0.0
 10
4.923719820206904
 20
6.01095222741296
 30
0.0
 10
4.920741050834145
 20
6.014226443751472
 30
0.0
 10
4.917596216958787
 20
6.017154805728983
 30
0.0
 10
4.914312081936032
 20
6.019711168629264
 30
0.0
 10
4.910917636835449
 20
6.021866986707097
 30
0.0
 10
4.907442605307438
 20
6.023616966404841
 30
0.0
 10
4.903921736397532
 20
6.024886112280577
 30
0.0
 10
4.901412201079536
 20
6.025588628397906
 30
0.0
 10
4.900094529877278
 20
6.02573104700516
 30
0.0
 10
4.899951476524299
 20
6.02574650872221
 30
0.0
  0
SPLINE
  5
82
330
1F
100
AcDbEntity
  8
0
  6
Continuous
 62
     7
370
    15
100
AcDbSpline
210
0.0
220
0.0
230
1.0
 70
     8
 71
     3
 72
    22
 73
    18
 74
     0
 42
0.0000000001
 43
0.0000000001
 40
0.0
 40
0.0
 40
0.0
 40
0.0
 40
0.0344864539124818
 40
0.1066200769194717
 40
0.1790096179603185
 40
0.2516345259834257
 40
0.3244465531896211
 40
0.3973883954062088
 40
0.4704127125340949
 40
0.5434779853629334
 40
0.6165537710875985
 40
0.6896255821577753
 40
0.7626847723080256
 40
0.8357321118440617
 40
0.908769629301927
 40
0.9779781473881431
 40
1.0
 40
1.0
 40
1.0
 40
1.0
 10
4.866920785313489
 20
7.823379447954019
 30
0.0
 10
4.866475851960751
 20
7.823033933412528
 30
0.0
 10
4.865100273352019
 20
7.821965723062916
 30
0.0
 10
4.863026153542858
 20
7.819755311581323
 30
0.0
 10
4.860712990032067
 20
7.816794534251178
 30
0.0
 10
4.858669755137744
 20
7.813468613438232
 30
0.0
 10
4.856900761851005
 20
7.809834032672148
 30
0.0
 10
4.855425888710718
 20
7.805916142689294
 30
0.0
 10
4.854257728642421
 20
7.801752301274986
 30
0.0
 10
4.853406498503367
 20
7.797379868669164
 30
0.0
 10
4.852879198823
 20
7.792838293952491
 30
0.0
 10
4.852679856939889
 20
7.78816804068318
 30
0.0
 10
4.852809788605037
 20
7.783410363671054
 30
0.0
 10
4.853266233147788
 20
7.77860666757928
 30
0.0
 10
4.854034866292267
 20
7.773883985911908
 30
0.0
 10
4.854844386914161
 20
7.770305381845675
 30
0.0
 10
4.855384044080642
 20
7.768342100132485
 30
0.0
 10
4.855514310465511
 20
7.767868188865956
 30
0.0
  0
SPLINE
  5
83
330
1F
100
AcDbEntity
  8
0
  6
Continuous
 62
     7
370
    15
100
AcDbSpline
210
0.0
220
0.0
230
1.0
 70
     8
 71
     3
 72
    21
 73
    17
 74
     0
 42
0.0000000001
 43
0.0000000001
 40
0.0
 40
0.0
 40
0.0
 40
0.0
 40
0.0395999973013779
 40
0.1145359348712612
 40
0.1895033866508107
 40
0.2644894273355585
 40
0.3395016307166628
 40
0.4145422453570273
 40
0.4896117939737025
 40
0.564708527497815
 40
0.6398173748858687
 40
0.7149103148218617
 40
0.7899483259091308
 40
0.8648769460870015
 40
0.939633261449125
 40
0.9999999999999998
 40
0.9999999999999998
 40
0.9999999999999998
 40
0.9999999999999998
 10
4.855514310465511
 20
7.767868188865956
 30
0.0
 10
4.855756100658274
 20
7.767041717962025
 30
0.0
 10
4.856455435700143
 20
7.764651298162115
 30
0.0
 10
4.85784116777174
 20
7.760777457360771
 30
0.0
 10
4.859752893075761
 20
7.756328566735345
 30
0.0
 10
4.861935902441055
 20
7.752070639810765
 30
0.0
 10
4.864366203005129
 20
7.748039950064428
 30
0.0
 10
4.86702494063024
 20
7.744272374883888
 30
0.0
 10
4.869889500002297
 20
7.740801393231832
 30
0.0
 10
4.872935821090451
 20
7.737658083455333
 30
0.0
 10
4.876138082808407
 20
7.734871113480627
 30
0.0
 10
4.879468611151643
 20
7.732467928314706
 30
0.0
 10
4.882898004090542
 20
7.730466659543367
 30
0.0
 10
4.886394871994246
 20
7.728904324332867
 30
0.0
 10
4.889704904976249
 20
7.727806138087656
 30
0.0
 10
4.891838217394737
 20
7.727446873759377
 30
0.0
 10
4.892791282836087
 20
7.727286371053526
 30
0.0
  0
LINE
  5
84
330
1F
100
AcDbEntity
  8
0
  6
Continuous
 62
     7
370
    15
100
AcDbLine
 10
4.88894552118653
 20
7.831727529323885
 30
0.0
 11
4.876571176042778
 21
7.828412305500265
 31
0.0
  0
LINE
  5
85
330
1F
100
AcDbEntity
  8
0
  6
Continuous
 62
     7
370
    15
100
AcDbLine
 10
4.90352790902626
 20
7.727794096858006
 30
0.0
 11
4.915902254170013
 21
7.731109320681627
 31
0.0
  0
SPLINE
  5
86
330
1F
100
AcDbEntity
  8
0
  6
Continuous
 62
     7
370
    15
100
AcDbSpline
210
0.0
220
0.0
230
1.0
 70
     8
 71
     3
 72
    35
 73
    31
 74
     0
 42
0.0000000001
 43
0.0000000001
 40
0.0
 40
0.0
 40
0.0
 40
0.0
 40
0.0327531491823216
 40
0.0694014776333175
 40
0.1061775460993444
 40
0.1430648291315721
 40
0.1800359396788094
 40
0.2170625060692046
 40
0.2541223734048818
 40
0.2911963197898242
 40
0.328272147035436
 40
0.3653436184659193
 40
0.4024083309134502
 40
0.4394676162651879
 40
0.4765235135654446
 40
0.5135776836168616
 40
0.5506343943617907
 40
0.5876956435338579
 40
0.6247651306489284
 40
0.6618461886153855
 40
0.6989405349531678
 40
0.7360497436844696
 40
0.7731730100386791
 40
0.8103061828766914
 40
0.8474372332104625
 40
0.8845495252132129
 40
0.9216191330406594
 40
0.9586156063067971
 40
0.9955070910427107
 40
1.0
 40
1.0
 40
1.0
 40
1.0
 10
4.925489417712682
 20
7.736047072858556
 30
0.0
 10
4.926301671863035
 20
7.736732567922065
 30
0.0
 10
4.928022777761413
 20
7.738185080779778
 30
0.0
 10
4.930375638498707
 20
7.740873298517647
 30
0.0
 10
4.932585805751905
 20
7.743980035655323
 30
0.0
 10
4.934524808290213
 20
7.747429256532966
 30
0.0
 10
4.936181246302885
 20
7.751178044596836
 30
0.0
 10
4.937538444708511
 20
7.755195785624797
 30
0.0
 10
4.938584453185604
 20
7.759445256815689
 30
0.0
 10
4.939310551705326
 20
7.763888142415857
 30
0.0
 10
4.939710760139332
 20
7.768484571977429
 30
0.0
 10
4.939782176663974
 20
7.773193706264044
 30
0.0
 10
4.939524934262354
 20
7.777974164810797
 30
0.0
 10
4.938941724600334
 20
7.782784182243196
 30
0.0
 10
4.93803791411399
 20
7.787581778186325
 30
0.0
 10
4.936821695578506
 20
7.792325251179411
 30
0.0
 10
4.935303493579118
 20
7.796973196948172
 30
0.0
 10
4.933496549690395
 20
7.801485209204594
 30
0.0
 10
4.93141602323474
 20
7.805821801517195
 30
0.0
 10
4.929079689726523
 20
7.809945156691683
 30
0.0
 10
4.926507096907243
 20
7.813819021343644
 30
0.0
 10
4.923719808612863
 20
7.817409080976307
 30
0.0
 10
4.920741052387762
 20
7.820683302424717
 30
0.0
 10
4.917596216349496
 20
7.8236116589882
 30
0.0
 10
4.914312082819182
 20
7.826168031843082
 30
0.0
 10
4.910917631890452
 20
7.828323816832151
 30
0.0
 10
4.907442613894634
 20
7.830073923527345
 30
0.0
 10
4.903921731652679
 20
7.831342860914872
 30
0.0
 10
4.90141220103144
 20
7.83204548665328
 30
0.0
 10
4.900094529882782
 20
7.832187903063521
 30
0.0
 10
4.899951476524299
 20
7.832203364543276
 30
0.0
  0
SPLINE
  5
87
330
1F
100
AcDbEntity
  8
0
  6
Continuous
 62
     7
370
    15
100
AcDbSpline
210
0.0
220
0.0
230
1.0
 70
     8
 71
     3
 72
    22
 73
    18
 74
     0
 42
0.0000000001
 43
0.0000000001
 40
0.0
 40
0.0
 40
0.0
 40
0.0
 40
0.0344864518645336
 40
0.106619562454094
 40
0.1790096542206827
 40
0.2516345579310226
 40
0.3244459472057311
 40
0.3973891145237398
 40
0.4704127372859942
 40
0.5434772964605648
 40
0.6165545226553008
 40
0.6896248710437907
 40
0.7626847864007847
 40
0.835732121598968
 40
0.9087696347195635
 40
0.9779781486958917
 40
1.0
 40
1.0
 40
1.0
 40
1.0
 10
4.866920785313489
 20
7.181083688509032
 30
0.0
 10
4.866475852726868
 20
7.180738172766317
 30
0.0
 10
4.865100283042473
 20
7.179669963793876
 30
0.0
 10
4.863026128661259
 20
7.177459605316219
 30
0.0
 10
4.860713001776003
 20
7.174498772937595
 30
0.0
 10
4.858669766760646
 20
7.171172859366722
 30
0.0
 10
4.856900731554858
 20
7.167538300314559
 30
0.0
 10
4.855425915070563
 20
7.163620361431721
 30
0.0
 10
4.854257725782177
 20
7.15945654548092
 30
0.0
 10
4.853406486574001
 20
7.15508411450429
 30
0.0
 10
4.852879209039762
 20
7.150542546260117
 30
0.0
 10
4.852679854513154
 20
7.145872282094744
 30
0.0
 10
4.85280978788133
 20
7.141114619971862
 30
0.0
 10
4.853266232933742
 20
7.136310908200466
 30
0.0
 10
4.854034866348004
 20
7.131588226449689
 30
0.0
 10
4.854844386910583
 20
7.128009622401793
 30
0.0
 10
4.855384044079945
 20
7.126046340687713
 30
0.0
 10
4.855514310465511
 20
7.125572429420969
 30
0.0
  0
SPLINE
  5
88
330
1F
100
AcDbEntity
  8
0
  6
Continuous
 62
     7
370
    15
100
AcDbSpline
210
0.0
220
0.0
230
1.0
 70
     8
 71
     3
 72
    21
 73
    17
 74
     0
 42
0.0000000001
 43
0.0000000001
 40
0.0
 40
0.0
 40
0.0
 40
0.0
 40
0.0395999995485207
 40
0.1145359413707213
 40
0.1895033974043764
 40
0.2644900265081731
 40
0.3395016964620383
 40
0.4145418288649568
 40
0.4896122438267744
 40
0.5647086097994068
 40
0.6398174614495896
 40
0.7149106496417895
 40
0.7899483120648592
 40
0.8648770436997976
 40
0.9396333265352303
 40
0.9999999999999998
 40
0.9999999999999998
 40
0.9999999999999998
 40
0.9999999999999998
 10
4.855514310465511
 20
7.125572429420969
 30
0.0
 10
4.855756100720144
 20
7.124745958567356
 30
0.0
 10
4.856455435940963
 20
7.122355538912983
 30
0.0
 10
4.857841165739579
 20
7.118481696263051
 30
0.0
 10
4.859752905509716
 20
7.114032801807841
 30
0.0
 10
4.86193588106153
 20
7.109774846028966
 30
0.0
 10
4.864366201802678
 20
7.105744183509838
 30
0.0
 10
4.867024974717161
 20
7.101976669575402
 30
0.0
 10
4.869889465529909
 20
7.098505573344756
 30
0.0
 10
4.872935833725348
 20
7.095362329854975
 30
0.0
 10
4.87613808962979
 20
7.092575371065724
 30
0.0
 10
4.879468592467565
 20
7.090172077050996
 30
0.0
 10
4.882898019873023
 20
7.088171001750511
 30
0.0
 10
4.886394865788495
 20
7.086608513505753
 30
0.0
 10
4.889704904540557
 20
7.085510475530085
 30
0.0
 10
4.89183821749457
 20
7.085151111637056
 30
0.0
 10
4.892791282836087
 20
7.084990564507394
 30
0.0
  0
LINE
  5
89
330
1F
100
AcDbEntity
  8
0
  6
Continuous
 62
     7
370
    15
100
AcDbLine
 10
4.88894552118653
 20
7.189431816980044
 30
0.0
 11
4.876571176042778
 21
7.186116593156422
 31
0.0
  0
LINE
  5
8A
330
1F
100
AcDbEntity
  8
0
  6
Continuous
 62
     7
370
    15
100
AcDbLine
 10
4.90352790902626
 20
7.085498337413018
 30
0.0
 11
4.915902254170013
 21
7.088813561236639
 31
0.0
  0
SPLINE
  5
8B
330
1F
100
AcDbEntity
  8
0
  6
Continuous
 62
     7
370
    15
100
AcDbSpline
210
0.0
220
0.0
230
1.0
 70
     8
 71
     3
 72
    35
 73
    31
 74
     0
 42
0.0000000001
 43
0.0000000001
 40
0.0
 40
0.0
 40
0.0
 40
0.0
 40
0.0327529144539677
 40
0.0694012511371093
 40
0.1061776180324027
 40
0.1430649093504514
 40
0.1800357002612506
 40
0.217062960160979
 40
0.2541224815572316
 40
0.2911967991064681
 40
0.3282722664429298
 40
0.3653437462006075
 40
0.4024088363139481
 40
0.4394677649659384
 40
0.4765233130879073
 40
0.5135774914626322
 40
0.5506342105314401
 40
0.5876954680284055
 40
0.6247652605383934
 40
0.661846051785974
 40
0.6989404064560889
 40
0.736049623523062
 40
0.7731730936242681
 40
0.8103061097054027
 40
0.847437168379751
 40
0.8845495690489249
 40
0.9216191188149837
 40
0.9586156321477954
 40
0.9955071284461036
 40
1.0
 40
1.0
 40
1.0
 40
1.0
 10
4.925489417712682
 20
7.093751313413569
 30
0.0
 10
4.926301672819901
 20
7.094436790892818
 30
0.0
 10
4.928022787463381
 20
7.095889272159886
 30
0.0
 10
4.930375648946403
 20
7.098577494620808
 30
0.0
 10
4.932585796524154
 20
7.101684273165415
 30
0.0
 10
4.934524796541674
 20
7.105133491556405
 30
0.0
 10
4.936181275413169
 20
7.10888226084068
 30
0.0
 10
4.937538418701315
 20
7.112900045829193
 30
0.0
 10
4.938584468490939
 20
7.117149519104621
 30
0.0
 10
4.939310541957973
 20
7.121592403646785
 30
0.0
 10
4.93971076391291
 20
7.126188826601388
 30
0.0
 10
4.939782174388178
 20
7.130897963131269
 30
0.0
 10
4.939524939366148
 20
7.135678420381104
 30
0.0
 10
4.938941724996043
 20
7.140488423537028
 30
0.0
 10
4.938037908023442
 20
7.145285986703208
 30
0.0
 10
4.936821695622525
 20
7.150029444255868
 30
0.0
 10
4.935303495582739
 20
7.154677392103465
 30
0.0
 10
4.933496536802254
 20
7.159189408283819
 30
0.0
 10
4.931416047149189
 20
7.163526031204058
 30
0.0
 10
4.929079675134822
 20
7.167649351667022
 30
0.0
 10
4.926507100890254
 20
7.171523220454912
 30
0.0
 10
4.92371979602198
 20
7.175113266151181
 30
0.0
 10
4.920741073005567
 20
7.178387554925262
 30
0.0
 10
4.91759620596027
 20
7.18131584696768
 30
0.0
 10
4.91431207762353
 20
7.183872209427752
 30
0.0
 10
4.910917642197182
 20
7.186028094566905
 30
0.0
 10
4.907442607772719
 20
7.187778061468446
 30
0.0
 10
4.903921730337639
 20
7.18904719825174
 30
0.0
 10
4.90141221191799
 20
7.189749553627412
 30
0.0
 10
4.900094529955217
 20
7.189892126726731
 30
0.0
 10
4.899951476524299
 20
7.189907605098288
 30
0.0
  0
LINE
  5
8C
330
1F
100
AcDbEntity
  8
0
  6
Continuous
 62
     7
370
    15
100
AcDbLine
 10
4.435166007836186
 20
7.577900410919677
 30
0.0
 11
4.434054986211932
 21
7.576673293526168
 31
0.0
  0
LINE
  5
8D
330
1F
100
AcDbEntity
  8
0
  6
Continuous
 62
     7
370
    15
100
AcDbLine
 10
4.511276157202843
 20
7.506762005981851
 30
0.0
 11
4.512621765862856
 21
7.508248351901088
 31
0.0
  0
LINE
  5
8E
330
1F
100
AcDbEntity
  8
0
  6
Continuous
 62
     7
370
    15
100
AcDbLine
 10
4.435166007836186
 20
5.691156638156776
 30
0.0
 11
4.434054986211932
 21
5.689929520763268
 31
0.0
  0
LINE
  5
8F
330
1F
100
AcDbEntity
  8
0
  6
Continuous
 62
     7
370
    15
100
AcDbLine
 10
4.511276157202843
 20
5.62001823321895
 30
0.0
 11
4.512621765862856
 21
5.621504484935897
 31
0.0
  0
SPLINE
  5
90
330
1F
100
AcDbEntity
  8
0
  6
Continuous
 62
     7
370
    15
100
AcDbSpline
210
0.0
220
0.0
230
1.0
 70
     8
 71
     3
 72
    26
 73
    22
 74
     0
 42
0.0000000001
 43
0.0000000001
 40
0.0
 40
0.0
 40
0.0
 40
0.0
 40
0.0064647507398847
 40
0.0605294022977398
 40
0.1146044838756149
 40
0.1687667539630945
 40
0.2230999667175157
 40
0.2776989352982899
 40
0.3326663493644086
 40
0.3881058913977635
 40
0.4441203388345486
 40
0.5007951839891779
 40
0.5581921263301198
 40
0.6163367753326547
 40
0.6752090290015838
 40
0.7347448065586708
 40
0.7948365926122603
 40
0.8489143385368327
 40
0.9029517802334872
 40
0.9569531264843133
 40
1.0
 40
1.0
 40
1.0
 40
1.0
 10
4.503820741987168
 20
7.499775691952587
 30
0.0
 10
4.504005541554207
 20
7.499905248969458
 30
0.0
 10
4.505735818217265
 20
7.501118290138444
 30
0.0
 10
4.508780462709469
 20
7.503728537522369
 30
0.0
 10
4.512910854573988
 20
7.50760758522296
 30
0.0
 10
4.516730342453469
 20
7.511814063538715
 30
0.0
 10
4.520253658112427
 20
7.51629178569991
 30
0.0
 10
4.523456518847456
 20
7.521039147904566
 30
0.0
 10
4.526324323406987
 20
7.526040474349405
 30
0.0
 10
4.528838658758964
 20
7.531283636262109
 30
0.0
 10
4.530979447776413
 20
7.536754302619507
 30
0.0
 10
4.532725069059719
 20
7.542435317902412
 30
0.0
 10
4.534051829302646
 20
7.54830497640393
 30
0.0
 10
4.534935372740015
 20
7.55433526823754
 30
0.0
 10
4.535352398750254
 20
7.560490684791445
 30
0.0
 10
4.535282956731993
 20
7.566728063205718
 30
0.0
 10
4.534731160015972
 20
7.572773087485183
 30
0.0
 10
4.533756461954371
 20
7.578569137058088
 30
0.0
 10
4.532405022691408
 20
7.584068102196328
 30
0.0
 10
4.530818365825301
 20
7.589105942047153
 30
0.0
 10
4.529506445418333
 20
7.592230767535893
 30
0.0
 10
4.528924527770001
 20
7.593616820447485
 30
0.0
  0
LINE
  5
91
330
1F
100
AcDbEntity
  8
0
  6
Continuous
 62
     7
370
    15
100
AcDbLine
 10
4.443332098012234
 20
7.417420631354876
 30
0.0
 11
4.455588631099124
 21
7.414136970683331
 31
0.0
  0
LINE
  5
92
330
1F
100
AcDbEntity
  8
0
  6
Continuous
 62
     7
370
    15
100
AcDbLine
 10
4.939899201209717
 20
7.710823257922035
 30
0.0
 11
4.952155699727342
 21
7.714106909332092
 31
0.0
  0
LINE
  5
93
330
1F
100
AcDbEntity
  8
0
  6
Continuous
 62
     7
370
    15
100
AcDbLine
 10
4.443332098012234
 20
6.775124848359316
 30
0.0
 11
4.455588631099124
 21
6.771841187687771
 31
0.0
  0
LINE
  5
94
330
1F
100
AcDbEntity
  8
0
  6
Continuous
 62
     7
370
    15
100
AcDbLine
 10
4.939899201209717
 20
7.068527498477047
 30
0.0
 11
4.952155699727342
 21
7.071811149887104
 31
0.0
  0
SPLINE
  5
95
330
1F
100
AcDbEntity
  8
0
  6
Continuous
 62
     7
370
    15
100
AcDbSpline
210
0.0
220
0.0
230
1.0
 70
     8
 71
     3
 72
    20
 73
    16
 74
     0
 42
0.0000000001
 43
0.0000000001
 40
0.0
 40
0.0
 40
0.0
 40
0.0
 40
0.021826518060336
 40
0.1030903436225883
 40
0.1851950509987723
 40
0.2682683704777719
 40
0.3524014152721607
 40
0.4376296422524154
 40
0.5239242244406021
 40
0.6111909007505548
 40
0.6992732302905348
 40
0.778539727326171
 40
0.8577471514398352
 40
0.9369027739018564
 40
1.0
 40
1.0
 40
1.0
 40
1.0
 10
4.525478248552688
 20
6.293778314099216
 30
0.0
 10
4.525739941311205
 20
6.294227546414456
 30
0.0
 10
4.52697596055736
 20
6.296349346768331
 30
0.0
 10
4.52882053947405
 20
6.300366132320546
 30
0.0
 10
4.530984388686387
 20
6.305823784332236
 30
0.0
 10
4.532723736212769
 20
6.31150833501385
 30
0.0
 10
4.534052188884635
 20
6.317377051067911
 30
0.0
 10
4.53493527288372
 20
6.323407632366992
 30
0.0
 10
4.535352425668142
 20
6.329562969236287
 30
0.0
 10
4.535282947754303
 20
6.335800359383825
 30
0.0
 10
4.534731163812037
 20
6.341845362859581
 30
0.0
 10
4.533756464085415
 20
6.347641402896193
 30
0.0
 10
4.532405006003063
 20
6.353140365367265
 30
0.0
 10
4.530818387905603
 20
6.358178214454623
 30
0.0
 10
4.529506447797901
 20
6.361303036810365
 30
0.0
 10
4.528924527770001
 20
6.362689073186384
 30
0.0
  0
LINE
  5
96
330
1F
100
AcDbEntity
  8
0
  6
Continuous
 62
     7
370
    15
100
AcDbLine
 10
4.443332098012234
 20
6.186492884093775
 30
0.0
 11
4.455588631099124
 21
6.18320922342223
 31
0.0
  0
LINE
  5
97
330
1F
100
AcDbEntity
  8
0
  6
Continuous
 62
     7
370
    15
100
AcDbLine
 10
4.939899201209717
 20
6.479895528323862
 30
0.0
 11
4.952155699727342
 21
6.483179179733919
 31
0.0
  0
SPLINE
  5
98
330
1F
100
AcDbEntity
  8
0
  6
Continuous
 62
     7
370
    15
100
AcDbSpline
210
0.0
220
0.0
230
1.0
 70
     8
 71
     3
 72
    26
 73
    22
 74
     0
 42
0.0000000001
 43
0.0000000001
 40
0.0
 40
0.0
 40
0.0
 40
0.0
 40
0.0064647555855526
 40
0.0605288787481964
 40
0.1146046186007195
 40
0.1687669292856458
 40
0.2231001827656441
 40
0.2776991922711933
 40
0.3326658683743539
 40
0.3881062621517774
 40
0.4441199144725286
 40
0.5007948021079108
 40
0.5581926650375812
 40
0.6163373576225636
 40
0.6752096554193177
 40
0.7347445769661132
 40
0.7948373052678051
 40
0.8489142031741588
 40
0.9029516853746947
 40
0.9569539300500945
 40
1.0
 40
1.0
 40
1.0
 40
1.0
 10
4.503820741987168
 20
5.613031919189685
 30
0.0
 10
4.504005541379958
 20
5.613161476413346
 30
0.0
 10
4.505735800148576
 20
5.614374508117031
 30
0.0
 10
4.50878053179041
 20
5.616984654362864
 30
0.0
 10
4.512910817123963
 20
5.620863821818915
 30
0.0
 10
4.516730347421336
 20
5.625070284621175
 30
0.0
 10
4.520253661285661
 20
5.629548012108197
 30
0.0
 10
4.523456485782165
 20
5.63429536216145
 30
0.0
 10
4.526324380165388
 20
5.639296640448139
 30
0.0
 10
4.528838606937989
 20
5.644539824170278
 30
0.0
 10
4.530979472166793
 20
5.65001045658317
 30
0.0
 10
4.532725079830014
 20
5.655691480805471
 30
0.0
 10
4.53405181808003
 20
5.661561174595407
 30
0.0
 10
4.534935373947974
 20
5.667591495101532
 30
0.0
 10
4.53535239873563
 20
5.673746880803289
 30
0.0
 10
4.535282948505744
 20
5.679984258490688
 30
0.0
 10
4.534731175971574
 20
5.686029253732411
 30
0.0
 10
4.533756453031977
 20
5.69182530074728
 30
0.0
 10
4.532405002593205
 20
5.697324259728521
 30
0.0
 10
4.530818404627389
 20
5.702362120598716
 30
0.0
 10
4.529506449421799
 20
5.705486933418552
 30
0.0
 10
4.528924527770001
 20
5.706872953482295
 30
0.0
  0
LINE
  5
99
330
1F
100
AcDbEntity
  8
0
  6
Continuous
 62
     7
370
    15
100
AcDbLine
 10
4.196992030520515
 20
4.902796567877268
 30
0.0
 11
4.668396511045266
 21
5.029091038109217
 31
0.0
  0
SPLINE
  5
9A
330
1F
100
AcDbEntity
  8
0
  6
Continuous
 62
     7
370
    15
100
AcDbSpline
210
0.0
220
0.0
230
1.0
 70
     8
 71
     3
 72
     9
 73
     5
 74
     0
 42
0.0000000001
 43
0.0000000001
 40
0.0
 40
0.0
 40
0.0
 40
0.0
 40
0.4910158681447906
 40
1.0
 40
1.0
 40
1.0
 40
1.0
 10
4.744137668071861
 20
5.556850446648704
 30
0.0
 10
4.745169772075635
 20
5.558380707586898
 30
0.0
 10
4.74727174895812
 20
5.561497227922538
 30
0.0
 10
4.750806650345407
 20
5.564382718930437
 30
0.0
 10
4.752605859059208
 20
5.565851388066068
 30
0.0
  0
ARC
  5
9B
330
1F
100
AcDbEntity
  8
0
  6
Continuous
 62
     7
370
    15
100
AcDbCircle
 10
4.883025856216999
 20
6.573386660168223
 30
0.0
 40
0.024931132732672
100
AcDbArc
 50
81.01486757669174
 51
129.3686217614692
  0
ARC
  5
9C
330
1F
100
AcDbEntity
  8
0
  6
Continuous
 62
     7
370
    15
100
AcDbCircle
 10
4.897069138781804
 20
6.520964044338507
 30
0.0
 40
0.024930432673654
100
AcDbArc
 50
260.9400675246845
 51
308.1990875587225
  0
LWPOLYLINE
  5
9D
330
1F
100
AcDbEntity
  8
0
  6
Continuous
 62
     7
370
    15
100
AcDbPolyline
 90
       63
 70
   128
 43
0.0
 10
4.855940134678075
 20
6.537076227139277
 10
4.857490600805504
 20
6.532216999763019
 10
4.859363114210433
 20
6.527508014811672
 10
4.861538385242706
 20
6.522997615387106
 10
4.863994116726071
 20
6.518732075330912
 10
4.866705142235232
 20
6.514755155563083
 10
4.86964359894219
 20
6.511107681701374
 10
4.872779377016684
 20
6.507827064515716
 10
4.876080257903258
 20
6.504946978803477
 10
4.879512398290978
 20
6.502496974672328
 10
4.883040572098286
 20
6.500502191923207
 10
4.886628585304193
 20
6.498983098777553
 10
4.890239587071666
 20
6.497955287827233
 10
4.89383655371734
 20
6.497429305160201
 10
4.897382565265653
 20
6.497410540942731
 10
4.900841254849284
 20
6.497899191447074
 10
4.90417708526329
 20
6.498890249723628
 10
4.90735586750408
 20
6.500373537420267
 10
4.910344968185011
 20
6.502333837617991
 10
4.913113724367575
 20
6.504751030974084
 10
4.915633720115524
 20
6.507600316012362
 10
4.917879063048989
 20
6.510852464739285
 10
4.919826764606404
 20
6.514474091689114
 10
4.921456843752305
 20
6.518428032386818
 10
4.922752499823653
 20
6.522673734198143
 10
4.923700527361025
 20
6.527167606083819
 10
4.924291143262278
 20
6.531863549717619
 10
4.924518297905951
 20
6.536713375478705
 10
4.924379640581986
 20
6.541667323570097
 10
4.923876657768803
 20
6.546674540117612
 10
4.923014465717696
 20
6.551683660970792
 10
4.921801879591369
 20
6.556643290685769
 10
4.920251413463939
 20
6.56150251769405
 10
4.918378934628276
 20
6.566211491176042
 10
4.916203629026736
 20
6.570721902805918
 10
4.913747897543373
 20
6.574987441390203
 10
4.911036872034212
 20
6.578964361158031
 10
4.908098415327254
 20
6.58261183501974
 10
4.90496263725276
 20
6.58589245514922
 10
4.901661756366186
 20
6.588772537917637
 10
4.898229615978467
 20
6.591222539104965
 10
4.894701442171158
 20
6.593217324797908
 10
4.89111342896525
 20
6.594736417943561
 10
4.887502427197778
 20
6.59576422889388
 10
4.883905460552103
 20
6.596290214504733
 10
4.880359449003791
 20
6.596308975778382
 10
4.876900759420159
 20
6.595820325274041
 10
4.873564929006154
 20
6.594829266997486
 10
4.870386146765364
 20
6.593345976357025
 10
4.867397046084433
 20
6.591385679103122
 10
4.864628289901868
 20
6.588968485747029
 10
4.862108294153919
 20
6.586119200708752
 10
4.859862951220455
 20
6.582867051981829
 10
4.85791524966304
 20
6.579245425032
 10
4.856285170517139
 20
6.575291484334296
 10
4.85498951444579
 20
6.571045783994882
 10
4.854041486908419
 20
6.566551910821284
 10
4.853450871007165
 20
6.561855967003495
 10
4.853223716363493
 20
6.557006141242408
 10
4.853362373687457
 20
6.552052193886972
 10
4.853865356500642
 20
6.547044975867546
 10
4.854727583121015
 20
6.542035847132795
 10
4.855940134678075
 20
6.537076227139277
  0
ARC
  5
9E
330
1F
100
AcDbEntity
  8
0
  6
Continuous
 62
     7
370
    15
100
AcDbCircle
 10
4.909275394631547
 20
6.524526284961601
 30
0.0
 40
0.0252305078697661
100
AcDbArc
 50
285.2275189075646
 51
309.0895728620794
  0
ARC
  5
9F
330
1F
100
AcDbEntity
  8
0
  6
Continuous
 62
     7
370
    15
100
AcDbCircle
 10
4.895375438882127
 20
6.576512046712458
 30
0.0
 40
0.0251245057657561
100
AcDbArc
 50
80.34110175234458
 51
104.8282341152822
  0
CIRCLE
  5
A0
330
1F
100
AcDbEntity
  8
0
  6
Continuous
 62
     7
370
    15
100
AcDbCircle
 10
4.472595906252908
 20
6.297546548701563
 30
0.0
 40
0.051874094996365
  0
CIRCLE
  5
A1
330
1F
100
AcDbEntity
  8
0
  6
Continuous
 62
     7
370
    15
100
AcDbCircle
 10
4.472436310844199
 20
6.297373293072336
 30
0.0
 40
0.0501921939559067
  0
ARC
  5
A2
330
1F
100
AcDbEntity
  8
0
  6
Continuous
 62
     7
370
    15
100
AcDbCircle
 10
4.473791640340003
 20
6.29854751802073
 30
0.0
 40
0.0521071015974497
100
AcDbArc
 50
318.1761375124209
 51
126.3910480539353
  0
ARC
  5
A3
330
1F
100
AcDbEntity
  8
0
  6
Continuous
 62
     7
370
    15
100
AcDbCircle
 10
4.883025799795372
 20
5.997857623929502
 30
0.0
 40
0.0249310410338427
100
AcDbArc
 50
81.0147029774156
 51
129.3686269447504
  0
ARC
  5
A4
330
1F
100
AcDbEntity
  8
0
  6
Continuous
 62
     7
370
    15
100
AcDbCircle
 10
4.897069063893641
 20
5.945435205939868
 30
0.0
 40
0.0249307167432818
100
AcDbArc
 50
260.9403459081349
 51
308.1987928387818
  0
LWPOLYLINE
  5
A5
330
1F
100
AcDbEntity
  8
0
  6
Continuous
 62
     7
370
    15
100
AcDbPolyline
 90
       63
 70
   128
 43
0.0
 10
4.855940134678075
 20
5.961547111587738
 10
4.857490600805504
 20
5.956687872804171
 10
4.859363114210433
 20
5.951978895948333
 10
4.861538385242706
 20
5.947468493579946
 10
4.863994116726071
 20
5.943202957939482
 10
4.866705142235232
 20
5.939226052890762
 10
4.86964359894219
 20
5.935578543703194
 10
4.872779377016684
 20
5.932297935349001
 10
4.876080257903258
 20
5.929417870243513
 10
4.879512398290978
 20
5.926967857280899
 10
4.883040572098286
 20
5.924973065700313
 10
4.886628585304193
 20
5.923453978442302
 10
4.890239587071666
 20
5.922426167491983
 10
4.89383655371734
 20
5.9219001642182
 10
4.897382565265653
 20
5.921881432382768
 10
4.900841254849284
 20
5.922370059336538
 10
4.90417708526329
 20
5.923361105837805
 10
4.90735586750408
 20
5.924844420028838
 10
4.910344968185011
 20
5.926804723170385
 10
4.913113724367575
 20
5.929221922414121
 10
4.915633720115524
 20
5.932071178014182
 10
4.917879063048989
 20
5.935323347347856
 10
4.919826764606404
 20
5.938944977241507
 10
4.921456843752305
 20
5.942898888500996
 10
4.922752499823653
 20
5.947144600615696
 10
4.923700527361025
 20
5.95163850322751
 10
4.924291143262278
 20
5.956334420550904
 10
4.924518297905951
 20
5.961184234536704
 10
4.924379640581986
 20
5.966138223841597
 10
4.923876657768803
 20
5.971145403591344
 10
4.923014465717696
 20
5.976154522972612
 10
4.921801879591369
 20
5.981114188013449
 10
4.920251413463939
 20
5.98597337969587
 10
4.918378934628276
 20
5.990682347290219
 10
4.916203629026736
 20
5.995192758920095
 10
4.913747897543373
 20
5.999458341661703
 10
4.911036872034212
 20
6.003435246710425
 10
4.908098415327254
 20
6.007082708796847
 10
4.90496263725276
 20
6.01036331715104
 10
4.901661756366186
 20
6.013243429357673
 10
4.898229615978467
 20
6.015693442320286
 10
4.894701442171158
 20
6.017688186799728
 10
4.89111342896525
 20
6.019207274057738
 10
4.887502427197778
 20
6.020235085008057
 10
4.883905460552103
 20
6.02076108828184
 10
4.880359449003791
 20
6.020779867218418
 10
4.876900759420159
 20
6.020291193163504
 10
4.873564929006154
 20
6.019300146662237
 10
4.870386146765364
 20
6.017816879572349
 10
4.867397046084433
 20
6.015856576430802
 10
4.864628289901868
 20
6.013439377187066
 10
4.862108294153919
 20
6.010590074485859
 10
4.859862951220455
 20
6.00733795225333
 10
4.85791524966304
 20
6.003716322359679
 10
4.856285170517139
 20
5.999762363999045
 10
4.85498951444579
 20
5.995516651884345
 10
4.854041486908419
 20
5.991022796373677
 10
4.853450871007165
 20
5.986326831949137
 10
4.853223716363493
 20
5.981477017963336
 10
4.853362373687457
 20
5.976523075759589
 10
4.853865356500642
 20
5.971515848908698
 10
4.854727583121015
 20
5.96650672026594
 10
4.855940134678075
 20
5.961547111587738
  0
ARC
  5
A6
330
1F
100
AcDbEntity
  8
0
  6
Continuous
 62
     7
370
    15
100
AcDbCircle
 10
4.909275241917534
 20
5.948997257154008
 30
0.0
 40
0.0252306599835512
100
AcDbArc
 50
285.2277842916733
 51
309.0897390497115
  0
ARC
  5
A7
330
1F
100
AcDbEntity
  8
0
  6
Continuous
 62
     7
370
    15
100
AcDbCircle
 10
4.895375500040876
 20
6.000980964589451
 30
0.0
 40
0.025126417876649
100
AcDbArc
 50
80.34198529852274
 51
104.8272240723183
  0
ARC
  5
A8
330
1F
100
AcDbEntity
  8
0
  6
Continuous
 62
     7
370
    15
100
AcDbCircle
 10
4.883025869968082
 20
7.804314221323512
 30
0.0
 40
0.0249312853301961
100
AcDbArc
 50
81.01495502213678
 51
129.3683749000343
  0
ARC
  5
A9
330
1F
100
AcDbEntity
  8
0
  6
Continuous
 62
     7
370
    15
100
AcDbCircle
 10
4.897069393157353
 20
7.751890611396061
 30
0.0
 40
0.024929336324716
100
AcDbArc
 50
260.9390737045078
 51
308.2003264261213
  0
LWPOLYLINE
  5
AA
330
1F
100
AcDbEntity
  8
0
  6
Continuous
 62
     7
370
    15
100
AcDbPolyline
 90
       63
 70
   128
 43
0.0
 10
4.855940134678075
 20
7.768003967408803
 10
4.857490600805504
 20
7.763144681524091
 10
4.859363114210433
 20
7.758435751769399
 10
4.861538385242706
 20
7.753925302299866
 10
4.863994116726071
 20
7.749659813760549
 10
4.866705142235232
 20
7.745682861610682
 10
4.86964359894219
 20
7.742035446625405
 10
4.872779377016684
 20
7.738754744068921
 10
4.876080257903258
 20
7.735874726064579
 10
4.879512398290978
 20
7.733424713101966
 10
4.883040572098286
 20
7.731429874420233
 10
4.886628585304193
 20
7.729910834263368
 10
4.890239587071666
 20
7.72888302331305
 10
4.89383655371734
 20
7.728357020039267
 10
4.897382565265653
 20
7.728338288203834
 10
4.900841254849284
 20
7.728826868056457
 10
4.90417708526329
 20
7.72981796165887
 10
4.90735586750408
 20
7.731301228748758
 10
4.910344968185011
 20
7.73326157899145
 10
4.913113724367575
 20
7.735678778235186
 10
4.915633720115524
 20
7.738528033835247
 10
4.917879063048989
 20
7.741780203168922
 10
4.919826764606404
 20
7.745401785961427
 10
4.921456843752305
 20
7.749355744322062
 10
4.922752499823653
 20
7.753601456436761
 10
4.923700527361025
 20
7.758095359048574
 10
4.924291143262278
 20
7.762791276371969
 10
4.924518297905951
 20
7.767641090357771
 10
4.924379640581986
 20
7.772595032561518
 10
4.923876657768803
 20
7.777602306513554
 10
4.923014465717696
 20
7.782611425894823
 10
4.921801879591369
 20
7.787571043834516
 10
4.920251413463939
 20
7.792430235516935
 10
4.918378934628276
 20
7.797139250212429
 10
4.916203629026736
 20
7.80164961474116
 10
4.913747897543373
 20
7.80591519748277
 10
4.911036872034212
 20
7.809892055430346
 10
4.908098415327254
 20
7.813539564617912
 10
4.90496263725276
 20
7.816820172972105
 10
4.901661756366186
 20
7.819700285178739
 10
4.898229615978467
 20
7.822150298141353
 10
4.894701442171158
 20
7.824145042620794
 10
4.89111342896525
 20
7.82566417697995
 10
4.887502427197778
 20
7.826691987930269
 10
4.883905460552103
 20
7.82721789700176
 10
4.880359449003791
 20
7.827236723039484
 10
4.876900759420159
 20
7.82674804898457
 10
4.873564929006154
 20
7.825756955382156
 10
4.870386146765364
 20
7.824273688292268
 10
4.867397046084433
 20
7.822313432251867
 10
4.864628289901868
 20
7.819896233008131
 10
4.862108294153919
 20
7.81704688320578
 10
4.859862951220455
 20
7.813794808074396
 10
4.85791524966304
 20
7.810173131079599
 10
4.856285170517139
 20
7.806219172718966
 10
4.85498951444579
 20
7.801973460604266
 10
4.854041486908419
 20
7.797479652194742
 10
4.853450871007165
 20
7.792783734871348
 10
4.853223716363493
 20
7.787933826683256
 10
4.853362373687457
 20
7.78297988447951
 10
4.853865356500642
 20
7.777972704729764
 10
4.854727583121015
 20
7.772963576087007
 10
4.855940134678075
 20
7.768003967408803
  0
ARC
  5
AB
330
1F
100
AcDbEntity
  8
0
  6
Continuous
 62
     7
370
    15
100
AcDbCircle
 10
4.909275652380651
 20
7.755453312884285
 30
0.0
 40
0.0252297801741887
100
AcDbArc
 50
285.2273621161831
 51
309.0901612252214
  0
ARC
  5
AC
330
1F
100
AcDbEntity
  8
0
  6
Continuous
 62
     7
370
    15
100
AcDbCircle
 10
4.895375199798775
 20
7.807446851632604
 30
0.0
 40
0.0251175650930703
100
AcDbArc
 50
80.33785392717124
 51
104.8318614308056
  0
ARC
  5
AD
330
1F
100
AcDbEntity
  8
0
  6
Continuous
 62
     7
370
    15
100
AcDbCircle
 10
4.883025858110222
 20
7.16201867518897
 30
0.0
 40
0.0249310764892148
100
AcDbArc
 50
81.01485154379407
 51
129.3687334439024
  0
ARC
  5
AE
330
1F
100
AcDbEntity
  8
0
  6
Continuous
 62
     7
370
    15
100
AcDbCircle
 10
4.897069111061839
 20
7.109596120839365
 30
0.0
 40
0.0249305449579796
100
AcDbArc
 50
260.9401731843989
 51
308.198965562517
  0
LWPOLYLINE
  5
AF
330
1F
100
AcDbEntity
  8
0
  6
Continuous
 62
     7
370
    15
100
AcDbPolyline
 90
       63
 70
   128
 43
0.0
 10
4.855940134678075
 20
7.12570816086267
 10
4.857490600805504
 20
7.120848969180249
 10
4.859363114210433
 20
7.116139992324411
 10
4.861538385242706
 20
7.111629589956024
 10
4.863994116726071
 20
7.107364007214416
 10
4.866705142235232
 20
7.103387102165695
 10
4.86964359894219
 20
7.099739640079273
 10
4.872779377016684
 20
7.096459031725078
 10
4.876080257903258
 20
7.093578919518445
 10
4.879512398290978
 20
7.091128953656977
 10
4.883040572098286
 20
7.089134162076391
 10
4.886628585304193
 20
7.08761507481838
 10
4.890239587071666
 20
7.086587263868061
 10
4.89383655371734
 20
7.086061260594278
 10
4.897382565265653
 20
7.0860424816577
 10
4.900841254849284
 20
7.086531155712616
 10
4.90417708526329
 20
7.087522202213882
 10
4.90735586750408
 20
7.089005516404916
 10
4.910344968185011
 20
7.090965772445318
 10
4.913113724367575
 20
7.093382971689053
 10
4.915633720115524
 20
7.09623227439026
 10
4.917879063048989
 20
7.099484443723935
 10
4.919826764606404
 20
7.10310602651644
 10
4.921456843752305
 20
7.107059984877074
 10
4.922752499823653
 20
7.111305696991775
 10
4.923700527361025
 20
7.115799552502442
 10
4.924291143262278
 20
7.120495516926982
 10
4.924518297905951
 20
7.125345330912782
 10
4.924379640581986
 20
7.130299273116531
 10
4.923876657768803
 20
7.135306499967422
 10
4.923014465717696
 20
7.14031561934869
 10
4.921801879591369
 20
7.145275237288382
 10
4.920251413463939
 20
7.150134476071948
 10
4.918378934628276
 20
7.154843443666297
 10
4.916203629026736
 20
7.159353855296173
 10
4.913747897543373
 20
7.163619390936636
 10
4.911036872034212
 20
7.167596295985357
 10
4.908098415327254
 20
7.171243805172925
 10
4.90496263725276
 20
7.174524413527118
 10
4.901661756366186
 20
7.177404478632606
 10
4.898229615978467
 20
7.17985449159522
 10
4.894701442171158
 20
7.181849283175806
 10
4.89111342896525
 20
7.183368370433816
 10
4.887502427197778
 20
7.184396181384135
 10
4.883905460552103
 20
7.184922184657918
 10
4.880359449003791
 20
7.184940916493352
 10
4.876900759420159
 20
7.184452289539582
 10
4.873564929006154
 20
7.183461243038314
 10
4.870386146765364
 20
7.18197792884728
 10
4.867397046084433
 20
7.180017625705734
 10
4.864628289901868
 20
7.177600426461998
 10
4.862108294153919
 20
7.174751170861937
 10
4.859862951220455
 20
7.171499001528262
 10
4.85791524966304
 20
7.167877371634611
 10
4.856285170517139
 20
7.163923460375124
 10
4.85498951444579
 20
7.159677748260423
 10
4.854041486908419
 20
7.155183845648609
 10
4.853450871007165
 20
7.150487928325214
 10
4.853223716363493
 20
7.145638114339414
 10
4.853362373687457
 20
7.140684172135667
 10
4.853865356500642
 20
7.135676945284776
 10
4.854727583121015
 20
7.130667816642018
 10
4.855940134678075
 20
7.12570816086267
  0
ARC
  5
B0
330
1F
100
AcDbEntity
  8
0
  6
Continuous
 62
     7
370
    15
100
AcDbCircle
 10
4.909275344187739
 20
7.113158347886536
 30
0.0
 40
0.0252306276763418
100
AcDbArc
 50
285.2275635685201
 51
309.0894994296109
  0
ARC
  5
B1
330
1F
100
AcDbEntity
  8
0
  6
Continuous
 62
     7
370
    15
100
AcDbCircle
 10
4.895375537260053
 20
7.165141236446713
 30
0.0
 40
0.0251272244657459
100
AcDbArc
 50
80.34238438098162
 51
104.826824989851
  0
CIRCLE
  5
B2
330
1F
100
AcDbEntity
  8
0
  6
Continuous
 62
     7
370
    15
100
AcDbCircle
 10
4.472595901816871
 20
7.541994622542418
 30
0.0
 40
0.0518740902704812
  0
CIRCLE
  5
B3
330
1F
100
AcDbEntity
  8
0
  6
Continuous
 62
     7
370
    15
100
AcDbCircle
 10
4.472436365724538
 20
7.54182146841006
 30
0.0
 40
0.0501921804093077
  0
ARC
  5
B4
330
1F
100
AcDbEntity
  8
0
  6
Continuous
 62
     7
370
    15
100
AcDbCircle
 10
4.473808807638808
 20
7.542997050659349
 30
0.0
 40
0.0520952760957664
100
AcDbArc
 50
318.162359501839
 51
132.5934756024337
  0
CIRCLE
  5
B5
330
1F
100
AcDbEntity
  8
0
  6
Continuous
 62
     7
370
    15
100
AcDbCircle
 10
4.472595889955954
 20
5.655250759979607
 30
0.0
 40
0.0518740776345821
  0
CIRCLE
  5
B6
330
1F
100
AcDbEntity
  8
0
  6
Continuous
 62
     7
370
    15
100
AcDbCircle
 10
4.472436396693316
 20
5.655077680440171
 30
0.0
 40
0.0501922148661526
  0
ARC
  5
B7
330
1F
100
AcDbEntity
  8
0
  6
Continuous
 62
     7
370
    15
100
AcDbCircle
 10
4.473808784222889
 20
5.65625320938969
 30
0.0
 40
0.0520953106810008
100
AcDbArc
 50
318.1623556247191
 51
132.5934056501642
  0
LINE
  5
B8
330
1F
100
AcDbEntity
  8
0
  6
Continuous
 62
     7
370
    15
100
AcDbLine
 10
4.37353305203431
 20
8.211672594881369
 30
0.0
 11
2.428989431592646
 21
7.690707868128629
 31
0.0
  0
LINE
  5
B9
330
1F
100
AcDbEntity
  8
0
  6
Continuous
 62
     7
370
    15
100
AcDbLine
 10
2.370063767819255
 20
4.624016115325046
 30
0.0
 11
2.605766146358694
 21
4.687163387486973
 31
0.0
  0
LINE
  5
BA
330
1F
100
AcDbEntity
  8
0
  6
Continuous
 62
     7
370
    15
100
AcDbLine
 10
2.370063767819255
 20
4.624016115325046
 30
0.0
 11
2.370063767819255
 21
6.101788961135807
 31
0.0
  0
LINE
  5
BB
330
1F
100
AcDbEntity
  8
0
  6
Continuous
 62
     7
370
    15
100
AcDbLine
 10
2.370063767819255
 20
6.101788961135807
 30
0.0
 11
2.252212716826598
 21
6.117894974410098
 31
0.0
  0
LINE
  5
BC
330
1F
100
AcDbEntity
  8
0
  6
Continuous
 62
     7
370
    15
100
AcDbLine
 10
2.252212716826598
 20
6.117894974410098
 30
0.0
 11
2.428989431592646
 21
6.295826202806724
 31
0.0
  0
LINE
  5
BD
330
1F
100
AcDbEntity
  8
0
  6
Continuous
 62
     7
370
    15
100
AcDbLine
 10
2.428989431592646
 20
6.295826202806724
 30
0.0
 11
2.428989431592646
 21
7.690707868128629
 31
0.0
  0
LINE
  5
BE
330
1F
100
AcDbEntity
  8
0
  6
Continuous
 62
     7
370
    15
100
AcDbLine
 10
4.37353305203431
 20
8.211672594881369
 30
0.0
 11
4.019979657071482
 21
8.306393456816818
 31
0.0
  0
LINE
  5
BF
330
1F
100
AcDbEntity
  8
0
  6
Continuous
 62
     7
370
    15
100
AcDbLine
 10
2.075436036629818
 20
7.785428730064078
 30
0.0
 11
2.428989431592646
 21
7.690707868128629
 31
0.0
  0
LINE
  5
C0
330
1F
100
AcDbEntity
  8
0
  6
Continuous
 62
     7
370
    15
100
AcDbLine
 10
4.019979657071482
 20
8.306393456816818
 30
0.0
 11
2.075436036629818
 21
7.785428730064078
 31
0.0
  0
LINE
  5
C1
330
1F
100
AcDbEntity
  8
0
  6
Continuous
 62
     7
370
    15
100
AcDbLine
 10
2.075436036629818
 20
6.390547064742174
 30
0.0
 11
2.428989431592646
 21
6.295826202806724
 31
0.0
  0
LINE
  5
C2
330
1F
100
AcDbEntity
  8
0
  6
Continuous
 62
     7
370
    15
100
AcDbLine
 10
2.075436036629818
 20
6.390547064742174
 30
0.0
 11
2.075436036629818
 21
7.785428730064078
 31
0.0
  0
LINE
  5
C3
330
1F
100
AcDbEntity
  8
0
  6
Continuous
 62
     7
370
    15
100
AcDbLine
 10
1.89865932186377
 20
6.212615836345547
 30
0.0
 11
2.252212716826598
 21
6.117894974410098
 31
0.0
  0
LINE
  5
C4
330
1F
100
AcDbEntity
  8
0
  6
Continuous
 62
     7
370
    15
100
AcDbLine
 10
1.89865932186377
 20
6.212615836345547
 30
0.0
 11
2.075436036629818
 21
6.390547064742174
 31
0.0
  0
LINE
  5
C5
330
1F
100
AcDbEntity
  8
0
  6
Continuous
 62
     7
370
    15
100
AcDbLine
 10
2.016510372856427
 20
4.718736977260496
 30
0.0
 11
2.370063767819255
 21
4.624016115325046
 31
0.0
  0
LINE
  5
C6
330
1F
100
AcDbEntity
  8
0
  6
Continuous
 62
     7
370
    15
100
AcDbLine
 10
2.016510372856427
 20
4.718736977260496
 30
0.0
 11
2.016510372856427
 21
6.181042195480487
 31
0.0
  0
LINE
  5
C7
330
1F
100
AcDbEntity
  8
0
  6
Continuous
 62
     7
370
    15
100
AcDbLine
 10
4.727086446997138
 20
8.116951732945919
 30
0.0
 11
3.018245066817851
 21
7.659134241309152
 31
0.0
  0
LINE
  5
C8
330
1F
100
AcDbEntity
  8
0
  6
Continuous
 62
     7
370
    15
100
AcDbLine
 10
4.727086446997138
 20
5.066046816705795
 30
0.0
 11
4.727086446997138
 21
5.522327482447077
 31
0.0
  0
LINE
  5
C9
330
1F
100
AcDbEntity
  8
0
  6
Continuous
 62
     7
370
    15
100
AcDbLine
 10
4.727086446997138
 20
7.988035144152261
 30
0.0
 11
4.727086446997138
 21
8.116951732945919
 31
0.0
  0
LINE
  5
CA
330
1F
100
AcDbEntity
  8
0
  6
Continuous
 62
     7
370
    15
100
AcDbLine
 10
2.959319541321522
 20
4.592442525551524
 30
0.0
 11
4.197758016305706
 21
4.92423388005643
 31
0.0
  0
LINE
  5
CB
330
1F
100
AcDbEntity
  8
0
  6
Continuous
 62
     7
370
    15
100
AcDbLine
 10
4.682892268305627
 20
5.054206707806177
 30
0.0
 11
4.727086446997138
 21
5.066046816705795
 31
0.0
  0
LINE
  5
CC
330
1F
100
AcDbEntity
  8
0
  6
Continuous
 62
     7
370
    15
100
AcDbLine
 10
2.959319541321522
 20
4.592442525551524
 30
0.0
 11
2.959319541321522
 21
6.070215371362285
 31
0.0
  0
LINE
  5
CD
330
1F
100
AcDbEntity
  8
0
  6
Continuous
 62
     7
370
    15
100
AcDbLine
 10
2.959319541321522
 20
6.070215371362285
 30
0.0
 11
2.841468352051803
 21
6.086321347590621
 31
0.0
  0
LINE
  5
CE
330
1F
100
AcDbEntity
  8
0
  6
Continuous
 62
     7
370
    15
100
AcDbLine
 10
2.841468352051803
 20
6.086321347590621
 30
0.0
 11
3.018245066817851
 21
6.264252575987248
 31
0.0
  0
LINE
  5
CF
330
1F
100
AcDbEntity
  8
0
  6
Continuous
 62
     7
370
    15
100
AcDbLine
 10
3.018245066817851
 20
6.264252575987248
 30
0.0
 11
3.018245066817851
 21
7.659134241309152
 31
0.0
  0
LINE
  5
D0
330
1F
100
AcDbEntity
  8
0
  6
Continuous
 62
     7
370
    15
100
AcDbLine
 10
2.664691671855022
 20
6.358973437922699
 30
0.0
 11
3.018245066817851
 21
6.264252575987248
 31
0.0
  0
LINE
  5
D1
330
1F
100
AcDbEntity
  8
0
  6
Continuous
 62
     7
370
    15
100
AcDbLine
 10
2.664691671855022
 20
6.358973437922699
 30
0.0
 11
2.664691671855022
 21
7.753855103244602
 31
0.0
  0
LINE
  5
D2
330
1F
100
AcDbEntity
  8
0
  6
Continuous
 62
     7
370
    15
100
AcDbLine
 10
2.664691671855022
 20
7.753855103244602
 30
0.0
 11
3.018245066817851
 21
7.659134241309152
 31
0.0
  0
LINE
  5
D3
330
1F
100
AcDbEntity
  8
0
  6
Continuous
 62
     7
370
    15
100
AcDbLine
 10
4.727086446997138
 20
8.116951732945919
 30
0.0
 11
4.37353305203431
 21
8.211672594881369
 31
0.0
  0
LINE
  5
D4
330
1F
100
AcDbEntity
  8
0
  6
Continuous
 62
     7
370
    15
100
AcDbLine
 10
4.37353305203431
 20
8.211672594881369
 30
0.0
 11
2.664691671855022
 21
7.753855103244602
 31
0.0
  0
LINE
  5
D5
330
1F
100
AcDbEntity
  8
0
  6
Continuous
 62
     7
370
    15
100
AcDbLine
 10
2.487914957088975
 20
6.181042209526071
 30
0.0
 11
2.841468352051803
 21
6.086321347590621
 31
0.0
  0
LINE
  5
D6
330
1F
100
AcDbEntity
  8
0
  6
Continuous
 62
     7
370
    15
100
AcDbLine
 10
2.487914957088975
 20
6.181042209526071
 30
0.0
 11
2.664691671855022
 21
6.358973437922699
 31
0.0
  0
LINE
  5
D7
330
1F
100
AcDbEntity
  8
0
  6
Continuous
 62
     7
370
    15
100
AcDbLine
 10
2.605766146358694
 20
4.687163387486973
 30
0.0
 11
2.959319541321522
 21
4.592442525551524
 31
0.0
  0
LINE
  5
D8
330
1F
100
AcDbEntity
  8
0
  6
Continuous
 62
     7
370
    15
100
AcDbLine
 10
2.605766146358694
 20
4.687163387486973
 30
0.0
 11
2.605766146358694
 21
6.149468605706965
 31
0.0
  0
LINE
  5
D9
330
1F
100
AcDbEntity
  8
0
  6
Continuous
 62
     7
370
    15
100
AcDbLine
 10
6.435927792607156
 20
4.797671058201415
 30
0.0
 11
6.671630032869532
 21
4.73452382308544
 31
0.0
  0
LINE
  5
DA
330
1F
100
AcDbEntity
  8
0
  6
Continuous
 62
     7
370
    15
100
AcDbLine
 10
2.841468386621077
 20
8.685276906765713
 30
0.0
 11
2.841468386621077
 21
8.811571374790569
 31
0.0
  0
LINE
  5
DB
330
1F
100
AcDbEntity
  8
0
  6
Continuous
 62
     7
370
    15
100
AcDbLine
 10
6.612704507373203
 20
7.801215538843069
 30
0.0
 11
2.841468386621077
 21
8.811571374790569
 31
0.0
  0
LINE
  5
DC
330
1F
100
AcDbEntity
  8
0
  6
Continuous
 62
     7
370
    15
100
AcDbLine
 10
6.612704507373203
 20
7.801215538843069
 30
0.0
 11
6.612704507373202
 21
6.406333873521166
 31
0.0
  0
LINE
  5
DD
330
1F
100
AcDbEntity
  8
0
  6
Continuous
 62
     7
370
    15
100
AcDbLine
 10
6.612704507373202
 20
6.406333873521166
 30
0.0
 11
6.789481222139249
 21
6.228402645124546
 31
0.0
  0
LINE
  5
DE
330
1F
100
AcDbEntity
  8
0
  6
Continuous
 62
     7
370
    15
100
AcDbLine
 10
6.789481222139249
 20
6.228402645124546
 30
0.0
 11
6.671630032869532
 21
6.212296668896201
 31
0.0
  0
LINE
  5
DF
330
1F
100
AcDbEntity
  8
0
  6
Continuous
 62
     7
370
    15
100
AcDbLine
 10
6.671630032869532
 20
6.212296668896201
 30
0.0
 11
6.671630032869532
 21
4.73452382308544
 31
0.0
  0
LINE
  5
E0
330
1F
100
AcDbEntity
  8
0
  6
Continuous
 62
     7
370
    15
100
AcDbLine
 10
6.966257902336033
 20
7.895936400778519
 30
0.0
 11
6.612704507373203
 21
7.801215538843069
 31
0.0
  0
LINE
  5
E1
330
1F
100
AcDbEntity
  8
0
  6
Continuous
 62
     7
370
    15
100
AcDbLine
 10
6.966257902336033
 20
7.895936400778519
 30
0.0
 11
6.966257902336033
 21
6.501054735456616
 31
0.0
  0
LINE
  5
E2
330
1F
100
AcDbEntity
  8
0
  6
Continuous
 62
     7
370
    15
100
AcDbLine
 10
6.966257902336033
 20
6.501054735456616
 30
0.0
 11
6.612704507373202
 21
6.406333873521166
 31
0.0
  0
LINE
  5
E3
330
1F
100
AcDbEntity
  8
0
  6
Continuous
 62
     7
370
    15
100
AcDbLine
 10
3.195021781583906
 20
8.906292236726018
 30
0.0
 11
2.841468386621077
 21
8.811571374790569
 31
0.0
  0
LINE
  5
E4
330
1F
100
AcDbEntity
  8
0
  6
Continuous
 62
     7
370
    15
100
AcDbLine
 10
6.966257902336033
 20
7.895936400778519
 30
0.0
 11
3.195021781583906
 21
8.906292236726018
 31
0.0
  0
LINE
  5
E5
330
1F
100
AcDbEntity
  8
0
  6
Continuous
 62
     7
370
    15
100
AcDbLine
 10
7.14303461710208
 20
6.323123507059996
 30
0.0
 11
6.789481222139249
 21
6.228402645124546
 31
0.0
  0
LINE
  5
E6
330
1F
100
AcDbEntity
  8
0
  6
Continuous
 62
     7
370
    15
100
AcDbLine
 10
6.966257902336033
 20
6.501054735456616
 30
0.0
 11
7.14303461710208
 21
6.323123507059996
 31
0.0
  0
LINE
  5
E7
330
1F
100
AcDbEntity
  8
0
  6
Continuous
 62
     7
370
    15
100
AcDbLine
 10
7.025183427832361
 20
4.829244685020889
 30
0.0
 11
6.671630032869532
 21
4.73452382308544
 31
0.0
  0
LINE
  5
E8
330
1F
100
AcDbEntity
  8
0
  6
Continuous
 62
     7
370
    15
100
AcDbLine
 10
7.025183427832361
 20
6.291549903240881
 30
0.0
 11
7.025183427832361
 21
4.829244685020889
 31
0.0
  0
LINE
  5
E9
330
1F
100
AcDbEntity
  8
0
  6
Continuous
 62
     7
370
    15
100
AcDbLine
 10
4.727086446997138
 20
5.066046816705795
 30
0.0
 11
6.082374397644327
 21
4.702950196265965
 31
0.0
  0
LINE
  5
EA
330
1F
100
AcDbEntity
  8
0
  6
Continuous
 62
     7
370
    15
100
AcDbLine
 10
2.723617231920622
 20
7.95908365650129
 30
0.0
 11
2.723617231920622
 21
8.653703277739143
 31
0.0
  0
LINE
  5
EB
330
1F
100
AcDbEntity
  8
0
  6
Continuous
 62
     7
370
    15
100
AcDbLine
 10
6.023448872147999
 20
7.769641912023594
 30
0.0
 11
2.723617231920622
 21
8.653703277739143
 31
0.0
  0
LINE
  5
EC
330
1F
100
AcDbEntity
  8
0
  6
Continuous
 62
     7
370
    15
100
AcDbLine
 10
6.023448872147999
 20
7.769641912023594
 30
0.0
 11
6.023448872147999
 21
6.374760246701691
 31
0.0
  0
LINE
  5
ED
330
1F
100
AcDbEntity
  8
0
  6
Continuous
 62
     7
370
    15
100
AcDbLine
 10
6.023448872147999
 20
6.374760246701691
 30
0.0
 11
6.200225586914046
 21
6.196829018305064
 31
0.0
  0
LINE
  5
EE
330
1F
100
AcDbEntity
  8
0
  6
Continuous
 62
     7
370
    15
100
AcDbLine
 10
6.200225586914046
 20
6.196829018305064
 30
0.0
 11
6.082374397644327
 21
6.180723042076726
 31
0.0
  0
LINE
  5
EF
330
1F
100
AcDbEntity
  8
0
  6
Continuous
 62
     7
370
    15
100
AcDbLine
 10
6.082374397644327
 20
6.180723042076726
 30
0.0
 11
6.082374397644327
 21
4.702950196265965
 31
0.0
  0
LINE
  5
F0
330
1F
100
AcDbEntity
  8
0
  6
Continuous
 62
     7
370
    15
100
AcDbLine
 10
6.377002267110827
 20
7.864362773959044
 30
0.0
 11
6.023448872147999
 21
7.769641912023594
 31
0.0
  0
LINE
  5
F1
330
1F
100
AcDbEntity
  8
0
  6
Continuous
 62
     7
370
    15
100
AcDbLine
 10
6.377002267110827
 20
7.864362773959044
 30
0.0
 11
6.377002267110827
 21
6.469481108637141
 31
0.0
  0
LINE
  5
F2
330
1F
100
AcDbEntity
  8
0
  6
Continuous
 62
     7
370
    15
100
AcDbLine
 10
6.377002267110827
 20
6.469481108637141
 30
0.0
 11
6.023448872147999
 21
6.374760246701691
 31
0.0
  0
LINE
  5
F3
330
1F
100
AcDbEntity
  8
0
  6
Continuous
 62
     7
370
    15
100
AcDbLine
 10
3.077170626883452
 20
8.748424139674593
 30
0.0
 11
2.723617231920622
 21
8.653703277739143
 31
0.0
  0
LINE
  5
F4
330
1F
100
AcDbEntity
  8
0
  6
Continuous
 62
     7
370
    15
100
AcDbLine
 10
6.377002267110827
 20
7.864362773959044
 30
0.0
 11
3.077170626883452
 21
8.748424139674593
 31
0.0
  0
LINE
  5
F5
330
1F
100
AcDbEntity
  8
0
  6
Continuous
 62
     7
370
    15
100
AcDbLine
 10
6.553778981876875
 20
6.291549880240513
 30
0.0
 11
6.200225586914046
 21
6.196829018305064
 31
0.0
  0
LINE
  5
F6
330
1F
100
AcDbEntity
  8
0
  6
Continuous
 62
     7
370
    15
100
AcDbLine
 10
6.377002267110827
 20
6.469481108637141
 30
0.0
 11
6.553778981876875
 21
6.291549880240513
 31
0.0
  0
LINE
  5
F7
330
1F
100
AcDbEntity
  8
0
  6
Continuous
 62
     7
370
    15
100
AcDbLine
 10
6.435927792607156
 20
4.797671058201415
 30
0.0
 11
6.082374397644327
 21
4.702950196265965
 31
0.0
  0
LINE
  5
F8
330
1F
100
AcDbEntity
  8
0
  6
Continuous
 62
     7
370
    15
100
AcDbLine
 10
6.435927792607156
 20
6.259976276421405
 30
0.0
 11
6.435927792607156
 21
4.797671058201415
 31
0.0
  0
LINE
  5
F9
330
1F
100
AcDbEntity
  8
0
  6
Continuous
 62
     7
370
    15
100
AcDbLine
 10
4.693922940668235
 20
5.450395835289969
 30
0.0
 11
4.731211251757899
 21
5.531274140309331
 31
0.0
  0
ARC
  5
FA
330
1F
100
AcDbEntity
  8
0
  6
Continuous
 62
     7
370
    15
100
AcDbCircle
 10
4.802996201827262
 20
5.400113747112495
 30
0.0
 40
0.1201052234141071
100
AcDbArc
 50
155.2505952324866
 51
179.7344576311161
  0
LINE
  5
FB
330
1F
100
AcDbEntity
  8
0
  6
Continuous
 62
     7
370
    15
100
AcDbLine
 10
4.682892268305627
 20
5.054197654362416
 30
0.0
 11
4.682892268305627
 21
5.400670383423895
 31
0.0
  0
LINE
  5
FC
330
1F
100
AcDbEntity
  8
0
  6
Continuous
 62
     7
370
    15
100
AcDbLine
 10
4.682892268305627
 20
5.054197654362416
 30
0.0
 11
4.211487787780875
 21
4.927903184130467
 31
0.0
  0
LINE
  5
FD
330
1F
100
AcDbEntity
  8
0
  6
Continuous
 62
     7
370
    15
100
AcDbLine
 10
4.211487787780875
 20
4.927903184130467
 30
0.0
 11
4.211487787780875
 21
5.274375913191946
 31
0.0
  0
ARC
  5
FE
330
1F
100
AcDbEntity
  8
0
  6
Continuous
 62
     7
370
    15
100
AcDbCircle
 10
4.331590336509766
 20
5.273819650533194
 30
0.0
 40
0.1201038369050763
100
AcDbArc
 50
155.2504914598614
 51
179.7346328192741
  0
LINE
  5
FF
330
1F
100
AcDbEntity
  8
0
  6
Continuous
 62
     7
370
    15
100
AcDbLine
 10
4.461992933227675
 20
5.843521844620076
 30
0.0
 11
4.222518425574218
 21
5.324101355796531
 31
0.0
  0
ARC
  5
100
330
1F
100
AcDbEntity
  8
0
  6
Continuous
 62
     7
370
    15
100
AcDbCircle
 10
4.025535757151925
 20
6.044686440552422
 30
0.0
 40
0.4805851237862463
100
AcDbArc
 50
335.2548632783678
 51
359.7302195557162
  0
LINE
  5
101
330
1F
100
AcDbEntity
  8
0
  6
Continuous
 62
     7
370
    15
100
AcDbLine
 10
4.506115553539579
 20
6.116037872526693
 30
0.0
 11
4.506115553539579
 21
6.042423586460251
 31
0.0
  0
LWPOLYLINE
  5
102
330
1F
100
AcDbEntity
  8
0
  6
Continuous
 62
     7
370
    15
100
AcDbPolyline
 90
       17
 70
   128
 43
0.0
 10
4.462903487681233
 20
6.181840575448712
 10
4.467463934325961
 20
6.181067965703275
 10
4.471890390497571
 20
6.179761410916952
 10
4.476153679735968
 20
6.177929579794549
 10
4.480225593520498
 20
6.175584509038142
 10
4.484079236962591
 20
6.172741766613687
 10
4.487689167082833
 20
6.169420064886653
 10
4.491031600226551
 20
6.165641433943823
 10
4.494084342925288
 20
6.161430755609435
 10
4.496827206727985
 20
6.156815874583039
 10
4.499242215616577
 20
6.151827324300408
 10
4.501313329451867
 20
6.146497993785332
 10
4.50302678966618
 20
6.140863126062212
 10
4.504371464956023
 20
6.13495996331006
 10
4.505338298173832
 20
6.12882748092582
 10
4.505920928574752
 20
6.122506177421998
 10
4.506115553539579
 20
6.116037872526693
  0
LWPOLYLINE
  5
103
330
1F
100
AcDbEntity
  8
0
  6
Continuous
 62
     7
370
    15
100
AcDbPolyline
 90
       19
 70
   128
 43
0.0
 10
4.408888388073665
 20
6.264093937695203
 10
4.409080662328436
 20
6.256898821108276
 10
4.409656517153318
 20
6.249844292215184
 10
4.410612841314411
 20
6.242967174847787
 10
4.411944725976015
 20
6.236303387330253
 10
4.413645188146497
 20
6.22988770353313
 10
4.415705308955353
 20
6.223753601514722
 10
4.418114441068809
 20
6.217933130685437
 10
4.420859932135684
 20
6.212456696412443
 10
4.42392747048006
 20
6.207352846477109
 10
4.427301085101269
 20
6.202648294625569
 10
4.43096307653537
 20
6.198367525236592
 10
4.434894362547801
 20
6.194532909487031
 10
4.439074408994849
 20
6.191164474873696
 10
4.44348136810071
 20
6.188279800955863
 10
4.448092355011616
 20
6.185893975694327
 10
4.45288310210318
 20
6.184019408634223
 10
4.457828788642762
 20
6.182665935427877
 10
4.462903487681233
 20
6.181840575448712
  0
LINE
  5
104
330
1F
100
AcDbEntity
  8
0
  6
Continuous
 62
     7
370
    15
100
AcDbLine
 10
4.408888388073665
 20
6.344380913513469
 30
0.0
 11
4.408888388073665
 21
6.264093937695203
 31
0.0
  0
ARC
  5
105
330
1F
100
AcDbEntity
  8
0
  6
Continuous
 62
     7
370
    15
100
AcDbCircle
 10
4.543848653853701
 20
6.347539137940779
 30
0.0
 40
0.1349972137525483
100
AcDbArc
 50
126.841698908084
 51
181.3405420439016
  0
ARC
  5
106
330
1F
100
AcDbEntity
  8
0
  6
Continuous
 62
     7
370
    15
100
AcDbCircle
 10
4.397948203589312
 20
6.542103581613874
 30
0.0
 40
0.1081946384013902
100
AcDbArc
 50
306.8953877709174
 51
1.286866015336322
  0
LINE
  5
107
330
1F
100
AcDbEntity
  8
0
  6
Continuous
 62
     7
370
    15
100
AcDbLine
 10
4.506115553539579
 20
6.704669836792235
 30
0.0
 11
4.506115553539579
 21
6.544533434190449
 31
0.0
  0
LWPOLYLINE
  5
108
330
1F
100
AcDbEntity
  8
0
  6
Continuous
 62
     7
370
    15
100
AcDbPolyline
 90
       17
 70
   128
 43
0.0
 10
4.462903487681233
 20
6.770472539714253
 10
4.467463934325961
 20
6.769699929968817
 10
4.471890390497571
 20
6.768393375182494
 10
4.476153679735968
 20
6.766561520509517
 10
4.480225593520498
 20
6.764216473303684
 10
4.484079236962591
 20
6.761373707328655
 10
4.487689167082833
 20
6.758052029152194
 10
4.491031600226551
 20
6.754273398209364
 10
4.494084342925288
 20
6.750062719874978
 10
4.496827206727985
 20
6.745447838848581
 10
4.499242215616577
 20
6.740459265015376
 10
4.501313329451867
 20
6.735129958050873
 10
4.50302678966618
 20
6.729495090327754
 10
4.504371464956023
 20
6.723591927575602
 10
4.505338298173832
 20
6.717459445191361
 10
4.505920928574752
 20
6.711138153462826
 10
4.506115553539579
 20
6.704669836792235
  0
LWPOLYLINE
  5
109
330
1F
100
AcDbEntity
  8
0
  6
Continuous
 62
     7
370
    15
100
AcDbPolyline
 90
       19
 70
   128
 43
0.0
 10
4.408888388073665
 20
6.852725901960744
 10
4.409080662328436
 20
6.845530785373818
 10
4.409656517153318
 20
6.838476256480725
 10
4.410612841314411
 20
6.831599139113328
 10
4.411944725976015
 20
6.824935328045222
 10
4.413645188146497
 20
6.818519644248098
 10
4.415705308955353
 20
6.81238554222969
 10
4.418114441068809
 20
6.806565094950978
 10
4.420859932135684
 20
6.801088660677985
 10
4.42392747048006
 20
6.79598481074265
 10
4.427301085101269
 20
6.791280235340538
 10
4.43096307653537
 20
6.786999465951561
 10
4.434894362547801
 20
6.783164873752574
 10
4.439074408994849
 20
6.779796439139238
 10
4.44348136810071
 20
6.776911765221404
 10
4.448092355011616
 20
6.77452593995987
 10
4.45288310210318
 20
6.772651372899765
 10
4.457828788642762
 20
6.771297876142846
 10
4.462903487681233
 20
6.770472539714253
  0
LINE
  5
10A
330
1F
100
AcDbEntity
  8
0
  6
Continuous
 62
     7
370
    15
100
AcDbLine
 10
4.408888388073665
 20
6.933012866003724
 30
0.0
 11
4.408888388073665
 21
6.852725901960744
 31
0.0
  0
ARC
  5
10B
330
1F
100
AcDbEntity
  8
0
  6
Continuous
 62
     7
370
    15
100
AcDbCircle
 10
4.543848695079845
 20
6.936171070404797
 30
0.0
 40
0.1349972544989026
100
AcDbArc
 50
126.8417078146732
 51
181.3405331373121
  0
ARC
  5
10C
330
1F
100
AcDbEntity
  8
0
  6
Continuous
 62
     7
370
    15
100
AcDbCircle
 10
4.397948183248227
 20
7.130735544226354
 30
0.0
 40
0.1081946587083566
100
AcDbArc
 50
306.8953931674185
 51
1.286865090054792
  0
LINE
  5
10D
330
1F
100
AcDbEntity
  8
0
  6
Continuous
 62
     7
370
    15
100
AcDbLine
 10
4.506115553539579
 20
7.346965596237223
 30
0.0
 11
4.506115553539579
 21
7.133165395512168
 31
0.0
  0
LWPOLYLINE
  5
10E
330
1F
100
AcDbEntity
  8
0
  6
Continuous
 62
     7
370
    15
100
AcDbPolyline
 90
       17
 70
   128
 43
0.0
 10
4.462903487681233
 20
7.412768346260386
 10
4.467463934325961
 20
7.411995689413805
 10
4.471890390497571
 20
7.410689181728628
 10
4.476153679735968
 20
7.408857303505078
 10
4.480225593520498
 20
7.406512279849818
 10
4.484079236962591
 20
7.403669513874789
 10
4.487689167082833
 20
7.400347812147755
 10
4.491031600226551
 20
7.396569157654352
 10
4.494084342925288
 20
7.392358502870537
 10
4.496827206727985
 20
7.387743598293568
 10
4.499242215616577
 20
7.382755048010936
 10
4.501313329451867
 20
7.377425764597007
 10
4.50302678966618
 20
7.371790873323314
 10
4.504371464956023
 20
7.365887710571161
 10
4.505338298173832
 20
7.35975520463635
 10
4.505920928574752
 20
7.353433948233673
 10
4.506115553539579
 20
7.346965596237223
  0
LWPOLYLINE
  5
10F
330
1F
100
AcDbEntity
  8
0
  6
Continuous
 62
     7
370
    15
100
AcDbPolyline
 90
       19
 70
   128
 43
0.0
 10
4.408888388073665
 20
7.495021661405732
 10
4.409080662328436
 20
7.487826568369379
 10
4.409656517153318
 20
7.480772015925713
 10
4.410612841314411
 20
7.473894945659462
 10
4.411944725976015
 20
7.467231063939637
 10
4.413645188146497
 20
7.460815427243659
 10
4.415705308955353
 20
7.454681348775824
 10
4.418114441068809
 20
7.448860830845394
 10
4.420859932135684
 20
7.4433843965724
 10
4.42392747048006
 20
7.438280617288783
 10
4.427301085101269
 20
7.433576018336099
 10
4.43096307653537
 20
7.429295248947121
 10
4.434894362547801
 20
7.425460609646988
 10
4.439074408994849
 20
7.422092222134798
 10
4.44348136810071
 20
7.41920750111582
 10
4.448092355011616
 20
7.416821699404857
 10
4.45288310210318
 20
7.414947155895325
 10
4.457828788642762
 20
7.413593612037261
 10
4.462903487681233
 20
7.412768346260386
  0
LINE
  5
110
330
1F
100
AcDbEntity
  8
0
  6
Continuous
 62
     7
370
    15
100
AcDbLine
 10
4.408888388073665
 20
7.575308672549858
 30
0.0
 11
4.408888388073665
 21
7.495021661405732
 31
0.0
  0
ARC
  5
111
330
1F
100
AcDbEntity
  8
0
  6
Continuous
 62
     7
370
    15
100
AcDbCircle
 10
4.543848692416932
 20
7.578466832481104
 30
0.0
 40
0.1349972507963717
100
AcDbArc
 50
126.8417075798148
 51
181.3405142949531
  0
ARC
  5
112
330
1F
100
AcDbEntity
  8
0
  6
Continuous
 62
     7
370
    15
100
AcDbCircle
 10
4.397948121031851
 20
7.773031335180458
 30
0.0
 40
0.1081947212592096
100
AcDbArc
 50
306.895409498995
 51
1.286872604975348
  0
LINE
  5
113
330
1F
100
AcDbEntity
  8
0
  6
Continuous
 62
     7
370
    15
100
AcDbLine
 10
4.506115553539579
 20
7.922859997730947
 30
0.0
 11
4.506115553539579
 21
7.775461202058301
 31
0.0
  0
LINE
  5
114
330
1F
100
AcDbEntity
  8
0
  6
Continuous
 62
     7
370
    15
100
AcDbLine
 10
4.506115553539579
 20
7.922859997730947
 30
0.0
 11
4.731211251757899
 21
7.983165623011232
 31
0.0
  0
LWPOLYLINE
  5
115
330
1F
100
AcDbEntity
  8
0
  6
Continuous
 62
     7
370
    15
100
AcDbPolyline
 90
       64
 70
   128
 43
0.0
 10
4.623966708240033
 20
7.804423447170144
 10
4.620364314219672
 20
7.803703346157693
 10
4.616797733958382
 20
7.803480242700518
 10
4.613302400953308
 20
7.803756470450002
 10
4.609913022747027
 20
7.804529270047138
 10
4.606663338942674
 20
7.805790912696703
 10
4.603585637234238
 20
7.807528947315581
 10
4.600710476852431
 20
7.809725938036277
 10
4.598066446579829
 20
7.812360247197113
 10
4.595679819058221
 20
7.815405660120479
 10
4.593574343373014
 20
7.818831706353062
 10
4.591770899360576
 20
7.822604603276167
 10
4.590287428469707
 20
7.826686672368992
 10
4.58913869177678
 20
7.831037404805702
 10
4.588336097139413
 20
7.835613603552572
 10
4.587887595488674
 20
7.840369732392682
 10
4.587797680829081
 20
7.845258575341959
 10
4.588067217392269
 20
7.850231472948601
 10
4.588693543344795
 20
7.855239009493585
 10
4.589670436218868
 20
7.860231474740634
 10
4.590988182050878
 20
7.865159259268349
 10
4.592633644519932
 20
7.86997324980236
 10
4.594590576071238
 20
7.874625854591623
 10
4.596839410500519
 20
7.879070571030328
 10
4.59935785063152
 20
7.883263367732986
 10
4.602120902885276
 20
7.887162505391328
 10
4.605101050126439
 20
7.890729336700085
 10
4.60826866649447
 20
7.893928323292542
 10
4.611592328527015
 20
7.896727684307694
 10
4.615038953436983
 20
7.899099621840766
 10
4.618574317651518
 20
7.90102055406784
 10
4.622163264227594
 20
7.902471453421653
 10
4.625770152252471
 20
7.903437778586361
 10
4.629359098828548
 20
7.903909916137128
 10
4.632894463043082
 20
7.903883310200947
 10
4.636341122522316
 20
7.903358159739401
 10
4.639664749985596
 20
7.902339681045138
 10
4.642832400922891
 20
7.900837982580305
 10
4.645812548164055
 20
7.898867980035743
 10
4.648575565848545
 20
7.896449337587242
 10
4.651094040548811
 20
7.893605986035191
 10
4.653342874978092
 20
7.89036624479133
 10
4.655299771960133
 20
7.886762197921261
 10
4.656945268998452
 20
7.882829891810522
 10
4.658263014830462
 20
7.878608184626699
 10
4.659239907704534
 20
7.874139160174558
 10
4.659866233657061
 20
7.869467222919078
 10
4.66013577022025
 20
7.864638748960756
 10
4.660045855560656
 20
7.85970172774942
 10
4.659597353909918
 20
7.854705281811283
 10
4.658794759272551
 20
7.849699035117376
 10
4.657646022579624
 20
7.844732784169226
 10
4.656162551688755
 20
7.839855838582829
 10
4.654359107676316
 20
7.835116616495016
 10
4.652253597421844
 20
7.830562400589937
 10
4.649867004469501
 20
7.826238189148605
 10
4.647222974196901
 20
7.822187150124769
 10
4.644347813815093
 20
7.818449584919725
 10
4.641270077537392
 20
7.815062440435282
 10
4.638020393733039
 20
7.812059545373202
 10
4.634631050096023
 20
7.809470651276716
 10
4.631135717090949
 20
7.807321546843208
 10
4.627569102260393
 20
7.805633588500156
 10
4.623966708240033
 20
7.804423447170144
  0
LWPOLYLINE
  5
116
330
1F
100
AcDbEntity
  8
0
  6
Continuous
 62
     7
370
    15
100
AcDbPolyline
 90
       64
 70
   128
 43
0.0
 10
4.587786411248524
 20
6.599578514926959
 10
4.587966205998446
 20
6.604535000095579
 10
4.588503792646406
 20
6.609538556656524
 10
4.589393812956251
 20
6.614539464517348
 10
4.590627451765272
 20
6.619488019459689
 10
4.59219240241495
 20
6.624335030215093
 10
4.594073143305072
 20
6.629032334130156
 10
4.596251007032258
 20
6.633533257262742
 10
4.598704318667036
 20
6.637793057675313
 10
4.601408672307954
 20
6.641769388111291
 10
4.604337242204976
 20
6.645422750269968
 10
4.607460886467276
 20
6.648716816973132
 10
4.610748561894425
 20
6.651618861235657
 10
4.61416763509978
 20
6.654100051574059
 10
4.617684089926081
 20
6.65613570775528
 10
4.621262976845893
 20
6.657705609600633
 10
4.624868724085009
 20
6.658794150990906
 10
4.628465517884356
 20
6.659390512394451
 10
4.632017579054133
 20
6.659488770284956
 10
4.635489646943517
 20
6.659087956150555
 10
4.638847221425529
 20
6.658192038897246
 10
4.64205687402042
 20
6.656809925775281
 10
4.645086731865388
 20
6.654955356534272
 10
4.64790671969944
 20
6.652646773961384
 10
4.65048876727898
 20
6.649907096843398
 10
4.652807224209001
 20
6.646763572048262
 10
4.654839032789404
 20
6.643247426360439
 10
4.656564039138397
 20
6.639393620126296
 10
4.657965062331023
 20
6.635240441866754
 10
4.659028205522546
 20
6.630829179495671
 10
4.659742925086985
 20
6.626203673719003
 10
4.660102030617112
 20
6.62140988234921
 10
4.660102030617112
 20
6.616495454807535
 10
4.659742925086985
 20
6.611509240869482
 10
4.659028205522546
 20
6.60650077549604
 10
4.657965062331023
 20
6.601519854559684
 10
4.656564039138397
 20
6.596615980049512
 10
4.654839032789404
 20
6.591837877284498
 10
4.652807224209001
 20
6.587233043648742
 10
4.65048876727898
 20
6.582847235440127
 10
4.64790671969944
 20
6.578724044571864
 10
4.645086731865388
 20
6.574904444297591
 10
4.64205687402042
 20
6.571426408780167
 10
4.638847221425529
 20
6.568324494324468
 10
4.635489646943517
 20
6.56562952180832
 10
4.632017579054133
 20
6.563368290329528
 10
4.628465517884356
 20
6.561563273123589
 10
4.624868724085009
 20
6.560232396586651
 10
4.621262976845893
 20
6.559388897433822
 10
4.617684089926081
 20
6.559041151824823
 10
4.61416763509978
 20
6.559192616727156
 10
4.610748561894425
 20
6.559841789124025
 10
4.607460886467276
 20
6.560982224222785
 10
4.604337242204976
 20
6.562602577701742
 10
4.601408672307954
 20
6.564686745905357
 10
4.598704318667036
 20
6.567214025356132
 10
4.596251007032258
 20
6.570159284223622
 10
4.594073143305072
 20
6.573493259832263
 10
4.59219240241495
 20
6.577182824150826
 10
4.590627451765272
 20
6.581191299756881
 10
4.589393812956251
 20
6.585478843757327
 10
4.588503792646406
 20
6.590002856119543
 10
4.587966205998446
 20
6.594718367759481
 10
4.587786411248524
 20
6.599578514926959
  0
LINE
  5
117
330
1F
100
AcDbEntity
  8
0
  6
Continuous
 62
     7
370
    15
100
AcDbLine
 10
4.396631854986774
 20
7.578592333221403
 30
0.0
 11
4.408888388073665
 21
7.575308672549858
 31
0.0
  0
LINE
  5
118
330
1F
100
AcDbEntity
  8
0
  6
Continuous
 62
     7
370
    15
100
AcDbLine
 10
4.450646954594341
 20
7.689788132671818
 30
0.0
 11
4.462903487681233
 21
7.686504472000273
 31
0.0
  0
ARC
  5
119
330
1F
100
AcDbEntity
  8
0
  6
Continuous
 62
     7
370
    15
100
AcDbCircle
 10
4.531592159330044
 20
7.581750493152647
 30
0.0
 40
0.1349972507963746
100
AcDbArc
 50
126.8417075798155
 51
181.340514294952
  0
LINE
  5
11A
330
1F
100
AcDbEntity
  8
0
  6
Continuous
 62
     7
370
    15
100
AcDbLine
 10
4.502877899839624
 20
7.49905750417119
 30
0.0
 11
4.503772967262233
 21
7.499713111538159
 31
0.0
  0
LINE
  5
11B
330
1F
100
AcDbEntity
  8
0
  6
Continuous
 62
     7
370
    15
100
AcDbLine
 10
4.528929713159828
 20
7.593688348120562
 30
0.0
 11
4.528826835025667
 21
7.593926436391925
 31
0.0
  0
LINE
  5
11C
330
1F
100
AcDbEntity
  8
0
  6
Continuous
 62
     7
370
    15
100
AcDbLine
 10
4.396631854986774
 20
7.498305322077277
 30
0.0
 11
4.408888388073665
 21
7.495021661405732
 31
0.0
  0
LINE
  5
11D
330
1F
100
AcDbEntity
  8
0
  6
Continuous
 62
     7
370
    15
100
AcDbLine
 10
4.396631854986774
 20
7.578592333221403
 30
0.0
 11
4.396631854986774
 21
7.498305322077277
 31
0.0
  0
LINE
  5
11E
330
1F
100
AcDbEntity
  8
0
  6
Continuous
 62
     7
370
    15
100
AcDbLine
 10
4.493859020452688
 20
7.778744862729846
 30
0.0
 11
4.506115553539579
 21
7.775461202058301
 31
0.0
  0
ARC
  5
11F
330
1F
100
AcDbEntity
  8
0
  6
Continuous
 62
     7
370
    15
100
AcDbCircle
 10
4.38569158794496
 20
7.776314995852004
 30
0.0
 40
0.1081947212592098
100
AcDbArc
 50
306.8954094989944
 51
1.286872604974878
  0
LINE
  5
120
330
1F
100
AcDbEntity
  8
0
  6
Continuous
 62
     7
370
    15
100
AcDbLine
 10
4.506115553539579
 20
7.922859997730947
 30
0.0
 11
4.493859020452688
 21
7.926143658402493
 31
0.0
  0
LINE
  5
121
330
1F
100
AcDbEntity
  8
0
  6
Continuous
 62
     7
370
    15
100
AcDbLine
 10
4.493859020452688
 20
7.926143658402493
 30
0.0
 11
4.493859020452688
 21
7.778744862729846
 31
0.0
  0
LINE
  5
122
330
1F
100
AcDbEntity
  8
0
  6
Continuous
 62
     7
370
    15
100
AcDbLine
 10
4.731211251757899
 20
7.983165623011232
 30
0.0
 11
4.718954718671009
 21
7.986449283682778
 31
0.0
  0
LINE
  5
123
330
1F
100
AcDbEntity
  8
0
  6
Continuous
 62
     7
370
    15
100
AcDbLine
 10
4.493859020452688
 20
7.926143658402493
 30
0.0
 11
4.718954718671009
 21
7.986449283682778
 31
0.0
  0
LWPOLYLINE
  5
124
330
1F
100
AcDbEntity
  8
0
  6
Continuous
 62
     7
370
    15
100
AcDbPolyline
 90
       17
 70
   128
 43
0.0
 10
4.934047315944031
 20
7.709728320702762
 10
4.938607693450229
 20
7.710500996072321
 10
4.943034149621839
 20
7.711807503757497
 10
4.947297438860237
 20
7.713639381981047
 10
4.951369352644766
 20
7.715984405636307
 10
4.95522306522539
 20
7.718827153088359
 10
4.958832995345632
 20
7.722148854815394
 10
4.96217535935082
 20
7.725927527831772
 10
4.965228102049556
 20
7.730138182615586
 10
4.967971034990784
 20
7.734753068669579
 10
4.970385974740846
 20
7.739741637475188
 10
4.972457088576135
 20
7.745070920889117
 10
4.974170617928979
 20
7.750705793639833
 10
4.975515224080291
 20
7.756608974914962
 10
4.976482057298099
 20
7.762741480849775
 10
4.977064756837553
 20
7.769062718729475
 10
4.977259381802378
 20
7.775531070725925
  0
LWPOLYLINE
  5
125
330
1F
100
AcDbEntity
  8
0
  6
Continuous
 62
     7
370
    15
100
AcDbPolyline
 90
       19
 70
   128
 43
0.0
 10
4.880032216336465
 20
7.627475005557416
 10
4.880224456021971
 20
7.634670107855258
 10
4.880800276277586
 20
7.641724669560413
 10
4.881756635007945
 20
7.648601730565174
 10
4.883088485100284
 20
7.655265527344196
 10
4.884788947270765
 20
7.661681258242466
 10
4.886849137218153
 20
7.667815318187325
 10
4.889258269331608
 20
7.673635741915464
 10
4.892003760398484
 20
7.679112176188456
 10
4.89507129874286
 20
7.684216049674365
 10
4.898444878794803
 20
7.688920657888538
 10
4.902106835659639
 20
7.693201436539003
 10
4.906038121672069
 20
7.697035981636846
 10
4.910218168119117
 20
7.700404463351327
 10
4.914625161794243
 20
7.703289080906526
 10
4.919236114135884
 20
7.705674986081268
 10
4.924026930365978
 20
7.707549511067823
 10
4.928972582336296
 20
7.708902969985085
 10
4.934047315944031
 20
7.709728320702762
  0
LINE
  5
126
330
1F
100
AcDbEntity
  8
0
  6
Continuous
 62
     7
370
    15
100
AcDbLine
 10
4.880032216336465
 20
7.547187994413291
 30
0.0
 11
4.880032216336465
 21
7.627475005557416
 31
0.0
  0
ARC
  5
127
330
1F
100
AcDbEntity
  8
0
  6
Continuous
 62
     7
370
    15
100
AcDbCircle
 10
5.014991856201739
 20
7.544029511701461
 30
0.0
 40
0.1349965940518708
100
AcDbArc
 50
178.6593421490951
 51
233.1584359761377
  0
ARC
  5
128
330
1F
100
AcDbEntity
  8
0
  6
Continuous
 62
     7
370
    15
100
AcDbCircle
 10
4.869091664354529
 20
7.349465193368753
 30
0.0
 40
0.1081950030190208
100
AcDbArc
 50
358.7132040638616
 51
53.10451383216895
  0
LINE
  5
129
330
1F
100
AcDbEntity
  8
0
  6
Continuous
 62
     7
370
    15
100
AcDbLine
 10
4.977259381802378
 20
7.133235264179792
 30
0.0
 11
4.977259381802378
 21
7.347035464904847
 31
0.0
  0
LWPOLYLINE
  5
12A
330
1F
100
AcDbEntity
  8
0
  6
Continuous
 62
     7
370
    15
100
AcDbPolyline
 90
       17
 70
   128
 43
0.0
 10
4.934047315944031
 20
7.067432561257774
 10
4.938607693450229
 20
7.068205189526188
 10
4.943034149621839
 20
7.06951174431251
 10
4.947297438860237
 20
7.071343575434913
 10
4.951369352644766
 20
7.073688646191319
 10
4.95522306522539
 20
7.076531393643371
 10
4.958832995345632
 20
7.07985304826926
 10
4.96217535935082
 20
7.083631721285639
 10
4.965228102049556
 20
7.087842376069453
 10
4.967971034990784
 20
7.092457262123446
 10
4.970385974740846
 20
7.097445830929054
 10
4.972457088576135
 20
7.10277516144413
 10
4.974170617928979
 20
7.108410034194846
 10
4.975515224080291
 20
7.11431316836883
 10
4.976482057298099
 20
7.120445674303642
 10
4.977064756837553
 20
7.126766959284489
 10
4.977259381802378
 20
7.133235264179792
  0
LWPOLYLINE
  5
12B
330
1F
100
AcDbEntity
  8
0
  6
Continuous
 62
     7
370
    15
100
AcDbPolyline
 90
       19
 70
   128
 43
0.0
 10
4.880032216336465
 20
6.985179199011283
 10
4.880224456021971
 20
6.992374348410271
 10
4.880800276277586
 20
6.999428863014279
 10
4.881756635007945
 20
7.006305971120187
 10
4.883088485100284
 20
7.012969767899209
 10
4.884788947270765
 20
7.019385451696332
 10
4.886849137218153
 20
7.025519558742336
 10
4.889258269331608
 20
7.031339982470476
 10
4.892003760398484
 20
7.036816463844615
 10
4.89507129874286
 20
7.041920290229377
 10
4.898444878794803
 20
7.046624851342405
 10
4.902106835659639
 20
7.05090562999287
 10
4.906038121672069
 20
7.054740269293003
 10
4.910218168119117
 20
7.05810870390634
 10
4.914625161794243
 20
7.060993321461538
 10
4.919236114135884
 20
7.063379179535135
 10
4.924026930365978
 20
7.065253751622836
 10
4.928972582336296
 20
7.066607210540097
 10
4.934047315944031
 20
7.067432561257774
  0
LINE
  5
12C
330
1F
100
AcDbEntity
  8
0
  6
Continuous
 62
     7
370
    15
100
AcDbLine
 10
4.880032216336465
 20
6.904892234968303
 30
0.0
 11
4.880032216336465
 21
6.985179199011283
 31
0.0
  0
ARC
  5
12D
330
1F
100
AcDbEntity
  8
0
  6
Continuous
 62
     7
370
    15
100
AcDbCircle
 10
5.014992103650153
 20
6.90173382669512
 30
0.0
 40
0.1349968396909484
100
AcDbArc
 50
178.6593761911227
 51
233.1583828568922
  0
ARC
  5
12E
330
1F
100
AcDbEntity
  8
0
  6
Continuous
 62
     7
370
    15
100
AcDbCircle
 10
4.869091717861888
 20
6.707169414101126
 30
0.0
 40
0.108194949080002
100
AcDbArc
 50
358.7132139221766
 51
53.10452782035092
  0
LINE
  5
12F
330
1F
100
AcDbEntity
  8
0
  6
Continuous
 62
     7
370
    15
100
AcDbLine
 10
4.977259381802378
 20
6.544603302858072
 30
0.0
 11
4.977259381802378
 21
6.704739705459859
 31
0.0
  0
LWPOLYLINE
  5
130
330
1F
100
AcDbEntity
  8
0
  6
Continuous
 62
     7
370
    15
100
AcDbPolyline
 90
       17
 70
   128
 43
0.0
 10
4.934047315944031
 20
6.478800608767519
 10
4.938607693450229
 20
6.479573234092111
 10
4.943034149621839
 20
6.480879785934611
 10
4.947297438860237
 20
6.482711634719945
 10
4.951369352644766
 20
6.485056684869599
 10
4.95522306522539
 20
6.487899426434009
 10
4.958832995345632
 20
6.491221110498113
 10
4.96217535935082
 20
6.494999771739205
 10
4.965228102049556
 20
6.499210441242128
 10
4.967971034990784
 20
6.503825303745548
 10
4.970385974740846
 20
6.508813887270264
 10
4.972457088576135
 20
6.514143201594322
 10
4.974170617928979
 20
6.519778057602051
 10
4.975515224080291
 20
6.525681232069593
 10
4.976482057298099
 20
6.531813715925744
 10
4.977064756837553
 20
6.538134984715571
 10
4.977259381802378
 20
6.544603302858072
  0
LWPOLYLINE
  5
131
330
1F
100
AcDbEntity
  8
0
  6
Continuous
 62
     7
370
    15
100
AcDbPolyline
 90
       19
 70
   128
 43
0.0
 10
4.880032216336465
 20
6.396547246521027
 10
4.880224456021971
 20
6.403742372369443
 10
4.880800276277586
 20
6.410796898748738
 10
4.881756635007945
 20
6.417674018629932
 10
4.883088485100284
 20
6.42433782718424
 10
4.884788947270765
 20
6.430753510981364
 10
4.886849137218153
 20
6.436887594476795
 10
4.889258269331608
 20
6.44270804764315
 10
4.892003760398484
 20
6.448184487803787
 10
4.89507129874286
 20
6.453288325963836
 10
4.898444878794803
 20
6.457992910627436
 10
4.902106835659639
 20
6.462273689277902
 10
4.906038121672069
 20
6.466108293252175
 10
4.910218168119117
 20
6.469476721977868
 10
4.914625161794243
 20
6.472361386634212
 10
4.919236114135884
 20
6.474747221157236
 10
4.924026930365978
 20
6.476621775582008
 10
4.928972582336296
 20
6.477975263937485
 10
4.934047315944031
 20
6.478800608767519
  0
LINE
  5
132
330
1F
100
AcDbEntity
  8
0
  6
Continuous
 62
     7
370
    15
100
AcDbLine
 10
4.880032216336465
 20
6.316260270702761
 30
0.0
 11
4.880032216336465
 21
6.396547246521027
 31
0.0
  0
ARC
  5
133
330
1F
100
AcDbEntity
  8
0
  6
Continuous
 62
     7
370
    15
100
AcDbCircle
 10
5.014992124044172
 20
6.313101872336288
 30
0.0
 40
0.1349968598476063
100
AcDbArc
 50
178.6593805971179
 51
233.1583784508971
  0
ARC
  5
134
330
1F
100
AcDbEntity
  8
0
  6
Continuous
 62
     7
370
    15
100
AcDbCircle
 10
4.869091717861888
 20
6.118537449835582
 30
0.0
 40
0.1081949490800032
100
AcDbArc
 50
358.7132139221775
 51
53.10452782035149
  0
LINE
  5
135
330
1F
100
AcDbEntity
  8
0
  6
Continuous
 62
     7
370
    15
100
AcDbLine
 10
4.977259381802378
 20
6.042493455127875
 30
0.0
 11
4.977259381802378
 21
6.116107741194317
 31
0.0
  0
ARC
  5
136
330
1F
100
AcDbEntity
  8
0
  6
Continuous
 62
     7
370
    15
100
AcDbCircle
 10
4.637773458387463
 20
6.034776886819956
 30
0.0
 40
0.3395736114943685
100
AcDbArc
 50
330.4361505965328
 51
1.302117838746142
  0
LINE
  5
137
330
1F
100
AcDbEntity
  8
0
  6
Continuous
 62
     7
370
    15
100
AcDbLine
 10
4.752424439553807
 20
5.572098031189321
 30
0.0
 11
4.933136761490474
 21
5.867233588525434
 31
0.0
  0
LINE
  5
138
330
1F
100
AcDbEntity
  8
0
  6
Continuous
 62
     7
370
    15
100
AcDbLine
 10
4.977259381802378
 20
7.922929866398571
 30
0.0
 11
4.752424439553807
 21
7.98316563227272
 31
0.0
  0
LINE
  5
139
330
1F
100
AcDbEntity
  8
0
  6
Continuous
 62
     7
370
    15
100
AcDbLine
 10
4.977259381802378
 20
7.775531070725925
 30
0.0
 11
4.977259381802378
 21
7.922929866398571
 31
0.0
  0
LINE
  5
13A
330
1F
100
AcDbEntity
  8
0
  6
Continuous
 62
     7
370
    15
100
AcDbLine
 10
4.815214082979679
 20
7.455869291149956
 30
0.0
 11
4.798171331375007
 21
7.500655183390238
 31
0.0
  0
LINE
  5
13B
330
1F
100
AcDbEntity
  8
0
  6
Continuous
 62
     7
370
    15
100
AcDbLine
 10
4.838784307005917
 20
7.505178947998357
 30
0.0
 11
4.815214082979679
 21
7.455869291149956
 31
0.0
  0
LINE
  5
13C
330
1F
100
AcDbEntity
  8
0
  6
Continuous
 62
     7
370
    15
100
AcDbLine
 10
4.838784307005917
 20
7.505178947998357
 30
0.0
 11
4.838784307005917
 21
7.680190319196464
 31
0.0
  0
LINE
  5
13D
330
1F
100
AcDbEntity
  8
0
  6
Continuous
 62
     7
370
    15
100
AcDbLine
 10
4.838784307005917
 20
7.718691831735992
 30
0.0
 11
4.838784307005917
 21
7.680190319196464
 31
0.0
  0
LINE
  5
13E
330
1F
100
AcDbEntity
  8
0
  6
Continuous
 62
     7
370
    15
100
AcDbLine
 10
4.791643858953441
 20
7.731321278759188
 30
0.0
 11
4.838784307005917
 21
7.718691831735992
 31
0.0
  0
LINE
  5
13F
330
1F
100
AcDbEntity
  8
0
  6
Continuous
 62
     7
370
    15
100
AcDbLine
 10
4.791643858953441
 20
7.544856698824179
 30
0.0
 11
4.791643858953441
 21
7.575690615891222
 31
0.0
  0
LINE
  5
140
330
1F
100
AcDbEntity
  8
0
  6
Continuous
 62
     7
370
    15
100
AcDbLine
 10
4.989515880320004
 20
7.778814722135982
 30
0.0
 11
4.977259381802378
 21
7.775531070725925
 31
0.0
  0
LINE
  5
141
330
1F
100
AcDbEntity
  8
0
  6
Continuous
 62
     7
370
    15
100
AcDbLine
 10
4.989515880320004
 20
7.926213517808627
 30
0.0
 11
4.977259381802378
 21
7.922929866398571
 31
0.0
  0
LINE
  5
142
330
1F
100
AcDbEntity
  8
0
  6
Continuous
 62
     7
370
    15
100
AcDbLine
 10
4.989515880320004
 20
7.778814722135982
 30
0.0
 11
4.989515880320004
 21
7.926213517808627
 31
0.0
  0
LINE
  5
143
330
1F
100
AcDbEntity
  8
0
  6
Continuous
 62
     7
370
    15
100
AcDbLine
 10
4.764680938071433
 20
7.986449283682778
 30
0.0
 11
4.752424439553807
 21
7.98316563227272
 31
0.0
  0
LINE
  5
144
330
1F
100
AcDbEntity
  8
0
  6
Continuous
 62
     7
370
    15
100
AcDbLine
 10
4.989515880320004
 20
7.926213517808627
 30
0.0
 11
4.764680938071433
 21
7.986449283682778
 31
0.0
  0
LWPOLYLINE
  5
145
330
1F
100
AcDbEntity
  8
0
  6
Continuous
 62
     7
370
    15
100
AcDbPolyline
 90
       18
 70
   128
 43
0.0
 10
4.396631854986774
 20
7.498305322077277
 10
4.396824129241546
 20
7.491110229040923
 10
4.397399984066427
 20
7.484055676597257
 10
4.39835630822752
 20
7.477178606331007
 10
4.399688192889124
 20
7.470514724611182
 10
4.401388655059606
 20
7.464099087915204
 10
4.403448775868462
 20
7.457965009447369
 10
4.405857907981918
 20
7.452144491516939
 10
4.408603399048794
 20
7.446668057243946
 10
4.41167093739317
 20
7.441564277960328
 10
4.415044552014378
 20
7.436859679007643
 10
4.41870654344848
 20
7.432578909618666
 10
4.422637829460911
 20
7.428744270318533
 10
4.426817875907958
 20
7.425375882806343
 10
4.431224835013819
 20
7.422491161787365
 10
4.435835821924725
 20
7.420105360076402
 10
4.440626569016289
 20
7.41823081656687
 10
4.443332098012234
 20
7.417420631354876
  0
ARC
  5
146
330
1F
100
AcDbEntity
  8
0
  6
Continuous
 62
     7
370
    15
100
AcDbCircle
 10
4.92719730875243
 20
7.771656251500413
 30
0.0
 40
0.0627283672995173
100
AcDbArc
 50
293.4457418394816
 51
6.552787275474139
  0
LWPOLYLINE
  5
147
330
1F
100
AcDbEntity
  8
0
  6
Continuous
 62
     7
370
    15
100
AcDbPolyline
 90
        3
 70
   128
 43
0.0
 10
4.611710175153142
 20
7.807707107841689
 10
4.608107781132781
 20
7.806987006829237
 10
4.604818446380888
 20
7.806763383889091
  0
LWPOLYLINE
  5
148
330
1F
100
AcDbEntity
  8
0
  6
Continuous
 62
     7
370
    15
100
AcDbPolyline
 90
       27
 70
   128
 43
0.0
 10
4.630858437012286
 20
7.903959674277007
 10
4.633556015077164
 20
7.902151640707288
 10
4.636319032761655
 20
7.899732998258787
 10
4.638837507461921
 20
7.896889646706735
 10
4.641086341891201
 20
7.893649905462876
 10
4.643043238873242
 20
7.890045858592807
 10
4.644688735911561
 20
7.886113552482067
 10
4.646006481743572
 20
7.881891845298244
 10
4.646983374617644
 20
7.877422820846103
 10
4.64760970057017
 20
7.872750883590624
 10
4.647879237133359
 20
7.867922409632302
 10
4.647789322473766
 20
7.862985388420966
 10
4.647340820823027
 20
7.857988942482829
 10
4.64653822618566
 20
7.852982695788921
 10
4.645389489492733
 20
7.848016444840771
 10
4.643906018601863
 20
7.843139499254374
 10
4.642102574589426
 20
7.83840027716656
 10
4.639997064334953
 20
7.833846061261482
 10
4.637610471382611
 20
7.829521849820149
 10
4.634966441110009
 20
7.825470810796314
 10
4.632091280728202
 20
7.82173324559127
 10
4.629013544450501
 20
7.818346101106827
 10
4.625763860646149
 20
7.815343206044746
 10
4.622374517009132
 20
7.812754311948261
 10
4.618879184004058
 20
7.810605207514752
 10
4.615312569173502
 20
7.808917249171701
 10
4.611710175153142
 20
7.807707107841689
  0
LINE
  5
149
330
1F
100
AcDbEntity
  8
0
  6
Continuous
 62
     7
370
    15
100
AcDbLine
 10
4.493859020452688
 20
7.350249256908767
 30
0.0
 11
4.506115553539579
 21
7.346965596237223
 31
0.0
  0
ARC
  5
14A
330
1F
100
AcDbEntity
  8
0
  6
Continuous
 62
     7
370
    15
100
AcDbCircle
 10
4.428942786824625
 20
7.356844475226296
 30
0.0
 40
0.0652503968808571
100
AcDbArc
 50
354.1988924840538
 51
59.07059148915976
  0
LINE
  5
14B
330
1F
100
AcDbEntity
  8
0
  6
Continuous
 62
     7
370
    15
100
AcDbLine
 10
4.89228871485409
 20
7.630758656967473
 30
0.0
 11
4.880032216336465
 21
7.627475005557416
 31
0.0
  0
ARC
  5
14C
330
1F
100
AcDbEntity
  8
0
  6
Continuous
 62
     7
370
    15
100
AcDbCircle
 10
4.972457942360022
 20
7.639307846366025
 30
0.0
 40
0.0806237786156802
100
AcDbArc
 50
119.327273172882
 51
186.0869771558485
  0
LINE
  5
14D
330
1F
100
AcDbEntity
  8
0
  6
Continuous
 62
     7
370
    15
100
AcDbLine
 10
4.946303814461657
 20
7.439275846372932
 30
0.0
 11
4.934047315944031
 21
7.435992194962874
 31
0.0
  0
LINE
  5
14E
330
1F
100
AcDbEntity
  8
0
  6
Continuous
 62
     7
370
    15
100
AcDbLine
 10
4.989515880320004
 20
7.350319116314904
 30
0.0
 11
4.977259381802378
 21
7.347035464904847
 31
0.0
  0
ARC
  5
14F
330
1F
100
AcDbEntity
  8
0
  6
Continuous
 62
     7
370
    15
100
AcDbCircle
 10
4.881348162872149
 20
7.352748844778806
 30
0.0
 40
0.1081950030190278
100
AcDbArc
 50
358.713204063864
 51
53.10451383216772
  0
LINE
  5
150
330
1F
100
AcDbEntity
  8
0
  6
Continuous
 62
     7
370
    15
100
AcDbLine
 10
4.838784307005917
 20
7.680190319196464
 30
0.0
 11
4.792523231929507
 21
7.577778263909944
 31
0.0
  0
ARC
  5
151
330
1F
100
AcDbEntity
  8
0
  6
Continuous
 62
     7
370
    15
100
AcDbCircle
 10
4.822621941631433
 20
7.560926176209822
 30
0.0
 40
0.0344952922233369
100
AcDbArc
 50
150.7557962554177
 51
220.5737233750007
  0
LINE
  5
152
330
1F
100
AcDbEntity
  8
0
  6
Continuous
 62
     7
370
    15
100
AcDbLine
 10
4.796420363507614
 20
7.538489543454554
 30
0.0
 11
4.800396105595492
 21
7.535009239755987
 31
0.0
  0
LINE
  5
153
330
1F
100
AcDbEntity
  8
0
  6
Continuous
 62
     7
370
    15
100
AcDbLine
 10
4.792517769985557
 20
7.520105875463744
 30
0.0
 11
4.800396105595492
 21
7.535009239755987
 31
0.0
  0
LINE
  5
154
330
1F
100
AcDbEntity
  8
0
  6
Continuous
 62
     7
370
    15
100
AcDbLine
 10
4.788542027897679
 20
7.523586179162313
 30
0.0
 11
4.792517769985557
 21
7.520105875463744
 31
0.0
  0
ARC
  5
155
330
1F
100
AcDbEntity
  8
0
  6
Continuous
 62
     7
370
    15
100
AcDbCircle
 10
4.830208687600328
 20
7.558560066272341
 30
0.0
 40
0.0543992951274326
100
AcDbArc
 50
151.3203476275829
 51
220.0092046031001
  0
LINE
  5
156
330
1F
100
AcDbEntity
  8
0
  6
Continuous
 62
     7
370
    15
100
AcDbLine
 10
4.834832832542427
 20
7.700557609785645
 30
0.0
 11
4.782483280147175
 21
7.584666938811809
 31
0.0
  0
ARC
  5
157
330
1F
100
AcDbEntity
  8
0
  6
Continuous
 62
     7
370
    15
100
AcDbCircle
 10
4.794251648182327
 20
7.718897938513163
 30
0.0
 40
0.0445331357744078
100
AcDbArc
 50
335.6798061796171
 51
359.7348246330716
  0
LINE
  5
158
330
1F
100
AcDbEntity
  8
0
  6
Continuous
 62
     7
370
    15
100
AcDbLine
 10
4.396631854986774
 20
6.936296526675269
 30
0.0
 11
4.408888388073665
 21
6.933012866003724
 31
0.0
  0
LINE
  5
159
330
1F
100
AcDbEntity
  8
0
  6
Continuous
 62
     7
370
    15
100
AcDbLine
 10
4.450646954594341
 20
7.04749237322683
 30
0.0
 11
4.462903487681233
 21
7.044208712555286
 31
0.0
  0
ARC
  5
15A
330
1F
100
AcDbEntity
  8
0
  6
Continuous
 62
     7
370
    15
100
AcDbCircle
 10
4.53159216199296
 20
6.93945473107634
 30
0.0
 40
0.1349972544989078
100
AcDbArc
 50
126.8417078146749
 51
181.3405331373113
  0
LINE
  5
15B
330
1F
100
AcDbEntity
  8
0
  6
Continuous
 62
     7
370
    15
100
AcDbLine
 10
4.782483280147175
 20
7.584666938811809
 30
0.0
 11
4.7353428320947
 21
7.597296385835004
 31
0.0
  0
LINE
  5
15C
330
1F
100
AcDbEntity
  8
0
  6
Continuous
 62
     7
370
    15
100
AcDbLine
 10
4.787692384489951
 20
7.71318705680884
 30
0.0
 11
4.7353428320947
 21
7.597296385835004
 31
0.0
  0
LINE
  5
15D
330
1F
100
AcDbEntity
  8
0
  6
Continuous
 62
     7
370
    15
100
AcDbLine
 10
4.834832832542427
 20
7.700557609785645
 30
0.0
 11
4.787692384489951
 21
7.71318705680884
 31
0.0
  0
LINE
  5
15E
330
1F
100
AcDbEntity
  8
0
  6
Continuous
 62
     7
370
    15
100
AcDbLine
 10
4.89228871485409
 20
7.550471645823348
 30
0.0
 11
4.880032216336465
 21
7.547187994413291
 31
0.0
  0
ARC
  5
15F
330
1F
100
AcDbEntity
  8
0
  6
Continuous
 62
     7
370
    15
100
AcDbCircle
 10
5.027248354719358
 20
7.547313163111517
 30
0.0
 40
0.1349965940518643
100
AcDbArc
 50
178.6593421490942
 51
233.15843597614
  0
LINE
  5
160
330
1F
100
AcDbEntity
  8
0
  6
Continuous
 62
     7
370
    15
100
AcDbLine
 10
4.493859020452688
 20
7.136449056183713
 30
0.0
 11
4.506115553539579
 21
7.133165395512168
 31
0.0
  0
LINE
  5
161
330
1F
100
AcDbEntity
  8
0
  6
Continuous
 62
     7
370
    15
100
AcDbLine
 10
4.493859020452688
 20
7.350249256908767
 30
0.0
 11
4.493859020452688
 21
7.136449056183713
 31
0.0
  0
LINE
  5
162
330
1F
100
AcDbEntity
  8
0
  6
Continuous
 62
     7
370
    15
100
AcDbLine
 10
4.989515880320004
 20
7.136518915589849
 30
0.0
 11
4.977259381802378
 21
7.133235264179792
 31
0.0
  0
LINE
  5
163
330
1F
100
AcDbEntity
  8
0
  6
Continuous
 62
     7
370
    15
100
AcDbLine
 10
4.989515880320004
 20
7.136518915589849
 30
0.0
 11
4.989515880320004
 21
7.350319116314904
 31
0.0
  0
LINE
  5
164
330
1F
100
AcDbEntity
  8
0
  6
Continuous
 62
     7
370
    15
100
AcDbLine
 10
4.788542027897679
 20
7.523586179162313
 30
0.0
 11
4.741401579845204
 21
7.536215626185507
 31
0.0
  0
ARC
  5
165
330
1F
100
AcDbEntity
  8
0
  6
Continuous
 62
     7
370
    15
100
AcDbCircle
 10
4.783068239547855
 20
7.571189513295537
 30
0.0
 40
0.0543992951274338
100
AcDbArc
 50
151.3203476275846
 51
220.0092046031003
  0
LINE
  5
166
330
1F
100
AcDbEntity
  8
0
  6
Continuous
 62
     7
370
    15
100
AcDbLine
 10
4.396631854986774
 20
6.856009562632289
 30
0.0
 11
4.408888388073665
 21
6.852725901960744
 31
0.0
  0
LINE
  5
167
330
1F
100
AcDbEntity
  8
0
  6
Continuous
 62
     7
370
    15
100
AcDbLine
 10
4.396631854986774
 20
6.936296526675269
 30
0.0
 11
4.396631854986774
 21
6.856009562632289
 31
0.0
  0
ARC
  5
168
330
1F
100
AcDbEntity
  8
0
  6
Continuous
 62
     7
370
    15
100
AcDbCircle
 10
4.385691650161336
 20
7.134019204897898
 30
0.0
 40
0.1081946587083562
100
AcDbArc
 50
306.8953931674181
 51
1.286865090054792
  0
LINE
  5
169
330
1F
100
AcDbEntity
  8
0
  6
Continuous
 62
     7
370
    15
100
AcDbLine
 10
4.89228871485409
 20
7.550471645823348
 30
0.0
 11
4.89228871485409
 21
7.630758656967473
 31
0.0
  0
LWPOLYLINE
  5
16A
330
1F
100
AcDbEntity
  8
0
  6
Continuous
 62
     7
370
    15
100
AcDbPolyline
 90
       18
 70
   128
 43
0.0
 10
4.396631854986774
 20
6.856009562632289
 10
4.396824129241546
 20
6.848814446045363
 10
4.397399984066427
 20
6.84175991715227
 10
4.39835630822752
 20
6.834882799784874
 10
4.399688192889124
 20
6.828218988716766
 10
4.401388655059606
 20
6.821803304919644
 10
4.403448775868462
 20
6.815669202901236
 10
4.405857907981918
 20
6.809848755622524
 10
4.408603399048794
 20
6.80437232134953
 10
4.41167093739317
 20
6.799268471414195
 10
4.415044552014378
 20
6.794563896012083
 10
4.41870654344848
 20
6.790283126623106
 10
4.422637829460911
 20
6.786448534424119
 10
4.426817875907958
 20
6.783080099810782
 10
4.431224835013819
 20
6.78019542589295
 10
4.435835821924725
 20
6.777809600631415
 10
4.440626569016289
 20
6.775935033571309
 10
4.443332098012234
 20
6.775124848359316
  0
ARC
  5
16B
330
1F
100
AcDbEntity
  8
0
  6
Continuous
 62
     7
370
    15
100
AcDbCircle
 10
4.747111200129869
 20
7.731527385536352
 30
0.0
 40
0.04453313577439
100
AcDbArc
 50
335.6798061796139
 51
359.7348246330795
  0
LINE
  5
16C
330
1F
100
AcDbEntity
  8
0
  6
Continuous
 62
     7
370
    15
100
AcDbLine
 10
4.79887491963595
 20
7.500222882228814
 30
0.0
 11
4.744031056457025
 21
7.533913814319112
 31
0.0
  0
LINE
  5
16D
330
1F
100
AcDbEntity
  8
0
  6
Continuous
 62
     7
370
    15
100
AcDbLine
 10
4.792517769985557
 20
7.520105875463744
 30
0.0
 11
4.79887491963595
 21
7.500222882228814
 31
0.0
  0
LINE
  5
16E
330
1F
100
AcDbEntity
  8
0
  6
Continuous
 62
     7
370
    15
100
AcDbLine
 10
4.741401579845204
 20
7.536215626185507
 30
0.0
 11
4.744031056457025
 21
7.533913814319112
 31
0.0
  0
LINE
  5
16F
330
1F
100
AcDbEntity
  8
0
  6
Continuous
 62
     7
370
    15
100
AcDbLine
 10
4.800396105595492
 20
7.535009239755987
 30
0.0
 11
4.806753255245885
 21
7.515126340723346
 31
0.0
  0
LINE
  5
170
330
1F
100
AcDbEntity
  8
0
  6
Continuous
 62
     7
370
    15
100
AcDbLine
 10
4.79887491963595
 20
7.500222882228814
 30
0.0
 11
4.806753255245885
 21
7.515126340723346
 31
0.0
  0
SPLINE
  5
171
330
1F
100
AcDbEntity
  8
0
  6
Continuous
 62
     7
370
    15
100
AcDbSpline
210
0.0
220
0.0
230
1.0
 70
     8
 71
     3
 72
    15
 73
    11
 74
     0
 42
0.0000000001
 43
0.0000000001
 40
0.0
 40
0.0
 40
0.0
 40
0.0
 40
0.1249991902295156
 40
0.2499998059797248
 40
0.3749991091377175
 40
0.4999996794483902
 40
0.6249991749814062
 40
0.7500002420164625
 40
0.8749990938832398
 40
1.0
 40
1.0
 40
1.0
 40
1.0
 10
4.752424439553807
 20
5.572098031189321
 30
0.0
 10
4.751690753466409
 20
5.570572463374817
 30
0.0
 10
4.750223372924481
 20
5.567521310347872
 30
0.0
 10
4.747590246062888
 20
5.562785789210367
 30
0.0
 10
4.744764227015791
 20
5.557914738706201
 30
0.0
 10
4.74181791095354
 20
5.552888828012636
 30
0.0
 10
4.738871343622064
 20
5.547708754919715
 30
0.0
 10
4.736045480472922
 20
5.542373879656897
 30
0.0
 10
4.733412224668952
 20
5.536903375341124
 30
0.0
 10
4.731944913413887
 20
5.533150562265558
 30
0.0
 10
4.731211251757899
 20
5.531274140309331
 30
0.0
  0
ARC
  5
172
330
1F
100
AcDbEntity
  8
0
  6
Continuous
 62
     7
370
    15
100
AcDbCircle
 10
4.74181786568766
 20
7.937283317514147
 30
0.0
 40
0.0470923158995483
100
AcDbArc
 50
76.98363216534648
 51
103.0164178643049
  0
ARC
  5
173
330
1F
100
AcDbEntity
  8
0
  6
Continuous
 62
     7
370
    15
100
AcDbCircle
 10
4.74181782837122
 20
7.887547634696552
 30
0.0
 40
0.101509890933635
100
AcDbArc
 50
76.98357523114045
 51
103.0164247688591
  0
ARC
  5
174
330
1F
100
AcDbEntity
  8
0
  6
Continuous
 62
     7
370
    15
100
AcDbCircle
 10
4.927197381363969
 20
7.129360444921188
 30
0.0
 40
0.0627282951661173
100
AcDbArc
 50
293.4456981218413
 51
6.552794874198411
  0
LINE
  5
175
330
1F
100
AcDbEntity
  8
0
  6
Continuous
 62
     7
370
    15
100
AcDbLine
 10
4.803900357471067
 20
7.524049244749347
 30
0.0
 11
4.803900357471067
 21
7.602964764739422
 31
0.0
  0
LINE
  5
176
330
1F
100
AcDbEntity
  8
0
  6
Continuous
 62
     7
370
    15
100
AcDbLine
 10
4.493859020452688
 20
6.70795349746378
 30
0.0
 11
4.506115553539579
 21
6.704669836792235
 31
0.0
  0
ARC
  5
177
330
1F
100
AcDbEntity
  8
0
  6
Continuous
 62
     7
370
    15
100
AcDbCircle
 10
4.428942860695624
 20
6.714548710693009
 30
0.0
 40
0.0652503228738667
100
AcDbArc
 50
354.1988903728495
 51
59.07062816951899
  0
LINE
  5
178
330
1F
100
AcDbEntity
  8
0
  6
Continuous
 62
     7
370
    15
100
AcDbLine
 10
4.806414441874613
 20
7.51448544674549
 30
0.0
 11
4.822733727890673
 21
7.471600701253356
 31
0.0
  0
LINE
  5
179
330
1F
100
AcDbEntity
  8
0
  6
Continuous
 62
     7
370
    15
100
AcDbLine
 10
4.89228871485409
 20
6.98846285042134
 30
0.0
 11
4.880032216336465
 21
6.985179199011283
 31
0.0
  0
ARC
  5
17A
330
1F
100
AcDbEntity
  8
0
  6
Continuous
 62
     7
370
    15
100
AcDbCircle
 10
4.972457815442319
 20
6.997012147300589
 30
0.0
 40
0.0806236638106659
100
AcDbArc
 50
119.3272155544403
 51
186.087062671233
  0
LINE
  5
17B
330
1F
100
AcDbEntity
  8
0
  6
Continuous
 62
     7
370
    15
100
AcDbLine
 10
4.449736400140785
 20
5.846805505291622
 30
0.0
 11
4.461992933227675
 21
5.843521844620076
 31
0.0
  0
LINE
  5
17C
330
1F
100
AcDbEntity
  8
0
  6
Continuous
 62
     7
370
    15
100
AcDbLine
 10
4.210261892487327
 20
5.327385016468076
 30
0.0
 11
4.222518425574218
 21
5.324101355796531
 31
0.0
  0
LINE
  5
17D
330
1F
100
AcDbEntity
  8
0
  6
Continuous
 62
     7
370
    15
100
AcDbLine
 10
4.449736400140785
 20
5.846805505291622
 30
0.0
 11
4.210261892487327
 21
5.327385016468076
 31
0.0
  0
LINE
  5
17E
330
1F
100
AcDbEntity
  8
0
  6
Continuous
 62
     7
370
    15
100
AcDbLine
 10
4.396631854986774
 20
6.347664574185015
 30
0.0
 11
4.408888388073665
 21
6.344380913513469
 31
0.0
  0
LINE
  5
17F
330
1F
100
AcDbEntity
  8
0
  6
Continuous
 62
     7
370
    15
100
AcDbLine
 10
4.450646954594341
 20
6.458860420736575
 30
0.0
 11
4.462903487681233
 21
6.455576760065031
 31
0.0
  0
ARC
  5
180
330
1F
100
AcDbEntity
  8
0
  6
Continuous
 62
     7
370
    15
100
AcDbCircle
 10
4.531592120766815
 20
6.350822798612322
 30
0.0
 40
0.1349972137525533
100
AcDbArc
 50
126.8416989080859
 51
181.3405420439008
  0
LINE
  5
181
330
1F
100
AcDbEntity
  8
0
  6
Continuous
 62
     7
370
    15
100
AcDbLine
 10
4.946303814461657
 20
6.796980039826799
 30
0.0
 11
4.934047315944031
 21
6.793696388416742
 31
0.0
  0
LINE
  5
182
330
1F
100
AcDbEntity
  8
0
  6
Continuous
 62
     7
370
    15
100
AcDbLine
 10
4.989515880320004
 20
6.708023356869916
 30
0.0
 11
4.977259381802378
 21
6.704739705459859
 31
0.0
  0
ARC
  5
183
330
1F
100
AcDbEntity
  8
0
  6
Continuous
 62
     7
370
    15
100
AcDbCircle
 10
4.881348216379508
 20
6.710453065511178
 30
0.0
 40
0.1081949490800091
100
AcDbArc
 50
358.7132139221791
 51
53.1045278203497
  0
LINE
  5
184
330
1F
100
AcDbEntity
  8
0
  6
Continuous
 62
     7
370
    15
100
AcDbLine
 10
4.89228871485409
 20
6.908175886378359
 30
0.0
 11
4.880032216336465
 21
6.904892234968303
 31
0.0
  0
ARC
  5
185
330
1F
100
AcDbEntity
  8
0
  6
Continuous
 62
     7
370
    15
100
AcDbCircle
 10
5.027248602167768
 20
6.905017478105173
 30
0.0
 40
0.1349968396909379
100
AcDbArc
 50
178.6593761911211
 51
233.158382856895
  0
LINE
  5
186
330
1F
100
AcDbEntity
  8
0
  6
Continuous
 62
     7
370
    15
100
AcDbLine
 10
4.528929713159828
 20
6.362760612634748
 30
0.0
 11
4.528826835025667
 21
6.362998736231969
 31
0.0
  0
LINE
  5
187
330
1F
100
AcDbEntity
  8
0
  6
Continuous
 62
     7
370
    15
100
AcDbLine
 10
4.396631854986774
 20
6.267377598366747
 30
0.0
 11
4.408888388073665
 21
6.264093937695203
 31
0.0
  0
LINE
  5
188
330
1F
100
AcDbEntity
  8
0
  6
Continuous
 62
     7
370
    15
100
AcDbLine
 10
4.396631854986774
 20
6.347664574185015
 30
0.0
 11
4.396631854986774
 21
6.267377598366747
 31
0.0
  0
LINE
  5
189
330
1F
100
AcDbEntity
  8
0
  6
Continuous
 62
     7
370
    15
100
AcDbLine
 10
4.493859020452688
 20
6.547817094861994
 30
0.0
 11
4.506115553539579
 21
6.544533434190449
 31
0.0
  0
LINE
  5
18A
330
1F
100
AcDbEntity
  8
0
  6
Continuous
 62
     7
370
    15
100
AcDbLine
 10
4.493859020452688
 20
6.70795349746378
 30
0.0
 11
4.493859020452688
 21
6.547817094861994
 31
0.0
  0
LINE
  5
18B
330
1F
100
AcDbEntity
  8
0
  6
Continuous
 62
     7
370
    15
100
AcDbLine
 10
4.989515880320004
 20
6.547886954268129
 30
0.0
 11
4.977259381802378
 21
6.544603302858072
 31
0.0
  0
LINE
  5
18C
330
1F
100
AcDbEntity
  8
0
  6
Continuous
 62
     7
370
    15
100
AcDbLine
 10
4.989515880320004
 20
6.547886954268129
 30
0.0
 11
4.989515880320004
 21
6.708023356869916
 31
0.0
  0
ARC
  5
18D
330
1F
100
AcDbEntity
  8
0
  6
Continuous
 62
     7
370
    15
100
AcDbCircle
 10
4.385691670502422
 20
6.545387242285419
 30
0.0
 40
0.1081946384013893
100
AcDbArc
 50
306.8953877709166
 51
1.286866015336333
  0
LWPOLYLINE
  5
18E
330
1F
100
AcDbEntity
  8
0
  6
Continuous
 62
     7
370
    15
100
AcDbPolyline
 90
       18
 70
   128
 43
0.0
 10
4.396631854986774
 20
6.267377598366747
 10
4.396824129241546
 20
6.260182481779821
 10
4.397399984066427
 20
6.253127952886728
 10
4.39835630822752
 20
6.246250835519332
 10
4.399688192889124
 20
6.239587048001799
 10
4.401388655059606
 20
6.233171364204675
 10
4.403448775868462
 20
6.227037262186267
 10
4.405857907981918
 20
6.221216791356982
 10
4.408603399048794
 20
6.215740357083989
 10
4.41167093739317
 20
6.210636507148654
 10
4.415044552014378
 20
6.205931955297113
 10
4.41870654344848
 20
6.201651185908137
 10
4.422637829460911
 20
6.197816570158576
 10
4.426817875907958
 20
6.194448135545241
 10
4.431224835013819
 20
6.191563461627408
 10
4.435835821924725
 20
6.189177636365872
 10
4.440626569016289
 20
6.187303069305768
 10
4.443332098012234
 20
6.186492884093775
  0
LINE
  5
18F
330
1F
100
AcDbEntity
  8
0
  6
Continuous
 62
     7
370
    15
100
AcDbLine
 10
4.89228871485409
 20
6.908175886378359
 30
0.0
 11
4.89228871485409
 21
6.98846285042134
 31
0.0
  0
ARC
  5
190
330
1F
100
AcDbEntity
  8
0
  6
Continuous
 62
     7
370
    15
100
AcDbCircle
 10
4.92719734693457
 20
6.540728495623429
 30
0.0
 40
0.0627283279984356
100
AcDbArc
 50
293.445719393795
 51
6.552780374547168
  0
LINE
  5
191
330
1F
100
AcDbEntity
  8
0
  6
Continuous
 62
     7
370
    15
100
AcDbLine
 10
4.211487787780875
 20
5.274375913191946
 30
0.0
 11
4.199231254693984
 21
5.277659573863491
 31
0.0
  0
ARC
  5
192
330
1F
100
AcDbEntity
  8
0
  6
Continuous
 62
     7
370
    15
100
AcDbCircle
 10
4.31933380342287
 20
5.277103311204739
 30
0.0
 40
0.1201038369050719
100
AcDbArc
 50
155.2504914598609
 51
179.7346328192741
  0
LINE
  5
193
330
1F
100
AcDbEntity
  8
0
  6
Continuous
 62
     7
370
    15
100
AcDbLine
 10
4.199231254693984
 20
4.931186844802012
 30
0.0
 11
4.211487787780875
 21
4.927903184130467
 31
0.0
  0
LINE
  5
194
330
1F
100
AcDbEntity
  8
0
  6
Continuous
 62
     7
370
    15
100
AcDbLine
 10
4.199231254693984
 20
4.931186844802012
 30
0.0
 11
4.199231254693984
 21
5.277659573863491
 31
0.0
  0
LWPOLYLINE
  5
195
330
1F
100
AcDbEntity
  8
0
  6
Continuous
 62
     7
370
    15
100
AcDbPolyline
 90
       30
 70
   128
 43
0.0
 10
4.630858437012286
 20
6.659511602082663
 10
4.632830198778497
 20
6.658239017205817
 10
4.635650186612549
 20
6.65593043463293
 10
4.63823223419209
 20
6.653190757514943
 10
4.640550691122109
 20
6.650047232719806
 10
4.642582499702513
 20
6.646531087031985
 10
4.644307506051507
 20
6.64267728079784
 10
4.645708529244133
 20
6.638524102538299
 10
4.646771672435655
 20
6.634112840167215
 10
4.647486392000093
 20
6.629487334390548
 10
4.64784549753022
 20
6.624693543020755
 10
4.64784549753022
 20
6.619779115479079
 10
4.647486392000093
 20
6.614792901541028
 10
4.646771672435655
 20
6.609784436167585
 10
4.645708529244133
 20
6.604803515231229
 10
4.644307506051507
 20
6.599899640721058
 10
4.642582499702513
 20
6.595121537956043
 10
4.640550691122109
 20
6.590516704320287
 10
4.63823223419209
 20
6.586130896111671
 10
4.635650186612549
 20
6.582007705243409
 10
4.632830198778497
 20
6.578188104969136
 10
4.629800340933528
 20
6.574710069451713
 10
4.626590688338637
 20
6.571608154996012
 10
4.623233113856626
 20
6.568913182479866
 10
4.619761045967242
 20
6.566651951001072
 10
4.616208984797465
 20
6.564846933795134
 10
4.612612190998118
 20
6.563516057258197
 10
4.609006443759003
 20
6.562672558105368
 10
4.60542755683919
 20
6.562324812496368
 10
4.604818446380888
 20
6.56231529182395
  0
LINE
  5
196
330
1F
100
AcDbEntity
  8
0
  6
Continuous
 62
     7
370
    15
100
AcDbLine
 10
4.493859020452688
 20
6.119321533198238
 30
0.0
 11
4.506115553539579
 21
6.116037872526693
 31
0.0
  0
ARC
  5
197
330
1F
100
AcDbEntity
  8
0
  6
Continuous
 62
     7
370
    15
100
AcDbCircle
 10
4.428942815627937
 20
6.125916744893147
 30
0.0
 40
0.0652503675556681
100
AcDbArc
 50
354.1988957131412
 51
59.07060554464422
  0
LINE
  5
198
330
1F
100
AcDbEntity
  8
0
  6
Continuous
 62
     7
370
    15
100
AcDbLine
 10
4.89228871485409
 20
6.399830897931084
 30
0.0
 11
4.880032216336465
 21
6.396547246521027
 31
0.0
  0
ARC
  5
199
330
1F
100
AcDbEntity
  8
0
  6
Continuous
 62
     7
370
    15
100
AcDbCircle
 10
4.972457897801752
 20
6.408380157563655
 30
0.0
 40
0.0806237417561404
100
AcDbArc
 50
119.3272515683274
 51
186.087030144464
  0
LINE
  5
19A
330
1F
100
AcDbEntity
  8
0
  6
Continuous
 62
     7
370
    15
100
AcDbLine
 10
4.493859020452688
 20
6.045707247131796
 30
0.0
 11
4.506115553539579
 21
6.042423586460251
 31
0.0
  0
ARC
  5
19B
330
1F
100
AcDbEntity
  8
0
  6
Continuous
 62
     7
370
    15
100
AcDbCircle
 10
4.013279224065005
 20
6.047970101223973
 30
0.0
 40
0.4805851237862759
100
AcDbArc
 50
335.2548632783687
 51
359.7302195557154
  0
LINE
  5
19C
330
1F
100
AcDbEntity
  8
0
  6
Continuous
 62
     7
370
    15
100
AcDbLine
 10
4.946303814461657
 20
6.208348075561256
 30
0.0
 11
4.934047315944031
 21
6.2050644241512
 31
0.0
  0
LINE
  5
19D
330
1F
100
AcDbEntity
  8
0
  6
Continuous
 62
     7
370
    15
100
AcDbLine
 10
4.989515880320004
 20
6.119391392604375
 30
0.0
 11
4.977259381802378
 21
6.116107741194317
 31
0.0
  0
ARC
  5
19E
330
1F
100
AcDbEntity
  8
0
  6
Continuous
 62
     7
370
    15
100
AcDbCircle
 10
4.881348216379511
 20
6.121821101245639
 30
0.0
 40
0.1081949490800048
100
AcDbArc
 50
358.7132139221781
 51
53.10452782035036
  0
LINE
  5
19F
330
1F
100
AcDbEntity
  8
0
  6
Continuous
 62
     7
370
    15
100
AcDbLine
 10
4.89228871485409
 20
6.319543922112818
 30
0.0
 11
4.880032216336465
 21
6.316260270702761
 31
0.0
  0
ARC
  5
1A0
330
1F
100
AcDbEntity
  8
0
  6
Continuous
 62
     7
370
    15
100
AcDbCircle
 10
5.02724862256179
 20
6.316385523746342
 30
0.0
 40
0.1349968598475998
100
AcDbArc
 50
178.6593805971167
 51
233.1583784508993
  0
LINE
  5
1A1
330
1F
100
AcDbEntity
  8
0
  6
Continuous
 62
     7
370
    15
100
AcDbLine
 10
4.493859020452688
 20
6.119321533198238
 30
0.0
 11
4.493859020452688
 21
6.045707247131796
 31
0.0
  0
LINE
  5
1A2
330
1F
100
AcDbEntity
  8
0
  6
Continuous
 62
     7
370
    15
100
AcDbLine
 10
4.977259381802378
 20
6.042493455127875
 30
0.0
 11
4.989515880320004
 21
6.045777106537932
 31
0.0
  0
LINE
  5
1A3
330
1F
100
AcDbEntity
  8
0
  6
Continuous
 62
     7
370
    15
100
AcDbLine
 10
4.989515880320004
 20
6.045777106537932
 30
0.0
 11
4.989515880320004
 21
6.119391392604375
 31
0.0
  0
LINE
  5
1A4
330
1F
100
AcDbEntity
  8
0
  6
Continuous
 62
     7
370
    15
100
AcDbLine
 10
4.502877899839624
 20
5.612313637205998
 30
0.0
 11
4.503772967262233
 21
5.612969338775259
 31
0.0
  0
LINE
  5
1A5
330
1F
100
AcDbEntity
  8
0
  6
Continuous
 62
     7
370
    15
100
AcDbLine
 10
4.528929713159828
 20
5.706944481155371
 30
0.0
 11
4.528826835025667
 21
5.707182663629025
 31
0.0
  0
LINE
  5
1A6
330
1F
100
AcDbEntity
  8
0
  6
Continuous
 62
     7
370
    15
100
AcDbLine
 10
4.945393260008099
 20
5.870517239935491
 30
0.0
 11
4.933136761490474
 21
5.867233588525434
 31
0.0
  0
ARC
  5
1A7
330
1F
100
AcDbEntity
  8
0
  6
Continuous
 62
     7
370
    15
100
AcDbCircle
 10
4.654566009041577
 20
6.036918562545488
 30
0.0
 40
0.3350669934074393
100
AcDbArc
 50
330.2232987717344
 51
1.514969663544101
  0
LINE
  5
1A8
330
1F
100
AcDbEntity
  8
0
  6
Continuous
 62
     7
370
    15
100
AcDbLine
 10
4.89228871485409
 20
6.319543922112818
 30
0.0
 11
4.89228871485409
 21
6.399830897931084
 31
0.0
  0
LWPOLYLINE
  5
1A9
330
1F
100
AcDbEntity
  8
0
  6
Continuous
 62
     7
370
    15
100
AcDbPolyline
 90
       13
 70
   128
 43
0.0
 10
4.188624643511397
 20
4.902877094373107
 10
4.191608904495157
 20
4.902344076155022
 10
4.194542072104492
 20
4.902353221268896
 10
4.197373986335144
 20
4.902904308802039
 10
4.200056215646136
 20
4.903987988156583
 10
4.202542852052866
 20
4.905585566035246
 10
4.204791340789492
 20
4.907669914593105
 10
4.2067632062635
 20
4.910205182744054
 10
4.20842470887175
 20
4.913148127429176
 10
4.209747432677994
 20
4.916448332980611
 10
4.210708734813321
 20
4.920049315351994
 10
4.211292194876614
 20
4.923889532146586
 10
4.211487787780875
 20
4.927903184130467
  0
ARC
  5
1AA
330
1F
100
AcDbEntity
  8
0
  6
Continuous
 62
     7
370
    15
100
AcDbCircle
 10
4.659323153972203
 20
5.051067705742226
 30
0.0
 40
0.0237760326553244
100
AcDbArc
 50
292.4339284445669
 51
7.564546184450883
  0
LINE
  5
1AB
330
1F
100
AcDbEntity
  8
0
  6
Continuous
 62
     7
370
    15
100
AcDbLine
 10
4.188624643511397
 20
4.902877094373107
 30
0.0
 11
4.188624643511397
 21
4.919576805502597
 31
0.0
  0
LWPOLYLINE
  5
1AC
330
1F
100
AcDbEntity
  8
0
  6
Continuous
 62
     7
370
    15
100
AcDbPolyline
 90
        9
 70
   128
 43
0.0
 10
4.188624643511397
 20
4.919576805502597
 10
4.190693890606349
 20
4.91930013969056
 10
4.192683628390626
 20
4.919589452947894
 10
4.194517355079651
 20
4.920433683180706
 10
4.19612465307958
 20
4.921800261589769
 10
4.19744371254368
 20
4.923636791639157
 10
4.198423889497976
 20
4.925872718763382
 10
4.199027468873797
 20
4.928422060909387
 10
4.199231254693984
 20
4.931186844802012
  0
LINE
  5
1AD
330
1F
100
AcDbEntity
  8
0
  6
Continuous
 62
     7
370
    15
100
AcDbLine
 10
4.184499873319902
 20
4.920681877023308
 30
0.0
 11
4.188624643511397
 21
4.919576805502597
 31
0.0
  0
LINE
  5
1AE
330
1F
100
AcDbEntity
  8
0
  6
Continuous
 62
     7
370
    15
100
AcDbLine
 10
4.153333398890298
 20
4.912332008841223
 30
0.0
 11
4.188624643511397
 21
4.902877094373107
 31
0.0
  0
LINE
  5
1AF
330
1F
100
AcDbEntity
  8
0
  6
Continuous
 62
     7
370
    15
100
AcDbLine
 10
4.764680938071433
 20
5.575381682599378
 30
0.0
 11
4.752424439553807
 21
5.572098031189321
 31
0.0
  0
LINE
  5
1B0
330
1F
100
AcDbEntity
  8
0
  6
Continuous
 62
     7
370
    15
100
AcDbLine
 10
4.764680938071433
 20
5.575381682599378
 30
0.0
 11
4.945393260008099
 21
5.870517239935491
 31
0.0
  0
SPLINE
  5
1B1
330
1F
100
AcDbEntity
  8
0
  6
Continuous
 62
     7
370
    15
100
AcDbSpline
210
0.0
220
0.0
230
1.0
 70
     8
 71
     3
 72
    10
 73
     6
 74
     0
 42
0.0000000001
 43
0.0000000001
 40
0.0
 40
0.0
 40
0.0
 40
0.0
 40
0.4398649669285888
 40
0.8797323259415907
 40
1.0
 40
1.0
 40
1.0
 40
1.0
 10
4.764680938071433
 20
5.575381682599378
 30
0.0
 10
4.763094244312347
 20
5.574054230088216
 30
0.0
 10
4.759920848165381
 20
5.571399317846909
 30
0.0
 10
4.755678906209598
 20
5.568184604522205
 30
0.0
 10
4.753088944457159
 20
5.566215779908103
 30
0.0
 10
4.752532848770449
 20
5.565793049775213
 30
0.0
  0
LINE
  5
1B2
330
1F
100
AcDbEntity
  8
0
  6
Continuous
 62
     7
370
    15
100
AcDbLine
 10
3.745293725230991
 20
8.252987081313968
 30
0.0
 11
3.745293725230991
 21
8.232802073823632
 31
0.0
  0
LINE
  5
1B3
330
1F
100
AcDbEntity
  8
0
  6
Continuous
 62
     7
370
    15
100
AcDbLine
 10
3.745293725230991
 20
8.252987081313968
 30
0.0
 11
3.782964890936189
 21
8.242894559684852
 31
0.0
  0
LINE
  5
1B4
330
1F
100
AcDbEntity
  8
0
  6
Continuous
 62
     7
370
    15
100
AcDbLine
 10
3.745293725230991
 20
8.252987081313968
 30
0.0
 11
3.757550223748617
 21
8.256270732724024
 31
0.0
  0
LINE
  5
1B5
330
1F
100
AcDbEntity
  8
0
  6
Continuous
 62
     7
370
    15
100
AcDbLine
 10
3.757550223748617
 20
8.256270732724024
 30
0.0
 11
3.795221389453814
 21
8.246178211094909
 31
0.0
  0
LWPOLYLINE
  5
1B6
330
1F
100
AcDbEntity
  8
0
  6
Continuous
 62
     7
370
    15
100
AcDbPolyline
 90
       28
 70
   128
 43
0.0
 10
4.886919554811998
 20
6.598011860483863
 10
4.887511795468731
 20
6.597915472156168
 10
4.891182602065538
 20
6.597027543622651
 10
4.894842173651054
 20
6.595644153650225
 10
4.898454108788694
 20
6.593779064071062
 10
4.901982524580861
 20
6.591450802201786
 10
4.90539233322306
 20
6.588682521987486
 10
4.90864965683509
 20
6.585501722122207
 10
4.911722138584434
 20
6.581940015504474
 10
4.91457921924038
 20
6.578032801976733
 10
4.917192482866677
 20
6.573818928429449
 10
4.919536037083457
 20
6.569340245441436
 10
4.921586513067236
 20
6.564641286403296
 10
4.923323584089894
 20
6.559768737066829
 10
4.924729930949408
 20
6.554771041502961
 10
4.92579162223178
 20
6.549697852764492
 10
4.926498114311026
 20
6.544599589840945
 10
4.926842320487716
 20
6.539526940764579
 10
4.926820887543101
 20
6.534530298372191
 10
4.926434022892768
 20
6.529659326033682
 10
4.925685529155926
 20
6.524962442973198
 10
4.924582873293925
 20
6.520486322407443
 10
4.923137013763932
 20
6.516275449914698
 10
4.921362296811133
 20
6.512371680575802
 10
4.91927642189947
 20
6.508813795807065
 10
4.916900026880454
 20
6.505637181940339
 10
4.914256826270225
 20
6.502873379938105
 10
4.912486015644429
 20
6.501372046454211
  0
LWPOLYLINE
  5
1B7
330
1F
100
AcDbEntity
  8
0
  6
Continuous
 62
     7
370
    15
100
AcDbPolyline
 90
       28
 70
   128
 43
0.0
 10
4.92518410195969
 20
6.504943344464479
 10
4.926631171413977
 20
6.506188603761727
 10
4.929274372024206
 20
6.50895240576396
 10
4.931650767043223
 20
6.512129019630686
 10
4.933736641954885
 20
6.515686904399423
 10
4.935511358907684
 20
6.51959067373832
 10
4.936957218437677
 20
6.523801546231065
 10
4.938059874299678
 20
6.528277666796819
 10
4.938808368036521
 20
6.532974549857303
 10
4.939195232686853
 20
6.537845522195812
 10
4.939216665631469
 20
6.5428421645882
 10
4.938872459454778
 20
6.547914813664566
 10
4.938165967375532
 20
6.553013076588113
 10
4.93710427609316
 20
6.558086265326583
 10
4.935697929233646
 20
6.56308396089045
 10
4.933960858210988
 20
6.567956510226917
 10
4.931910382227209
 20
6.572655469265058
 10
4.929566828010429
 20
6.577134152253071
 10
4.926953564384132
 20
6.581348025800355
 10
4.924096483728186
 20
6.585255239328096
 10
4.921024001978842
 20
6.588816945945827
 10
4.917766678366812
 20
6.591997745811107
 10
4.914356869724613
 20
6.594766026025407
 10
4.910828453932446
 20
6.597094287894684
 10
4.907216518794806
 20
6.598959377473845
 10
4.90355694720929
 20
6.600342767446273
 10
4.899886140612483
 20
6.60123069597979
 10
4.899590884515755
 20
6.601280389573526
  0
LWPOLYLINE
  5
1B8
330
1F
100
AcDbEntity
  8
0
  6
Continuous
 62
     7
370
    15
100
AcDbPolyline
 90
       28
 70
   128
 43
0.0
 10
4.886919554811998
 20
6.022482722485683
 10
4.887511795468731
 20
6.022386369483848
 10
4.891182602065538
 20
6.021498440950331
 10
4.894842173651054
 20
6.020115050977904
 10
4.898454108788694
 20
6.018249955511098
 10
4.901982524580861
 20
6.01592167009125
 10
4.90539233322306
 20
6.013153395764593
 10
4.90864965683509
 20
6.009972578236384
 10
4.911722138584434
 20
6.006410871618651
 10
4.91457921924038
 20
6.002503687529125
 10
4.917192482866677
 20
5.998289819869486
 10
4.919536037083457
 20
5.993811107443256
 10
4.921586513067236
 20
5.989112151348938
 10
4.923323584089894
 20
5.984239610843935
 10
4.924729930949408
 20
5.979241929999175
 10
4.92579162223178
 20
5.974168717710134
 10
4.926498114311026
 20
5.969070465089962
 10
4.926842320487716
 20
5.963997820429328
 10
4.926820887543101
 20
5.959001185396495
 10
4.926434022892768
 20
5.954130196131012
 10
4.925685529155926
 20
5.949433337173066
 10
4.924582873293925
 20
5.944957216423324
 10
4.923137013763932
 20
5.940746328843492
 10
4.921362296811133
 20
5.936842566128195
 10
4.91927642189947
 20
5.933284660752708
 10
4.916900026880454
 20
5.930108061605088
 10
4.914256826270225
 20
5.927344237524194
 10
4.912486015644429
 20
5.92584290551221
  0
LWPOLYLINE
  5
1B9
330
1F
100
AcDbEntity
  8
0
  6
Continuous
 62
     7
370
    15
100
AcDbPolyline
 90
       28
 70
   128
 43
0.0
 10
4.92518410195969
 20
5.929414244735979
 10
4.926631171413977
 20
5.930659461347815
 10
4.929274372024206
 20
5.933423285428709
 10
4.931650767043223
 20
5.936599884576328
 10
4.933736641954885
 20
5.940157789951816
 10
4.935511358907684
 20
5.944061552667114
 10
4.936957218437677
 20
5.948272440246944
 10
4.938059874299678
 20
5.952748560996687
 10
4.938808368036521
 20
5.957445419954633
 10
4.939195232686853
 20
5.962316409220116
 10
4.939216665631469
 20
5.967313044252949
 10
4.938872459454778
 20
5.972385688913584
 10
4.938165967375532
 20
5.977483941533756
 10
4.93710427609316
 20
5.982557153822797
 10
4.935697929233646
 20
5.987554834667557
 10
4.933960858210988
 20
5.992427375172559
 10
4.931910382227209
 20
5.997126331266878
 10
4.929566828010429
 20
6.001605043693108
 10
4.926953564384132
 20
6.005818911352748
 10
4.924096483728186
 20
6.009726095442273
 10
4.921024001978842
 20
6.013287802060006
 10
4.917766678366812
 20
6.016468619588214
 10
4.914356869724613
 20
6.019236893914872
 10
4.910828453932446
 20
6.02156517933472
 10
4.907216518794806
 20
6.023430274801525
 10
4.90355694720929
 20
6.024813664773952
 10
4.899886140612483
 20
6.025701593307469
 10
4.899590884515755
 20
6.025751257462991
  0
LWPOLYLINE
  5
1BA
330
1F
100
AcDbEntity
  8
0
  6
Continuous
 62
     7
370
    15
100
AcDbPolyline
 90
       28
 70
   128
 43
0.0
 10
4.886919554811998
 20
7.82893957830675
 10
4.887511795468731
 20
7.828843178203769
 10
4.891182602065538
 20
7.827955249670251
 10
4.894842173651054
 20
7.82657190679897
 10
4.898454108788694
 20
7.824706764231019
 10
4.901982524580861
 20
7.822378573013462
 10
4.90539233322306
 20
7.819610204484513
 10
4.90864965683509
 20
7.816429481158595
 10
4.911722138584434
 20
7.812867774540863
 10
4.91457921924038
 20
7.808960496249047
 10
4.917192482866677
 20
7.804746628589406
 10
4.919536037083457
 20
7.800267963264322
 10
4.921586513067236
 20
7.795569007170003
 10
4.923323584089894
 20
7.790696466665001
 10
4.924729930949408
 20
7.785698785820242
 10
4.92579162223178
 20
7.780625573531199
 10
4.926498114311026
 20
7.775527320911027
 10
4.926842320487716
 20
7.77045462914925
 10
4.926820887543101
 20
7.765458041217561
 10
4.926434022892768
 20
7.760587051952079
 10
4.925685529155926
 20
7.755890192994133
 10
4.924582873293925
 20
7.751414072244389
 10
4.923137013763932
 20
7.747203137563412
 10
4.921362296811133
 20
7.74329942194926
 10
4.91927642189947
 20
7.739741516573772
 10
4.916900026880454
 20
7.736564870325008
 10
4.914256826270225
 20
7.733801093345259
 10
4.912486015644429
 20
7.732299808434421
  0
LWPOLYLINE
  5
1BB
330
1F
100
AcDbEntity
  8
0
  6
Continuous
 62
     7
370
    15
100
AcDbPolyline
 90
       28
 70
   128
 43
0.0
 10
4.92518410195969
 20
7.735871100557046
 10
4.926631171413977
 20
7.73711631716888
 10
4.929274372024206
 20
7.739880094148629
 10
4.931650767043223
 20
7.743056740397394
 10
4.933736641954885
 20
7.746614645772882
 10
4.935511358907684
 20
7.750518361387033
 10
4.936957218437677
 20
7.75472929606801
 10
4.938059874299678
 20
7.759205416817754
 10
4.938808368036521
 20
7.763902275775699
 10
4.939195232686853
 20
7.768773265041182
 10
4.939216665631469
 20
7.77376985297287
 10
4.938872459454778
 20
7.778842544734649
 10
4.938165967375532
 20
7.783940797354821
 10
4.93710427609316
 20
7.789014009643863
 10
4.935697929233646
 20
7.794011690488622
 10
4.933960858210988
 20
7.798884230993625
 10
4.931910382227209
 20
7.803583187087943
 10
4.929566828010429
 20
7.808061852413028
 10
4.926953564384132
 20
7.812275720072668
 10
4.924096483728186
 20
7.816182998364484
 10
4.921024001978842
 20
7.819744704982216
 10
4.917766678366812
 20
7.822925428308135
 10
4.914356869724613
 20
7.825693796837082
 10
4.910828453932446
 20
7.82802198805464
 10
4.907216518794806
 20
7.82988713062259
 10
4.90355694720929
 20
7.831270473493872
 10
4.899886140612483
 20
7.83215840202739
 10
4.899590884515755
 20
7.832208113284056
  0
LWPOLYLINE
  5
1BC
330
1F
100
AcDbEntity
  8
0
  6
Continuous
 62
     7
370
    15
100
AcDbPolyline
 90
       28
 70
   128
 43
0.0
 10
4.886919554811998
 20
7.186643818861762
 10
4.887511795468731
 20
7.186547418758781
 10
4.891182602065538
 20
7.185659490225263
 10
4.894842173651054
 20
7.184276100252837
 10
4.898454108788694
 20
7.182411004786032
 10
4.901982524580861
 20
7.180082766467328
 10
4.90539233322306
 20
7.177314492140671
 10
4.90864965683509
 20
7.174133674612462
 10
4.911722138584434
 20
7.17057196799473
 10
4.91457921924038
 20
7.166664736804059
 10
4.917192482866677
 20
7.162450869144419
 10
4.919536037083457
 20
7.157972203819334
 10
4.921586513067236
 20
7.153273247725016
 10
4.923323584089894
 20
7.148400707220013
 10
4.924729930949408
 20
7.143402979274108
 10
4.92579162223178
 20
7.138329814086212
 10
4.926498114311026
 20
7.13323156146604
 10
4.926842320487716
 20
7.128158916805407
 10
4.926820887543101
 20
7.123162234671427
 10
4.926434022892768
 20
7.118291292507089
 10
4.925685529155926
 20
7.113594386447999
 10
4.924582873293925
 20
7.109118265698255
 10
4.923137013763932
 20
7.10490742521957
 10
4.921362296811133
 20
7.101003615403127
 10
4.91927642189947
 20
7.097445757128785
 10
4.916900026880454
 20
7.094269157981167
 10
4.914256826270225
 20
7.091505333900273
 10
4.912486015644429
 20
7.090004001888288
  0
LWPOLYLINE
  5
1BD
330
1F
100
AcDbEntity
  8
0
  6
Continuous
 62
     7
370
    15
100
AcDbPolyline
 90
       28
 70
   128
 43
0.0
 10
4.92518410195969
 20
7.093575294010912
 10
4.926631171413977
 20
7.094820557723894
 10
4.929274372024206
 20
7.097584381804787
 10
4.931650767043223
 20
7.100760980952407
 10
4.933736641954885
 20
7.10431883922675
 10
4.935511358907684
 20
7.108222649043192
 10
4.936957218437677
 20
7.112433489521877
 10
4.938059874299678
 20
7.116909610271621
 10
4.938808368036521
 20
7.121606516330712
 10
4.939195232686853
 20
7.126477458495048
 10
4.939216665631469
 20
7.131474140629028
 10
4.938872459454778
 20
7.136546785289661
 10
4.938165967375532
 20
7.141645037909833
 10
4.93710427609316
 20
7.14671820309773
 10
4.935697929233646
 20
7.151715931043635
 10
4.933960858210988
 20
7.156588471548637
 10
4.931910382227209
 20
7.161287427642956
 10
4.929566828010429
 20
7.16576609296804
 10
4.926953564384132
 20
7.169979960627681
 10
4.924096483728186
 20
7.173887191818351
 10
4.921024001978842
 20
7.177448898436082
 10
4.917766678366812
 20
7.180629715964292
 10
4.914356869724613
 20
7.183397990290949
 10
4.910828453932446
 20
7.185726228609652
 10
4.907216518794806
 20
7.187591324076458
 10
4.90355694720929
 20
7.188974714048884
 10
4.899886140612483
 20
7.189862642582403
 10
4.899590884515755
 20
7.189912353839068
  0
LINE
  5
1BE
330
1F
100
AcDbEntity
  8
0
  6
Continuous
 62
     7
370
    15
100
AcDbLine
 10
4.731211251757899
 20
5.531274140309331
 30
0.0
 11
4.731211251757899
 21
7.553297678215486
 31
0.0
  0
LINE
  5
1BF
330
1F
100
AcDbEntity
  8
0
  6
Continuous
 62
     7
370
    15
100
AcDbLine
 10
4.731211251757899
 20
7.585386275595791
 30
0.0
 11
4.731211251757899
 21
7.983165623011232
 31
0.0
  0
ARC
  5
1C0
330
1F
100
AcDbEntity
  8
0
  6
Continuous
 62
     7
370
    15
100
AcDbCircle
 10
4.516993820574414
 20
6.318903963209389
 30
0.0
 40
0.0858460524089026
100
AcDbArc
 50
112.5125465717891
 51
172.8595696117435
  0
LWPOLYLINE
  5
1C1
330
1F
100
AcDbEntity
  8
0
  6
Continuous
 62
     7
370
    15
100
AcDbPolyline
 90
       30
 70
   128
 43
0.0
 10
4.524371582655887
 20
6.285765987905108
 10
4.525067254555029
 20
6.287025047582494
 10
4.527822701570372
 20
6.292471092433056
 10
4.530287386493503
 20
6.298129593916955
 10
4.532444854354038
 20
6.303962890157057
 10
4.534280758906791
 20
6.309932141484634
 10
4.535782862631771
 20
6.315997636596807
 10
4.53694120958051
 20
6.322119003717992
 10
4.537748056237536
 20
6.328255498234376
 10
4.538198044366691
 20
6.334366319832941
 10
4.538288201011144
 20
6.340410765580188
 10
4.538017903924114
 20
6.346348621020382
 10
4.537388950707408
 20
6.352140378878404
 10
4.536405524242153
 20
6.35774748885456
 10
4.535074192688798
 20
6.363132628456158
 10
4.533403805779311
 20
6.368259981370504
 10
4.531405460247922
 20
6.373095404832702
 10
4.529092465261853
 20
6.377606738296896
 10
4.526480238713522
 20
6.381763940505814
 10
4.523586099804949
 20
6.385539351854577
 10
4.520429372755555
 20
6.388907863478594
 10
4.517031075678771
 20
6.391847045855322
 10
4.51341374773571
 20
6.394337326227268
 10
4.509601518273699
 20
6.396362160203691
 10
4.505619761133622
 20
6.397908045123291
 10
4.501494887234329
 20
6.398964699991008
 10
4.4972544828497
 20
6.399525114299263
 10
4.492926687361859
 20
6.399585546175179
 10
4.488540331538242
 20
6.399145582977105
 10
4.484124591838941
 20
6.398208178207882
  0
ARC
  5
1C2
330
1F
100
AcDbEntity
  8
0
  6
Continuous
 62
     7
370
    15
100
AcDbCircle
 10
4.511228699216779
 20
5.669769433890877
 30
0.0
 40
0.0775156975930192
100
AcDbArc
 50
110.4664958047589
 51
162.1412457129709
  0
LWPOLYLINE
  5
1C3
330
1F
100
AcDbEntity
  8
0
  6
Continuous
 62
     7
370
    15
100
AcDbPolyline
 90
       53
 70
   128
 43
0.0
 10
4.438955974691209
 20
5.615721483520854
 10
4.44042641296898
 20
5.613240564671116
 10
4.443181929122855
 20
5.609270944209443
 10
4.446209851088955
 20
5.605696005099079
 10
4.449490128693284
 20
5.602539578387014
 10
4.453000845021509
 20
5.599822545740306
 10
4.456718700388677
 20
5.597563157511503
 10
4.460618943200678
 20
5.595776260597328
 10
4.464675646508383
 20
5.59447393774434
 10
4.468861708007629
 20
5.593664659728317
 10
4.473149403147478
 20
5.593353998751803
 10
4.477510108576085
 20
5.593543989138468
 10
4.481914855248954
 20
5.594233181314621
 10
4.486334259290398
 20
5.595417188499988
 10
4.490739005963266
 20
5.597088156952501
 10
4.495099711391874
 20
5.599234728922352
 10
4.499387406531723
 20
5.601842831728865
 10
4.503573537169501
 20
5.604895112546748
 10
4.507630171338673
 20
5.608371088177312
 10
4.511530414150676
 20
5.612247821400083
 10
4.515248269517843
 20
5.616499318713097
 10
4.518759054984599
 20
5.621097489291381
 10
4.522039263450398
 20
5.626011542727249
 10
4.525067254555029
 20
5.631208927878406
 10
4.527822701570372
 20
5.636654996279539
 10
4.530287386493503
 20
5.642313497763438
 10
4.532444854354038
 20
5.648146770452967
 10
4.534280758906791
 20
5.654116021780546
 10
4.535782862631771
 20
5.660181516892718
 10
4.53694120958051
 20
5.666302907564475
 10
4.537748056237536
 20
5.672439402080859
 10
4.538198044366691
 20
5.678550188353566
 10
4.538288201011144
 20
5.684594716527816
 10
4.538017903924114
 20
5.690532501316292
 10
4.537388950707408
 20
5.696324270949602
 10
4.536405524242153
 20
5.701931392701043
 10
4.535074192688798
 20
5.707316532302641
 10
4.533403805779311
 20
5.712443908767561
 10
4.531405460247922
 20
5.717279285128614
 10
4.529092465261853
 20
5.721790618592806
 10
4.526480238713522
 20
5.725947844352297
 10
4.523586099804949
 20
5.72972329102692
 10
4.520429372755555
 20
5.733091755549791
 10
4.517031075678771
 20
5.736030937926519
 10
4.51341374773571
 20
5.738521253624325
 10
4.509601518273699
 20
5.740546040499602
 10
4.505619761133622
 20
5.742091937194488
 10
4.501494887234329
 20
5.743148592062205
 10
4.4972544828497
 20
5.743709029921033
 10
4.492926687361859
 20
5.743769438246376
 10
4.488540331538242
 20
5.743329486823589
 10
4.484124591838941
 20
5.742392093829653
 10
4.484124591838941
 20
5.742392093829653
  0
ARC
  5
1C4
330
1F
100
AcDbEntity
  8
0
  6
Continuous
 62
     7
370
    15
100
AcDbCircle
 10
4.511228858645618
 20
7.556513124342555
 30
0.0
 40
0.0775158745823587
100
AcDbArc
 50
110.4665727611863
 51
162.1412239429587
  0
LWPOLYLINE
  5
1C5
330
1F
100
AcDbEntity
  8
0
  6
Continuous
 62
     7
370
    15
100
AcDbPolyline
 90
       53
 70
   128
 43
0.0
 10
4.438955974691209
 20
7.502465256283755
 10
4.44042641296898
 20
7.499984431636307
 10
4.443181929122855
 20
7.496014811174635
 10
4.446209851088955
 20
7.492439872064271
 10
4.449490128693284
 20
7.489283351149914
 10
4.453000845021509
 20
7.486566412705498
 10
4.456718700388677
 20
7.484306930274404
 10
4.460618943200678
 20
7.482520127562519
 10
4.464675646508383
 20
7.481217710507242
 10
4.468861708007629
 20
7.480408526693509
 10
4.473149403147478
 20
7.480097865716995
 10
4.477510108576085
 20
7.480287761901369
 10
4.481914855248954
 20
7.480977048279814
 10
4.486334259290398
 20
7.482161055465179
 10
4.490739005963266
 20
7.483831929715401
 10
4.495099711391874
 20
7.485978595887543
 10
4.499387406531723
 20
7.488586698694057
 10
4.503573537169501
 20
7.491638885309648
 10
4.507630171338673
 20
7.495114955142504
 10
4.511530414150676
 20
7.498991594162984
 10
4.515248269517843
 20
7.503243185678289
 10
4.518759054984599
 20
7.507841262054282
 10
4.522039263450398
 20
7.512755409692441
 10
4.525067254555029
 20
7.517952794843597
 10
4.527822701570372
 20
7.523398863244731
 10
4.530287386493503
 20
7.529057364728629
 10
4.532444854354038
 20
7.534890637418159
 10
4.534280758906791
 20
7.540859888745738
 10
4.535782862631771
 20
7.54692538385791
 10
4.53694120958051
 20
7.553046680327376
 10
4.537748056237536
 20
7.559183269046052
 10
4.538198044366691
 20
7.565294055318758
 10
4.538288201011144
 20
7.571338489290717
 10
4.538017903924114
 20
7.577276368281484
 10
4.537388950707408
 20
7.583068137914793
 10
4.536405524242153
 20
7.588675165463944
 10
4.535074192688798
 20
7.594060399267833
 10
4.533403805779311
 20
7.599187681530461
 10
4.531405460247922
 20
7.604023152093804
 10
4.529092465261853
 20
7.608534485557998
 10
4.526480238713522
 20
7.61269171131749
 10
4.523586099804949
 20
7.616467063789821
 10
4.520429372755555
 20
7.619835575413836
 10
4.517031075678771
 20
7.62277480489171
 10
4.51341374773571
 20
7.62526507348837
 10
4.509601518273699
 20
7.627289860363648
 10
4.505619761133622
 20
7.628835804159679
 10
4.501494887234329
 20
7.629892459027397
 10
4.4972544828497
 20
7.630452802683934
 10
4.492926687361859
 20
7.630513258110423
 10
4.488540331538242
 20
7.63007335378878
 10
4.484124591838941
 20
7.629135913693698
 10
4.484124591838941
 20
7.629135913693698
  0
ARC
  5
1C6
330
1F
100
AcDbEntity
  8
0
  6
Continuous
 62
     7
370
    15
100
AcDbCircle
 10
4.505707021357846
 20
7.563348901601794
 30
0.0
 40
0.055433105364905
100
AcDbArc
 50
107.9276161865748
 51
147.7491387991452
  0
ARC
  5
1C7
330
1F
100
AcDbEntity
  8
0
  6
Continuous
 62
     7
370
    15
100
AcDbCircle
 10
4.477113533484558
 20
7.534049068266533
 30
0.0
 40
0.0434535629323595
100
AcDbArc
 50
282.8460208320863
 51
306.3642984451093
  0
ARC
  5
1C8
330
1F
100
AcDbEntity
  8
0
  6
Continuous
 62
     7
370
    15
100
AcDbCircle
 10
4.496590171126502
 20
7.582989544160892
 30
0.0
 40
0.0340414175824253
100
AcDbArc
 50
18.74046810564618
 51
103.4991233196984
  0
LINE
  5
1C9
330
1F
100
AcDbEntity
  8
0
  6
Continuous
 62
     7
370
    15
100
AcDbLine
 10
4.752424439553807
 20
5.572098031189321
 30
0.0
 11
4.752424439553807
 21
7.528757708075673
 31
0.0
  0
LINE
  5
1CA
330
1F
100
AcDbEntity
  8
0
  6
Continuous
 62
     7
370
    15
100
AcDbLine
 10
4.752424439553807
 20
7.635111435150647
 30
0.0
 11
4.752424439553807
 21
7.98316563227272
 31
0.0
  0
ARC
  5
1CB
330
1F
100
AcDbEntity
  8
0
  6
Continuous
 62
     7
370
    15
100
AcDbCircle
 10
4.511224350571239
 20
6.324416323756392
 30
0.0
 40
0.0648074533465343
100
AcDbArc
 50
110.3909614541045
 51
161.6964018557384
  0
ARC
  5
1CC
330
1F
100
AcDbEntity
  8
0
  6
Continuous
 62
     7
370
    15
100
AcDbCircle
 10
4.496590307104941
 20
6.352061985012397
 30
0.0
 40
0.034041243508758
100
AcDbArc
 50
18.74031687972628
 51
103.4994290270758
  0
ARC
  5
1CD
330
1F
100
AcDbEntity
  8
0
  6
Continuous
 62
     7
370
    15
100
AcDbCircle
 10
4.505706390032819
 20
5.676605847411209
 30
0.0
 40
0.0554321377232767
100
AcDbArc
 50
107.9272539157537
 51
147.7495010699689
  0
ARC
  5
1CE
330
1F
100
AcDbEntity
  8
0
  6
Continuous
 62
     7
370
    15
100
AcDbCircle
 10
4.477110381837177
 20
5.647312083458789
 30
0.0
 40
0.0434609735753349
100
AcDbArc
 50
282.848054540757
 51
306.3622647364271
  0
ARC
  5
1CF
330
1F
100
AcDbEntity
  8
0
  6
Continuous
 62
     7
370
    15
100
AcDbCircle
 10
4.496590333467637
 20
5.696245925033077
 30
0.0
 40
0.0340412144879845
100
AcDbArc
 50
18.74031101472018
 51
103.4994863859517
  0
LINE
  5
1D0
330
1F
100
AcDbEntity
  8
0
  6
Continuous
 62
     7
370
    15
100
AcDbLine
 10
4.195849550864645
 20
4.921512438031244
 30
0.0
 11
4.188624643511397
 21
4.919576805502597
 31
0.0
  0
TEXT
  5
1D8
330
1F
100
AcDbEntity
  8
0
100
AcDbText
 10
2.903990504108016
 20
3.377418982449366
 30
0.0
 40
0.25
  1
USP  JUS210-2
100
AcDbText
  0
TEXT
  5
1DF
330
1F
100
AcDbEntity
  8
0
100
AcDbText
 10
1.999132843341641
 20
2.834922485598276
 30
0.0
 40
0.25
  1
SIMPSON  LUS210-2
100
AcDbText
  0
ENDSEC
  0
SECTION
  2
OBJECTS
  0
DICTIONARY
  5
C
330
0
100
AcDbDictionary
281
     1
  3
ACAD_COLOR
350
1D5
  3
ACAD_GROUP
350
D
  3
ACAD_LAYOUT
350
1A
  3
ACAD_MATERIAL
350
1D4
  3
ACAD_MLINESTYLE
350
17
  3
ACAD_PLOTSETTINGS
350
19
  3
ACAD_PLOTSTYLENAME
350
E
  3
ACAD_SCALELIST
350
47
  0
DICTIONARY
  5
1D5
102
{ACAD_REACTORS
330
C
102
}
330
C
100
AcDbDictionary
281
     1
  0
DICTIONARY
  5
D
102
{ACAD_REACTORS
330
C
102
}
330
C
100
AcDbDictionary
281
     1
  0
DICTIONARY
  5
1A
102
{ACAD_REACTORS
330
C
102
}
330
C
100
AcDbDictionary
281
     1
  3
Layout1
350
1E
  3
Layout2
350
26
  3
Model
350
22
  0
DICTIONARY
  5
1D4
102
{ACAD_REACTORS
330
C
102
}
330
C
100
AcDbDictionary
281
     1
  0
DICTIONARY
  5
17
102
{ACAD_REACTORS
330
C
102
}
330
C
100
AcDbDictionary
281
     1
  3
Standard
350
18
  0
DICTIONARY
  5
19
102
{ACAD_REACTORS
330
C
102
}
330
C
100
AcDbDictionary
281
     1
  0
ACDBDICTIONARYWDFLT
  5
E
102
{ACAD_REACTORS
330
C
102
}
330
C
100
AcDbDictionary
281
     1
  3
Normal
350
F
100
AcDbDictionaryWithDefault
340
F
  0
DICTIONARY
  5
47
102
{ACAD_REACTORS
330
C
102
}
330
C
100
AcDbDictionary
281
     1
  3
A0
350
48
  3
A1
350
49
  3
A2
350
4A
  3
A3
350
4B
  3
A4
350
4C
  3
A5
350
4D
  3
A6
350
4E
  3
A7
350
4F
  3
A8
350
50
  3
A9
350
51
  3
B0
350
52
  3
B1
350
53
  3
B2
350
54
  3
B3
350
55
  3
B4
350
56
  3
B5
350
57
  3
B6
350
58
  3
B7
350
59
  3
B8
350
5A
  3
B9
350
5B
  3
C0
350
5C
  3
C1
350
5D
  3
C2
350
5E
  3
C3
350
5F
  3
C4
350
60
  3
C5
350
61
  3
C6
350
62
  3
C7
350
63
  3
C8
350
64
  3
C9
350
65
  3
D0
350
66
  3
D1
350
67
  3
D2
350
68
  0
LAYOUT
  5
1E
102
{ACAD_REACTORS
330
1A
102
}
330
1A
100
AcDbPlotSettings
  1

  2
none_device
  4

  6

 40
0.0
 41
0.0
 42
0.0
 43
0.0
 44
0.0
 45
0.0
 46
0.0
 47
0.0
 48
0.0
 49
0.0
140
0.0
141
0.0
142
1.0
143
1.0
 70
   688
 72
     0
 73
     0
 74
     5
  7

 75
    16
147
1.0
 76
     0
 77
     2
 78
   300
148
0.0
149
0.0
100
AcDbLayout
  1
Layout1
 70
     1
 71
     1
 10
0.0
 20
0.0
 11
12.0
 21
9.0
 12
0.0
 22
0.0
 32
0.0
 14
1.000000000000000E+20
 24
1.000000000000000E+20
 34
1.000000000000000E+20
 15
-1.000000000000000E+20
 25
-1.000000000000000E+20
 35
-1.000000000000000E+20
146
0.0
 13
0.0
 23
0.0
 33
0.0
 16
1.0
 26
0.0
 36
0.0
 17
0.0
 27
1.0
 37
0.0
 76
     0
330
1B
  0
LAYOUT
  5
26
102
{ACAD_REACTORS
330
1A
102
}
330
1A
100
AcDbPlotSettings
  1

  2
none_device
  4

  6

 40
0.0
 41
0.0
 42
0.0
 43
0.0
 44
0.0
 45
0.0
 46
0.0
 47
0.0
 48
0.0
 49
0.0
140
0.0
141
0.0
142
1.0
143
1.0
 70
   688
 72
     0
 73
     0
 74
     5
  7

 75
    16
147
1.0
 76
     0
 77
     2
 78
   300
148
0.0
149
0.0
100
AcDbLayout
  1
Layout2
 70
     1
 71
     2
 10
0.0
 20
0.0
 11
0.0
 21
0.0
 12
0.0
 22
0.0
 32
0.0
 14
0.0
 24
0.0
 34
0.0
 15
0.0
 25
0.0
 35
0.0
146
0.0
 13
0.0
 23
0.0
 33
0.0
 16
1.0
 26
0.0
 36
0.0
 17
0.0
 27
1.0
 37
0.0
 76
     0
330
23
  0
LAYOUT
  5
22
102
{ACAD_REACTORS
330
1A
102
}
330
1A
100
AcDbPlotSettings
  1

  2
none_device
  4
Letter_(8.50_x_11.00_Inches)
  6

 40
6.349999999999999
 41
6.349999999999999
 42
6.350005079999999
 43
6.350005079999999
 44
215.9
 45
279.4
 46
0.0
 47
0.0
 48
0.0
 49
0.0
140
0.0
141
0.0
142
1.0
143
1.0
 70
  1712
 72
     0
 73
     0
 74
     0
  7

 75
     0
147
1.0
 76
     0
 77
     2
 78
   300
148
0.0
149
0.0
100
AcDbLayout
  1
Model
 70
     1
 71
     0
 10
0.0
 20
0.0
 11
8.5
 21
11.0
 12
0.0
 22
0.0
 32
0.0
 14
0.0
 24
0.0
 34
0.0
 15
8.5
 25
11.0
 35
0.0
146
0.0
 13
0.0
 23
0.0
 33
0.0
 16
1.0
 26
0.0
 36
0.0
 17
0.0
 27
1.0
 37
0.0
 76
     0
330
1F
  0
MLINESTYLE
  5
18
102
{ACAD_REACTORS
330
17
102
}
330
17
100
AcDbMlineStyle
  2
STANDARD
 70
     0
  3

 62
   256
 51
90.0
 52
90.0
 71
     2
 49
0.5
 62
   256
  6
BYLAYER
 49
-0.5
 62
   256
  6
BYLAYER
  0
ACDBPLACEHOLDER
  5
F
102
{ACAD_REACTORS
330
E
102
}
330
E
  0
ACAD_PROXY_OBJECT
  5
48
102
{ACAD_REACTORS
330
47
102
}
330
47
100
AcDbProxyObject
 90
      499
 91
      503
 95
   393239
 70
     0
 93
       41
310
903313A31580
 94
        0
  0
ACAD_PROXY_OBJECT
  5
49
102
{ACAD_REACTORS
330
47
102
}
330
47
100
AcDbProxyObject
 90
      499
 91
      503
 95
   393239
 70
     0
 93
      105
310
903313A324000000000000004000
 94
        0
  0
ACAD_PROXY_OBJECT
  5
4A
102
{ACAD_REACTORS
330
47
102
}
330
47
100
AcDbProxyObject
 90
      499
 91
      503
 95
   393239
 70
     0
 93
      105
310
903313A344000000000000104000
 94
        0
  0
ACAD_PROXY_OBJECT
  5
4B
102
{ACAD_REACTORS
330
47
102
}
330
47
100
AcDbProxyObject
 90
      499
 91
      503
 95
   393239
 70
     0
 93
      105
310
903313A354000000000000144000
 94
        0
  0
ACAD_PROXY_OBJECT
  5
4C
102
{ACAD_REACTORS
330
47
102
}
330
47
100
AcDbProxyObject
 90
      499
 91
      503
 95
   393239
 70
     0
 93
      105
310
903313A384000000000000204000
 94
        0
  0
ACAD_PROXY_OBJECT
  5
4D
102
{ACAD_REACTORS
330
47
102
}
330
47
100
AcDbProxyObject
 90
      499
 91
      503
 95
   393239
 70
     0
 93
      113
310
904313A31304000000000000244000
 94
        0
  0
ACAD_PROXY_OBJECT
  5
4E
102
{ACAD_REACTORS
330
47
102
}
330
47
100
AcDbProxyObject
 90
      499
 91
      503
 95
   393239
 70
     0
 93
      113
310
904313A31364000000000000304000
 94
        0
  0
ACAD_PROXY_OBJECT
  5
4F
102
{ACAD_REACTORS
330
47
102
}
330
47
100
AcDbProxyObject
 90
      499
 91
      503
 95
   393239
 70
     0
 93
      113
310
904313A32304000000000000344000
 94
        0
  0
ACAD_PROXY_OBJECT
  5
50
102
{ACAD_REACTORS
330
47
102
}
330
47
100
AcDbProxyObject
 90
      499
 91
      503
 95
   393239
 70
     0
 93
      113
310
904313A333040000000000003E4000
 94
        0
  0
ACAD_PROXY_OBJECT
  5
51
102
{ACAD_REACTORS
330
47
102
}
330
47
100
AcDbProxyObject
 90
      499
 91
      503
 95
   393239
 70
     0
 93
      113
310
904313A34304000000000000444000
 94
        0
  0
ACAD_PROXY_OBJECT
  5
52
102
{ACAD_REACTORS
330
47
102
}
330
47
100
AcDbProxyObject
 90
      499
 91
      503
 95
   393239
 70
     0
 93
      113
310
904313A35304000000000000494000
 94
        0
  0
ACAD_PROXY_OBJECT
  5
53
102
{ACAD_REACTORS
330
47
102
}
330
47
100
AcDbProxyObject
 90
      499
 91
      503
 95
   393239
 70
     0
 93
      121
310
905313A3130304000000000000594000
 94
        0
  0
ACAD_PROXY_OBJECT
  5
54
102
{ACAD_REACTORS
330
47
102
}
330
47
100
AcDbProxyObject
 90
      499
 91
      503
 95
   393239
 70
     0
 93
      105
310
903323A310000000000000010140
 94
        0
  0
ACAD_PROXY_OBJECT
  5
55
102
{ACAD_REACTORS
330
47
102
}
330
47
100
AcDbProxyObject
 90
      499
 91
      503
 95
   393239
 70
     0
 93
      105
310
903343A310000000000000410159
 94
        0
  0
ACAD_PROXY_OBJECT
  5
56
102
{ACAD_REACTORS
330
47
102
}
330
47
100
AcDbProxyObject
 90
      499
 91
      503
 95
   393239
 70
     0
 93
      105
310
903383A310000000000000810140
 94
        0
  0
ACAD_PROXY_OBJECT
  5
57
102
{ACAD_REACTORS
330
47
102
}
330
47
100
AcDbProxyObject
 90
      499
 91
      503
 95
   393239
 70
     0
 93
      113
310
90431303A310000000000000910140
 94
        0
  0
ACAD_PROXY_OBJECT
  5
58
102
{ACAD_REACTORS
330
47
102
}
330
47
100
AcDbProxyObject
 90
      499
 91
      503
 95
   393239
 70
     0
 93
      121
310
9053130303A310000000000001650100
 94
        0
  0
ACAD_PROXY_OBJECT
  5
59
102
{ACAD_REACTORS
330
47
102
}
330
47
100
AcDbProxyObject
 90
      499
 91
      503
 95
   393239
 70
     0
 93
      257
310
90E312F31323822203D2031272D3022000000000000200FC000000000000284000
 94
        0
  0
ACAD_PROXY_OBJECT
  5
5A
102
{ACAD_REACTORS
330
47
102
}
330
47
100
AcDbProxyObject
 90
      499
 91
      503
 95
   393239
 70
     0
 93
      249
310
90D312F363422203D2031272D3022000000000000240FC000000000000284000
 94
        0
  0
ACAD_PROXY_OBJECT
  5
5B
102
{ACAD_REACTORS
330
47
102
}
330
47
100
AcDbProxyObject
 90
      499
 91
      503
 95
   393239
 70
     0
 93
      249
310
90D312F333222203D2031272D3022000000000000280FC000000000000284040
 94
        0
  0
ACAD_PROXY_OBJECT
  5
5C
102
{ACAD_REACTORS
330
47
102
}
330
47
100
AcDbProxyObject
 90
      499
 91
      503
 95
   393239
 70
     0
 93
      249
310
90D312F313622203D2031272D30220000000000002C0FC000000000000284000
 94
        0
  0
ACAD_PROXY_OBJECT
  5
5D
102
{ACAD_REACTORS
330
47
102
}
330
47
100
AcDbProxyObject
 90
      499
 91
      503
 95
   393239
 70
     0
 93
      249
310
90D332F333222203D2031272D30220000000000002E0FC000000000000284040
 94
        0
  0
ACAD_PROXY_OBJECT
  5
5E
102
{ACAD_REACTORS
330
47
102
}
330
47
100
AcDbProxyObject
 90
      499
 91
      503
 95
   393239
 70
     0
 93
      241
310
90C312F3822203D2031272D3022000000000000300FC000000000000284040
 94
        0
  0
ACAD_PROXY_OBJECT
  5
5F
102
{ACAD_REACTORS
330
47
102
}
330
47
100
AcDbProxyObject
 90
      499
 91
      503
 95
   393239
 70
     0
 93
      249
310
90D332F313622203D2031272D3022000000000000320FC000000000000284040
 94
        0
  0
ACAD_PROXY_OBJECT
  5
60
102
{ACAD_REACTORS
330
47
102
}
330
47
100
AcDbProxyObject
 90
      499
 91
      503
 95
   393239
 70
     0
 93
      241
310
90C312F3422203D2031272D3022000000000000340FC000000000000284040
 94
        0
  0
ACAD_PROXY_OBJECT
  5
61
102
{ACAD_REACTORS
330
47
102
}
330
47
100
AcDbProxyObject
 90
      499
 91
      503
 95
   393239
 70
     0
 93
      241
310
90C332F3822203D2031272D3022000000000000360FC000000000000284040
 94
        0
  0
ACAD_PROXY_OBJECT
  5
62
102
{ACAD_REACTORS
330
47
102
}
330
47
100
AcDbProxyObject
 90
      499
 91
      503
 95
   393239
 70
     0
 93
      241
310
90C312F3222203D2031272D3022000000000000380FC000000000000284040
 94
        0
  0
ACAD_PROXY_OBJECT
  5
63
102
{ACAD_REACTORS
330
47
102
}
330
47
100
AcDbProxyObject
 90
      499
 91
      503
 95
   393239
 70
     0
 93
      241
310
90C332F3422203D2031272D30220000000000003A0FC000000000000284040
 94
        0
  0
ACAD_PROXY_OBJECT
  5
64
102
{ACAD_REACTORS
330
47
102
}
330
47
100
AcDbProxyObject
 90
      499
 91
      503
 95
   393239
 70
     0
 93
      161
310
90A3122203D2031272D30224000000000000284000
 94
        0
  0
ACAD_PROXY_OBJECT
  5
65
102
{ACAD_REACTORS
330
47
102
}
330
47
100
AcDbProxyObject
 90
      499
 91
      503
 95
   393239
 70
     0
 93
      257
310
90E312D312F3222203D2031272D30220000000000003E0FC000000000000284000
 94
        0
  0
ACAD_PROXY_OBJECT
  5
66
102
{ACAD_REACTORS
330
47
102
}
330
47
100
AcDbProxyObject
 90
      499
 91
      503
 95
   393239
 70
     0
 93
      225
310
90A3322203D2031272D302200000000000002100000000000000284028
 94
        0
  0
ACAD_PROXY_OBJECT
  5
67
102
{ACAD_REACTORS
330
47
102
}
330
47
100
AcDbProxyObject
 90
      499
 91
      503
 95
   393239
 70
     0
 93
      225
310
90A3622203D2031272D302200000000000006100000000000000284000
 94
        0
  0
ACAD_PROXY_OBJECT
  5
68
102
{ACAD_REACTORS
330
47
102
}
330
47
100
AcDbProxyObject
 90
      499
 91
      503
 95
   393239
 70
     0
 93
      249
310
90D31272D3022203D2031272D30220000000000000A100000000000000284000
 94
        0
  0
ENDSEC
  0
EOF
