  0
SECTION
  2
HEADER
  9
$ACADVER
  1
AC1018
  9
$ACADMAINTVER
 70
     0
  9
$DWGCODEPAGE
  3
ANSI_1252
  9
$INSBASE
 10
0.0
 20
0.0
 30
0.0
  9
$EXTMIN
 10
0.2500000000039853
 20
0.8604006399498532
 30
0.0
  9
$EXTMAX
 10
9.14419020536768
 20
10.75636776389939
 30
0.0
  9
$LIMMIN
 10
0.0
 20
0.0
  9
$LIMMAX
 10
8.5
 20
11.0
  9
$ORTHOMODE
 70
     0
  9
$REGENMODE
 70
     1
  9
$FILLMODE
 70
     1
  9
$QTEXTMODE
 70
     0
  9
$MIRRTEXT
 70
     1
  9
$LTSCALE
 40
1.0
  9
$ATTMODE
 70
     1
  9
$TEXTSIZE
 40
0.25
  9
$TRACEWID
 40
0.05
  9
$TEXTSTYLE
  7
Standard
  9
$CLAYER
  8
0
  9
$CELTYPE
  6
ByLayer
  9
$CECOLOR
 62
   256
  9
$CELTSCALE
 40
1.0
  9
$DISPSILH
 70
     0
  9
$DIMSCALE
 40
1.0
  9
$DIMASZ
 40
0.156
  9
$DIMEXO
 40
0.05
  9
$DIMDLI
 40
0.38
  9
$DIMRND
 40
0.0
  9
$DIMDLE
 40
0.0
  9
$DIMEXE
 40
0.125
  9
$DIMTP
 40
0.0
  9
$DIMTM
 40
0.0
  9
$DIMTXT
 40
0.125
  9
$DIMCEN
 40
0.09
  9
$DIMTSZ
 40
0.0
  9
$DIMTOL
 70
     0
  9
$DIMLIM
 70
     0
  9
$DIMTIH
 70
     1
  9
$DIMTOH
 70
     1
  9
$DIMSE1
 70
     0
  9
$DIMSE2
 70
     0
  9
$DIMTAD
 70
     0
  9
$DIMZIN
 70
     0
  9
$DIMBLK
  1

  9
$DIMASO
 70
     1
  9
$DIMSHO
 70
     1
  9
$DIMPOST
  1

  9
$DIMAPOST
  1

  9
$DIMALT
 70
     0
  9
$DIMALTD
 70
     2
  9
$DIMALTF
 40
25.4
  9
$DIMLFAC
 40
8.0
  9
$DIMTOFL
 70
     0
  9
$DIMTVP
 40
0.0
  9
$DIMTIX
 70
     0
  9
$DIMSOXD
 70
     0
  9
$DIMSAH
 70
     0
  9
$DIMBLK1
  1

  9
$DIMBLK2
  1

  9
$DIMSTYLE
  2
Standard
  9
$DIMCLRD
 70
     0
  9
$DIMCLRE
 70
     0
  9
$DIMCLRT
 70
     0
  9
$DIMTFAC
 40
1.0
  9
$DIMGAP
 40
0.06
  9
$DIMJUST
 70
     0
  9
$DIMSD1
 70
     0
  9
$DIMSD2
 70
     0
  9
$DIMTOLJ
 70
     1
  9
$DIMTZIN
 70
     0
  9
$DIMALTZ
 70
     0
  9
$DIMALTTZ
 70
     0
  9
$DIMUPT
 70
     0
  9
$DIMDEC
 70
     3
  9
$DIMTDEC
 70
     3
  9
$DIMALTU
 70
     2
  9
$DIMALTTD
 70
     2
  9
$DIMTXSTY
  7
Standard
  9
$DIMAUNIT
 70
     0
  9
$DIMADEC
 70
     0
  9
$DIMALTRND
 40
0.0
  9
$DIMAZIN
 70
     0
  9
$DIMDSEP
 70
    46
  9
$DIMATFIT
 70
     3
  9
$DIMFRAC
 70
     0
  9
$DIMLDRBLK
  1

  9
$DIMLUNIT
 70
     2
  9
$DIMLWD
 70
    -2
  9
$DIMLWE
 70
    -2
  9
$DIMTMOVE
 70
     0
  9
$LUNITS
 70
     2
  9
$LUPREC
 70
     3
  9
$SKETCHINC
 40
0.1
  9
$FILLETRAD
 40
0.5
  9
$AUNITS
 70
     0
  9
$AUPREC
 70
     0
  9
$MENU
  1
.
  9
$ELEVATION
 40
0.0
  9
$PELEVATION
 40
0.0
  9
$THICKNESS
 40
0.0
  9
$LIMCHECK
 70
     0
  9
$CHAMFERA
 40
0.5
  9
$CHAMFERB
 40
0.5
  9
$CHAMFERC
 40
1.0
  9
$CHAMFERD
 40
0.0
  9
$SKPOLY
 70
     0
  9
$TDCREATE
 40
2456489.437439375
  9
$TDUCREATE
 40
2456489.645772708
  9
$TDUPDATE
 40
2456570.428746574
  9
$TDUUPDATE
 40
2456570.637079908
  9
$TDINDWG
 40
0.0013158565
  9
$TDUSRTIMER
 40
0.0013158565
  9
$USRTIMER
 70
     1
  9
$ANGBASE
 50
0.0
  9
$ANGDIR
 70
     0
  9
$PDMODE
 70
     0
  9
$PDSIZE
 40
-1.0
  9
$PLINEWID
 40
0.0
  9
$SPLFRAME
 70
     0
  9
$SPLINETYPE
 70
     6
  9
$SPLINESEGS
 70
     8
  9
$HANDSEED
  5
2B1
  9
$SURFTAB1
 70
     6
  9
$SURFTAB2
 70
     6
  9
$SURFTYPE
 70
     6
  9
$SURFU
 70
     6
  9
$SURFV
 70
     6
  9
$UCSBASE
  2

  9
$UCSNAME
  2

  9
$UCSORG
 10
0.0
 20
0.0
 30
0.0
  9
$UCSXDIR
 10
1.0
 20
0.0
 30
0.0
  9
$UCSYDIR
 10
0.0
 20
1.0
 30
0.0
  9
$UCSORTHOREF
  2

  9
$UCSORTHOVIEW
 70
     0
  9
$UCSORGTOP
 10
0.0
 20
0.0
 30
0.0
  9
$UCSORGBOTTOM
 10
0.0
 20
0.0
 30
0.0
  9
$UCSORGLEFT
 10
0.0
 20
0.0
 30
0.0
  9
$UCSORGRIGHT
 10
0.0
 20
0.0
 30
0.0
  9
$UCSORGFRONT
 10
0.0
 20
0.0
 30
0.0
  9
$UCSORGBACK
 10
0.0
 20
0.0
 30
0.0
  9
$PUCSBASE
  2

  9
$PUCSNAME
  2

  9
$PUCSORG
 10
0.0
 20
0.0
 30
0.0
  9
$PUCSXDIR
 10
1.0
 20
0.0
 30
0.0
  9
$PUCSYDIR
 10
0.0
 20
1.0
 30
0.0
  9
$PUCSORTHOREF
  2

  9
$PUCSORTHOVIEW
 70
     0
  9
$PUCSORGTOP
 10
0.0
 20
0.0
 30
0.0
  9
$PUCSORGBOTTOM
 10
0.0
 20
0.0
 30
0.0
  9
$PUCSORGLEFT
 10
0.0
 20
0.0
 30
0.0
  9
$PUCSORGRIGHT
 10
0.0
 20
0.0
 30
0.0
  9
$PUCSORGFRONT
 10
0.0
 20
0.0
 30
0.0
  9
$PUCSORGBACK
 10
0.0
 20
0.0
 30
0.0
  9
$USERI1
 70
     0
  9
$USERI2
 70
     0
  9
$USERI3
 70
     0
  9
$USERI4
 70
     0
  9
$USERI5
 70
     0
  9
$USERR1
 40
0.0
  9
$USERR2
 40
0.0
  9
$USERR3
 40
0.0
  9
$USERR4
 40
0.0
  9
$USERR5
 40
0.0
  9
$WORLDVIEW
 70
     1
  9
$SHADEDGE
 70
     3
  9
$SHADEDIF
 70
    70
  9
$TILEMODE
 70
     1
  9
$MAXACTVP
 70
    64
  9
$PINSBASE
 10
0.0
 20
0.0
 30
0.0
  9
$PLIMCHECK
 70
     0
  9
$PEXTMIN
 10
1.000000000000000E+20
 20
1.000000000000000E+20
 30
1.000000000000000E+20
  9
$PEXTMAX
 10
-1.000000000000000E+20
 20
-1.000000000000000E+20
 30
-1.000000000000000E+20
  9
$PLIMMIN
 10
0.0
 20
0.0
  9
$PLIMMAX
 10
12.0
 20
9.0
  9
$UNITMODE
 70
     0
  9
$VISRETAIN
 70
     1
  9
$PLINEGEN
 70
     0
  9
$PSLTSCALE
 70
     1
  9
$TREEDEPTH
 70
  3020
  9
$CMLSTYLE
  2
Standard
  9
$CMLJUST
 70
     0
  9
$CMLSCALE
 40
1.0
  9
$PROXYGRAPHICS
 70
     1
  9
$MEASUREMENT
 70
     0
  9
$CELWEIGHT
370
    -1
  9
$ENDCAPS
280
     0
  9
$JOINSTYLE
280
     0
  9
$LWDISPLAY
290
     1
  9
$INSUNITS
 70
     1
  9
$HYPERLINKBASE
  1

  9
$STYLESHEET
  1

  9
$XEDIT
290
     1
  9
$CEPSNTYPE
380
     0
  9
$PSTYLEMODE
290
     1
  9
$FINGERPRINTGUID
  2
{C949CCE6-E6E0-41A8-98C5-D1E408DB4BE7}
  9
$VERSIONGUID
  2
{0A090D39-CD74-4006-9E6A-DC0C77B7A745}
  9
$EXTNAMES
290
     1
  9
$PSVPSCALE
 40
0.0
  9
$OLESTARTUP
290
     0
  9
$SORTENTS
280
   127
  9
$INDEXCTL
280
     0
  9
$HIDETEXT
280
     0
  9
$XCLIPFRAME
290
     0
  9
$HALOGAP
280
     0
  9
$OBSCOLOR
 70
   257
  9
$OBSLTYPE
280
     0
  9
$INTERSECTIONDISPLAY
280
     0
  9
$INTERSECTIONCOLOR
 70
   257
  9
$DIMASSOC
280
     1
  9
$PROJECTNAME
  1

  0
ENDSEC
  0
SECTION
  2
CLASSES
  0
CLASS
  1
ACDBDICTIONARYWDFLT
  2
AcDbDictionaryWithDefault
  3
ObjectDBX Classes
 90
        0
 91
        1
280
     0
281
     0
  0
CLASS
  1
VISUALSTYLE
  2
AcDbVisualStyle
  3
ObjectDBX Classes
 90
     4095
 91
        0
280
     0
281
     0
  0
CLASS
  1
MATERIAL
  2
AcDbMaterial
  3
ObjectDBX Classes
 90
        0
 91
        0
280
     0
281
     0
  0
ENDSEC
  0
SECTION
  2
TABLES
  0
TABLE
  2
VPORT
  5
8
330
0
100
AcDbSymbolTable
 70
     3
  0
VPORT
  5
2B0
330
8
100
AcDbSymbolTableRecord
100
AcDbViewportTableRecord
  2
*Active
 70
     0
 10
0.0
 20
0.0
 11
1.0
 21
1.0
 12
4.494024215186337
 22
5.558933339371284
 13
0.0
 23
0.0
 14
0.5
 24
0.5
 15
0.5
 25
0.5
 16
0.0
 26
0.0
 36
1.0
 17
0.0
 27
0.0
 37
0.0
 40
8.626882102632439
 41
2.144329896907216
 42
50.0
 43
0.0
 44
0.0
 50
0.0
 51
0.0
 71
     0
 72
  2000
 73
     1
 74
     3
 75
     0
 76
     0
 77
     0
 78
     0
281
     0
 65
     1
110
0.0
120
0.0
130
0.0
111
1.0
121
0.0
131
0.0
112
0.0
122
1.0
132
0.0
 79
     0
146
0.0
  0
ENDTAB
  0
TABLE
  2
LTYPE
  5
5
330
0
100
AcDbSymbolTable
 70
     6
  0
LTYPE
  5
14
330
5
100
AcDbSymbolTableRecord
100
AcDbLinetypeTableRecord
  2
ByBlock
 70
     0
  3

 72
    65
 73
     0
 40
0.0
  0
LTYPE
  5
15
330
5
100
AcDbSymbolTableRecord
100
AcDbLinetypeTableRecord
  2
ByLayer
 70
     0
  3

 72
    65
 73
     0
 40
0.0
  0
LTYPE
  5
16
330
5
100
AcDbSymbolTableRecord
100
AcDbLinetypeTableRecord
  2
Continuous
 70
     0
  3
Solid line
 72
    65
 73
     0
 40
0.0
  0
LTYPE
  5
3F
330
5
100
AcDbSymbolTableRecord
100
AcDbLinetypeTableRecord
  2
HIDDEN
 70
     0
  3
Hidden __ __ __ __ __ __ __ __ __ __ __ __ __ __
 72
    65
 73
     2
 40
0.075
 49
0.05
 74
     0
 49
-0.025
 74
     0
  0
LTYPE
  5
40
330
5
100
AcDbSymbolTableRecord
100
AcDbLinetypeTableRecord
  2
PHANTOM
 70
     0
  3
Phantom ______  __  __  ______  __  __  ______
 72
    65
 73
     6
 40
0.5
 49
0.25
 74
     0
 49
-0.05
 74
     0
 49
0.05
 74
     0
 49
-0.05
 74
     0
 49
0.05
 74
     0
 49
-0.05
 74
     0
  0
LTYPE
  5
41
330
5
100
AcDbSymbolTableRecord
100
AcDbLinetypeTableRecord
  2
CENTER
 70
     0
  3
Center ____ _ ____ _ ____ _ ____ _ ____ _ ____
 72
    65
 73
     4
 40
0.4
 49
0.25
 74
     0
 49
-0.05
 74
     0
 49
0.05
 74
     0
 49
-0.05
 74
     0
  0
LTYPE
  5
42
330
5
100
AcDbSymbolTableRecord
100
AcDbLinetypeTableRecord
  2
CENTERX2
 70
     0
  3
Center (2x) ________  __  ________  __  _____
 72
    65
 73
     4
 40
0.8
 49
0.5
 74
     0
 49
-0.1
 74
     0
 49
0.1
 74
     0
 49
-0.1
 74
     0
  0
LTYPE
  5
43
330
5
100
AcDbSymbolTableRecord
100
AcDbLinetypeTableRecord
  2
DOT2
 70
     0
  3
Dot (.5x) ........................................
 72
    65
 73
     2
 40
0.025
 49
0.0
 74
     0
 49
-0.025
 74
     0
  0
ENDTAB
  0
TABLE
  2
LAYER
  5
2
330
0
100
AcDbSymbolTable
 70
    20
  0
LAYER
  5
10
330
2
100
AcDbSymbolTableRecord
100
AcDbLayerTableRecord
  2
0
 70
     0
 62
     7
  6
Continuous
370
    -3
390
F
  0
LAYER
  5
44
330
2
100
AcDbSymbolTableRecord
100
AcDbLayerTableRecord
  2
SLD-0
 70
     0
 62
   179
  6
Continuous
370
    -3
390
F
  0
LAYER
  5
45
330
2
100
AcDbSymbolTableRecord
100
AcDbLayerTableRecord
  2
SLD-DEFPOINTS
 70
     0
 62
   179
  6
Continuous
370
    -3
390
F
  0
LAYER
  5
46
330
2
100
AcDbSymbolTableRecord
100
AcDbLayerTableRecord
  2
OBJ
 70
     0
 62
   179
  6
Continuous
370
    -3
390
F
  0
LAYER
  5
47
330
2
100
AcDbSymbolTableRecord
100
AcDbLayerTableRecord
  2
FORMAT
 70
     0
 62
     7
  6
Continuous
370
    -3
390
F
  0
LAYER
  5
48
330
2
100
AcDbSymbolTableRecord
100
AcDbLayerTableRecord
  2
REV-1
 70
     0
 62
    -7
  6
Continuous
370
    -3
390
F
  0
LAYER
  5
49
330
2
100
AcDbSymbolTableRecord
100
AcDbLayerTableRecord
  2
REV-2
 70
     0
 62
    -7
  6
Continuous
370
    -3
390
F
  0
LAYER
  5
4A
330
2
100
AcDbSymbolTableRecord
100
AcDbLayerTableRecord
  2
REV-3
 70
     0
 62
    -7
  6
Continuous
370
    -3
390
F
  0
LAYER
  5
4B
330
2
100
AcDbSymbolTableRecord
100
AcDbLayerTableRecord
  2
PAINT
 70
     0
 62
    -7
  6
Continuous
370
    -3
390
F
  0
LAYER
  5
4C
330
2
100
AcDbSymbolTableRecord
100
AcDbLayerTableRecord
  2
STAMP-AREA
 70
     0
 62
    -7
  6
Continuous
370
    -3
390
F
  0
LAYER
  5
4D
330
2
100
AcDbSymbolTableRecord
100
AcDbLayerTableRecord
  2
TOLERANCES
 70
     0
 62
     7
  6
Continuous
370
    -3
390
F
  0
LAYER
  5
4E
330
2
100
AcDbSymbolTableRecord
100
AcDbLayerTableRecord
  2
BLANK-SIZE-1
 70
     0
 62
    -7
  6
Continuous
370
    -3
390
F
  0
LAYER
  5
4F
330
2
100
AcDbSymbolTableRecord
100
AcDbLayerTableRecord
  2
BLANK-SIZE-2
 70
     0
 62
    -7
  6
Continuous
370
    -3
390
F
  0
LAYER
  5
50
330
2
100
AcDbSymbolTableRecord
100
AcDbLayerTableRecord
  2
BLANK-SIZE-3
 70
     0
 62
    -7
  6
Continuous
370
    -3
390
F
  0
LAYER
  5
51
330
2
100
AcDbSymbolTableRecord
100
AcDbLayerTableRecord
  2
BLANK-SIZE-4
 70
     0
 62
    -7
  6
Continuous
370
    -3
390
F
  0
LAYER
  5
52
330
2
100
AcDbSymbolTableRecord
100
AcDbLayerTableRecord
  2
BLANK-SIZE-5
 70
     0
 62
    -7
  6
Continuous
370
    -3
390
F
  0
LAYER
  5
53
330
2
100
AcDbSymbolTableRecord
100
AcDbLayerTableRecord
  2
HDG
 70
     0
 62
    -7
  6
Continuous
370
    -3
390
F
  0
LAYER
  5
54
330
2
100
AcDbSymbolTableRecord
100
AcDbLayerTableRecord
  2
FAX-NOTE
 70
     0
 62
    -7
  6
Continuous
370
    -3
390
F
  0
LAYER
  5
55
330
2
100
AcDbSymbolTableRecord
100
AcDbLayerTableRecord
  2
TOP_MOUNT_PAINT
 70
     0
 62
    -7
  6
Continuous
370
    -3
390
F
  0
LAYER
  5
56
330
2
100
AcDbSymbolTableRecord
100
AcDbLayerTableRecord
  2
QTY-BLANK-SIZE-1
 70
     0
 62
     7
  6
Continuous
370
    -3
390
F
  0
ENDTAB
  0
TABLE
  2
STYLE
  5
3
330
0
100
AcDbSymbolTable
 70
     2
  0
STYLE
  5
11
330
3
100
AcDbSymbolTableRecord
100
AcDbTextStyleTableRecord
  2
Standard
 70
     0
 40
0.0
 41
1.0
 50
0.0
 71
     0
 42
0.25
  3
txt
  4

  0
STYLE
  5
7F
330
3
100
AcDbSymbolTableRecord
100
AcDbTextStyleTableRecord
  2
SLDTEXTSTYLE0
 70
     0
 40
0.0
 41
0.7
 50
0.0
 71
     0
 42
0.2
  3
TXT
  4

  0
ENDTAB
  0
TABLE
  2
VIEW
  5
6
330
0
100
AcDbSymbolTable
 70
     0
  0
ENDTAB
  0
TABLE
  2
UCS
  5
7
330
0
100
AcDbSymbolTable
 70
     0
  0
ENDTAB
  0
TABLE
  2
APPID
  5
9
330
0
100
AcDbSymbolTable
 70
     1
  0
APPID
  5
12
330
9
100
AcDbSymbolTableRecord
100
AcDbRegAppTableRecord
  2
ACAD
 70
     0
  0
ENDTAB
  0
TABLE
  2
DIMSTYLE
  5
A
330
0
100
AcDbSymbolTable
 70
     1
100
AcDbDimStyleTable
 71
     0
  0
DIMSTYLE
105
27
330
A
100
AcDbSymbolTableRecord
100
AcDbDimStyleTableRecord
  2
Standard
 70
     0
340
11
  0
ENDTAB
  0
TABLE
  2
BLOCK_RECORD
  5
1
330
0
100
AcDbSymbolTable
 70
     3
  0
BLOCK_RECORD
  5
1F
330
1
100
AcDbSymbolTableRecord
100
AcDbBlockTableRecord
  2
*Model_Space
340
22
  0
BLOCK_RECORD
  5
1B
330
1
100
AcDbSymbolTableRecord
100
AcDbBlockTableRecord
  2
*Paper_Space
340
1E
  0
BLOCK_RECORD
  5
23
330
1
100
AcDbSymbolTableRecord
100
AcDbBlockTableRecord
  2
*Paper_Space0
340
26
  0
BLOCK_RECORD
  5
84
330
1
100
AcDbSymbolTableRecord
100
AcDbBlockTableRecord
  2
SW_NOTE_0
340
0
102
{BLKREFS
331
89
102
}
  0
BLOCK_RECORD
  5
8B
330
1
100
AcDbSymbolTableRecord
100
AcDbBlockTableRecord
  2
SW_NOTE_1
340
0
102
{BLKREFS
331
92
102
}
  0
ENDTAB
  0
ENDSEC
  0
SECTION
  2
BLOCKS
  0
BLOCK
  5
20
330
1F
100
AcDbEntity
  8
0
100
AcDbBlockBegin
  2
*Model_Space
 70
     0
 10
0.0
 20
0.0
 30
0.0
  3
*Model_Space
  1

  0
ENDBLK
  5
21
330
1F
100
AcDbEntity
  8
0
100
AcDbBlockEnd
  0
BLOCK
  5
1C
330
1B
100
AcDbEntity
 67
     1
  8
0
100
AcDbBlockBegin
  2
*Paper_Space
 70
     0
 10
0.0
 20
0.0
 30
0.0
  3
*Paper_Space
  1

  0
ENDBLK
  5
1D
330
1B
100
AcDbEntity
 67
     1
  8
0
100
AcDbBlockEnd
  0
BLOCK
  5
24
330
23
100
AcDbEntity
  8
0
100
AcDbBlockBegin
  2
*Paper_Space0
 70
     0
 10
0.0
 20
0.0
 30
0.0
  3
*Paper_Space0
  1

  0
ENDBLK
  5
25
330
23
100
AcDbEntity
  8
0
100
AcDbBlockEnd
  0
BLOCK
  5
85
330
84
100
AcDbEntity
  8
0
100
AcDbBlockBegin
  2
SW_NOTE_0
 70
     0
 10
0.0
 20
0.0
 30
0.0
  3
SW_NOTE_0
  1

  0
MTEXT
  5
87
330
84
100
AcDbEntity
  8
PAINT
 62
     0
100
AcDbMText
 10
0.0
 20
0.1342778895595794
 30
0.0
 40
0.1041666666666667
 41
0.0
 71
     1
 72
     1
  1
NOTE:
  7
SLDTEXTSTYLE0
 73
     1
 44
1.0
  0
MTEXT
  5
88
330
84
100
AcDbEntity
  8
PAINT
 62
     0
100
AcDbMText
 10
0.0
 20
-0.0046109976508103
 30
0.0
 40
0.1041666666666667
 41
0.0
 71
     1
 72
     1
  1
PAINT WITH PRIMER AFTER FABRICATION.
  7
SLDTEXTSTYLE0
 73
     1
 44
1.0
  0
ENDBLK
  5
86
330
84
100
AcDbEntity
  8
0
100
AcDbBlockEnd
  0
BLOCK
  5
8C
330
8B
100
AcDbEntity
  8
0
100
AcDbBlockBegin
  2
SW_NOTE_1
 70
     0
 10
0.0
 20
0.0
 30
0.0
  3
SW_NOTE_1
  1

  0
MTEXT
  5
8E
330
8B
100
AcDbEntity
  8
TOP_MOUNT_PAINT
 62
     0
100
AcDbMText
 10
0.0
 20
0.1342778895595794
 30
0.0
 40
0.1041666666666667
 41
0.0
 71
     1
 72
     1
  1
NOTE:
  7
SLDTEXTSTYLE0
 73
     1
 44
1.0
  0
MTEXT
  5
8F
330
8B
100
AcDbEntity
  8
TOP_MOUNT_PAINT
 62
     0
100
AcDbMText
 10
0.0
 20
-0.0046109976508103
 30
0.0
 40
0.1041666666666667
 41
0.0
 71
     1
 72
     1
  1
DIMENSIONS IN BRACKETS ARE FOR INFORMATIONAL
  7
SLDTEXTSTYLE0
 73
     1
 44
1.0
  0
MTEXT
  5
90
330
8B
100
AcDbEntity
  8
TOP_MOUNT_PAINT
 62
     0
100
AcDbMText
 10
0.1562500000000003
 20
-0.1434998848612001
 30
0.0
 40
0.1041666666666667
 41
0.0
 71
     1
 72
     1
  1
PURPOSES ONLY. NOT A PRODUCT SPECIFICATION
  7
SLDTEXTSTYLE0
 73
     1
 44
1.0
  0
MTEXT
  5
91
330
8B
100
AcDbEntity
  8
TOP_MOUNT_PAINT
 62
     0
100
AcDbMText
 10
0.0
 20
-0.2823887720715896
 30
0.0
 40
0.1041666666666667
 41
0.0
 71
     1
 72
     1
  1
PAINT PER USP SPECIFICATION AFTER FAGRICATION
  7
SLDTEXTSTYLE0
 73
     1
 44
1.0
  0
ENDBLK
  5
8D
330
8B
100
AcDbEntity
  8
0
100
AcDbBlockEnd
  0
ENDSEC
  0
SECTION
  2
ENTITIES
  0
LINE
  5
57
330
1F
100
AcDbEntity
  8
REV-1
 62
     7
100
AcDbLine
 10
4.20200000000004
 20
2.401805066185815
 30
0.0
 11
0.2500000000039954
 21
2.401805066185815
 31
0.0
  0
LINE
  5
58
330
1F
100
AcDbEntity
  8
REV-1
100
AcDbLine
 10
0.5412821291398489
 20
2.214305066185815
 30
0.0
 11
0.5412821291398492
 21
2.401805066185815
 31
0.0
  0
LINE
  5
59
330
1F
100
AcDbEntity
  8
REV-1
100
AcDbLine
 10
1.102000000003129
 20
2.214305066185815
 30
0.0
 11
1.102000000003129
 21
2.401805066185815
 31
0.0
  0
LINE
  5
5A
330
1F
100
AcDbEntity
  8
REV-1
100
AcDbLine
 10
1.702000000002528
 20
2.214305066185815
 30
0.0
 11
1.702000000002529
 21
2.401805066185815
 31
0.0
  0
LINE
  5
5B
330
1F
100
AcDbEntity
  8
REV-1
100
AcDbLine
 10
3.754000000000474
 20
2.214305066185815
 30
0.0
 11
3.754000000000474
 21
2.401805066185815
 31
0.0
  0
LINE
  5
5C
330
1F
100
AcDbEntity
  8
REV-1
100
AcDbLine
 10
4.20200000000004
 20
2.401805066185815
 30
0.0
 11
4.20200000000004
 21
2.297445540486282
 31
0.0
  0
LINE
  5
5D
330
1F
100
AcDbEntity
  8
REV-2
 62
     7
100
AcDbLine
 10
4.202000000000033
 20
2.582962363383948
 30
0.0
 11
0.2500000000039883
 21
2.582962363383948
 31
0.0
  0
LINE
  5
5E
330
1F
100
AcDbEntity
  8
REV-2
100
AcDbLine
 10
3.754000000000467
 20
2.395462363383948
 30
0.0
 11
3.754000000000467
 21
2.582962363383948
 31
0.0
  0
LINE
  5
5F
330
1F
100
AcDbEntity
  8
STAMP-AREA
100
AcDbLine
 10
0.2500000000039865
 20
9.153817415119126
 30
0.0
 11
4.507433697227471
 21
9.153817415119126
 31
0.0
  0
LINE
  5
60
330
1F
100
AcDbEntity
  8
REV-2
100
AcDbLine
 10
1.702000000002521
 20
2.395462363383948
 30
0.0
 11
1.702000000002522
 21
2.582962363383948
 31
0.0
  0
LINE
  5
61
330
1F
100
AcDbEntity
  8
REV-2
100
AcDbLine
 10
0.5412821291398418
 20
2.395462363383948
 30
0.0
 11
0.5412821291398421
 21
2.582962363383948
 31
0.0
  0
LINE
  5
62
330
1F
100
AcDbEntity
  8
REV-2
100
AcDbLine
 10
1.102000000003122
 20
2.395462363383948
 30
0.0
 11
1.102000000003122
 21
2.582962363383948
 31
0.0
  0
LINE
  5
63
330
1F
100
AcDbEntity
  8
STAMP-AREA
100
AcDbLine
 10
4.507433697227471
 20
9.153817415119126
 30
0.0
 11
4.507433697227471
 21
10.75636776389939
 31
0.0
  0
LINE
  5
64
330
1F
100
AcDbEntity
  8
REV-3
100
AcDbLine
 10
3.75400000000046
 20
2.576619660582081
 30
0.0
 11
3.75400000000046
 21
2.764119660582081
 31
0.0
  0
LINE
  5
65
330
1F
100
AcDbEntity
  8
REV-3
100
AcDbLine
 10
0.5412821291398347
 20
2.576619660582081
 30
0.0
 11
0.541282129139835
 21
2.764119660582081
 31
0.0
  0
LINE
  5
66
330
1F
100
AcDbEntity
  8
REV-3
100
AcDbLine
 10
1.102000000003114
 20
2.576619660582081
 30
0.0
 11
1.102000000003115
 21
2.764119660582081
 31
0.0
  0
LINE
  5
67
330
1F
100
AcDbEntity
  8
REV-3
100
AcDbLine
 10
0.2500000000039853
 20
2.764119660582081
 30
0.0
 11
4.202000000000033
 21
2.764119660582081
 31
0.0
  0
LINE
  5
68
330
1F
100
AcDbEntity
  8
REV-3
100
AcDbLine
 10
1.702000000002514
 20
2.576619660582081
 30
0.0
 11
1.702000000002515
 21
2.764119660582081
 31
0.0
  0
LINE
  5
69
330
1F
100
AcDbEntity
  8
REV-2
100
AcDbLine
 10
4.20200000000004
 20
2.401805066185815
 30
0.0
 11
4.202000000000033
 21
2.582962363383948
 31
0.0
  0
LINE
  5
6A
330
1F
100
AcDbEntity
  8
REV-3
100
AcDbLine
 10
4.202000000000033
 20
2.764119660582081
 30
0.0
 11
4.202000000000033
 21
2.582962363383948
 31
0.0
  0
LINE
  5
6B
330
1F
100
AcDbEntity
  8
BLANK-SIZE-1
100
AcDbLine
 10
0.2500000000039867
 20
10.52494462524623
 30
0.0
 11
1.980274032124935
 21
10.52494462524623
 31
0.0
  0
LINE
  5
6C
330
1F
100
AcDbEntity
  8
BLANK-SIZE-1
100
AcDbLine
 10
1.980274032124935
 20
10.52494462524623
 30
0.0
 11
1.980274032124935
 21
10.75636776389939
 31
0.0
  0
LINE
  5
6D
330
1F
100
AcDbEntity
  8
BLANK-SIZE-1
100
AcDbLine
 10
1.980274032124935
 20
10.52494462524623
 30
0.0
 11
2.290622804470809
 21
10.52494462524623
 31
0.0
  0
LINE
  5
6E
330
1F
100
AcDbEntity
  8
BLANK-SIZE-1
100
AcDbLine
 10
2.290622804470809
 20
10.52494462524623
 30
0.0
 11
2.290622804470809
 21
10.75636776389939
 31
0.0
  0
LINE
  5
6F
330
1F
100
AcDbEntity
  8
BLANK-SIZE-2
100
AcDbLine
 10
0.2500000000039864
 20
10.29352148659306
 30
0.0
 11
1.980274032124934
 21
10.29352148659306
 31
0.0
  0
LINE
  5
70
330
1F
100
AcDbEntity
  8
BLANK-SIZE-2
100
AcDbLine
 10
1.980274032124934
 20
10.29352148659306
 30
0.0
 11
1.980274032124934
 21
10.52494462524623
 31
0.0
  0
LINE
  5
71
330
1F
100
AcDbEntity
  8
BLANK-SIZE-2
100
AcDbLine
 10
1.980274032124934
 20
10.29352148659306
 30
0.0
 11
2.290622804470809
 21
10.29352148659306
 31
0.0
  0
LINE
  5
72
330
1F
100
AcDbEntity
  8
BLANK-SIZE-2
100
AcDbLine
 10
2.290622804470809
 20
10.29352148659306
 30
0.0
 11
2.290622804470809
 21
10.52494462524623
 31
0.0
  0
LINE
  5
73
330
1F
100
AcDbEntity
  8
BLANK-SIZE-3
100
AcDbLine
 10
0.2500000000039864
 20
10.06209834793989
 30
0.0
 11
1.980274032124934
 21
10.06209834793989
 31
0.0
  0
LINE
  5
74
330
1F
100
AcDbEntity
  8
BLANK-SIZE-3
100
AcDbLine
 10
1.980274032124934
 20
10.06209834793989
 30
0.0
 11
1.980274032124934
 21
10.29352148659306
 31
0.0
  0
LINE
  5
75
330
1F
100
AcDbEntity
  8
BLANK-SIZE-3
100
AcDbLine
 10
1.980274032124934
 20
10.06209834793989
 30
0.0
 11
2.290622804470809
 21
10.06209834793989
 31
0.0
  0
LINE
  5
76
330
1F
100
AcDbEntity
  8
BLANK-SIZE-3
100
AcDbLine
 10
2.290622804470809
 20
10.06209834793989
 30
0.0
 11
2.290622804470809
 21
10.29352148659306
 31
0.0
  0
LINE
  5
77
330
1F
100
AcDbEntity
  8
BLANK-SIZE-4
100
AcDbLine
 10
0.2500000000039864
 20
9.830675209286724
 30
0.0
 11
1.980274032124934
 21
9.830675209286724
 31
0.0
  0
LINE
  5
78
330
1F
100
AcDbEntity
  8
BLANK-SIZE-4
100
AcDbLine
 10
1.980274032124934
 20
9.830675209286724
 30
0.0
 11
1.980274032124934
 21
10.06209834793989
 31
0.0
  0
LINE
  5
79
330
1F
100
AcDbEntity
  8
BLANK-SIZE-4
100
AcDbLine
 10
1.980274032124934
 20
9.830675209286724
 30
0.0
 11
2.290622804470809
 21
9.830675209286724
 31
0.0
  0
LINE
  5
7A
330
1F
100
AcDbEntity
  8
BLANK-SIZE-4
100
AcDbLine
 10
2.290622804470809
 20
9.830675209286724
 30
0.0
 11
2.290622804470809
 21
10.06209834793989
 31
0.0
  0
LINE
  5
7B
330
1F
100
AcDbEntity
  8
BLANK-SIZE-5
100
AcDbLine
 10
0.2500000000039864
 20
9.599252070633557
 30
0.0
 11
1.980274032124934
 21
9.599252070633557
 31
0.0
  0
LINE
  5
7C
330
1F
100
AcDbEntity
  8
BLANK-SIZE-5
100
AcDbLine
 10
1.980274032124934
 20
9.599252070633557
 30
0.0
 11
1.980274032124934
 21
9.830675209286724
 31
0.0
  0
LINE
  5
7D
330
1F
100
AcDbEntity
  8
BLANK-SIZE-5
100
AcDbLine
 10
1.980274032124934
 20
9.599252070633557
 30
0.0
 11
2.290622804470809
 21
9.599252070633557
 31
0.0
  0
LINE
  5
7E
330
1F
100
AcDbEntity
  8
BLANK-SIZE-5
100
AcDbLine
 10
2.290622804470809
 20
9.599252070633557
 30
0.0
 11
2.290622804470809
 21
9.830675209286724
 31
0.0
  0
MTEXT
  5
81
330
1F
100
AcDbEntity
  8
REV-1
100
AcDbMText
 10
0.3976847054683001
 20
2.345321089453109
 30
0.0
 40
0.071999999999928
 41
0.0
 71
     2
 72
     1
  1
A
  7
SLDTEXTSTYLE0
 73
     1
 44
1.0
  0
MTEXT
  5
82
330
1F
100
AcDbEntity
  8
REV-2
100
AcDbMText
 10
0.3984784540071755
 20
2.526478386651242
 30
0.0
 40
0.071999999999928
 41
0.0
 71
     2
 72
     1
  1
B
  7
SLDTEXTSTYLE0
 73
     1
 44
1.0
  0
MTEXT
  5
83
330
1F
100
AcDbEntity
  8
REV-3
100
AcDbMText
 10
0.3977972055775314
 20
2.707635683849374
 30
0.0
 40
0.071999999999928
 41
0.0
 71
     2
 72
     1
  1
C
  7
SLDTEXTSTYLE0
 73
     1
 44
1.0
  0
INSERT
  5
89
330
1F
100
AcDbEntity
  8
PAINT
100
AcDbBlockReference
  2
SW_NOTE_0
 10
0.3726190492669557
 20
2.952499556508746
 30
0.0
  0
MTEXT
  5
8A
330
1F
100
AcDbEntity
  8
STAMP-AREA
100
AcDbMText
 10
1.137361720352755
 20
10.11302559596205
 30
0.0
 40
0.1666666666666666
 41
0.0
 71
     1
 72
     1
  1
STAMP DETAIL AREA
  7
SLDTEXTSTYLE0
 73
     1
 44
1.0
  0
INSERT
  5
92
330
1F
100
AcDbEntity
  8
TOP_MOUNT_PAINT
100
AcDbBlockReference
  2
SW_NOTE_1
 10
4.355598574320564
 20
2.654636621380011
 30
0.0
  0
MTEXT
  5
93
330
1F
100
AcDbEntity
  8
BLANK-SIZE-1
100
AcDbMText
 10
0.3378807907583502
 20
10.69464564061513
 30
0.0
 40
0.1041666666666667
 41
0.0
 71
     1
 72
     1
  1
--
  7
SLDTEXTSTYLE0
 73
     1
 44
1.0
  0
MTEXT
  5
94
330
1F
100
AcDbEntity
  8
BLANK-SIZE-1
100
AcDbMText
 10
2.097147970615131
 20
10.69464564061513
 30
0.0
 40
0.1041666666666667
 41
0.0
 71
     1
 72
     1
  1
--
  7
SLDTEXTSTYLE0
 73
     1
 44
1.0
  0
MTEXT
  5
95
330
1F
100
AcDbEntity
  8
BLANK-SIZE-2
100
AcDbMText
 10
2.097147970615131
 20
10.46322250196197
 30
0.0
 40
0.1041666666666667
 41
0.0
 71
     1
 72
     1
  1
--
  7
SLDTEXTSTYLE0
 73
     1
 44
1.0
  0
MTEXT
  5
96
330
1F
100
AcDbEntity
  8
BLANK-SIZE-2
100
AcDbMText
 10
0.3378807907583502
 20
10.46322250196197
 30
0.0
 40
0.1041666666666667
 41
0.0
 71
     1
 72
     1
  1
--
  7
SLDTEXTSTYLE0
 73
     1
 44
1.0
  0
MTEXT
  5
97
330
1F
100
AcDbEntity
  8
BLANK-SIZE-3
100
AcDbMText
 10
0.3378807907583499
 20
10.2317993633088
 30
0.0
 40
0.1041666666666667
 41
0.0
 71
     1
 72
     1
  1
--
  7
SLDTEXTSTYLE0
 73
     1
 44
1.0
  0
MTEXT
  5
98
330
1F
100
AcDbEntity
  8
BLANK-SIZE-3
100
AcDbMText
 10
2.09714797061513
 20
10.2317993633088
 30
0.0
 40
0.1041666666666667
 41
0.0
 71
     1
 72
     1
  1
--
  7
SLDTEXTSTYLE0
 73
     1
 44
1.0
  0
MTEXT
  5
99
330
1F
100
AcDbEntity
  8
BLANK-SIZE-4
100
AcDbMText
 10
2.09714797061513
 20
10.00037622465563
 30
0.0
 40
0.1041666666666667
 41
0.0
 71
     1
 72
     1
  1
--
  7
SLDTEXTSTYLE0
 73
     1
 44
1.0
  0
MTEXT
  5
9A
330
1F
100
AcDbEntity
  8
BLANK-SIZE-4
100
AcDbMText
 10
0.3378807907583498
 20
10.00037622465563
 30
0.0
 40
0.1041666666666667
 41
0.0
 71
     1
 72
     1
  1
--
  7
SLDTEXTSTYLE0
 73
     1
 44
1.0
  0
MTEXT
  5
9B
330
1F
100
AcDbEntity
  8
BLANK-SIZE-5
100
AcDbMText
 10
0.3378807907583498
 20
9.768953086002465
 30
0.0
 40
0.1041666666666667
 41
0.0
 71
     1
 72
     1
  1
--
  7
SLDTEXTSTYLE0
 73
     1
 44
1.0
  0
MTEXT
  5
9C
330
1F
100
AcDbEntity
  8
BLANK-SIZE-5
100
AcDbMText
 10
2.09714797061513
 20
9.768953086002467
 30
0.0
 40
0.1041666666666667
 41
0.0
 71
     1
 72
     1
  1
--
  7
SLDTEXTSTYLE0
 73
     1
 44
1.0
  0
MTEXT
  5
9D
330
1F
100
AcDbEntity
  8
BLANK-SIZE-2
100
AcDbMText
 10
0.7735977297276487
 20
0.9124839732831866
 30
0.0
 40
0.1041666666666667
 41
0.0
 71
     1
 72
     1
  1
--
  7
SLDTEXTSTYLE0
 73
     1
 44
1.0
  0
LINE
  5
9E
330
1F
100
AcDbEntity
  8
0
  6
Continuous
 62
     7
370
    15
100
AcDbLine
 10
4.946229456734199
 20
6.628048598457404
 30
0.0
 11
4.941368046432843
 21
6.62330371296986
 31
0.0
  0
LINE
  5
9F
330
1F
100
AcDbEntity
  8
0
  6
Continuous
 62
     7
370
    15
100
AcDbLine
 10
5.014126187958951
 20
6.548758778292101
 30
0.0
 11
5.018987598260307
 21
6.553503663779645
 31
0.0
  0
SPLINE
  5
A0
330
1F
100
AcDbEntity
  8
0
  6
Continuous
 62
     7
370
    15
100
AcDbSpline
210
0.0
220
0.0
230
1.0
 70
     8
 71
     3
 72
    13
 73
     9
 74
     0
 42
0.0000000001
 43
0.0000000001
 40
0.0
 40
0.0
 40
0.0
 40
0.0
 40
0.1821520547888995
 40
0.3725410992101269
 40
0.5655311893735076
 40
0.7643058613494141
 40
0.922368376798644
 40
1.0
 40
1.0
 40
1.0
 40
1.0
 10
4.69566772001487
 20
5.944185031871634
 30
0.0
 10
4.696651422942892
 20
5.948732458379352
 30
0.0
 10
4.698663312243435
 20
5.958032947861757
 30
0.0
 10
4.699299762724673
 20
5.971349840029869
 30
0.0
 10
4.69797761295467
 20
5.983185016327428
 30
0.0
 10
4.694521646961533
 20
5.99165128949061
 30
0.0
 10
4.68987159188666
 20
5.996968635686586
 30
0.0
 10
4.686313594398742
 20
5.997576642155807
 30
0.0
 10
4.685141680994722
 20
5.997776903941664
 30
0.0
  0
SPLINE
  5
A1
330
1F
100
AcDbEntity
  8
0
  6
Continuous
 62
     7
370
    15
100
AcDbSpline
210
0.0
220
0.0
230
1.0
 70
     8
 71
     3
 72
    14
 73
    10
 74
     0
 42
0.0000000001
 43
0.0000000001
 40
0.0
 40
0.0
 40
0.0
 40
0.0
 40
0.1197884653664112
 40
0.2705962592065749
 40
0.4409078764332273
 40
0.6273352463192411
 40
0.8111179325627897
 40
0.9929322410727372
 40
1.0
 40
1.0
 40
1.0
 40
1.0
 10
4.659089386273875
 20
5.897841959148992
 30
0.0
 10
4.660985797465762
 20
5.897555469815886
 30
0.0
 10
4.665269697195777
 20
5.896908304484865
 30
0.0
 10
4.671881649513979
 20
5.90044060636102
 30
0.0
 10
4.678731042090389
 20
5.906836176327434
 30
0.0
 10
4.685519717399782
 20
5.916859358241032
 30
0.0
 10
4.691253184028638
 20
5.929535846449503
 30
0.0
 10
4.694715976430473
 20
5.939123110193349
 30
0.0
 10
4.695633391358704
 20
5.944002452265443
 30
0.0
 10
4.69566772001487
 20
5.944185031871634
 30
0.0
  0
LINE
  5
A2
330
1F
100
AcDbEntity
  8
0
  6
Continuous
 62
     7
370
    15
100
AcDbLine
 10
4.649038156265446
 20
5.90013996150167
 30
0.0
 11
4.65825084503292
 21
5.897636150098712
 31
0.0
  0
LINE
  5
A3
330
1F
100
AcDbEntity
  8
0
  6
Continuous
 62
     7
370
    15
100
AcDbLine
 10
4.685570135832233
 20
5.998156549991804
 30
0.0
 11
4.67635744706476
 21
6.000660361394761
 31
0.0
  0
SPLINE
  5
A4
330
1F
100
AcDbEntity
  8
0
  6
Continuous
 62
     7
370
    15
100
AcDbSpline
210
0.0
220
0.0
230
1.0
 70
     8
 71
     3
 72
    16
 73
    12
 74
     0
 42
0.0000000001
 43
0.0000000001
 40
0.0
 40
0.0
 40
0.0
 40
0.0
 40
0.0628210499258579
 40
0.1744882916629739
 40
0.2929313336357009
 40
0.4282152993212833
 40
0.5646838020635952
 40
0.69924013221365
 40
0.8331290518791087
 40
0.9607923612415355
 40
1.0
 40
1.0
 40
1.0
 40
1.0
 10
4.676518259303043
 20
6.000133932907004
 30
0.0
 10
4.675226637226852
 20
6.000569063493968
 30
0.0
 10
4.671639098817122
 20
6.001777658270071
 30
0.0
 10
4.665319042145329
 20
5.999474730079495
 30
0.0
 10
4.658462125633747
 20
5.994312432153824
 30
0.0
 10
4.651608859167325
 20
5.985588571185799
 30
0.0
 10
4.645307378310018
 20
5.973772301551891
 30
0.0
 10
4.640251988480373
 20
5.960105560740366
 30
0.0
 10
4.636913423917593
 20
5.946037262815349
 30
0.0
 10
4.635707689902132
 20
5.935621100770452
 30
0.0
 10
4.635631114068665
 20
5.93029871342727
 30
0.0
 10
4.635613121975673
 20
5.929048176754266
 30
0.0
  0
SPLINE
  5
A5
330
1F
100
AcDbEntity
  8
0
  6
Continuous
 62
     7
370
    15
100
AcDbSpline
210
0.0
220
0.0
230
1.0
 70
     8
 71
     3
 72
    12
 73
     8
 74
     0
 42
0.0000000001
 43
0.0000000001
 40
0.0
 40
0.0
 40
0.0
 40
0.0
 40
0.149421428067832
 40
0.4417049448270417
 40
0.7048668529175555
 40
0.9361830964104552
 40
0.9999999999999998
 40
0.9999999999999998
 40
0.9999999999999998
 40
0.9999999999999998
 10
4.635613121975673
 20
5.929048176754266
 30
0.0
 10
4.635669977233726
 20
5.926876029737823
 30
0.0
 10
4.635838047161487
 20
5.920454942143758
 30
0.0
 10
4.637674256050235
 20
5.911669699339555
 30
0.0
 10
4.64171310474108
 20
5.904490306343269
 30
0.0
 10
4.646342841955329
 20
5.900344005077887
 30
0.0
 10
4.649344860885364
 20
5.900340197968127
 30
0.0
 10
4.649993990115766
 20
5.900339374753388
 30
0.0
  0
LINE
  5
A6
330
1F
100
AcDbEntity
  8
0
  6
Continuous
 62
     7
370
    15
100
AcDbLine
 10
4.946338484003618
 20
6.834618110222944
 30
0.0
 11
4.941477073702263
 21
6.829873224735399
 31
0.0
  0
LINE
  5
A7
330
1F
100
AcDbEntity
  8
0
  6
Continuous
 62
     7
370
    15
100
AcDbLine
 10
5.014235215228371
 20
6.755328290057639
 30
0.0
 11
5.019096625529725
 21
6.760073175545184
 31
0.0
  0
SPLINE
  5
A8
330
1F
100
AcDbEntity
  8
0
  6
Continuous
 62
     7
370
    15
100
AcDbSpline
210
0.0
220
0.0
230
1.0
 70
     8
 71
     3
 72
    13
 73
     9
 74
     0
 42
0.0000000001
 43
0.0000000001
 40
0.0
 40
0.0
 40
0.0
 40
0.0
 40
0.182152054788899
 40
0.3725410992101267
 40
0.5655311893735071
 40
0.7643058613494147
 40
0.922368376798644
 40
1.0
 40
1.0
 40
1.0
 40
1.0
 10
4.643536089957089
 20
5.7248227153329
 30
0.0
 10
4.644519792885112
 20
5.729370141840619
 30
0.0
 10
4.646531682185654
 20
5.738670631323023
 30
0.0
 10
4.647168132666893
 20
5.751987523491136
 30
0.0
 10
4.64584598289689
 20
5.763822699788693
 30
0.0
 10
4.642390016903752
 20
5.772288972951876
 30
0.0
 10
4.63773996182888
 20
5.777606319147853
 30
0.0
 10
4.634181964340962
 20
5.778214325617073
 30
0.0
 10
4.633010050936942
 20
5.778414587402931
 30
0.0
  0
SPLINE
  5
A9
330
1F
100
AcDbEntity
  8
0
  6
Continuous
 62
     7
370
    15
100
AcDbSpline
210
0.0
220
0.0
230
1.0
 70
     8
 71
     3
 72
    14
 73
    10
 74
     0
 42
0.0000000001
 43
0.0000000001
 40
0.0
 40
0.0
 40
0.0
 40
0.0
 40
0.1197884653664113
 40
0.2705962592065747
 40
0.440907876433227
 40
0.6273352463192405
 40
0.811117932562789
 40
0.9929322410727371
 40
0.9999999999999998
 40
0.9999999999999998
 40
0.9999999999999998
 40
0.9999999999999998
 10
4.606957756216095
 20
5.678479642610259
 30
0.0
 10
4.608854167407982
 20
5.678193153277152
 30
0.0
 10
4.613138067137997
 20
5.677545987946131
 30
0.0
 10
4.6197500194562
 20
5.681078289822286
 30
0.0
 10
4.626599412032608
 20
5.687473859788702
 30
0.0
 10
4.633388087342002
 20
5.697497041702298
 30
0.0
 10
4.639121553970857
 20
5.710173529910771
 30
0.0
 10
4.642584346372694
 20
5.719760793654615
 30
0.0
 10
4.643501761300924
 20
5.724640135726709
 30
0.0
 10
4.643536089957089
 20
5.7248227153329
 30
0.0
  0
LINE
  5
AA
330
1F
100
AcDbEntity
  8
0
  6
Continuous
 62
     7
370
    15
100
AcDbLine
 10
4.596906526207666
 20
5.680777644962936
 30
0.0
 11
4.606119214975139
 21
5.678273833559979
 31
0.0
  0
LINE
  5
AB
330
1F
100
AcDbEntity
  8
0
  6
Continuous
 62
     7
370
    15
100
AcDbLine
 10
4.633438505774453
 20
5.77879423345307
 30
0.0
 11
4.62422581700698
 21
5.781298044856028
 31
0.0
  0
SPLINE
  5
AC
330
1F
100
AcDbEntity
  8
0
  6
Continuous
 62
     7
370
    15
100
AcDbSpline
210
0.0
220
0.0
230
1.0
 70
     8
 71
     3
 72
    16
 73
    12
 74
     0
 42
0.0000000001
 43
0.0000000001
 40
0.0
 40
0.0
 40
0.0
 40
0.0
 40
0.0628210499258576
 40
0.1744882916629737
 40
0.2929313336357005
 40
0.4282152993212831
 40
0.5646838020635949
 40
0.6992401322136498
 40
0.8331290518791085
 40
0.9607923612415353
 40
1.0
 40
1.0
 40
1.0
 40
1.0
 10
4.624386629245263
 20
5.78077161636827
 30
0.0
 10
4.623095007169072
 20
5.781206746955235
 30
0.0
 10
4.619507468759341
 20
5.782415341731338
 30
0.0
 10
4.613187412087548
 20
5.780112413540761
 30
0.0
 10
4.606330495575966
 20
5.77495011561509
 30
0.0
 10
4.599477229109544
 20
5.766226254647065
 30
0.0
 10
4.593175748252238
 20
5.754409985013158
 30
0.0
 10
4.588120358422592
 20
5.740743244201633
 30
0.0
 10
4.584781793859812
 20
5.726674946276614
 30
0.0
 10
4.583576059844352
 20
5.716258784231719
 30
0.0
 10
4.583499484010885
 20
5.710936396888536
 30
0.0
 10
4.583481491917893
 20
5.709685860215532
 30
0.0
  0
SPLINE
  5
AD
330
1F
100
AcDbEntity
  8
0
  6
Continuous
 62
     7
370
    15
100
AcDbSpline
210
0.0
220
0.0
230
1.0
 70
     8
 71
     3
 72
    12
 73
     8
 74
     0
 42
0.0000000001
 43
0.0000000001
 40
0.0
 40
0.0
 40
0.0
 40
0.0
 40
0.1494214280678319
 40
0.4417049448270423
 40
0.7048668529175553
 40
0.9361830964104548
 40
0.9999999999999998
 40
0.9999999999999998
 40
0.9999999999999998
 40
0.9999999999999998
 10
4.583481491917893
 20
5.709685860215532
 30
0.0
 10
4.583538347175946
 20
5.70751371319909
 30
0.0
 10
4.583706417103707
 20
5.701092625605025
 30
0.0
 10
4.585542625992455
 20
5.692307382800822
 30
0.0
 10
4.589581474683299
 20
5.685127989804536
 30
0.0
 10
4.594211211897548
 20
5.680981688539154
 30
0.0
 10
4.597213230827583
 20
5.680977881429392
 30
0.0
 10
4.597862360057986
 20
5.680977058214654
 30
0.0
  0
LINE
  5
AE
330
1F
100
AcDbEntity
  8
0
  6
Continuous
 62
     7
370
    15
100
AcDbLine
 10
4.94529473967251
 20
7.042530205724788
 30
0.0
 11
4.940433329371155
 21
7.037785320237244
 31
0.0
  0
LINE
  5
AF
330
1F
100
AcDbEntity
  8
0
  6
Continuous
 62
     7
370
    15
100
AcDbLine
 10
5.013191470897263
 20
6.963240385559484
 30
0.0
 11
5.018052881198618
 21
6.967985271047029
 31
0.0
  0
LINE
  5
B0
330
1F
100
AcDbEntity
  8
0
  6
Continuous
 62
     7
370
    15
100
AcDbLine
 10
4.930734055143394
 20
6.210675932629377
 30
0.0
 11
4.925872644842039
 21
6.205931047141833
 31
0.0
  0
LINE
  5
B1
330
1F
100
AcDbEntity
  8
0
  6
Continuous
 62
     7
370
    15
100
AcDbLine
 10
4.998630786368146
 20
6.131386112464074
 30
0.0
 11
5.003492196669502
 21
6.136130997951619
 31
0.0
  0
LINE
  5
B2
330
1F
100
AcDbEntity
  8
0
  6
Continuous
 62
     7
370
    15
100
AcDbLine
 10
4.94330337516513
 20
6.387619128328775
 30
0.0
 11
4.938441964863775
 21
6.38287424284123
 31
0.0
  0
LINE
  5
B3
330
1F
100
AcDbEntity
  8
0
  6
Continuous
 62
     7
370
    15
100
AcDbLine
 10
5.011200106389883
 20
6.308329308163471
 30
0.0
 11
5.016061516691237
 21
6.313074193651016
 31
0.0
  0
LINE
  5
B4
330
1F
100
AcDbEntity
  8
0
  6
Continuous
 62
     7
370
    15
100
AcDbLine
 10
4.426519418566161
 20
5.328277821346434
 30
0.0
 11
4.738836417337495
 21
5.633108786667459
 31
0.0
  0
LINE
  5
B5
330
1F
100
AcDbEntity
  8
0
  6
Continuous
 62
     7
370
    15
100
AcDbLine
 10
4.773548505413796
 20
5.748816245651517
 30
0.0
 11
4.781091578796004
 21
5.758380196006999
 31
0.0
  0
ARC
  5
B6
330
1F
100
AcDbEntity
  8
0
  6
Continuous
 62
     7
370
    15
100
AcDbCircle
 10
4.970071582595021
 20
6.597316682968075
 30
0.0
 40
0.0387197458220888
100
AcDbArc
 50
137.8435713590246
 51
205.7508435289288
  0
LWPOLYLINE
  5
B7
330
1F
100
AcDbEntity
  8
0
  6
Continuous
 62
     7
370
    15
100
AcDbPolyline
 90
        8
 70
   128
 43
0.0
 10
5.014126187958951
 20
6.548758778292101
 10
5.004417574415948
 20
6.542383007396995
 10
4.992162563413039
 20
6.539711763746685
 10
4.978626676752591
 20
6.541156209331492
 10
4.965012637365649
 20
6.546587998822362
 10
4.952530112395969
 20
6.555524493886016
 10
4.942288228965765
 20
6.567171647718885
 10
4.935197023363577
 20
6.580494559590225
  0
LWPOLYLINE
  5
B8
330
1F
100
AcDbEntity
  8
0
  6
Continuous
 62
     7
370
    15
100
AcDbPolyline
 90
       20
 70
   128
 43
0.0
 10
4.937021327596132
 20
6.578675785450529
 10
4.944252521209
 20
6.565493154780148
 10
4.954849969399901
 20
6.55427905395124
 10
4.967665274221002
 20
6.546248704793319
 10
4.981309698544992
 20
6.542272320241353
 10
4.994304657281311
 20
6.542780803261507
 10
5.005241945013317
 20
6.547719051828624
 10
5.012936336905742
 20
6.556551930085634
 10
5.016554026206251
 20
6.568322258617164
 10
5.015702980144902
 20
6.581754539691355
 10
5.010475422767781
 20
6.595393177230505
 10
5.001437841030609
 20
6.607760213231981
 10
4.989569597147138
 20
6.617515487450687
 10
4.976156799496921
 20
6.623601864556352
 10
4.962652932826358
 20
6.625359791149706
 10
4.950521350623283
 20
6.622598768607315
 10
4.941076698060293
 20
6.615617996563329
 10
4.935342449791475
 20
6.605173949986551
 10
4.93394000059278
 20
6.592398403379654
 10
4.937021327596132
 20
6.578675785450529
  0
LWPOLYLINE
  5
B9
330
1F
100
AcDbEntity
  8
0
  6
Continuous
 62
     7
370
    15
100
AcDbPolyline
 90
       13
 70
   128
 43
0.0
 10
5.018987598260307
 20
6.553503663779645
 10
5.019164208554839
 20
6.553677474049077
 10
5.025801299708443
 20
6.563523433699012
 10
5.028600523502723
 20
6.575790915111163
 10
5.027313156619368
 20
6.589389898727104
 10
5.02205358725548
 20
6.603112055174404
 10
5.013289151230279
 20
6.615738110634029
 10
5.001798607146699
 20
6.626146184669857
 10
4.988602940271988
 20
6.633411474228727
 10
4.974874643516195
 20
6.636888426450134
 10
4.96183353629171
 20
6.636268098870853
 10
4.950638378205385
 20
6.631605610318564
 10
4.946229456734199
 20
6.628048598457404
  0
LINE
  5
BA
330
1F
100
AcDbEntity
  8
0
  6
Continuous
 62
     7
370
    15
100
AcDbLine
 10
4.65875700774836
 20
5.897515405265756
 30
0.0
 11
4.65825084503292
 21
5.897636150098712
 31
0.0
  0
LWPOLYLINE
  5
BB
330
1F
100
AcDbEntity
  8
0
  6
Continuous
 62
     7
370
    15
100
AcDbPolyline
 90
       20
 70
   128
 43
0.0
 10
4.654640488460216
 20
5.925292459649829
 10
4.655825809247303
 20
5.913403036221451
 10
4.659253323709132
 20
5.905115835156718
 10
4.664551607470398
 20
5.901328903280169
 10
4.671146509274226
 20
5.902452613420928
 10
4.678323369179726
 20
5.908365194149086
 10
4.685304463055681
 20
5.918425925599603
 10
4.6913332810578
 20
5.931544571411485
 10
4.695756507208802
 20
5.94629952275425
 10
4.698094816321802
 20
5.961091851703251
 10
4.698094816321802
 20
5.97431857989023
 10
4.695756507208802
 20
5.984546386082294
 10
4.691333281057799
 20
5.99066692877777
 10
4.68530446305568
 20
5.992016952205597
 10
4.678323369179725
 20
5.988450160379597
 10
4.671146509274225
 20
5.980353070538597
 10
4.664551607470397
 20
5.968603128006162
 10
4.659253323709131
 20
5.954473621374824
 10
4.655825809247302
 20
5.939495701929974
 10
4.654640488460216
 20
5.925292459649829
  0
LINE
  5
BC
330
1F
100
AcDbEntity
  8
0
  6
Continuous
 62
     7
370
    15
100
AcDbLine
 10
4.649038156265446
 20
5.90013996150167
 30
0.0
 11
4.649630473337404
 21
5.900001950839708
 31
0.0
  0
ARC
  5
BD
330
1F
100
AcDbEntity
  8
0
  6
Continuous
 62
     7
370
    15
100
AcDbCircle
 10
4.970180609864431
 20
6.803886194733614
 30
0.0
 40
0.0387197458220812
100
AcDbArc
 50
137.8435713590159
 51
205.750843528934
  0
LWPOLYLINE
  5
BE
330
1F
100
AcDbEntity
  8
0
  6
Continuous
 62
     7
370
    15
100
AcDbPolyline
 90
        8
 70
   128
 43
0.0
 10
5.014235215228371
 20
6.755328290057639
 10
5.004526601685367
 20
6.748952519162534
 10
4.992271590682458
 20
6.746281275512224
 10
4.978735704022011
 20
6.747725721097032
 10
4.965121664635068
 20
6.753157510587902
 10
4.952639139665388
 20
6.762094005651556
 10
4.942397256235183
 20
6.773741159484425
 10
4.935306050632995
 20
6.787064071355764
  0
LWPOLYLINE
  5
BF
330
1F
100
AcDbEntity
  8
0
  6
Continuous
 62
     7
370
    15
100
AcDbPolyline
 90
       20
 70
   128
 43
0.0
 10
4.93713035486555
 20
6.785245297216068
 10
4.944361548478418
 20
6.772062666545688
 10
4.954958996669321
 20
6.76084856571678
 10
4.967774301490421
 20
6.75281821655886
 10
4.98141872581441
 20
6.748841832006891
 10
4.994413684550729
 20
6.749350315027047
 10
5.005350972282734
 20
6.754288563594164
 10
5.01304536417516
 20
6.763121441851175
 10
5.01666305347567
 20
6.774891770382703
 10
5.015812007414321
 20
6.788324051456894
 10
5.0105844500372
 20
6.801962688996045
 10
5.001546868300027
 20
6.81432972499752
 10
4.989678624416558
 20
6.824084999216228
 10
4.97626582676634
 20
6.830171376321892
 10
4.962761960095776
 20
6.831929302915245
 10
4.950630377892701
 20
6.829168280372854
 10
4.941185725329713
 20
6.822187508328869
 10
4.935451477060893
 20
6.81174346175209
 10
4.934049027862199
 20
6.798967915145194
 10
4.93713035486555
 20
6.785245297216068
  0
LWPOLYLINE
  5
C0
330
1F
100
AcDbEntity
  8
0
  6
Continuous
 62
     7
370
    15
100
AcDbPolyline
 90
       13
 70
   128
 43
0.0
 10
5.019096625529725
 20
6.760073175545184
 10
5.019273235824257
 20
6.760246985814617
 10
5.025910326977861
 20
6.770092945464551
 10
5.028709550772142
 20
6.782360426876701
 10
5.027422183888787
 20
6.795959410492643
 10
5.022162614524898
 20
6.809681566939944
 10
5.013398178499698
 20
6.822307622399568
 10
5.001907634416118
 20
6.832715696435397
 10
4.988711967541408
 20
6.839980985994267
 10
4.974983670785614
 20
6.843457938215673
 10
4.961942563561129
 20
6.842837610636391
 10
4.950747405474803
 20
6.838175122084104
 10
4.946338484003618
 20
6.834618110222944
  0
LINE
  5
C1
330
1F
100
AcDbEntity
  8
0
  6
Continuous
 62
     7
370
    15
100
AcDbLine
 10
4.60662537769058
 20
5.678153088727023
 30
0.0
 11
4.606119214975139
 21
5.678273833559979
 31
0.0
  0
LWPOLYLINE
  5
C2
330
1F
100
AcDbEntity
  8
0
  6
Continuous
 62
     7
370
    15
100
AcDbPolyline
 90
       20
 70
   128
 43
0.0
 10
4.602508858402436
 20
5.705930143111096
 10
4.603694179189521
 20
5.694040719682717
 10
4.60712169365135
 20
5.685753518617985
 10
4.612419977412618
 20
5.681966586741435
 10
4.619014879216446
 20
5.683090296882194
 10
4.626191739121946
 20
5.689002877610351
 10
4.6331728329979
 20
5.699063609060869
 10
4.639201651000019
 20
5.712182254872751
 10
4.643624877151022
 20
5.726937206215517
 10
4.645963186264022
 20
5.741729535164517
 10
4.645963186264022
 20
5.754956263351497
 10
4.643624877151022
 20
5.76518406954356
 10
4.639201651000019
 20
5.771304612239036
 10
4.6331728329979
 20
5.772654635666863
 10
4.626191739121945
 20
5.769087843840864
 10
4.619014879216445
 20
5.760990753999864
 10
4.612419977412616
 20
5.749240811467428
 10
4.60712169365135
 20
5.735111304836091
 10
4.603694179189521
 20
5.720133385391242
 10
4.602508858402436
 20
5.705930143111096
  0
LINE
  5
C3
330
1F
100
AcDbEntity
  8
0
  6
Continuous
 62
     7
370
    15
100
AcDbLine
 10
4.596906526207666
 20
5.680777644962936
 30
0.0
 11
4.597498843279623
 21
5.680639634300975
 31
0.0
  0
ARC
  5
C4
330
1F
100
AcDbEntity
  8
0
  6
Continuous
 62
     7
370
    15
100
AcDbCircle
 10
4.969136865533327
 20
7.011798290235458
 30
0.0
 40
0.0387197458220842
100
AcDbArc
 50
137.8435713590184
 51
205.7508435289323
  0
LWPOLYLINE
  5
C5
330
1F
100
AcDbEntity
  8
0
  6
Continuous
 62
     7
370
    15
100
AcDbPolyline
 90
        8
 70
   128
 43
0.0
 10
5.013191470897263
 20
6.963240385559484
 10
5.00348285735426
 20
6.956864614664378
 10
4.99122784635135
 20
6.954193371014067
 10
4.977691959690902
 20
6.955637816598875
 10
4.964077920303961
 20
6.961069606089746
 10
4.95159539533428
 20
6.9700061011534
 10
4.941353511904076
 20
6.981653254986269
 10
4.934262306301888
 20
6.994976166857608
  0
LWPOLYLINE
  5
C6
330
1F
100
AcDbEntity
  8
0
  6
Continuous
 62
     7
370
    15
100
AcDbPolyline
 90
       20
 70
   128
 43
0.0
 10
4.936086610534442
 20
6.993157392717912
 10
4.94331780414731
 20
6.979974762047532
 10
4.953915252338213
 20
6.968760661218624
 10
4.966730557159314
 20
6.960730312060703
 10
4.980374981483303
 20
6.956753927508736
 10
4.993369940219621
 20
6.957262410528891
 10
5.004307227951627
 20
6.962200659096009
 10
5.012001619844053
 20
6.971033537353019
 10
5.015619309144563
 20
6.982803865884547
 10
5.014768263083213
 20
6.996236146958739
 10
5.009540705706092
 20
7.009874784497888
 10
5.00050312396892
 20
7.022241820499364
 10
4.98863488008545
 20
7.031997094718071
 10
4.975222082435233
 20
7.038083471823735
 10
4.961718215764669
 20
7.039841398417088
 10
4.949586633561594
 20
7.037080375874699
 10
4.940141980998605
 20
7.030099603830712
 10
4.934407732729785
 20
7.019655557253934
 10
4.933005283531091
 20
7.006880010647038
 10
4.936086610534442
 20
6.993157392717912
  0
LWPOLYLINE
  5
C7
330
1F
100
AcDbEntity
  8
0
  6
Continuous
 62
     7
370
    15
100
AcDbPolyline
 90
       13
 70
   128
 43
0.0
 10
5.018052881198618
 20
6.967985271047029
 10
5.01822949149315
 20
6.968159081316461
 10
5.024866582646754
 20
6.978005040966395
 10
5.027665806441035
 20
6.990272522378545
 10
5.026378439557679
 20
7.003871505994487
 10
5.021118870193791
 20
7.017593662441789
 10
5.01235443416859
 20
7.030219717901412
 10
5.000863890085009
 20
7.040627791937241
 10
4.987668223210299
 20
7.047893081496111
 10
4.973939926454507
 20
7.051370033717518
 10
4.96089881923002
 20
7.050749706138236
 10
4.949703661143696
 20
7.046087217585947
 10
4.94529473967251
 20
7.042530205724788
  0
ARC
  5
C8
330
1F
100
AcDbEntity
  8
0
  6
Continuous
 62
     7
370
    15
100
AcDbCircle
 10
4.954576181004208
 20
6.179944017140049
 30
0.0
 40
0.0387197458220811
100
AcDbArc
 50
137.8435713590177
 51
205.7508435289357
  0
LWPOLYLINE
  5
C9
330
1F
100
AcDbEntity
  8
0
  6
Continuous
 62
     7
370
    15
100
AcDbPolyline
 90
        8
 70
   128
 43
0.0
 10
4.998630786368146
 20
6.131386112464074
 10
4.988922172825144
 20
6.125010341568968
 10
4.976667161822233
 20
6.122339097918657
 10
4.963131275161788
 20
6.123783543503465
 10
4.949517235774845
 20
6.129215332994335
 10
4.937034710805164
 20
6.138151828057989
 10
4.92679282737496
 20
6.149798981890858
 10
4.919701621772772
 20
6.163121893762198
  0
LWPOLYLINE
  5
CA
330
1F
100
AcDbEntity
  8
0
  6
Continuous
 62
     7
370
    15
100
AcDbPolyline
 90
       20
 70
   128
 43
0.0
 10
4.921525926005327
 20
6.161303119622501
 10
4.928757119618195
 20
6.148120488952121
 10
4.939354567809097
 20
6.136906388123213
 10
4.952169872630197
 20
6.128876038965293
 10
4.965814296954188
 20
6.124899654413326
 10
4.978809255690506
 20
6.12540813743348
 10
4.989746543422512
 20
6.130346386000598
 10
4.997440935314937
 20
6.139179264257608
 10
5.001058624615446
 20
6.150949592789137
 10
5.000207578554097
 20
6.164381873863328
 10
4.994980021176976
 20
6.178020511402478
 10
4.985942439439805
 20
6.190387547403954
 10
4.974074195556333
 20
6.200142821622661
 10
4.960661397906116
 20
6.206229198728325
 10
4.947157531235553
 20
6.207987125321678
 10
4.935025949032478
 20
6.205226102779287
 10
4.92558129646949
 20
6.198245330735302
 10
4.919847048200669
 20
6.187801284158524
 10
4.918444599001976
 20
6.175025737551628
 10
4.921525926005327
 20
6.161303119622501
  0
LWPOLYLINE
  5
CB
330
1F
100
AcDbEntity
  8
0
  6
Continuous
 62
     7
370
    15
100
AcDbPolyline
 90
       13
 70
   128
 43
0.0
 10
5.003492196669502
 20
6.136130997951619
 10
5.003668806964034
 20
6.13630480822105
 10
5.010305898117637
 20
6.146150767870985
 10
5.013105121911919
 20
6.158418249283134
 10
5.011817755028564
 20
6.172017232899077
 10
5.006558185664675
 20
6.185739389346377
 10
4.997793749639474
 20
6.198365444806001
 10
4.986303205555894
 20
6.20877351884183
 10
4.973107538681183
 20
6.2160388084007
 10
4.959379241925391
 20
6.219515760622106
 10
4.946338134700906
 20
6.218895433042826
 10
4.93514297661458
 20
6.214232944490537
 10
4.930734055143394
 20
6.210675932629377
  0
ARC
  5
CC
330
1F
100
AcDbEntity
  8
0
  6
Continuous
 62
     7
370
    15
100
AcDbCircle
 10
4.967145501025947
 20
6.356887212839446
 30
0.0
 40
0.0387197458220836
100
AcDbArc
 50
137.8435713590194
 51
205.7508435289323
  0
LWPOLYLINE
  5
CD
330
1F
100
AcDbEntity
  8
0
  6
Continuous
 62
     7
370
    15
100
AcDbPolyline
 90
        8
 70
   128
 43
0.0
 10
5.011200106389883
 20
6.308329308163471
 10
5.00149149284688
 20
6.301953537268365
 10
4.98923648184397
 20
6.299282293618055
 10
4.975700595183522
 20
6.300726739202862
 10
4.962086555796581
 20
6.306158528693734
 10
4.9496040308269
 20
6.315095023757387
 10
4.939362147396696
 20
6.326742177590256
 10
4.932270941794508
 20
6.340065089461596
  0
LWPOLYLINE
  5
CE
330
1F
100
AcDbEntity
  8
0
  6
Continuous
 62
     7
370
    15
100
AcDbPolyline
 90
       20
 70
   128
 43
0.0
 10
4.934095246027062
 20
6.338246315321899
 10
4.941326439639931
 20
6.325063684651519
 10
4.951923887830833
 20
6.313849583822611
 10
4.964739192651934
 20
6.305819234664689
 10
4.978383616975923
 20
6.301842850112723
 10
4.991378575712242
 20
6.302351333132879
 10
5.002315863444248
 20
6.307289581699995
 10
5.010010255336672
 20
6.316122459957005
 10
5.013627944637183
 20
6.327892788488534
 10
5.012776898575833
 20
6.341325069562726
 10
5.007549341198712
 20
6.354963707101877
 10
4.99851175946154
 20
6.367330743103352
 10
4.986643515578069
 20
6.377086017322059
 10
4.973230717927853
 20
6.383172394427724
 10
4.959726851257289
 20
6.384930321021077
 10
4.947595269054214
 20
6.382169298478686
 10
4.938150616491225
 20
6.3751885264347
 10
4.932416368222406
 20
6.364744479857921
 10
4.931013919023711
 20
6.351968933251026
 10
4.934095246027062
 20
6.338246315321899
  0
LWPOLYLINE
  5
CF
330
1F
100
AcDbEntity
  8
0
  6
Continuous
 62
     7
370
    15
100
AcDbPolyline
 90
       13
 70
   128
 43
0.0
 10
5.016061516691237
 20
6.313074193651016
 10
5.016238126985769
 20
6.313248003920449
 10
5.022875218139374
 20
6.323093963570382
 10
5.025674441933655
 20
6.335361444982533
 10
5.0243870750503
 20
6.348960428598474
 10
5.019127505686411
 20
6.362682585045775
 10
5.01036306966121
 20
6.3753086405054
 10
4.99887252557763
 20
6.385716714541229
 10
4.985676858702919
 20
6.392982004100098
 10
4.971948561947127
 20
6.396458956321505
 10
4.958907454722642
 20
6.395838628742223
 10
4.947712296636316
 20
6.391176140189935
 10
4.94330337516513
 20
6.387619128328775
  0
LINE
  5
D0
330
1F
100
AcDbEntity
  8
0
  6
Continuous
 62
     7
370
    15
100
AcDbLine
 10
1.11615798107545
 20
6.638038191414333
 30
0.0
 11
1.11615798107545
 21
7.161402483053995
 31
0.0
  0
LINE
  5
D1
330
1F
100
AcDbEntity
  8
0
  6
Continuous
 62
     7
370
    15
100
AcDbLine
 10
1.11615798107545
 20
7.161402483053995
 30
0.0
 11
1.232384659690958
 21
7.289889725329175
 31
0.0
  0
LINE
  5
D2
330
1F
100
AcDbEntity
  8
0
  6
Continuous
 62
     7
370
    15
100
AcDbLine
 10
1.232384659690958
 20
7.289889725329175
 30
0.0
 11
0.9990646200055881
 21
7.521075687274334
 31
0.0
  0
LINE
  5
D3
330
1F
100
AcDbEntity
  8
0
  6
Continuous
 62
     7
370
    15
100
AcDbLine
 10
0.9990646200055881
 20
7.521075687274334
 30
0.0
 11
1.11615798107545
 21
7.650521036929117
 31
0.0
  0
LINE
  5
D4
330
1F
100
AcDbEntity
  8
0
  6
Continuous
 62
     7
370
    15
100
AcDbLine
 10
1.11615798107545
 20
7.650521036929117
 30
0.0
 11
1.11615798107545
 21
8.3523727928186
 31
0.0
  0
LINE
  5
D5
330
1F
100
AcDbEntity
  8
0
  6
Continuous
 62
     7
370
    15
100
AcDbLine
 10
7.530173278219288
 20
6.609180870778075
 30
0.0
 11
4.756330953244537
 21
7.363051778454781
 31
0.0
  0
LINE
  5
D6
330
1F
100
AcDbEntity
  8
0
  6
Continuous
 62
     7
370
    15
100
AcDbLine
 10
3.861837744137956
 20
7.606155866018937
 30
0.0
 11
1.11615798107545
 21
8.3523727928186
 31
0.0
  0
LINE
  5
D7
330
1F
100
AcDbEntity
  8
0
  6
Continuous
 62
     7
370
    15
100
AcDbLine
 10
7.530173278219288
 20
6.609180870778075
 30
0.0
 11
7.530173278219288
 21
5.90732911488859
 31
0.0
  0
LINE
  5
D8
330
1F
100
AcDbEntity
  8
0
  6
Continuous
 62
     7
370
    15
100
AcDbLine
 10
7.530173278219288
 20
5.90732911488859
 30
0.0
 11
7.64726663928915
 21
5.714236832170691
 31
0.0
  0
LINE
  5
D9
330
1F
100
AcDbEntity
  8
0
  6
Continuous
 62
     7
370
    15
100
AcDbLine
 10
7.64726663928915
 20
5.714236832170691
 30
0.0
 11
7.41394659960378
 21
5.609873644911095
 31
0.0
  0
LINE
  5
DA
330
1F
100
AcDbEntity
  8
0
  6
Continuous
 62
     7
370
    15
100
AcDbLine
 10
7.41394659960378
 20
5.609873644911095
 30
0.0
 11
7.530173278219288
 21
5.418210561013469
 31
0.0
  0
LINE
  5
DB
330
1F
100
AcDbEntity
  8
0
  6
Continuous
 62
     7
370
    15
100
AcDbLine
 10
7.530173278219288
 20
5.418210561013469
 30
0.0
 11
7.530173278219288
 21
4.894846269373806
 31
0.0
  0
LINE
  5
DC
330
1F
100
AcDbEntity
  8
0
  6
Continuous
 62
     7
370
    15
100
AcDbLine
 10
1.11615798107545
 20
6.638038191414333
 30
0.0
 11
2.490661854217314
 21
6.264477490749763
 31
0.0
  0
LINE
  5
DD
330
1F
100
AcDbEntity
  8
0
  6
Continuous
 62
     7
370
    15
100
AcDbLine
 10
4.746255865815375
 20
5.651455369930748
 30
0.0
 11
7.530173278219288
 21
4.894846269373806
 31
0.0
  0
LINE
  5
DE
330
1F
100
AcDbEntity
  8
0
  6
Continuous
 62
     7
370
    15
100
AcDbLine
 10
7.841303537505996
 20
6.912853541980924
 30
0.0
 11
7.841303537505996
 21
6.211001786091438
 31
0.0
  0
LINE
  5
DF
330
1F
100
AcDbEntity
  8
0
  6
Continuous
 62
     7
370
    15
100
AcDbLine
 10
7.841303537505996
 20
6.211001786091438
 30
0.0
 11
7.530173278219288
 21
5.90732911488859
 31
0.0
  0
LINE
  5
E0
330
1F
100
AcDbEntity
  8
0
  6
Continuous
 62
     7
370
    15
100
AcDbLine
 10
7.841303537505996
 20
6.912853541980924
 30
0.0
 11
7.530173278219288
 21
6.609180870778075
 31
0.0
  0
LINE
  5
E1
330
1F
100
AcDbEntity
  8
0
  6
Continuous
 62
     7
370
    15
100
AcDbLine
 10
1.11615798107545
 20
8.3523727928186
 30
0.0
 11
1.427288240362157
 21
8.656045464021449
 31
0.0
  0
LINE
  5
E2
330
1F
100
AcDbEntity
  8
0
  6
Continuous
 62
     7
370
    15
100
AcDbLine
 10
7.841303537505996
 20
6.912853541980924
 30
0.0
 11
1.427288240362157
 21
8.656045464021449
 31
0.0
  0
LINE
  5
E3
330
1F
100
AcDbEntity
  8
0
  6
Continuous
 62
     7
370
    15
100
AcDbLine
 10
7.841303537505996
 20
6.211001786091438
 30
0.0
 11
7.958396898575859
 21
6.017909503373539
 31
0.0
  0
LINE
  5
E4
330
1F
100
AcDbEntity
  8
0
  6
Continuous
 62
     7
370
    15
100
AcDbLine
 10
7.958396898575859
 20
6.017909503373539
 30
0.0
 11
7.64726663928915
 21
5.714236832170691
 31
0.0
  0
LINE
  5
E5
330
1F
100
AcDbEntity
  8
0
  6
Continuous
 62
     7
370
    15
100
AcDbLine
 10
7.841303537505996
 20
5.721883232216318
 30
0.0
 11
7.530173278219288
 21
5.418210561013469
 31
0.0
  0
LINE
  5
E6
330
1F
100
AcDbEntity
  8
0
  6
Continuous
 62
     7
370
    15
100
AcDbLine
 10
7.772071428133163
 20
5.836050132150119
 30
0.0
 11
7.841303537505996
 21
5.721883232216318
 31
0.0
  0
LINE
  5
E7
330
1F
100
AcDbEntity
  8
0
  6
Continuous
 62
     7
370
    15
100
AcDbLine
 10
7.530173278219288
 20
4.894846269373806
 30
0.0
 11
7.841303537505996
 21
5.198518940576654
 31
0.0
  0
LINE
  5
E8
330
1F
100
AcDbEntity
  8
0
  6
Continuous
 62
     7
370
    15
100
AcDbLine
 10
7.841303537505996
 20
5.721883232216318
 30
0.0
 11
7.841303537505996
 21
5.198518940576654
 31
0.0
  0
LINE
  5
E9
330
1F
100
AcDbEntity
  8
0
  6
Continuous
 62
     7
370
    15
100
AcDbLine
 10
4.756330953244536
 20
5.661288964127693
 30
0.0
 11
4.756330953244536
 21
5.713335952419659
 31
0.0
  0
LINE
  5
EA
330
1F
100
AcDbEntity
  8
0
  6
Continuous
 62
     7
370
    15
100
AcDbLine
 10
4.756330953244537
 20
7.189021697510738
 30
0.0
 11
4.756330953244537
 21
7.37562356553196
 31
0.0
  0
LINE
  5
EB
330
1F
100
AcDbEntity
  8
0
  6
Continuous
 62
     7
370
    15
100
AcDbLine
 10
3.375079975894732
 20
4.313145666028109
 30
0.0
 11
4.419629709350791
 21
5.332658228033605
 31
0.0
  0
LINE
  5
EC
330
1F
100
AcDbEntity
  8
0
  6
Continuous
 62
     7
370
    15
100
AcDbLine
 10
4.744832525577737
 20
5.6500661462243
 30
0.0
 11
4.756330953244536
 21
5.661288964127693
 31
0.0
  0
LINE
  5
ED
330
1F
100
AcDbEntity
  8
0
  6
Continuous
 62
     7
370
    15
100
AcDbLine
 10
3.375079975894732
 20
4.313145666028109
 30
0.0
 11
3.375079975894732
 21
4.950862656994355
 31
0.0
  0
LINE
  5
EE
330
1F
100
AcDbEntity
  8
0
  6
Continuous
 62
     7
370
    15
100
AcDbLine
 10
3.375079975894732
 20
4.950862656994355
 30
0.0
 11
3.329398016936164
 21
4.998480312842758
 31
0.0
  0
LINE
  5
EF
330
1F
100
AcDbEntity
  8
0
  6
Continuous
 62
     7
370
    15
100
AcDbLine
 10
3.329398016936164
 20
4.998480312842758
 30
0.0
 11
3.425053115390517
 21
5.293696040490584
 31
0.0
  0
LINE
  5
F0
330
1F
100
AcDbEntity
  8
0
  6
Continuous
 62
     7
370
    15
100
AcDbLine
 10
3.425053115390517
 20
5.293696040490584
 30
0.0
 11
3.375079975894733
 21
5.347093442662136
 31
0.0
  0
LINE
  5
F1
330
1F
100
AcDbEntity
  8
0
  6
Continuous
 62
     7
370
    15
100
AcDbLine
 10
3.375079975894733
 20
5.347093442662136
 30
0.0
 11
3.375079975894732
 21
6.027480267432377
 31
0.0
  0
LINE
  5
F2
330
1F
100
AcDbEntity
  8
0
  6
Continuous
 62
     7
370
    15
100
AcDbLine
 10
4.756330953244537
 20
7.37562356553196
 30
0.0
 11
3.375079975894732
 21
6.027480267432377
 31
0.0
  0
LINE
  5
F3
330
1F
100
AcDbEntity
  8
0
  6
Continuous
 62
     7
370
    15
100
AcDbLine
 10
4.756330953244537
 20
7.37562356553196
 30
0.0
 11
4.314121892405826
 21
7.495806512873921
 31
0.0
  0
LINE
  5
F4
330
1F
100
AcDbEntity
  8
0
  6
Continuous
 62
     7
370
    15
100
AcDbLine
 10
3.375079975894732
 20
6.027480267432377
 30
0.0
 11
2.932870915056022
 21
6.147663214774339
 31
0.0
  0
LINE
  5
F5
330
1F
100
AcDbEntity
  8
0
  6
Continuous
 62
     7
370
    15
100
AcDbLine
 10
4.314121892405826
 20
7.495806512873921
 30
0.0
 11
2.932870915056022
 21
6.147663214774339
 31
0.0
  0
LINE
  5
F6
330
1F
100
AcDbEntity
  8
0
  6
Continuous
 62
     7
370
    15
100
AcDbLine
 10
2.932870915056022
 20
5.467276390004097
 30
0.0
 11
3.375079975894733
 21
5.347093442662136
 31
0.0
  0
LINE
  5
F7
330
1F
100
AcDbEntity
  8
0
  6
Continuous
 62
     7
370
    15
100
AcDbLine
 10
2.932870915056022
 20
5.467276390004097
 30
0.0
 11
2.932870915056022
 21
6.147663214774339
 31
0.0
  0
LINE
  5
F8
330
1F
100
AcDbEntity
  8
0
  6
Continuous
 62
     7
370
    15
100
AcDbLine
 10
2.982844054551806
 20
5.413878987832545
 30
0.0
 11
3.425053115390517
 21
5.293696040490584
 31
0.0
  0
LINE
  5
F9
330
1F
100
AcDbEntity
  8
0
  6
Continuous
 62
     7
370
    15
100
AcDbLine
 10
2.887188956097453
 20
5.118663260184719
 30
0.0
 11
3.329398016936164
 21
4.998480312842758
 31
0.0
  0
LINE
  5
FA
330
1F
100
AcDbEntity
  8
0
  6
Continuous
 62
     7
370
    15
100
AcDbLine
 10
2.887188956097453
 20
5.118663260184719
 30
0.0
 11
2.982844054551806
 21
5.413878987832545
 31
0.0
  0
LINE
  5
FB
330
1F
100
AcDbEntity
  8
0
  6
Continuous
 62
     7
370
    15
100
AcDbLine
 10
2.982844054551806
 20
5.413878987832545
 30
0.0
 11
2.932870915056022
 21
5.467276390004097
 31
0.0
  0
LINE
  5
FC
330
1F
100
AcDbEntity
  8
0
  6
Continuous
 62
     7
370
    15
100
AcDbLine
 10
2.932870915056022
 20
5.071045604336317
 30
0.0
 11
3.375079975894732
 21
4.950862656994355
 31
0.0
  0
LINE
  5
FD
330
1F
100
AcDbEntity
  8
0
  6
Continuous
 62
     7
370
    15
100
AcDbLine
 10
2.932870915056022
 20
5.071045604336317
 30
0.0
 11
2.887188956097453
 21
5.118663260184719
 31
0.0
  0
LINE
  5
FE
330
1F
100
AcDbEntity
  8
0
  6
Continuous
 62
     7
370
    15
100
AcDbLine
 10
2.932870915056022
 20
4.433328613370069
 30
0.0
 11
3.375079975894732
 21
4.313145666028109
 31
0.0
  0
LINE
  5
FF
330
1F
100
AcDbEntity
  8
0
  6
Continuous
 62
     7
370
    15
100
AcDbLine
 10
2.932870915056022
 20
4.433328613370069
 30
0.0
 11
2.932870915056022
 21
5.071045604336317
 31
0.0
  0
LINE
  5
100
330
1F
100
AcDbEntity
  8
0
  6
Continuous
 62
     7
370
    15
100
AcDbLine
 10
4.314121892405829
 20
7.495806512873922
 30
0.0
 11
3.871912831567118
 21
7.615989460215883
 31
0.0
  0
LINE
  5
101
330
1F
100
AcDbEntity
  8
0
  6
Continuous
 62
     7
370
    15
100
AcDbLine
 10
2.932870915056024
 20
6.147663214774339
 30
0.0
 11
2.490661854217314
 21
6.2678461621163
 31
0.0
  0
LINE
  5
102
330
1F
100
AcDbEntity
  8
0
  6
Continuous
 62
     7
370
    15
100
AcDbLine
 10
3.871912831567118
 20
7.615989460215883
 30
0.0
 11
2.490661854217314
 21
6.2678461621163
 31
0.0
  0
LINE
  5
103
330
1F
100
AcDbEntity
  8
0
  6
Continuous
 62
     7
370
    15
100
AcDbLine
 10
2.490661854217314
 20
5.587459337346058
 30
0.0
 11
2.932870915056024
 21
5.467276390004098
 31
0.0
  0
LINE
  5
104
330
1F
100
AcDbEntity
  8
0
  6
Continuous
 62
     7
370
    15
100
AcDbLine
 10
2.490661854217314
 20
5.587459337346058
 30
0.0
 11
2.490661854217314
 21
6.2678461621163
 31
0.0
  0
LINE
  5
105
330
1F
100
AcDbEntity
  8
0
  6
Continuous
 62
     7
370
    15
100
AcDbLine
 10
2.540634993713098
 20
5.534061935174507
 30
0.0
 11
2.982844054551808
 21
5.413878987832546
 31
0.0
  0
LINE
  5
106
330
1F
100
AcDbEntity
  8
0
  6
Continuous
 62
     7
370
    15
100
AcDbLine
 10
2.444979895258744
 20
5.238846207526681
 30
0.0
 11
2.887188956097455
 21
5.118663260184719
 31
0.0
  0
LINE
  5
107
330
1F
100
AcDbEntity
  8
0
  6
Continuous
 62
     7
370
    15
100
AcDbLine
 10
2.444979895258744
 20
5.238846207526681
 30
0.0
 11
2.540634993713098
 21
5.534061935174507
 31
0.0
  0
LINE
  5
108
330
1F
100
AcDbEntity
  8
0
  6
Continuous
 62
     7
370
    15
100
AcDbLine
 10
2.540634993713098
 20
5.534061935174507
 30
0.0
 11
2.490661854217314
 21
5.587459337346058
 31
0.0
  0
LINE
  5
109
330
1F
100
AcDbEntity
  8
0
  6
Continuous
 62
     7
370
    15
100
AcDbLine
 10
2.490661854217313
 20
5.191228551678277
 30
0.0
 11
2.932870915056024
 21
5.071045604336317
 31
0.0
  0
LINE
  5
10A
330
1F
100
AcDbEntity
  8
0
  6
Continuous
 62
     7
370
    15
100
AcDbLine
 10
2.490661854217313
 20
5.191228551678277
 30
0.0
 11
2.444979895258744
 21
5.238846207526681
 31
0.0
  0
LINE
  5
10B
330
1F
100
AcDbEntity
  8
0
  6
Continuous
 62
     7
370
    15
100
AcDbLine
 10
2.490661854217313
 20
4.553511560712031
 30
0.0
 11
2.932870915056024
 21
4.433328613370071
 31
0.0
  0
LINE
  5
10C
330
1F
100
AcDbEntity
  8
0
  6
Continuous
 62
     7
370
    15
100
AcDbLine
 10
2.490661854217313
 20
4.553511560712031
 30
0.0
 11
2.490661854217313
 21
5.191228551678277
 31
0.0
  0
LWPOLYLINE
  5
10D
330
1F
100
AcDbEntity
  8
0
  6
Continuous
 62
     7
370
    15
100
AcDbPolyline
 90
       17
 70
   128
 43
0.0
 10
4.646502024050466
 20
6.007184694666984
 10
4.64687207687526
 20
6.010962791367891
 10
4.647925898161602
 20
6.014888072897601
 10
4.649503053171563
 20
6.018362950725983
 10
4.651363434351821
 20
6.02085840620351
 10
4.653223815532078
 20
6.021994528855089
 10
4.65480097054204
 20
6.021598354305996
 10
4.655854791828383
 20
6.019730196539996
 10
4.656224844653176
 20
6.016674465642074
 10
4.655854791828383
 20
6.012896368941166
 10
4.65480097054204
 20
6.008971087411456
 10
4.653223815532078
 20
6.005496209583075
 10
4.651363434351821
 20
6.003000754105547
 10
4.649503053171563
 20
6.001864631453968
 10
4.647925898161603
 20
6.002260806003062
 10
4.64687207687526
 20
6.004128963769061
 10
4.646502024050466
 20
6.007184694666984
  0
LWPOLYLINE
  5
10E
330
1F
100
AcDbEntity
  8
0
  6
Continuous
 62
     7
370
    15
100
AcDbPolyline
 90
       12
 70
   128
 43
0.0
 10
4.637948093530948
 20
5.972113441330684
 10
4.638318146355741
 20
5.975891538031591
 10
4.639371967642085
 20
5.979816819561302
 10
4.640949122652045
 20
5.983291697389683
 10
4.642809503832303
 20
5.98578715286721
 10
4.644669885012561
 20
5.986923275518789
 10
4.646247040022521
 20
5.986527100969695
 10
4.647300861308864
 20
5.984658943203696
 10
4.647670914133658
 20
5.981603212305773
 10
4.647300861308864
 20
5.977825115604867
 10
4.646247040022521
 20
5.973899834075156
 10
4.646203656962073
 20
5.973778803481772
  0
LWPOLYLINE
  5
10F
330
1F
100
AcDbEntity
  8
0
  6
Continuous
 62
     7
370
    15
100
AcDbPolyline
 90
        6
 70
   128
 43
0.0
 10
4.64405306696611
 20
5.969440328002606
 10
4.642809503832303
 20
5.967929500769248
 10
4.640949122652045
 20
5.966793378117669
 10
4.639371967642085
 20
5.967189552666764
 10
4.638318146355741
 20
5.969057710432761
 10
4.637948093530948
 20
5.972113441330684
  0
LWPOLYLINE
  5
110
330
1F
100
AcDbEntity
  8
0
  6
Continuous
 62
     7
370
    15
100
AcDbPolyline
 90
       15
 70
   128
 43
0.0
 10
4.671977965640431
 20
6.005327639743496
 10
4.672348018465226
 20
6.009105736444403
 10
4.673401839751568
 20
6.013031017974113
 10
4.674978994761529
 20
6.016505895802494
 10
4.676839375941787
 20
6.019001351280022
 10
4.678699757122044
 20
6.0201374739316
 10
4.680276912132005
 20
6.019741299382507
 10
4.681330733418348
 20
6.017873141616508
 10
4.681700786243142
 20
6.014817410718586
 10
4.681330733418348
 20
6.011039314017678
 10
4.680276912132005
 20
6.007114032487967
 10
4.678699757122044
 20
6.003639154659587
 10
4.676839375941787
 20
6.001143699182059
 10
4.674978994761529
 20
6.00000757653048
 10
4.674107446861855
 20
6.000020485241731
  0
LWPOLYLINE
  5
111
330
1F
100
AcDbEntity
  8
0
  6
Continuous
 62
     7
370
    15
100
AcDbPolyline
 90
        3
 70
   128
 43
0.0
 10
4.672414418044706
 20
6.002056000430085
 10
4.672348018465226
 20
6.002271908845574
 10
4.671977965640431
 20
6.005327639743496
  0
LWPOLYLINE
  5
112
330
1F
100
AcDbEntity
  8
0
  6
Continuous
 62
     7
370
    15
100
AcDbPolyline
 90
       17
 70
   128
 43
0.0
 10
4.662301607529871
 20
5.810987834801072
 10
4.662671660354665
 20
5.814765931501979
 10
4.663725481641008
 20
5.818691213031691
 10
4.665302636650969
 20
5.822166090860071
 10
4.667163017831226
 20
5.824661546337599
 10
4.669023399011484
 20
5.825797668989178
 10
4.670600554021445
 20
5.825401494440083
 10
4.671654375307788
 20
5.823533336674084
 10
4.672024428132582
 20
5.820477605776162
 10
4.671654375307788
 20
5.816699509075255
 10
4.670600554021445
 20
5.812774227545545
 10
4.669023399011484
 20
5.809299349717163
 10
4.667163017831226
 20
5.806803894239636
 10
4.665302636650969
 20
5.805667771588058
 10
4.663725481641008
 20
5.806063946137151
 10
4.662671660354665
 20
5.80793210390315
 10
4.662301607529871
 20
5.810987834801072
  0
LWPOLYLINE
  5
113
330
1F
100
AcDbEntity
  8
0
  6
Continuous
 62
     7
370
    15
100
AcDbPolyline
 90
        9
 70
   128
 43
0.0
 10
4.641685435316212
 20
5.77256848374214
 10
4.642809503832306
 20
5.773907572718265
 10
4.644669885012564
 20
5.775043695369844
 10
4.646247040022524
 20
5.77464752082075
 10
4.647300861308868
 20
5.772779363054751
 10
4.647670914133661
 20
5.769723632156829
 10
4.647300861308868
 20
5.765945535455921
 10
4.646247040022524
 20
5.762020253926211
 10
4.645779742894491
 20
5.760809342031442
  0
LWPOLYLINE
  5
114
330
1F
100
AcDbEntity
  8
0
  6
Continuous
 62
     7
370
    15
100
AcDbPolyline
 90
       17
 70
   128
 43
0.0
 10
4.646502024050467
 20
5.847717860325979
 10
4.64687207687526
 20
5.851495957026886
 10
4.647925898161604
 20
5.855421238556597
 10
4.649503053171565
 20
5.858896116384978
 10
4.651363434351822
 20
5.861391571862505
 10
4.65322381553208
 20
5.862527694514084
 10
4.654800970542041
 20
5.86213151996499
 10
4.655854791828383
 20
5.860263362198991
 10
4.656224844653177
 20
5.857207631301069
 10
4.655854791828383
 20
5.853429534600161
 10
4.654800970542041
 20
5.849504253070451
 10
4.65322381553208
 20
5.84602937524207
 10
4.651363434351822
 20
5.843533919764543
 10
4.649503053171565
 20
5.842397797112964
 10
4.647925898161604
 20
5.842793971662057
 10
4.64687207687526
 20
5.844662129428057
 10
4.646502024050467
 20
5.847717860325979
  0
LWPOLYLINE
  5
115
330
1F
100
AcDbEntity
  8
0
  6
Continuous
 62
     7
370
    15
100
AcDbPolyline
 90
       17
 70
   128
 43
0.0
 10
4.654963029585691
 20
5.829253706196081
 10
4.655333082410485
 20
5.833031802896988
 10
4.656386903696827
 20
5.836957084426699
 10
4.657964058706788
 20
5.84043196225508
 10
4.659824439887046
 20
5.842927417732607
 10
4.661684821067304
 20
5.844063540384185
 10
4.663261976077264
 20
5.843667365835091
 10
4.664315797363608
 20
5.841799208069093
 10
4.664685850188401
 20
5.838743477171171
 10
4.664315797363608
 20
5.834965380470263
 10
4.663261976077264
 20
5.831040098940552
 10
4.661684821067304
 20
5.827565221112172
 10
4.659824439887046
 20
5.825069765634645
 10
4.657964058706788
 20
5.823933642983066
 10
4.656386903696827
 20
5.824329817532159
 10
4.655333082410485
 20
5.826197975298159
 10
4.654963029585691
 20
5.829253706196081
  0
LWPOLYLINE
  5
116
330
1F
100
AcDbEntity
  8
0
  6
Continuous
 62
     7
370
    15
100
AcDbPolyline
 90
       17
 70
   128
 43
0.0
 10
4.671977965640435
 20
5.793448059594554
 10
4.672348018465228
 20
5.797226156295462
 10
4.673401839751571
 20
5.801151437825172
 10
4.674978994761532
 20
5.804626315653553
 10
4.676839375941789
 20
5.80712177113108
 10
4.678699757122047
 20
5.808257893782659
 10
4.680276912132008
 20
5.807861719233565
 10
4.681330733418351
 20
5.805993561467566
 10
4.681700786243145
 20
5.802937830569644
 10
4.681330733418351
 20
5.799159733868736
 10
4.680276912132009
 20
5.795234452339026
 10
4.678699757122047
 20
5.791759574510645
 10
4.676839375941789
 20
5.789264119033118
 10
4.674978994761532
 20
5.788127996381539
 10
4.673401839751571
 20
5.788524170930632
 10
4.672348018465228
 20
5.790392328696632
 10
4.671977965640435
 20
5.793448059594554
  0
LWPOLYLINE
  5
117
330
1F
100
AcDbEntity
  8
0
  6
Continuous
 62
     7
370
    15
100
AcDbPolyline
 90
       17
 70
   128
 43
0.0
 10
4.637948093530949
 20
5.866353159270966
 10
4.638318146355743
 20
5.870131255971873
 10
4.639371967642086
 20
5.874056537501584
 10
4.640949122652047
 20
5.877531415329965
 10
4.642809503832305
 20
5.880026870807492
 10
4.644669885012562
 20
5.881162993459071
 10
4.646247040022522
 20
5.880766818909976
 10
4.647300861308866
 20
5.878898661143978
 10
4.647670914133659
 20
5.875842930246055
 10
4.647300861308866
 20
5.872064833545149
 10
4.646247040022522
 20
5.868139552015438
 10
4.644669885012562
 20
5.864664674187055
 10
4.642809503832305
 20
5.86216921870953
 10
4.640949122652047
 20
5.86103309605795
 10
4.639371967642087
 20
5.861429270607044
 10
4.638318146355743
 20
5.863297428373043
 10
4.637948093530949
 20
5.866353159270966
  0
ARC
  5
118
330
1F
100
AcDbEntity
  8
0
  6
Continuous
 62
     7
370
    15
100
AcDbCircle
 10
4.674064711997389
 20
5.883832909430758
 30
0.0
 40
0.0191216053364725
100
AcDbArc
 50
137.062106697831
 51
182.6157107530159
  0
LWPOLYLINE
  5
119
330
1F
100
AcDbEntity
  8
0
  6
Continuous
 62
     7
370
    15
100
AcDbPolyline
 90
       13
 70
   128
 43
0.0
 10
4.662556368966978
 20
5.897757183954226
 10
4.663261976077264
 20
5.897373918116382
 10
4.664315797363608
 20
5.895505760350384
 10
4.664685850188401
 20
5.892450029452461
 10
4.664315797363608
 20
5.888671932751554
 10
4.663261976077264
 20
5.884746651221843
 10
4.661684821067304
 20
5.881271773393462
 10
4.659824439887046
 20
5.878776317915935
 10
4.657964058706788
 20
5.877640195264356
 10
4.656386903696827
 20
5.878036369813449
 10
4.655333082410485
 20
5.879904527579449
 10
4.654963029585691
 20
5.882960258477371
 10
4.654963029585691
 20
5.882960258477371
  0
LWPOLYLINE
  5
11A
330
1F
100
AcDbEntity
  8
0
  6
Continuous
 62
     7
370
    15
100
AcDbPolyline
 90
       17
 70
   128
 43
0.0
 10
4.620921111637809
 20
5.901344124692092
 10
4.621291164462603
 20
5.905122221392999
 10
4.622344985748946
 20
5.909047502922709
 10
4.623922140758907
 20
5.912522380751091
 10
4.625782521939164
 20
5.915017836228616
 10
4.627642903119422
 20
5.916153958880196
 10
4.629220058129383
 20
5.915757784331102
 10
4.630273879415725
 20
5.913889626565103
 10
4.630643932240519
 20
5.91083389566718
 10
4.630273879415725
 20
5.907055798966273
 10
4.629220058129383
 20
5.903130517436562
 10
4.627642903119422
 20
5.899655639608181
 10
4.625782521939164
 20
5.897160184130656
 10
4.623922140758907
 20
5.896024061479076
 10
4.622344985748946
 20
5.89642023602817
 10
4.621291164462603
 20
5.898288393794169
 10
4.620921111637809
 20
5.901344124692092
  0
LWPOLYLINE
  5
11B
330
1F
100
AcDbEntity
  8
0
  6
Continuous
 62
     7
370
    15
100
AcDbPolyline
 90
       17
 70
   128
 43
0.0
 10
4.613687504516322
 20
5.815689883285053
 10
4.614057557341116
 20
5.819467979985961
 10
4.615111378627458
 20
5.823393261515672
 10
4.61668853363742
 20
5.826868139344052
 10
4.618548914817677
 20
5.829363594821579
 10
4.620409295997935
 20
5.830499717473158
 10
4.621986451007895
 20
5.830103542924065
 10
4.623040272294239
 20
5.828235385158065
 10
4.623410325119032
 20
5.825179654260143
 10
4.623040272294239
 20
5.821401557559235
 10
4.621986451007895
 20
5.817476276029525
 10
4.620409295997935
 20
5.814001398201144
 10
4.618548914817677
 20
5.811505942723617
 10
4.61668853363742
 20
5.810369820072039
 10
4.615111378627458
 20
5.810765994621132
 10
4.614057557341116
 20
5.812634152387131
 10
4.613687504516322
 20
5.815689883285053
  0
LWPOLYLINE
  5
11C
330
1F
100
AcDbEntity
  8
0
  6
Continuous
 62
     7
370
    15
100
AcDbPolyline
 90
       17
 70
   128
 43
0.0
 10
4.620921111637811
 20
5.795583842632376
 10
4.621291164462604
 20
5.799361939333283
 10
4.622344985748947
 20
5.803287220862994
 10
4.623922140758908
 20
5.806762098691375
 10
4.625782521939165
 20
5.809257554168902
 10
4.627642903119423
 20
5.810393676820481
 10
4.629220058129384
 20
5.809997502271387
 10
4.630273879415727
 20
5.808129344505389
 10
4.630643932240521
 20
5.805073613607465
 10
4.630273879415727
 20
5.801295516906558
 10
4.629220058129384
 20
5.797370235376848
 10
4.627642903119423
 20
5.793895357548467
 10
4.625782521939166
 20
5.791399902070939
 10
4.623922140758908
 20
5.790263779419361
 10
4.622344985748947
 20
5.790659953968456
 10
4.621291164462604
 20
5.792528111734455
 10
4.620921111637811
 20
5.795583842632376
  0
LWPOLYLINE
  5
11D
330
1F
100
AcDbEntity
  8
0
  6
Continuous
 62
     7
370
    15
100
AcDbPolyline
 90
       17
 70
   128
 43
0.0
 10
4.569509223091449
 20
5.697440027309936
 10
4.569879275916242
 20
5.701218124010844
 10
4.570933097202585
 20
5.705143405540554
 10
4.572510252212546
 20
5.708618283368935
 10
4.574370633392804
 20
5.711113738846462
 10
4.57623101457306
 20
5.712249861498041
 10
4.577808169583021
 20
5.711853686948948
 10
4.578861990869365
 20
5.709985529182948
 10
4.579232043694158
 20
5.706929798285026
 10
4.578861990869365
 20
5.703151701584118
 10
4.577808169583021
 20
5.699226420054408
 10
4.57623101457306
 20
5.695751542226027
 10
4.574370633392804
 20
5.6932560867485
 10
4.572510252212546
 20
5.692119964096921
 10
4.570933097202585
 20
5.692516138646015
 10
4.569879275916242
 20
5.694384296412014
 10
4.569509223091449
 20
5.697440027309936
  0
LWPOLYLINE
  5
11E
330
1F
100
AcDbEntity
  8
0
  6
Continuous
 62
     7
370
    15
100
AcDbPolyline
 90
       17
 70
   128
 43
0.0
 10
4.578098767935668
 20
5.732801445752707
 10
4.578468820760462
 20
5.736579542453615
 10
4.579522642046805
 20
5.740504823983326
 10
4.581099797056766
 20
5.743979701811706
 10
4.582960178237024
 20
5.746475157289233
 10
4.584820559417281
 20
5.747611279940812
 10
4.586397714427241
 20
5.747215105391719
 10
4.587451535713585
 20
5.745346947625719
 10
4.587821588538378
 20
5.742291216727797
 10
4.587451535713585
 20
5.738513120026889
 10
4.586397714427241
 20
5.734587838497179
 10
4.584820559417281
 20
5.731112960668798
 10
4.582960178237024
 20
5.728617505191271
 10
4.581099797056766
 20
5.727481382539693
 10
4.579522642046805
 20
5.727877557088786
 10
4.578468820760462
 20
5.729745714854785
 10
4.578098767935668
 20
5.732801445752707
  0
LWPOLYLINE
  5
11F
330
1F
100
AcDbEntity
  8
0
  6
Continuous
 62
     7
370
    15
100
AcDbPolyline
 90
       17
 70
   128
 43
0.0
 10
4.620921111637811
 20
5.849290394913666
 10
4.621291164462604
 20
5.853068491614575
 10
4.622344985748947
 20
5.856993773144285
 10
4.623922140758908
 20
5.860468650972666
 10
4.625782521939165
 20
5.862964106450192
 10
4.627642903119423
 20
5.864100229101771
 10
4.629220058129384
 20
5.863704054552678
 10
4.630273879415727
 20
5.861835896786678
 10
4.630643932240521
 20
5.858780165888756
 10
4.630273879415727
 20
5.855002069187849
 10
4.629220058129384
 20
5.851076787658138
 10
4.627642903119423
 20
5.847601909829757
 10
4.625782521939166
 20
5.845106454352231
 10
4.623922140758908
 20
5.843970331700652
 10
4.622344985748947
 20
5.844366506249746
 10
4.621291164462604
 20
5.846234664015744
 10
4.620921111637811
 20
5.849290394913666
  0
LWPOLYLINE
  5
120
330
1F
100
AcDbEntity
  8
0
  6
Continuous
 62
     7
370
    15
100
AcDbPolyline
 90
       17
 70
   128
 43
0.0
 10
4.629510656482029
 20
5.884402846937444
 10
4.629880709306823
 20
5.888180943638351
 10
4.630934530593166
 20
5.892106225168062
 10
4.632511685603127
 20
5.895581102996443
 10
4.634372066783384
 20
5.898076558473969
 10
4.636232447963642
 20
5.899212681125549
 10
4.637809602973603
 20
5.898816506576455
 10
4.638863424259946
 20
5.896948348810456
 10
4.63923347708474
 20
5.893892617912533
 10
4.638863424259946
 20
5.890114521211626
 10
4.637809602973603
 20
5.886189239681915
 10
4.636232447963642
 20
5.882714361853534
 10
4.634372066783384
 20
5.880218906376008
 10
4.632511685603127
 20
5.879082783724428
 10
4.630934530593166
 20
5.879478958273522
 10
4.629880709306823
 20
5.881347116039521
 10
4.629510656482029
 20
5.884402846937444
  0
LWPOLYLINE
  5
121
330
1F
100
AcDbEntity
  8
0
  6
Continuous
 62
     7
370
    15
100
AcDbPolyline
 90
        8
 70
   128
 43
0.0
 10
4.629510656482029
 20
5.936456576715872
 10
4.629880709306823
 20
5.940234673416779
 10
4.630934530593166
 20
5.94415995494649
 10
4.632511685603127
 20
5.94763483277487
 10
4.634372066783384
 20
5.950130288252397
 10
4.636232447963642
 20
5.951266410903977
 10
4.637809602973603
 20
5.950870236354883
 10
4.638430025050955
 20
5.950078915096007
  0
LWPOLYLINE
  5
122
330
1F
100
AcDbEntity
  8
0
  6
Continuous
 62
     7
370
    15
100
AcDbPolyline
 90
        6
 70
   128
 43
0.0
 10
4.635848821959789
 20
5.934135925305169
 10
4.634372066783384
 20
5.932272636154435
 10
4.632511685603127
 20
5.931136513502857
 10
4.630934530593166
 20
5.931532688051951
 10
4.629880709306823
 20
5.933400845817949
 10
4.629510656482029
 20
5.936456576715872
  0
LWPOLYLINE
  5
123
330
1F
100
AcDbEntity
  8
0
  6
Continuous
 62
     7
370
    15
100
AcDbPolyline
 90
       17
 70
   128
 43
0.0
 10
4.662301607529872
 20
5.757281282519783
 10
4.662671660354666
 20
5.76105937922069
 10
4.663725481641009
 20
5.764984660750401
 10
4.66530263665097
 20
5.768459538578782
 10
4.667163017831227
 20
5.770954994056309
 10
4.669023399011486
 20
5.772091116707889
 10
4.670600554021445
 20
5.771694942158794
 10
4.671654375307789
 20
5.769826784392795
 10
4.672024428132583
 20
5.766771053494872
 10
4.671654375307789
 20
5.762992956793966
 10
4.670600554021445
 20
5.759067675264256
 10
4.669023399011486
 20
5.755592797435874
 10
4.667163017831227
 20
5.753097341958347
 10
4.66530263665097
 20
5.751961219306767
 10
4.663725481641009
 20
5.752357393855862
 10
4.662671660354666
 20
5.754225551621861
 10
4.662301607529872
 20
5.757281282519783
  0
LWPOLYLINE
  5
124
330
1F
100
AcDbEntity
  8
0
  6
Continuous
 62
     7
370
    15
100
AcDbPolyline
 90
        7
 70
   128
 43
0.0
 10
4.578098767935669
 20
5.679094893471418
 10
4.578468820760463
 20
5.682872990172326
 10
4.579522642046805
 20
5.686798271702036
 10
4.581099797056767
 20
5.690273149530417
 10
4.582960178237024
 20
5.692768605007944
 10
4.584820559417281
 20
5.693904727659522
 10
4.585692107316956
 20
5.693891818948272
  0
LWPOLYLINE
  5
125
330
1F
100
AcDbEntity
  8
0
  6
Continuous
 62
     7
370
    15
100
AcDbPolyline
 90
       11
 70
   128
 43
0.0
 10
4.587788136408692
 20
5.68959767706035
 10
4.587821588538379
 20
5.688584664446508
 10
4.587451535713586
 20
5.6848065677456
 10
4.586397714427242
 20
5.680881286215889
 10
4.584820559417281
 20
5.677406408387509
 10
4.582960178237024
 20
5.674910952909982
 10
4.581099797056767
 20
5.673774830258403
 10
4.579522642046805
 20
5.674171004807496
 10
4.578468820760463
 20
5.676039162573496
 10
4.578098767935669
 20
5.679094893471418
 10
4.578098767935669
 20
5.679094893471418
  0
LWPOLYLINE
  5
126
330
1F
100
AcDbEntity
  8
0
  6
Continuous
 62
     7
370
    15
100
AcDbPolyline
 90
       22
 70
   128
 43
0.0
 10
4.680333619338714
 20
6.92722516571264
 10
4.681411785606215
 20
6.94141552289776
 10
4.684550484604395
 20
6.956449651233217
 10
4.689470829153313
 20
6.970991702440221
 10
4.695735625047221
 20
6.983749551452286
 10
4.702788217678341
 20
6.993589607397795
 10
4.710001953241604
 20
6.999637538123614
 10
4.716735859675258
 20
7.001355958443846
 10
4.722391599841413
 20
6.998592179171876
 10
4.726466636406497
 20
6.991591774224665
 10
4.728598884488699
 20
6.980976760302544
 10
4.728598884488699
 20
6.967690327975713
 10
4.726466636406497
 20
6.952913035062959
 10
4.722391599841413
 20
6.937957908888663
 10
4.716735859675258
 20
6.9241537780429
 10
4.710001953241604
 20
6.91272720012975
 10
4.702788217678341
 20
6.904693476741504
 10
4.695735625047221
 20
6.900766439456623
 10
4.689470829153313
 20
6.901295022771389
 10
4.684550484604395
 20
6.906232259738634
 10
4.681411785606215
 20
6.915139455187111
 10
4.680333619338714
 20
6.92722516571264
  0
LWPOLYLINE
  5
127
330
1F
100
AcDbEntity
  8
0
  6
Continuous
 62
     7
370
    15
100
AcDbPolyline
 90
       17
 70
   128
 43
0.0
 10
4.56227561596996
 20
5.663213542043159
 10
4.562645668794754
 20
5.666991638744065
 10
4.563699490081097
 20
5.670916920273778
 10
4.565276645091058
 20
5.674391798102159
 10
4.567137026271315
 20
5.676887253579685
 10
4.568997407451573
 20
5.678023376231264
 10
4.570574562461533
 20
5.67762720168217
 10
4.571628383747877
 20
5.675759043916171
 10
4.571998436572671
 20
5.672703313018248
 10
4.571628383747877
 20
5.668925216317341
 10
4.570574562461533
 20
5.664999934787631
 10
4.568997407451573
 20
5.661525056959249
 10
4.567137026271315
 20
5.659029601481722
 10
4.565276645091058
 20
5.657893478830144
 10
4.563699490081097
 20
5.658289653379238
 10
4.562645668794754
 20
5.660157811145237
 10
4.56227561596996
 20
5.663213542043159
  0
LWPOLYLINE
  5
128
330
1F
100
AcDbEntity
  8
0
  6
Continuous
 62
     7
370
    15
100
AcDbPolyline
 90
       17
 70
   128
 43
0.0
 10
4.646502024050469
 20
5.741860404685264
 10
4.646872076875263
 20
5.745638501386171
 10
4.647925898161606
 20
5.749563782915881
 10
4.649503053171567
 20
5.753038660744262
 10
4.651363434351824
 20
5.75553411622179
 10
4.653223815532082
 20
5.756670238873368
 10
4.654800970542043
 20
5.756274064324274
 10
4.655854791828386
 20
5.754405906558276
 10
4.65622484465318
 20
5.751350175660354
 10
4.655854791828386
 20
5.747572078959446
 10
4.654800970542043
 20
5.743646797429735
 10
4.653223815532082
 20
5.740171919601354
 10
4.651363434351824
 20
5.737676464123827
 10
4.649503053171567
 20
5.736540341472248
 10
4.647925898161606
 20
5.736936516021343
 10
4.646872076875263
 20
5.738804673787342
 10
4.646502024050469
 20
5.741860404685264
  0
LWPOLYLINE
  5
129
330
1F
100
AcDbEntity
  8
0
  6
Continuous
 62
     7
370
    15
100
AcDbPolyline
 90
       17
 70
   128
 43
0.0
 10
4.629510656482031
 20
5.830696294656154
 10
4.629880709306824
 20
5.83447439135706
 10
4.630934530593168
 20
5.838399672886771
 10
4.632511685603128
 20
5.841874550715152
 10
4.634372066783386
 20
5.844370006192679
 10
4.636232447963643
 20
5.845506128844258
 10
4.637809602973605
 20
5.845109954295164
 10
4.638863424259947
 20
5.843241796529166
 10
4.639233477084741
 20
5.840186065631243
 10
4.638863424259947
 20
5.836407968930336
 10
4.637809602973605
 20
5.832482687400625
 10
4.636232447963643
 20
5.829007809572243
 10
4.634372066783386
 20
5.826512354094717
 10
4.632511685603128
 20
5.825376231443137
 10
4.630934530593168
 20
5.825772405992232
 10
4.629880709306824
 20
5.827640563758231
 10
4.629510656482031
 20
5.830696294656154
  0
LWPOLYLINE
  5
12A
330
1F
100
AcDbEntity
  8
0
  6
Continuous
 62
     7
370
    15
100
AcDbPolyline
 90
       13
 70
   128
 43
0.0
 10
4.629516408755039
 20
5.779860175382574
 10
4.629880709306826
 20
5.78319842805479
 10
4.630934530593169
 20
5.787123709584501
 10
4.63251168560313
 20
5.790598587412882
 10
4.634372066783387
 20
5.793094042890408
 10
4.636232447963645
 20
5.794230165541987
 10
4.637809602973606
 20
5.793833990992894
 10
4.638863424259949
 20
5.791965833226894
 10
4.639233477084743
 20
5.788910102328972
 10
4.638863424259948
 20
5.785132005628065
 10
4.637809602973606
 20
5.781206724098354
 10
4.636232447963645
 20
5.777731846269973
 10
4.63614093115889
 20
5.777574889083494
  0
LWPOLYLINE
  5
12B
330
1F
100
AcDbEntity
  8
0
  6
Continuous
 62
     7
370
    15
100
AcDbPolyline
 90
       17
 70
   128
 43
0.0
 10
4.603918221421466
 20
5.833138960858154
 10
4.604288274246259
 20
5.836917057559062
 10
4.605342095532602
 20
5.840842339088772
 10
4.606919250542564
 20
5.844317216917153
 10
4.60877963172282
 20
5.84681267239468
 10
4.610640012903078
 20
5.847948795046259
 10
4.612217167913039
 20
5.847552620497165
 10
4.613270989199382
 20
5.845684462731166
 10
4.613641042024176
 20
5.842628731833244
 10
4.613270989199382
 20
5.838850635132336
 10
4.612217167913039
 20
5.834925353602626
 10
4.610640012903078
 20
5.831450475774245
 10
4.60877963172282
 20
5.828955020296718
 10
4.606919250542564
 20
5.827818897645139
 10
4.605342095532602
 20
5.828215072194233
 10
4.604288274246259
 20
5.830083229960232
 10
4.603918221421466
 20
5.833138960858154
  0
LWPOLYLINE
  5
12C
330
1F
100
AcDbEntity
  8
0
  6
Continuous
 62
     7
370
    15
100
AcDbPolyline
 90
       17
 70
   128
 43
0.0
 10
4.595090135504103
 20
5.801098974724804
 10
4.595460188328897
 20
5.804877071425711
 10
4.596514009615241
 20
5.808802352955422
 10
4.5980911646252
 20
5.812277230783803
 10
4.599951545805458
 20
5.81477268626133
 10
4.601811926985716
 20
5.815908808912909
 10
4.603389081995676
 20
5.815512634363815
 10
4.60444290328202
 20
5.813644476597816
 10
4.604812956106814
 20
5.810588745699893
 10
4.60444290328202
 20
5.806810648998986
 10
4.603389081995676
 20
5.802885367469276
 10
4.601811926985716
 20
5.799410489640894
 10
4.599951545805458
 20
5.796915034163368
 10
4.5980911646252
 20
5.795778911511789
 10
4.596514009615241
 20
5.796175086060882
 10
4.595460188328897
 20
5.798043243826882
 10
4.595090135504103
 20
5.801098974724804
  0
LWPOLYLINE
  5
12D
330
1F
100
AcDbEntity
  8
0
  6
Continuous
 62
     7
370
    15
100
AcDbPolyline
 90
       17
 70
   128
 43
0.0
 10
4.586536204984585
 20
5.766027721388501
 10
4.586906257809379
 20
5.769805818089408
 10
4.587960079095722
 20
5.773731099619118
 10
4.589537234105683
 20
5.7772059774475
 10
4.59139761528594
 20
5.779701432925025
 10
4.593257996466197
 20
5.780837555576605
 10
4.594835151476158
 20
5.780441381027511
 10
4.595888972762502
 20
5.778573223261513
 10
4.596259025587295
 20
5.775517492363589
 10
4.595888972762502
 20
5.771739395662682
 10
4.594835151476158
 20
5.767814114132971
 10
4.593257996466197
 20
5.76433923630459
 10
4.59139761528594
 20
5.761843780827064
 10
4.589537234105683
 20
5.760707658175485
 10
4.587960079095722
 20
5.761103832724579
 10
4.586906257809379
 20
5.762971990490578
 10
4.586536204984585
 20
5.766027721388501
  0
LWPOLYLINE
  5
12E
330
1F
100
AcDbEntity
  8
0
  6
Continuous
 62
     7
370
    15
100
AcDbPolyline
 90
       13
 70
   128
 43
0.0
 10
4.603918221421466
 20
5.779432408576864
 10
4.604288274246259
 20
5.783210505277771
 10
4.605342095532602
 20
5.787135786807481
 10
4.606919250542564
 20
5.790610664635862
 10
4.60877963172282
 20
5.79310612011339
 10
4.610640012903078
 20
5.794242242764969
 10
4.612217167913039
 20
5.793846068215875
 10
4.613270989199382
 20
5.791977910449876
 10
4.613641042024176
 20
5.788922179551954
 10
4.613270989199382
 20
5.785144082851046
 10
4.612217167913039
 20
5.781218801321336
 10
4.610640012903078
 20
5.777743923492955
 10
4.610501973921313
 20
5.777508684948489
  0
LWPOLYLINE
  5
12F
330
1F
100
AcDbEntity
  8
0
  6
Continuous
 62
     7
370
    15
100
AcDbPolyline
 90
        4
 70
   128
 43
0.0
 10
4.606047702642889
 20
5.774125254075099
 10
4.605342095532602
 20
5.774508519912943
 10
4.604288274246259
 20
5.776376677678942
 10
4.603918221421466
 20
5.779432408576864
  0
LWPOLYLINE
  5
130
330
1F
100
AcDbEntity
  8
0
  6
Continuous
 62
     7
370
    15
100
AcDbPolyline
 90
       17
 70
   128
 43
0.0
 10
4.61368750451632
 20
5.869396435566344
 10
4.614057557341115
 20
5.873174532267252
 10
4.615111378627458
 20
5.877099813796962
 10
4.616688533637418
 20
5.880574691625343
 10
4.618548914817676
 20
5.88307014710287
 10
4.620409295997934
 20
5.884206269754449
 10
4.621986451007894
 20
5.883810095205355
 10
4.623040272294237
 20
5.881941937439357
 10
4.623410325119031
 20
5.878886206541433
 10
4.623040272294237
 20
5.875108109840526
 10
4.621986451007894
 20
5.871182828310816
 10
4.620409295997934
 20
5.867707950482435
 10
4.618548914817676
 20
5.865212495004908
 10
4.616688533637418
 20
5.864076372353329
 10
4.615111378627458
 20
5.864472546902423
 10
4.614057557341115
 20
5.866340704668422
 10
4.61368750451632
 20
5.869396435566344
  0
LWPOLYLINE
  5
131
330
1F
100
AcDbEntity
  8
0
  6
Continuous
 62
     7
370
    15
100
AcDbPolyline
 90
       11
 70
   128
 43
0.0
 10
4.681463275415261
 20
5.911582074572031
 10
4.681700786243143
 20
5.909057128658867
 10
4.68133073341835
 20
5.90527903195796
 10
4.680276912132006
 20
5.901353750428249
 10
4.678699757122045
 20
5.897878872599868
 10
4.676839375941788
 20
5.89538341712234
 10
4.674978994761531
 20
5.894247294470762
 10
4.673401839751569
 20
5.894643469019857
 10
4.672348018465227
 20
5.896511626785854
 10
4.671977965640433
 20
5.899567357683777
 10
4.671977965640433
 20
5.899567357683777
  0
LWPOLYLINE
  5
132
330
1F
100
AcDbEntity
  8
0
  6
Continuous
 62
     7
370
    15
100
AcDbPolyline
 90
       17
 70
   128
 43
0.0
 10
4.671977965640433
 20
5.845860805402486
 10
4.672348018465227
 20
5.849638902103394
 10
4.673401839751569
 20
5.853564183633105
 10
4.674978994761531
 20
5.857039061461486
 10
4.676839375941788
 20
5.859534516939013
 10
4.678699757122045
 20
5.860670639590592
 10
4.680276912132006
 20
5.860274465041498
 10
4.68133073341835
 20
5.858406307275498
 10
4.681700786243143
 20
5.855350576377576
 10
4.68133073341835
 20
5.851572479676669
 10
4.680276912132006
 20
5.847647198146959
 10
4.678699757122045
 20
5.844172320318578
 10
4.676839375941788
 20
5.84167686484105
 10
4.674978994761531
 20
5.840540742189472
 10
4.673401839751569
 20
5.840936916738566
 10
4.672348018465227
 20
5.842805074504564
 10
4.671977965640433
 20
5.845860805402486
  0
LWPOLYLINE
  5
133
330
1F
100
AcDbEntity
  8
0
  6
Continuous
 62
     7
370
    15
100
AcDbPolyline
 90
       17
 70
   128
 43
0.0
 10
4.662301607529871
 20
5.863138738160499
 10
4.662671660354663
 20
5.866916834861407
 10
4.663725481641007
 20
5.870842116391116
 10
4.665302636650968
 20
5.874316994219499
 10
4.667163017831225
 20
5.876812449697024
 10
4.669023399011483
 20
5.877948572348604
 10
4.670600554021444
 20
5.87755239779951
 10
4.671654375307787
 20
5.875684240033511
 10
4.67202442813258
 20
5.872628509135589
 10
4.671654375307787
 20
5.868850412434681
 10
4.670600554021444
 20
5.86492513090497
 10
4.669023399011483
 20
5.861450253076589
 10
4.667163017831225
 20
5.858954797599063
 10
4.665302636650968
 20
5.857818674947484
 10
4.663725481641007
 20
5.858214849496578
 10
4.662671660354663
 20
5.860083007262577
 10
4.662301607529871
 20
5.863138738160499
  0
LWPOLYLINE
  5
134
330
1F
100
AcDbEntity
  8
0
  6
Continuous
 62
     7
370
    15
100
AcDbPolyline
 90
       17
 70
   128
 43
0.0
 10
4.637948093530949
 20
5.812646606989676
 10
4.638318146355743
 20
5.816424703690583
 10
4.639371967642086
 20
5.820349985220294
 10
4.640949122652047
 20
5.823824863048675
 10
4.642809503832305
 20
5.826320318526201
 10
4.644669885012562
 20
5.82745644117778
 10
4.646247040022522
 20
5.827060266628686
 10
4.647300861308866
 20
5.825192108862688
 10
4.647670914133659
 20
5.822136377964765
 10
4.647300861308866
 20
5.818358281263858
 10
4.646247040022522
 20
5.814432999734147
 10
4.644669885012562
 20
5.810958121905765
 10
4.642809503832305
 20
5.80846266642824
 10
4.640949122652047
 20
5.80732654377666
 10
4.639371967642087
 20
5.807722718325754
 10
4.638318146355743
 20
5.809590876091753
 10
4.637948093530949
 20
5.812646606989676
  0
LWPOLYLINE
  5
135
330
1F
100
AcDbEntity
  8
0
  6
Continuous
 62
     7
370
    15
100
AcDbPolyline
 90
       17
 70
   128
 43
0.0
 10
4.654963029585692
 20
5.776840960388149
 10
4.655333082410487
 20
5.780619057089056
 10
4.656386903696829
 20
5.784544338618767
 10
4.65796405870679
 20
5.788019216447148
 10
4.659824439887048
 20
5.790514671924674
 10
4.661684821067305
 20
5.791650794576253
 10
4.663261976077266
 20
5.791254620027159
 10
4.664315797363609
 20
5.789386462261161
 10
4.664685850188402
 20
5.786330731363238
 10
4.664315797363609
 20
5.78255263466233
 10
4.663261976077266
 20
5.77862735313262
 10
4.661684821067305
 20
5.775152475304238
 10
4.659824439887048
 20
5.772657019826713
 10
4.65796405870679
 20
5.771520897175133
 10
4.656386903696829
 20
5.771917071724227
 10
4.655333082410487
 20
5.773785229490226
 10
4.654963029585692
 20
5.776840960388149
  0
LWPOLYLINE
  5
136
330
1F
100
AcDbEntity
  8
0
  6
Continuous
 62
     7
370
    15
100
AcDbPolyline
 90
       17
 70
   128
 43
0.0
 10
4.646502024050469
 20
5.795566956966553
 10
4.646872076875262
 20
5.79934505366746
 10
4.647925898161605
 20
5.80327033519717
 10
4.649503053171565
 20
5.806745213025552
 10
4.651363434351823
 20
5.809240668503079
 10
4.653223815532081
 20
5.810376791154657
 10
4.654800970542042
 20
5.809980616605563
 10
4.655854791828385
 20
5.808112458839565
 10
4.656224844653179
 20
5.805056727941643
 10
4.655854791828385
 20
5.801278631240736
 10
4.654800970542042
 20
5.797353349711024
 10
4.653223815532081
 20
5.793878471882644
 10
4.651363434351823
 20
5.791383016405116
 10
4.649503053171565
 20
5.790246893753537
 10
4.647925898161605
 20
5.790643068302632
 10
4.646872076875262
 20
5.792511226068631
 10
4.646502024050469
 20
5.795566956966553
  0
LWPOLYLINE
  5
137
330
1F
100
AcDbEntity
  8
0
  6
Continuous
 62
     7
370
    15
100
AcDbPolyline
 90
        9
 70
   128
 43
0.0
 10
4.654963029585689
 20
5.988720540537089
 10
4.655333082410483
 20
5.992498637237996
 10
4.656386903696826
 20
5.996423918767708
 10
4.657964058706787
 20
5.999898796596089
 10
4.659824439887045
 20
6.002394252073615
 10
4.661684821067303
 20
6.003530374725195
 10
4.663261976077263
 20
6.003134200176101
 10
4.664315797363606
 20
6.001266042410102
 10
4.664682961623633
 20
5.998515246926952
  0
LWPOLYLINE
  5
138
330
1F
100
AcDbEntity
  8
0
  6
Continuous
 62
     7
370
    15
100
AcDbPolyline
 90
        6
 70
   128
 43
0.0
 10
4.652841765056801
 20
5.899106222133658
 10
4.651363434351821
 20
5.897240472045833
 10
4.649503053171563
 20
5.896104349394255
 10
4.647925898161603
 20
5.896500523943348
 10
4.64687207687526
 20
5.898368681709347
 10
4.646502024050466
 20
5.901424412607269
  0
LWPOLYLINE
  5
139
330
1F
100
AcDbEntity
  8
0
  6
Continuous
 62
     7
370
    15
100
AcDbPolyline
 90
       17
 70
   128
 43
0.0
 10
4.662301607529869
 20
6.022605572501504
 10
4.662671660354662
 20
6.026383669202411
 10
4.663725481641006
 20
6.030308950732122
 10
4.665302636650967
 20
6.033783828560503
 10
4.667163017831224
 20
6.03627928403803
 10
4.669023399011482
 20
6.037415406689609
 10
4.670600554021443
 20
6.037019232140514
 10
4.671654375307785
 20
6.035151074374517
 10
4.672024428132579
 20
6.032095343476593
 10
4.671654375307785
 20
6.028317246775687
 10
4.670600554021443
 20
6.024391965245976
 10
4.669023399011482
 20
6.020917087417594
 10
4.667163017831224
 20
6.018421631940068
 10
4.665302636650967
 20
6.017285509288488
 10
4.663725481641006
 20
6.017681683837582
 10
4.662671660354662
 20
6.019549841603581
 10
4.662301607529869
 20
6.022605572501504
  0
ARC
  5
13A
330
1F
100
AcDbEntity
  8
0
  6
Continuous
 62
     7
370
    15
100
AcDbCircle
 10
5.127320720238226
 20
5.613425390204264
 30
0.0
 40
0.3842327009558835
100
AcDbArc
 50
165.8907476032261
 51
174.8397986071714
  0
LINE
  5
13B
330
1F
100
AcDbEntity
  8
0
  6
Continuous
 62
     7
370
    15
100
AcDbLine
 10
4.433515011612747
 20
5.344310915673456
 30
0.0
 11
4.744645270899455
 21
5.647983586876305
 31
0.0
  0
ARC
  5
13C
330
1F
100
AcDbEntity
  8
0
  6
Continuous
 62
     7
370
    15
100
AcDbCircle
 10
4.82224926729413
 20
5.308855855585799
 30
0.0
 40
0.3903477716421323
100
AcDbArc
 50
164.3190335460679
 51
174.7886754373568
  0
LINE
  5
13D
330
1F
100
AcDbEntity
  8
0
  6
Continuous
 62
     7
370
    15
100
AcDbLine
 10
4.446429620525172
 20
5.414359295948824
 30
0.0
 11
4.632198038108862
 21
6.082953394006374
 31
0.0
  0
ARC
  5
13E
330
1F
100
AcDbEntity
  8
0
  6
Continuous
 62
     7
370
    15
100
AcDbCircle
 10
4.280884273847171
 20
6.183477818675427
 30
0.0
 40
0.3654128089089969
100
AcDbArc
 50
344.0321306280318
 51
359.2390474203487
  0
LINE
  5
13F
330
1F
100
AcDbEntity
  8
0
  6
Continuous
 62
     7
370
    15
100
AcDbLine
 10
4.646264855946821
 20
6.178624867070016
 30
0.0
 11
4.646264855946817
 21
7.001118920803694
 31
0.0
  0
LINE
  5
140
330
1F
100
AcDbEntity
  8
0
  6
Continuous
 62
     7
370
    15
100
AcDbLine
 10
4.646264855946817
 20
7.001118920803694
 30
0.0
 11
4.685156138357656
 21
7.110508613095895
 31
0.0
  0
LINE
  5
141
330
1F
100
AcDbEntity
  8
0
  6
Continuous
 62
     7
370
    15
100
AcDbLine
 10
4.685156138357656
 20
7.110508613095895
 30
0.0
 11
4.75467929684266
 21
7.178365347108209
 31
0.0
  0
LINE
  5
142
330
1F
100
AcDbEntity
  8
0
  6
Continuous
 62
     7
370
    15
100
AcDbLine
 10
4.75467929684266
 20
7.178365347108209
 30
0.0
 11
4.754679296842665
 21
5.707090421318248
 31
0.0
  0
LINE
  5
143
330
1F
100
AcDbEntity
  8
0
  6
Continuous
 62
     7
370
    15
100
AcDbLine
 10
4.633293390162215
 20
7.004644287259058
 30
0.0
 11
4.646264855946817
 21
7.001118920803694
 31
0.0
  0
LINE
  5
144
330
1F
100
AcDbEntity
  8
0
  6
Continuous
 62
     7
370
    15
100
AcDbLine
 10
4.672184672573053
 20
7.114033979551259
 30
0.0
 11
4.685156138357656
 21
7.110508613095895
 31
0.0
  0
LINE
  5
145
330
1F
100
AcDbEntity
  8
0
  6
Continuous
 62
     7
370
    15
100
AcDbLine
 10
4.633293390162215
 20
7.004644287259058
 30
0.0
 11
4.672184672573053
 21
7.114033979551259
 31
0.0
  0
LINE
  5
146
330
1F
100
AcDbEntity
  8
0
  6
Continuous
 62
     7
370
    15
100
AcDbLine
 10
5.056351783609725
 20
7.106083009488449
 30
0.0
 11
5.130053293749511
 21
7.014621909872944
 31
0.0
  0
LINE
  5
147
330
1F
100
AcDbEntity
  8
0
  6
Continuous
 62
     7
370
    15
100
AcDbLine
 10
5.130053293749511
 20
7.014621909872944
 30
0.0
 11
5.130053293749512
 21
6.19212785613927
 31
0.0
  0
ARC
  5
148
330
1F
100
AcDbEntity
  8
0
  6
Continuous
 62
     7
370
    15
100
AcDbCircle
 10
5.019916600329196
 20
6.189327855158775
 30
0.0
 40
0.1101722798305076
100
AcDbArc
 50
319.2631450437921
 51
1.456314732146891
  0
LINE
  5
149
330
1F
100
AcDbEntity
  8
0
  6
Continuous
 62
     7
370
    15
100
AcDbLine
 10
5.103395758866326
 20
6.117430975303078
 30
0.0
 11
4.777197855352792
 21
5.754579802558815
 31
0.0
  0
LINE
  5
14A
330
1F
100
AcDbEntity
  8
0
  6
Continuous
 62
     7
370
    15
100
AcDbLine
 10
4.777197855352785
 20
7.181951065643549
 30
0.0
 11
4.77719785535279
 21
5.754579802558814
 31
0.0
  0
LINE
  5
14B
330
1F
100
AcDbEntity
  8
0
  6
Continuous
 62
     7
370
    15
100
AcDbLine
 10
4.777197855352786
 20
7.181951065643548
 30
0.0
 11
5.056351783609725
 21
7.106083009488449
 31
0.0
  0
LWPOLYLINE
  5
14C
330
1F
100
AcDbEntity
  8
0
  6
Continuous
 62
     7
370
    15
100
AcDbPolyline
 90
       17
 70
   128
 43
0.0
 10
5.019611012668877
 20
7.029903481441162
 10
5.020312286844685
 20
7.03312980394608
 10
5.02230934673591
 20
7.035483765507317
 10
5.025298158077502
 20
7.03660699681589
 10
5.028823701436349
 20
7.036328496087184
 10
5.032349244795198
 20
7.034690662532532
 10
5.03533805613679
 20
7.03194284146363
 10
5.037335116028014
 20
7.028503363729159
 10
5.038036390203822
 20
7.024895858635247
 10
5.037335116028014
 20
7.021669536130329
 10
5.03533805613679
 20
7.019315574569093
 10
5.032349244795198
 20
7.018192343260521
 10
5.028823701436349
 20
7.018470843989225
 10
5.025298158077502
 20
7.020108677543878
 10
5.02230934673591
 20
7.02285649861278
 10
5.020312286844685
 20
7.026295976347252
 10
5.019611012668877
 20
7.029903481441162
  0
LWPOLYLINE
  5
14D
330
1F
100
AcDbEntity
  8
0
  6
Continuous
 62
     7
370
    15
100
AcDbPolyline
 90
       17
 70
   128
 43
0.0
 10
5.037948340758709
 20
6.998197433671367
 10
5.038649614934517
 20
7.001423756176285
 10
5.04064667482574
 20
7.003777717737521
 10
5.043635486167334
 20
7.004900949046095
 10
5.047161029526182
 20
7.004622448317389
 10
5.050686572885029
 20
7.002984614762738
 10
5.053675384226622
 20
7.000236793693836
 10
5.055672444117845
 20
6.996797315959363
 10
5.056373718293653
 20
6.993189810865453
 10
5.055672444117845
 20
6.989963488360535
 10
5.053675384226622
 20
6.987609526799298
 10
5.050686572885029
 20
6.986486295490725
 10
5.047161029526182
 20
6.986764796219429
 10
5.043635486167334
 20
6.988402629774082
 10
5.04064667482574
 20
6.991150450842984
 10
5.038649614934517
 20
6.994589928577456
 10
5.037948340758709
 20
6.998197433671367
  0
LWPOLYLINE
  5
14E
330
1F
100
AcDbEntity
  8
0
  6
Continuous
 62
     7
370
    15
100
AcDbPolyline
 90
       17
 70
   128
 43
0.0
 10
5.037948340758708
 20
6.944490881390078
 10
5.038649614934517
 20
6.947717203894995
 10
5.040646674825739
 20
6.950071165456232
 10
5.043635486167333
 20
6.951194396764804
 10
5.04716102952618
 20
6.950915896036099
 10
5.050686572885028
 20
6.949278062481447
 10
5.053675384226621
 20
6.946530241412545
 10
5.055672444117845
 20
6.943090763678074
 10
5.056373718293653
 20
6.939483258584163
 10
5.055672444117845
 20
6.936256936079246
 10
5.053675384226621
 20
6.933902974518008
 10
5.050686572885028
 20
6.932779743209436
 10
5.04716102952618
 20
6.93305824393814
 10
5.043635486167333
 20
6.934696077492793
 10
5.040646674825739
 20
6.937443898561695
 10
5.038649614934517
 20
6.940883376296167
 10
5.037948340758708
 20
6.944490881390078
  0
LWPOLYLINE
  5
14F
330
1F
100
AcDbEntity
  8
0
  6
Continuous
 62
     7
370
    15
100
AcDbPolyline
 90
       13
 70
   128
 43
0.0
 10
5.026456324846143
 20
6.982965512599236
 10
5.028823701436349
 20
6.982621943805895
 10
5.032349244795198
 20
6.980984110251243
 10
5.03533805613679
 20
6.978236289182341
 10
5.037335116028014
 20
6.97479681144787
 10
5.038036390203822
 20
6.971189306353958
 10
5.037335116028014
 20
6.967962983849041
 10
5.03533805613679
 20
6.965609022287804
 10
5.032349244795198
 20
6.964485790979231
 10
5.028823701436349
 20
6.964764291707936
 10
5.025298158077502
 20
6.966402125262588
 10
5.02230934673591
 20
6.969149946331491
 10
5.020930965453517
 20
6.971232934934644
  0
ARC
  5
150
330
1F
100
AcDbEntity
  8
0
  6
Continuous
 62
     7
370
    15
100
AcDbCircle
 10
4.964711856021106
 20
7.045306958806389
 30
0.0
 40
0.0078874843261185
100
AcDbArc
 50
53.20926295336413
 51
142.2980438165298
  0
ARC
  5
151
330
1F
100
AcDbEntity
  8
0
  6
Continuous
 62
     7
370
    15
100
AcDbCircle
 10
4.947583872468991
 20
6.970681123798952
 30
0.0
 40
0.0064005183583311
100
AcDbArc
 50
111.7943402343799
 51
183.0264388799501
  0
LWPOLYLINE
  5
152
330
1F
100
AcDbEntity
  8
0
  6
Continuous
 62
     7
370
    15
100
AcDbPolyline
 90
        9
 70
   128
 43
0.0
 10
4.959484181930152
 20
6.963857452375901
 10
4.958916384412004
 20
6.96210925183238
 10
4.95691932452078
 20
6.959755290271143
 10
4.953930513179187
 20
6.95863205896257
 10
4.95040496982034
 20
6.958910559691276
 10
4.946879426461492
 20
6.960548393245927
 10
4.943890615119898
 20
6.96329621431483
 10
4.941893555228675
 20
6.966735692049301
 10
4.941192281052867
 20
6.970343197143212
  0
LWPOLYLINE
  5
153
330
1F
100
AcDbEntity
  8
0
  6
Continuous
 62
     7
370
    15
100
AcDbPolyline
 90
        8
 70
   128
 43
0.0
 10
4.991367435272884
 20
6.954200250363601
 10
4.991183622745533
 20
6.953783615899947
 10
4.98918656285431
 20
6.95142965433871
 10
4.986197751512717
 20
6.950306423030138
 10
4.982672208153869
 20
6.950584923758842
 10
4.979146664795021
 20
6.952222757313495
 10
4.976157853453429
 20
6.954970578382397
 10
4.975190419735739
 20
6.956337227356096
  0
LWPOLYLINE
  5
154
330
1F
100
AcDbEntity
  8
0
  6
Continuous
 62
     7
370
    15
100
AcDbPolyline
 90
       17
 70
   128
 43
0.0
 10
5.019611012668877
 20
6.924143199381445
 10
5.020312286844685
 20
6.927369521886364
 10
5.02230934673591
 20
6.9297234834476
 10
5.025298158077502
 20
6.930846714756172
 10
5.028823701436349
 20
6.930568214027467
 10
5.032349244795198
 20
6.928930380472815
 10
5.03533805613679
 20
6.926182559403913
 10
5.037335116028014
 20
6.922743081669442
 10
5.038036390203822
 20
6.91913557657553
 10
5.037335116028014
 20
6.915909254070612
 10
5.03533805613679
 20
6.913555292509376
 10
5.032349244795198
 20
6.912432061200804
 10
5.028823701436349
 20
6.912710561929508
 10
5.025298158077502
 20
6.914348395484161
 10
5.02230934673591
 20
6.917096216553063
 10
5.020312286844685
 20
6.920535694287535
 10
5.019611012668877
 20
6.924143199381445
  0
LWPOLYLINE
  5
155
330
1F
100
AcDbEntity
  8
0
  6
Continuous
 62
     7
370
    15
100
AcDbPolyline
 90
       17
 70
   128
 43
0.0
 10
5.037948340758708
 20
6.89243715161165
 10
5.038649614934517
 20
6.895663474116567
 10
5.040646674825739
 20
6.898017435677804
 10
5.043635486167333
 20
6.899140666986377
 10
5.04716102952618
 20
6.898862166257671
 10
5.050686572885028
 20
6.89722433270302
 10
5.053675384226621
 20
6.894476511634118
 10
5.055672444117845
 20
6.891037033899645
 10
5.056373718293653
 20
6.887429528805735
 10
5.055672444117845
 20
6.884203206300817
 10
5.053675384226621
 20
6.88184924473958
 10
5.050686572885028
 20
6.880726013431008
 10
5.04716102952618
 20
6.881004514159712
 10
5.043635486167333
 20
6.882642347714365
 10
5.040646674825739
 20
6.885390168783267
 10
5.038649614934517
 20
6.888829646517738
 10
5.037948340758708
 20
6.89243715161165
  0
LWPOLYLINE
  5
156
330
1F
100
AcDbEntity
  8
0
  6
Continuous
 62
     7
370
    15
100
AcDbPolyline
 90
       17
 70
   128
 43
0.0
 10
5.037948340758708
 20
6.838730599330357
 10
5.038649614934517
 20
6.841956921835275
 10
5.040646674825739
 20
6.844310883396513
 10
5.043635486167333
 20
6.845434114705085
 10
5.04716102952618
 20
6.84515561397638
 10
5.050686572885028
 20
6.843517780421728
 10
5.053675384226621
 20
6.840769959352826
 10
5.055672444117845
 20
6.837330481618354
 10
5.056373718293653
 20
6.833722976524443
 10
5.055672444117845
 20
6.830496654019525
 10
5.053675384226621
 20
6.828142692458289
 10
5.050686572885028
 20
6.827019461149716
 10
5.04716102952618
 20
6.827297961878421
 10
5.043635486167333
 20
6.828935795433073
 10
5.040646674825739
 20
6.831683616501975
 10
5.038649614934517
 20
6.835123094236447
 10
5.037948340758708
 20
6.838730599330357
  0
LWPOLYLINE
  5
157
330
1F
100
AcDbEntity
  8
0
  6
Continuous
 62
     7
370
    15
100
AcDbPolyline
 90
       17
 70
   128
 43
0.0
 10
5.019611012668877
 20
6.870436647100154
 10
5.020312286844685
 20
6.873662969605072
 10
5.02230934673591
 20
6.876016931166308
 10
5.025298158077502
 20
6.877140162474881
 10
5.028823701436349
 20
6.876861661746175
 10
5.032349244795198
 20
6.875223828191524
 10
5.03533805613679
 20
6.872476007122622
 10
5.037335116028014
 20
6.869036529388151
 10
5.038036390203822
 20
6.865429024294239
 10
5.037335116028014
 20
6.862202701789321
 10
5.03533805613679
 20
6.859848740228084
 10
5.032349244795198
 20
6.858725508919511
 10
5.028823701436349
 20
6.859004009648216
 10
5.025298158077502
 20
6.860641843202869
 10
5.02230934673591
 20
6.863389664271771
 10
5.020312286844685
 20
6.866829142006242
 10
5.019611012668877
 20
6.870436647100154
  0
LWPOLYLINE
  5
158
330
1F
100
AcDbEntity
  8
0
  6
Continuous
 62
     7
370
    15
100
AcDbPolyline
 90
       17
 70
   128
 43
0.0
 10
4.957470027303171
 20
6.940594317655012
 10
4.958171301478977
 20
6.94382064015993
 10
4.960168361370202
 20
6.946174601721167
 10
4.963157172711794
 20
6.947297833029739
 10
4.966682716070642
 20
6.947019332301034
 10
4.97020825942949
 20
6.945381498746382
 10
4.973197070771083
 20
6.94263367767748
 10
4.975194130662306
 20
6.939194199943009
 10
4.975895404838115
 20
6.935586694849097
 10
4.975194130662306
 20
6.932360372344179
 10
4.973197070771083
 20
6.930006410782943
 10
4.97020825942949
 20
6.928883179474369
 10
4.966682716070642
 20
6.929161680203075
 10
4.963157172711794
 20
6.930799513757728
 10
4.960168361370202
 20
6.93354733482663
 10
4.958171301478977
 20
6.936986812561101
 10
4.957470027303171
 20
6.940594317655012
  0
LWPOLYLINE
  5
159
330
1F
100
AcDbEntity
  8
0
  6
Continuous
 62
     7
370
    15
100
AcDbPolyline
 90
       17
 70
   128
 43
0.0
 10
4.941192281052867
 20
6.918289467364784
 10
4.941893555228675
 20
6.921515789869702
 10
4.943890615119898
 20
6.92386975143094
 10
4.946879426461492
 20
6.924992982739512
 10
4.95040496982034
 20
6.924714482010807
 10
4.953930513179187
 20
6.923076648456155
 10
4.95691932452078
 20
6.920328827387253
 10
4.958916384412004
 20
6.916889349652781
 10
4.959617658587811
 20
6.91328184455887
 10
4.958916384412004
 20
6.910055522053952
 10
4.95691932452078
 20
6.907701560492716
 10
4.953930513179187
 20
6.906578329184142
 10
4.95040496982034
 20
6.906856829912848
 10
4.946879426461492
 20
6.908494663467499
 10
4.943890615119898
 20
6.911242484536401
 10
4.941893555228675
 20
6.914681962270874
 10
4.941192281052867
 20
6.918289467364784
  0
LWPOLYLINE
  5
15A
330
1F
100
AcDbEntity
  8
0
  6
Continuous
 62
     7
370
    15
100
AcDbPolyline
 90
       17
 70
   128
 43
0.0
 10
4.941192281052868
 20
6.864582915083495
 10
4.941893555228676
 20
6.867809237588413
 10
4.9438906151199
 20
6.87016319914965
 10
4.946879426461493
 20
6.871286430458223
 10
4.950404969820341
 20
6.871007929729518
 10
4.953930513179188
 20
6.869370096174866
 10
4.956919324520782
 20
6.866622275105964
 10
4.958916384412005
 20
6.863182797371492
 10
4.959617658587814
 20
6.859575292277581
 10
4.958916384412005
 20
6.856348969772663
 10
4.956919324520782
 20
6.853995008211425
 10
4.953930513179188
 20
6.852871776902853
 10
4.950404969820341
 20
6.853150277631558
 10
4.946879426461493
 20
6.85478811118621
 10
4.9438906151199
 20
6.857535932255112
 10
4.941893555228676
 20
6.860975409989585
 10
4.941192281052868
 20
6.864582915083495
  0
LWPOLYLINE
  5
15B
330
1F
100
AcDbEntity
  8
0
  6
Continuous
 62
     7
370
    15
100
AcDbPolyline
 90
       17
 70
   128
 43
0.0
 10
4.957470027303171
 20
6.886887765373719
 10
4.958171301478977
 20
6.890114087878638
 10
4.960168361370202
 20
6.892468049439875
 10
4.963157172711794
 20
6.893591280748447
 10
4.966682716070642
 20
6.893312780019742
 10
4.97020825942949
 20
6.89167494646509
 10
4.973197070771083
 20
6.888927125396188
 10
4.975194130662306
 20
6.885487647661716
 10
4.975895404838115
 20
6.881880142567806
 10
4.975194130662306
 20
6.878653820062888
 10
4.973197070771083
 20
6.876299858501651
 10
4.97020825942949
 20
6.875176627193078
 10
4.966682716070642
 20
6.875455127921783
 10
4.963157172711794
 20
6.877092961476436
 10
4.960168361370202
 20
6.879840782545338
 10
4.958171301478977
 20
6.883280260279809
 10
4.957470027303171
 20
6.886887765373719
  0
LWPOLYLINE
  5
15C
330
1F
100
AcDbEntity
  8
0
  6
Continuous
 62
     7
370
    15
100
AcDbPolyline
 90
       17
 70
   128
 43
0.0
 10
4.973459519386397
 20
6.856257279151059
 10
4.974160793562204
 20
6.859483601655978
 10
4.976157853453429
 20
6.861837563217215
 10
4.979146664795021
 20
6.862960794525787
 10
4.982672208153869
 20
6.862682293797083
 10
4.986197751512717
 20
6.86104446024243
 10
4.98918656285431
 20
6.858296639173528
 10
4.991183622745533
 20
6.854857161439056
 10
4.991884896921342
 20
6.851249656345146
 10
4.991183622745533
 20
6.848023333840227
 10
4.98918656285431
 20
6.845669372278991
 10
4.986197751512717
 20
6.844546140970418
 10
4.982672208153869
 20
6.844824641699123
 10
4.979146664795021
 20
6.846462475253775
 10
4.976157853453429
 20
6.849210296322677
 10
4.974160793562204
 20
6.852649774057149
 10
4.973459519386397
 20
6.856257279151059
  0
LWPOLYLINE
  5
15D
330
1F
100
AcDbEntity
  8
0
  6
Continuous
 62
     7
370
    15
100
AcDbPolyline
 90
       17
 70
   128
 43
0.0
 10
5.019611012668877
 20
6.818382917321725
 10
5.020312286844685
 20
6.821609239826643
 10
5.02230934673591
 20
6.823963201387881
 10
5.025298158077502
 20
6.825086432696453
 10
5.028823701436349
 20
6.824807931967749
 10
5.032349244795198
 20
6.823170098413096
 10
5.03533805613679
 20
6.820422277344194
 10
5.037335116028014
 20
6.816982799609722
 10
5.038036390203822
 20
6.813375294515811
 10
5.037335116028014
 20
6.810148972010893
 10
5.03533805613679
 20
6.807795010449657
 10
5.032349244795198
 20
6.806671779141083
 10
5.028823701436349
 20
6.806950279869788
 10
5.025298158077502
 20
6.80858811342444
 10
5.02230934673591
 20
6.811335934493342
 10
5.020312286844685
 20
6.814775412227814
 10
5.019611012668877
 20
6.818382917321725
  0
LWPOLYLINE
  5
15E
330
1F
100
AcDbEntity
  8
0
  6
Continuous
 62
     7
370
    15
100
AcDbPolyline
 90
       17
 70
   128
 43
0.0
 10
5.037948340758708
 20
6.786676869551929
 10
5.038649614934517
 20
6.789903192056848
 10
5.040646674825739
 20
6.792257153618085
 10
5.043635486167333
 20
6.793380384926657
 10
5.04716102952618
 20
6.793101884197953
 10
5.050686572885028
 20
6.7914640506433
 10
5.053675384226621
 20
6.788716229574398
 10
5.055672444117845
 20
6.785276751839926
 10
5.056373718293653
 20
6.781669246746016
 10
5.055672444117845
 20
6.778442924241097
 10
5.053675384226621
 20
6.77608896267986
 10
5.050686572885028
 20
6.774965731371288
 10
5.04716102952618
 20
6.775244232099993
 10
5.043635486167333
 20
6.776882065654645
 10
5.040646674825739
 20
6.779629886723547
 10
5.038649614934517
 20
6.783069364458019
 10
5.037948340758708
 20
6.786676869551929
  0
LWPOLYLINE
  5
15F
330
1F
100
AcDbEntity
  8
0
  6
Continuous
 62
     7
370
    15
100
AcDbPolyline
 90
       17
 70
   128
 43
0.0
 10
4.989669774174592
 20
6.720760022321621
 10
4.990371048350398
 20
6.723986344826538
 10
4.992368108241623
 20
6.726340306387775
 10
4.995356919583215
 20
6.727463537696348
 10
4.998882462942063
 20
6.727185036967642
 10
5.00240800630091
 20
6.725547203412991
 10
5.005396817642504
 20
6.722799382344088
 10
5.007393877533727
 20
6.719359904609617
 10
5.008095151709534
 20
6.715752399515706
 10
5.007393877533727
 20
6.712526077010788
 10
5.005396817642504
 20
6.710172115449551
 10
5.00240800630091
 20
6.709048884140979
 10
4.998882462942063
 20
6.709327384869683
 10
4.995356919583215
 20
6.710965218424336
 10
4.992368108241621
 20
6.713713039493238
 10
4.990371048350398
 20
6.717152517227709
 10
4.989669774174592
 20
6.720760022321621
  0
LWPOLYLINE
  5
160
330
1F
100
AcDbEntity
  8
0
  6
Continuous
 62
     7
370
    15
100
AcDbPolyline
 90
       17
 70
   128
 43
0.0
 10
5.005703930072554
 20
6.689679927402567
 10
5.006405204248362
 20
6.692906249907484
 10
5.008402264139586
 20
6.69526021146872
 10
5.011391075481179
 20
6.696383442777294
 10
5.014916618840026
 20
6.696104942048589
 10
5.018442162198874
 20
6.694467108493937
 10
5.021430973540467
 20
6.691719287425035
 10
5.023428033431691
 20
6.688279809690563
 10
5.024129307607498
 20
6.684672304596652
 10
5.023428033431691
 20
6.681445982091735
 10
5.021430973540467
 20
6.679092020530497
 10
5.018442162198873
 20
6.677968789221925
 10
5.014916618840025
 20
6.678247289950629
 10
5.011391075481179
 20
6.679885123505282
 10
5.008402264139586
 20
6.682632944574184
 10
5.006405204248362
 20
6.686072422308655
 10
5.005703930072554
 20
6.689679927402567
  0
LWPOLYLINE
  5
161
330
1F
100
AcDbEntity
  8
0
  6
Continuous
 62
     7
370
    15
100
AcDbPolyline
 90
       17
 70
   128
 43
0.0
 10
5.037948340758708
 20
6.680916587492216
 10
5.038649614934517
 20
6.684142909997133
 10
5.040646674825739
 20
6.686496871558371
 10
5.043635486167333
 20
6.687620102866943
 10
5.04716102952618
 20
6.687341602138238
 10
5.050686572885028
 20
6.685703768583586
 10
5.053675384226621
 20
6.682955947514684
 10
5.055672444117845
 20
6.679516469780212
 10
5.056373718293653
 20
6.675908964686301
 10
5.055672444117845
 20
6.672682642181383
 10
5.053675384226621
 20
6.670328680620147
 10
5.050686572885028
 20
6.669205449311573
 10
5.04716102952618
 20
6.669483950040279
 10
5.043635486167333
 20
6.671121783594932
 10
5.040646674825739
 20
6.673869604663834
 10
5.038649614934517
 20
6.677309082398305
 10
5.037948340758708
 20
6.680916587492216
  0
LINE
  5
162
330
1F
100
AcDbEntity
  8
0
  6
Continuous
 62
     7
370
    15
100
AcDbLine
 10
5.019611012668882
 20
6.553058627340002
 30
0.0
 11
5.019691432498161
 21
6.554213964556335
 31
0.0
  0
LWPOLYLINE
  5
163
330
1F
100
AcDbEntity
  8
0
  6
Continuous
 62
     7
370
    15
100
AcDbPolyline
 90
       16
 70
   128
 43
0.0
 10
5.023647953391942
 20
6.559348011680619
 10
5.025298158077507
 20
6.55976214271473
 10
5.028823701436355
 20
6.559483641986026
 10
5.032349244795203
 20
6.557845808431373
 10
5.035338056136796
 20
6.55509798736247
 10
5.03733511602802
 20
6.551658509627999
 10
5.038036390203829
 20
6.548051004534086
 10
5.03733511602802
 20
6.544824682029169
 10
5.035338056136796
 20
6.542470720467931
 10
5.032349244795203
 20
6.541347489159359
 10
5.028823701436355
 20
6.541625989888064
 10
5.025298158077507
 20
6.543263823442716
 10
5.022309346735913
 20
6.54601164451162
 10
5.020312286844689
 20
6.549451122246091
 10
5.019611012668882
 20
6.553058627340002
 10
5.019611012668882
 20
6.553058627340002
  0
LWPOLYLINE
  5
164
330
1F
100
AcDbEntity
  8
0
  6
Continuous
 62
     7
370
    15
100
AcDbPolyline
 90
       17
 70
   128
 43
0.0
 10
5.037948340758712
 20
6.574797289402986
 10
5.038649614934519
 20
6.578023611907905
 10
5.040646674825744
 20
6.580377573469141
 10
5.043635486167337
 20
6.581500804777714
 10
5.047161029526186
 20
6.58122230404901
 10
5.050686572885034
 20
6.579584470494357
 10
5.053675384226627
 20
6.576836649425454
 10
5.05567244411785
 20
6.573397171690983
 10
5.056373718293659
 20
6.56978966659707
 10
5.05567244411785
 20
6.566563344092153
 10
5.053675384226627
 20
6.564209382530915
 10
5.050686572885034
 20
6.563086151222343
 10
5.047161029526186
 20
6.563364651951048
 10
5.043635486167337
 20
6.5650024855057
 10
5.040646674825744
 20
6.567750306574604
 10
5.038649614934519
 20
6.571189784309075
 10
5.037948340758712
 20
6.574797289402986
  0
LWPOLYLINE
  5
165
330
1F
100
AcDbEntity
  8
0
  6
Continuous
 62
     7
370
    15
100
AcDbPolyline
 90
       17
 70
   128
 43
0.0
 10
4.989669774174592
 20
6.667053470040329
 10
4.990371048350399
 20
6.670279792545247
 10
4.992368108241623
 20
6.672633754106485
 10
4.995356919583216
 20
6.673756985415057
 10
4.998882462942063
 20
6.673478484686352
 10
5.00240800630091
 20
6.6718406511317
 10
5.005396817642504
 20
6.669092830062798
 10
5.007393877533727
 20
6.665653352328326
 10
5.008095151709536
 20
6.662045847234415
 10
5.007393877533727
 20
6.658819524729497
 10
5.005396817642504
 20
6.656465563168261
 10
5.00240800630091
 20
6.655342331859688
 10
4.998882462942063
 20
6.655620832588392
 10
4.995356919583216
 20
6.657258666143045
 10
4.992368108241623
 20
6.660006487211947
 10
4.990371048350399
 20
6.663445964946419
 10
4.989669774174592
 20
6.667053470040329
  0
LWPOLYLINE
  5
166
330
1F
100
AcDbEntity
  8
0
  6
Continuous
 62
     7
370
    15
100
AcDbPolyline
 90
       14
 70
   128
 43
0.0
 10
5.026456324841544
 20
6.771444948479864
 10
5.028823701436349
 20
6.771101379686459
 10
5.032349244795198
 20
6.769463546131807
 10
5.03533805613679
 20
6.766715725062905
 10
5.037335116028014
 20
6.763276247328432
 10
5.038036390203822
 20
6.759668742234522
 10
5.037335116028014
 20
6.756442419729604
 10
5.03533805613679
 20
6.754088458168367
 10
5.032349244795198
 20
6.752965226859795
 10
5.028823701436349
 20
6.7532437275885
 10
5.025298158077502
 20
6.754881561143152
 10
5.02230934673591
 20
6.757629382212054
 10
5.020312286844685
 20
6.761068859946525
 10
5.020242790565449
 20
6.761255119876472
  0
ARC
  5
167
330
1F
100
AcDbEntity
  8
0
  6
Continuous
 62
     7
370
    15
100
AcDbCircle
 10
4.947817826826828
 20
6.759011203887422
 30
0.0
 40
0.0066282287055791
100
AcDbArc
 50
78.5802767703142
 51
181.6302655066687
  0
LWPOLYLINE
  5
168
330
1F
100
AcDbEntity
  8
0
  6
Continuous
 62
     7
370
    15
100
AcDbPolyline
 90
       11
 70
   128
 43
0.0
 10
4.959093077931093
 20
6.75692753781748
 10
4.959617658587814
 20
6.753815010217861
 10
4.958916384412005
 20
6.750588687712943
 10
4.956919324520782
 20
6.748234726151706
 10
4.953930513179188
 20
6.747111494843134
 10
4.950404969820341
 20
6.747389995571839
 10
4.946879426461493
 20
6.749027829126491
 10
4.9438906151199
 20
6.751775650195393
 10
4.941893555228676
 20
6.755215127929865
 10
4.941192281052868
 20
6.758822633023776
 10
4.941192281052868
 20
6.758822633023776
  0
LWPOLYLINE
  5
169
330
1F
100
AcDbEntity
  8
0
  6
Continuous
 62
     7
370
    15
100
AcDbPolyline
 90
       17
 70
   128
 43
0.0
 10
4.957470027303171
 20
6.729073753535581
 10
4.95817130147898
 20
6.732300076040497
 10
4.960168361370203
 20
6.734654037601735
 10
4.963157172711796
 20
6.735777268910307
 10
4.966682716070645
 20
6.735498768181603
 10
4.970208259429492
 20
6.73386093462695
 10
4.973197070771084
 20
6.731113113558048
 10
4.975194130662307
 20
6.727673635823576
 10
4.975895404838116
 20
6.724066130729665
 10
4.975194130662307
 20
6.720839808224748
 10
4.973197070771084
 20
6.718485846663512
 10
4.970208259429491
 20
6.717362615354938
 10
4.966682716070643
 20
6.717641116083644
 10
4.963157172711796
 20
6.719278949638296
 10
4.960168361370203
 20
6.722026770707198
 10
4.95817130147898
 20
6.725466248441668
 10
4.957470027303171
 20
6.729073753535581
  0
LWPOLYLINE
  5
16A
330
1F
100
AcDbEntity
  8
0
  6
Continuous
 62
     7
370
    15
100
AcDbPolyline
 90
       17
 70
   128
 43
0.0
 10
4.908970698014086
 20
6.71596994713362
 10
4.909671972189894
 20
6.719196269638538
 10
4.911669032081118
 20
6.721550231199774
 10
4.914657843422711
 20
6.722673462508347
 10
4.918183386781558
 20
6.722394961779643
 10
4.921708930140407
 20
6.720757128224991
 10
4.924697741481999
 20
6.718009307156088
 10
4.926694801373223
 20
6.714569829421616
 10
4.92739607554903
 20
6.710962324327706
 10
4.926694801373223
 20
6.707736001822788
 10
4.924697741481999
 20
6.705382040261551
 10
4.921708930140407
 20
6.704258808952978
 10
4.918183386781558
 20
6.704537309681683
 10
4.914657843422711
 20
6.706175143236335
 10
4.911669032081118
 20
6.708922964305237
 10
4.909671972189894
 20
6.712362442039709
 10
4.908970698014086
 20
6.71596994713362
  0
LWPOLYLINE
  5
16B
330
1F
100
AcDbEntity
  8
0
  6
Continuous
 62
     7
370
    15
100
AcDbPolyline
 90
       17
 70
   128
 43
0.0
 10
4.908970698014086
 20
6.662263394852331
 10
4.909671972189894
 20
6.665489717357249
 10
4.911669032081118
 20
6.667843678918486
 10
4.914657843422711
 20
6.668966910227058
 10
4.918183386781558
 20
6.668688409498353
 10
4.921708930140407
 20
6.667050575943701
 10
4.924697741481999
 20
6.664302754874799
 10
4.926694801373223
 20
6.660863277140327
 10
4.92739607554903
 20
6.657255772046417
 10
4.926694801373223
 20
6.654029449541499
 10
4.924697741481999
 20
6.651675487980262
 10
4.921708930140407
 20
6.650552256671689
 10
4.918183386781558
 20
6.650830757400393
 10
4.914657843422711
 20
6.652468590955046
 10
4.911669032081118
 20
6.655216412023948
 10
4.909671972189894
 20
6.65865588975842
 10
4.908970698014086
 20
6.662263394852331
  0
LWPOLYLINE
  5
16C
330
1F
100
AcDbEntity
  8
0
  6
Continuous
 62
     7
370
    15
100
AcDbPolyline
 90
       17
 70
   128
 43
0.0
 10
4.908970698014088
 20
6.609850649044387
 10
4.909671972189896
 20
6.613076971549305
 10
4.91166903208112
 20
6.615430933110543
 10
4.914657843422714
 20
6.616554164419116
 10
4.918183386781562
 20
6.61627566369041
 10
4.921708930140411
 20
6.614637830135758
 10
4.924697741482004
 20
6.611890009066856
 10
4.926694801373227
 20
6.608450531332384
 10
4.927396075549036
 20
6.604843026238472
 10
4.926694801373227
 20
6.601616703733554
 10
4.924697741482004
 20
6.599262742172316
 10
4.921708930140409
 20
6.598139510863743
 10
4.918183386781562
 20
6.598418011592449
 10
4.914657843422713
 20
6.600055845147101
 10
4.91166903208112
 20
6.602803666216003
 10
4.909671972189896
 20
6.606243143950475
 10
4.908970698014088
 20
6.609850649044387
  0
LWPOLYLINE
  5
16D
330
1F
100
AcDbEntity
  8
0
  6
Continuous
 62
     7
370
    15
100
AcDbPolyline
 90
       17
 70
   128
 43
0.0
 10
4.927484124994147
 20
6.683954197010293
 10
4.928185399169955
 20
6.68718051951521
 10
4.93018245906118
 20
6.689534481076447
 10
4.933171270402772
 20
6.690657712385021
 10
4.93669681376162
 20
6.690379211656315
 10
4.940222357120467
 20
6.688741378101664
 10
4.943211168462061
 20
6.685993557032761
 10
4.945208228353284
 20
6.682554079298289
 10
4.945909502529093
 20
6.678946574204378
 10
4.945208228353284
 20
6.675720251699461
 10
4.943211168462061
 20
6.673366290138223
 10
4.940222357120467
 20
6.672243058829651
 10
4.93669681376162
 20
6.672521559558355
 10
4.933171270402772
 20
6.674159393113008
 10
4.93018245906118
 20
6.67690721418191
 10
4.928185399169955
 20
6.680346691916382
 10
4.927484124994147
 20
6.683954197010293
  0
LWPOLYLINE
  5
16E
330
1F
100
AcDbEntity
  8
0
  6
Continuous
 62
     7
370
    15
100
AcDbPolyline
 90
       10
 70
   128
 43
0.0
 10
4.991851033684373
 20
6.746263435813791
 10
4.991884896921342
 20
6.745489374285429
 10
4.991183622745533
 20
6.742263051780511
 10
4.98918656285431
 20
6.739909090219274
 10
4.986197751512717
 20
6.738785858910701
 10
4.982672208153869
 20
6.739064359639406
 10
4.979146664795021
 20
6.740702193194058
 10
4.976157853453429
 20
6.74345001426296
 10
4.974160793562204
 20
6.746889491997432
 10
4.973536075868142
 20
6.749327500182366
  0
LWPOLYLINE
  5
16F
330
1F
100
AcDbEntity
  8
0
  6
Continuous
 62
     7
370
    15
100
AcDbPolyline
 90
       17
 70
   128
 43
0.0
 10
4.973459519386397
 20
6.698443267312917
 10
4.974160793562204
 20
6.701669589817836
 10
4.976157853453429
 20
6.704023551379073
 10
4.979146664795021
 20
6.705146782687645
 10
4.982672208153869
 20
6.70486828195894
 10
4.986197751512717
 20
6.703230448404288
 10
4.98918656285431
 20
6.700482627335386
 10
4.991183622745533
 20
6.697043149600914
 10
4.991884896921342
 20
6.693435644507004
 10
4.991183622745533
 20
6.690209322002085
 10
4.98918656285431
 20
6.687855360440849
 10
4.986197751512717
 20
6.686732129132276
 10
4.982672208153869
 20
6.687010629860981
 10
4.979146664795021
 20
6.688648463415633
 10
4.976157853453429
 20
6.691396284484535
 10
4.974160793562204
 20
6.694835762219007
 10
4.973459519386397
 20
6.698443267312917
  0
LWPOLYLINE
  5
170
330
1F
100
AcDbEntity
  8
0
  6
Continuous
 62
     7
370
    15
100
AcDbPolyline
 90
       15
 70
   128
 43
0.0
 10
5.024637521340198
 20
6.328394306327761
 10
5.0252981580775
 20
6.32851010838573
 10
5.028823701436349
 20
6.328231607657025
 10
5.032349244795196
 20
6.326593774102373
 10
5.03533805613679
 20
6.323845953033471
 10
5.037335116028013
 20
6.320406475298998
 10
5.038036390203822
 20
6.316798970205088
 10
5.037335116028013
 20
6.313572647700168
 10
5.03533805613679
 20
6.311218686138932
 10
5.032349244795196
 20
6.310095454830358
 10
5.028823701436348
 20
6.310373955559064
 10
5.0252981580775
 20
6.312011789113717
 10
5.022309346735906
 20
6.314759610182619
 10
5.020312286844682
 20
6.318199087917091
 10
5.020295458030695
 20
6.318243307057135
  0
LWPOLYLINE
  5
171
330
1F
100
AcDbEntity
  8
0
  6
Continuous
 62
     7
370
    15
100
AcDbPolyline
 90
       17
 70
   128
 43
0.0
 10
5.037948340758705
 20
6.290100545241207
 10
5.038649614934513
 20
6.293326867746125
 10
5.040646674825737
 20
6.295680829307363
 10
5.043635486167331
 20
6.296804060615935
 10
5.047161029526178
 20
6.29652555988723
 10
5.050686572885027
 20
6.294887726332578
 10
5.053675384226621
 20
6.292139905263675
 10
5.055672444117844
 20
6.288700427529202
 10
5.056373718293652
 20
6.285092922435291
 10
5.055672444117844
 20
6.281866599930373
 10
5.053675384226621
 20
6.279512638369135
 10
5.050686572885027
 20
6.278389407060563
 10
5.047161029526178
 20
6.278667907789268
 10
5.043635486167331
 20
6.28030574134392
 10
5.040646674825737
 20
6.283053562412823
 10
5.038649614934513
 20
6.286493040147295
 10
5.037948340758705
 20
6.290100545241207
  0
LWPOLYLINE
  5
172
330
1F
100
AcDbEntity
  8
0
  6
Continuous
 62
     7
370
    15
100
AcDbPolyline
 90
       17
 70
   128
 43
0.0
 10
4.989669774174587
 20
6.224183698010895
 10
4.990371048350395
 20
6.227410020515813
 10
4.992368108241619
 20
6.22976398207705
 10
4.995356919583212
 20
6.230887213385623
 10
4.998882462942061
 20
6.230608712656919
 10
5.002408006300909
 20
6.228970879102265
 10
5.005396817642502
 20
6.226223058033363
 10
5.007393877533725
 20
6.222783580298891
 10
5.008095151709533
 20
6.21917607520498
 10
5.007393877533725
 20
6.215949752700062
 10
5.005396817642502
 20
6.213595791138824
 10
5.002408006300909
 20
6.212472559830252
 10
4.998882462942061
 20
6.212751060558956
 10
4.995356919583212
 20
6.214388894113609
 10
4.992368108241619
 20
6.217136715182511
 10
4.990371048350395
 20
6.220576192916984
 10
4.989669774174587
 20
6.224183698010895
  0
LWPOLYLINE
  5
173
330
1F
100
AcDbEntity
  8
0
  6
Continuous
 62
     7
370
    15
100
AcDbPolyline
 90
       17
 70
   128
 43
0.0
 10
5.00570393007255
 20
6.193103603091842
 10
5.006405204248357
 20
6.19632992559676
 10
5.008402264139582
 20
6.198683887157998
 10
5.011391075481175
 20
6.19980711846657
 10
5.014916618840024
 20
6.199528617737866
 10
5.018442162198872
 20
6.197890784183213
 10
5.021430973540465
 20
6.195142963114311
 10
5.02342803343169
 20
6.191703485379838
 10
5.024129307607497
 20
6.188095980285927
 10
5.02342803343169
 20
6.184869657781009
 10
5.021430973540465
 20
6.182515696219772
 10
5.018442162198871
 20
6.181392464911199
 10
5.014916618840024
 20
6.181670965639903
 10
5.011391075481175
 20
6.183308799194557
 10
5.008402264139582
 20
6.186056620263459
 10
5.006405204248357
 20
6.18949609799793
 10
5.00570393007255
 20
6.193103603091842
  0
LWPOLYLINE
  5
174
330
1F
100
AcDbEntity
  8
0
  6
Continuous
 62
     7
370
    15
100
AcDbPolyline
 90
       17
 70
   128
 43
0.0
 10
5.037948340758705
 20
6.184340263181491
 10
5.038649614934513
 20
6.187566585686409
 10
5.040646674825737
 20
6.189920547247647
 10
5.043635486167332
 20
6.191043778556219
 10
5.047161029526179
 20
6.190765277827514
 10
5.050686572885027
 20
6.189127444272862
 10
5.053675384226621
 20
6.18637962320396
 10
5.055672444117845
 20
6.182940145469487
 10
5.056373718293653
 20
6.179332640375577
 10
5.055672444117845
 20
6.176106317870657
 10
5.053675384226621
 20
6.173752356309421
 10
5.050686572885027
 20
6.172629125000847
 10
5.047161029526179
 20
6.172907625729552
 10
5.043635486167331
 20
6.174545459284206
 10
5.040646674825737
 20
6.177293280353108
 10
5.038649614934513
 20
6.18073275808758
 10
5.037948340758705
 20
6.184340263181491
  0
LWPOLYLINE
  5
175
330
1F
100
AcDbEntity
  8
0
  6
Continuous
 62
     7
370
    15
100
AcDbPolyline
 90
       17
 70
   128
 43
0.0
 10
4.989669774174587
 20
6.277890250292185
 10
4.990371048350395
 20
6.281116572797103
 10
4.992368108241619
 20
6.283470534358341
 10
4.995356919583212
 20
6.284593765666913
 10
4.998882462942061
 20
6.284315264938209
 10
5.002408006300909
 20
6.282677431383556
 10
5.005396817642502
 20
6.279929610314654
 10
5.007393877533725
 20
6.276490132580182
 10
5.008095151709533
 20
6.27288262748627
 10
5.007393877533725
 20
6.269656304981352
 10
5.005396817642502
 20
6.267302343420114
 10
5.002408006300909
 20
6.266179112111542
 10
4.998882462942061
 20
6.266457612840246
 10
4.995356919583212
 20
6.268095446394899
 10
4.992368108241619
 20
6.270843267463801
 10
4.990371048350395
 20
6.274282745198275
 10
4.989669774174587
 20
6.277890250292185
  0
LWPOLYLINE
  5
176
330
1F
100
AcDbEntity
  8
0
  6
Continuous
 62
     7
370
    15
100
AcDbPolyline
 90
        3
 70
   128
 43
0.0
 10
4.927484124994144
 20
6.346844707040577
 10
4.928185399169953
 20
6.350071029545495
 10
4.929231835675004
 20
6.351602230495679
  0
ARC
  5
177
330
1F
100
AcDbEntity
  8
0
  6
Continuous
 62
     7
370
    15
100
AcDbCircle
 10
4.940089458196819
 20
6.347605324594005
 30
0.0
 40
0.0126282605378991
100
AcDbArc
 50
183.4530938588
 51
239.4285100869016
  0
LWPOLYLINE
  5
178
330
1F
100
AcDbEntity
  8
0
  6
Continuous
 62
     7
370
    15
100
AcDbPolyline
 90
        3
 70
   128
 43
0.0
 10
4.941192281052866
 20
6.315952860994342
 10
4.941893555228674
 20
6.319179183499261
 10
4.943571732422125
 20
6.321294824917461
  0
LWPOLYLINE
  5
179
330
1F
100
AcDbEntity
  8
0
  6
Continuous
 62
     7
370
    15
100
AcDbPolyline
 90
        9
 70
   128
 43
0.0
 10
4.959025733779554
 20
6.307957210072577
 10
4.958916384412004
 20
6.307718915683509
 10
4.956919324520781
 20
6.305364954122272
 10
4.953930513179187
 20
6.304241722813699
 10
4.950404969820339
 20
6.304520223542405
 10
4.946879426461491
 20
6.306158057097056
 10
4.943890615119897
 20
6.308905878165958
 10
4.941893555228674
 20
6.312345355900431
 10
4.941192281052866
 20
6.315952860994342
  0
LWPOLYLINE
  5
17A
330
1F
100
AcDbEntity
  8
0
  6
Continuous
 62
     7
370
    15
100
AcDbPolyline
 90
       17
 70
   128
 43
0.0
 10
4.927484124994143
 20
6.400551259321866
 10
4.928185399169951
 20
6.403777581826785
 10
4.930182459061176
 20
6.406131543388021
 10
4.933171270402769
 20
6.407254774696595
 10
4.936696813761616
 20
6.40697627396789
 10
4.940222357120465
 20
6.405338440413236
 10
4.943211168462059
 20
6.402590619344334
 10
4.945208228353282
 20
6.399151141609863
 10
4.94590950252909
 20
6.395543636515951
 10
4.945208228353282
 20
6.392317314011033
 10
4.943211168462058
 20
6.389963352449796
 10
4.940222357120465
 20
6.388840121141224
 10
4.936696813761616
 20
6.389118621869928
 10
4.933171270402769
 20
6.390756455424581
 10
4.930182459061176
 20
6.393504276493484
 10
4.928185399169951
 20
6.396943754227955
 10
4.927484124994143
 20
6.400551259321866
  0
LWPOLYLINE
  5
17B
330
1F
100
AcDbEntity
  8
0
  6
Continuous
 62
     7
370
    15
100
AcDbPolyline
 90
       17
 70
   128
 43
0.0
 10
4.927484124994143
 20
6.241084424980858
 10
4.928185399169951
 20
6.244310747485775
 10
4.930182459061176
 20
6.246664709047013
 10
4.933171270402769
 20
6.247787940355586
 10
4.936696813761616
 20
6.247509439626881
 10
4.940222357120465
 20
6.245871606072229
 10
4.943211168462059
 20
6.243123785003326
 10
4.945208228353282
 20
6.239684307268855
 10
4.94590950252909
 20
6.236076802174943
 10
4.945208228353282
 20
6.232850479670025
 10
4.943211168462058
 20
6.230496518108787
 10
4.940222357120465
 20
6.229373286800214
 10
4.936696813761616
 20
6.229651787528919
 10
4.933171270402769
 20
6.231289621083572
 10
4.930182459061176
 20
6.234037442152474
 10
4.928185399169951
 20
6.237476919886947
 10
4.927484124994143
 20
6.241084424980858
  0
LWPOLYLINE
  5
17C
330
1F
100
AcDbEntity
  8
0
  6
Continuous
 62
     7
370
    15
100
AcDbPolyline
 90
       17
 70
   128
 43
0.0
 10
4.908970698014082
 20
6.219393622822896
 10
4.90967197218989
 20
6.222619945327814
 10
4.911669032081114
 20
6.224973906889052
 10
4.914657843422707
 20
6.226097138197624
 10
4.918183386781556
 20
6.225818637468919
 10
4.921708930140404
 20
6.224180803914267
 10
4.924697741481998
 20
6.221432982845365
 10
4.926694801373221
 20
6.217993505110893
 10
4.92739607554903
 20
6.214386000016981
 10
4.926694801373221
 20
6.211159677512062
 10
4.924697741481998
 20
6.208805715950825
 10
4.921708930140404
 20
6.207682484642252
 10
4.918183386781556
 20
6.207960985370957
 10
4.914657843422707
 20
6.20959881892561
 10
4.911669032081114
 20
6.212346639994512
 10
4.90967197218989
 20
6.215786117728984
 10
4.908970698014082
 20
6.219393622822896
  0
LWPOLYLINE
  5
17D
330
1F
100
AcDbEntity
  8
0
  6
Continuous
 62
     7
370
    15
100
AcDbPolyline
 90
       17
 70
   128
 43
0.0
 10
4.908970698014082
 20
6.273100175104186
 10
4.90967197218989
 20
6.276326497609104
 10
4.911669032081114
 20
6.278680459170342
 10
4.914657843422707
 20
6.279803690478914
 10
4.918183386781556
 20
6.279525189750209
 10
4.921708930140404
 20
6.277887356195557
 10
4.924697741481998
 20
6.275139535126655
 10
4.926694801373221
 20
6.271700057392183
 10
4.92739607554903
 20
6.268092552298271
 10
4.926694801373221
 20
6.264866229793352
 10
4.924697741481998
 20
6.262512268232115
 10
4.921708930140404
 20
6.261389036923542
 10
4.918183386781556
 20
6.261667537652247
 10
4.914657843422707
 20
6.2633053712069
 10
4.911669032081114
 20
6.266053192275802
 10
4.90967197218989
 20
6.269492670010275
 10
4.908970698014082
 20
6.273100175104186
  0
LWPOLYLINE
  5
17E
330
1F
100
AcDbEntity
  8
0
  6
Continuous
 62
     7
370
    15
100
AcDbPolyline
 90
       17
 70
   128
 43
0.0
 10
4.927484124994143
 20
6.294790977262148
 10
4.928185399169951
 20
6.298017299767066
 10
4.930182459061176
 20
6.300371261328304
 10
4.933171270402769
 20
6.301494492636877
 10
4.936696813761616
 20
6.301215991908171
 10
4.940222357120465
 20
6.299578158353519
 10
4.943211168462059
 20
6.296830337284617
 10
4.945208228353282
 20
6.293390859550145
 10
4.94590950252909
 20
6.289783354456233
 10
4.945208228353282
 20
6.286557031951315
 10
4.943211168462058
 20
6.284203070390078
 10
4.940222357120465
 20
6.283079839081504
 10
4.936696813761616
 20
6.28335833981021
 10
4.933171270402769
 20
6.284996173364862
 10
4.930182459061176
 20
6.287743994433765
 10
4.928185399169951
 20
6.291183472168237
 10
4.927484124994143
 20
6.294790977262148
  0
LWPOLYLINE
  5
17F
330
1F
100
AcDbEntity
  8
0
  6
Continuous
 62
     7
370
    15
100
AcDbPolyline
 90
        8
 70
   128
 43
0.0
 10
4.991198184695446
 20
6.299423595598267
 10
4.991183622745533
 20
6.299393279751075
 10
4.989186562854309
 20
6.297039318189837
 10
4.986197751512715
 20
6.295916086881265
 10
4.982672208153868
 20
6.29619458760997
 10
4.979146664795019
 20
6.297832421164622
 10
4.976157853453425
 20
6.300580242233525
 10
4.976125026587395
 20
6.300621140409027
  0
LWPOLYLINE
  5
180
330
1F
100
AcDbEntity
  8
0
  6
Continuous
 62
     7
370
    15
100
AcDbPolyline
 90
       17
 70
   128
 43
0.0
 10
4.989669774174593
 20
6.118326242370179
 10
4.990371048350399
 20
6.121552564875098
 10
4.992368108241624
 20
6.123906526436335
 10
4.995356919583217
 20
6.125029757744909
 10
4.998882462942065
 20
6.124751257016202
 10
5.002408006300914
 20
6.12311342346155
 10
5.005396817642507
 20
6.120365602392648
 10
5.007393877533732
 20
6.116926124658176
 10
5.008095151709539
 20
6.113318619564264
 10
5.007393877533731
 20
6.110092297059346
 10
5.005396817642506
 20
6.107738335498109
 10
5.002408006300913
 20
6.106615104189537
 10
4.998882462942065
 20
6.106893604918242
 10
4.995356919583217
 20
6.108531438472894
 10
4.992368108241624
 20
6.111279259541796
 10
4.990371048350399
 20
6.114718737276268
 10
4.989669774174593
 20
6.118326242370179
  0
ARC
  5
181
330
1F
100
AcDbEntity
  8
0
  6
Continuous
 62
     7
370
    15
100
AcDbCircle
 10
4.933933882343687
 20
6.135519379018482
 30
0.0
 40
0.0064563823684721
100
AcDbArc
 50
96.71772730833442
 51
182.5958148595442
  0
LWPOLYLINE
  5
182
330
1F
100
AcDbEntity
  8
0
  6
Continuous
 62
     7
370
    15
100
AcDbPolyline
 90
       11
 70
   128
 43
0.0
 10
4.945830080314549
 20
6.131410832823384
 10
4.945909502529096
 20
6.130219346534223
 10
4.945208228353288
 20
6.126993024029306
 10
4.943211168462063
 20
6.124639062468068
 10
4.94022235712047
 20
6.123515831159496
 10
4.936696813761622
 20
6.1237943318882
 10
4.933171270402773
 20
6.125432165442853
 10
4.93018245906118
 20
6.128179986511756
 10
4.928185399169957
 20
6.131619464246227
 10
4.927484124994149
 20
6.135226969340139
 10
4.927484124994149
 20
6.135226969340139
  0
LWPOLYLINE
  5
183
330
1F
100
AcDbEntity
  8
0
  6
Continuous
 62
     7
370
    15
100
AcDbPolyline
 90
        9
 70
   128
 43
0.0
 10
4.975894958344311
 20
6.122419506162769
 10
4.975194130662311
 20
6.119280968330458
 10
4.973197070771087
 20
6.116927006769221
 10
4.970208259429493
 20
6.115803775460649
 10
4.966682716070645
 20
6.116082276189353
 10
4.963157172711796
 20
6.117720109744006
 10
4.960168361370203
 20
6.120467930812908
 10
4.95817130147898
 20
6.12390740854738
 10
4.957699963620422
 20
6.125470013867645
  0
LWPOLYLINE
  5
184
330
1F
100
AcDbEntity
  8
0
  6
Continuous
 62
     7
370
    15
100
AcDbPolyline
 90
       17
 70
   128
 43
0.0
 10
5.019611012668875
 20
6.163895407591859
 10
5.020312286844684
 20
6.167121730096778
 10
5.022309346735909
 20
6.169475691658014
 10
5.025298158077502
 20
6.170598922966587
 10
5.028823701436349
 20
6.170320422237883
 10
5.032349244795199
 20
6.168682588683229
 10
5.035338056136792
 20
6.165934767614327
 10
5.037335116028015
 20
6.162495289879855
 10
5.038036390203823
 20
6.158887784785943
 10
5.037335116028015
 20
6.155661462281026
 10
5.035338056136792
 20
6.153307500719788
 10
5.032349244795198
 20
6.152184269411216
 10
5.028823701436349
 20
6.15246277013992
 10
5.025298158077501
 20
6.154100603694573
 10
5.022309346735907
 20
6.156848424763475
 10
5.020312286844684
 20
6.160287902497948
 10
5.019611012668875
 20
6.163895407591859
  0
ARC
  5
185
330
1F
100
AcDbEntity
  8
0
  6
Continuous
 62
     7
370
    15
100
AcDbCircle
 10
4.915586642389399
 20
6.167174828581912
 30
0.0
 40
0.0066187866854554
100
AcDbArc
 50
79.32062936633617
 51
181.6791895125225
  0
ARC
  5
186
330
1F
100
AcDbEntity
  8
0
  6
Continuous
 62
     7
370
    15
100
AcDbCircle
 10
4.920616168309878
 20
6.166978155163092
 30
0.0
 40
0.0116454706138763
100
AcDbArc
 50
179.9866084737231
 51
282.7507032692225
  0
LWPOLYLINE
  5
187
330
1F
100
AcDbEntity
  8
0
  6
Continuous
 62
     7
370
    15
100
AcDbPolyline
 90
       15
 70
   128
 43
0.0
 10
5.010765896481082
 20
6.147286370099735
 10
5.01139107548118
 20
6.147394372658631
 10
5.014916618840027
 20
6.147115871929926
 10
5.018442162198875
 20
6.145478038375274
 10
5.021430973540469
 20
6.142730217306371
 10
5.023428033431693
 20
6.139290739571899
 10
5.024129307607501
 20
6.135683234477987
 10
5.023428033431693
 20
6.132456911973069
 10
5.021430973540469
 20
6.130102950411833
 10
5.018442162198875
 20
6.128979719103259
 10
5.014916618840027
 20
6.129258219831965
 10
5.01139107548118
 20
6.130896053386616
 10
5.008402264139586
 20
6.13364387445552
 10
5.006405204248362
 20
6.137083352189992
 10
5.005904180170418
 20
6.138784908438469
  0
LWPOLYLINE
  5
188
330
1F
100
AcDbEntity
  8
0
  6
Continuous
 62
     7
370
    15
100
AcDbPolyline
 90
       17
 70
   128
 43
0.0
 10
4.973459519386393
 20
6.255573495283484
 10
4.974160793562202
 20
6.258799817788402
 10
4.976157853453425
 20
6.26115377934964
 10
4.979146664795019
 20
6.262277010658213
 10
4.982672208153867
 20
6.261998509929507
 10
4.986197751512714
 20
6.260360676374855
 10
4.989186562854308
 20
6.257612855305953
 10
4.991183622745532
 20
6.254173377571481
 10
4.991884896921341
 20
6.250565872477569
 10
4.991183622745532
 20
6.247339549972651
 10
4.989186562854308
 20
6.244985588411413
 10
4.986197751512714
 20
6.24386235710284
 10
4.982672208153867
 20
6.244140857831546
 10
4.979146664795019
 20
6.245778691386198
 10
4.976157853453425
 20
6.2485265124551
 10
4.974160793562202
 20
6.251965990189572
 10
4.973459519386393
 20
6.255573495283484
  0
LWPOLYLINE
  5
189
330
1F
100
AcDbEntity
  8
0
  6
Continuous
 62
     7
370
    15
100
AcDbPolyline
 90
       17
 70
   128
 43
0.0
 10
4.957470027303167
 20
6.286203981506145
 10
4.958171301478976
 20
6.289430304011062
 10
4.960168361370199
 20
6.2917842655723
 10
4.963157172711794
 20
6.292907496880873
 10
4.966682716070641
 20
6.292628996152168
 10
4.97020825942949
 20
6.290991162597515
 10
4.973197070771083
 20
6.288243341528613
 10
4.975194130662306
 20
6.284803863794142
 10
4.975895404838115
 20
6.281196358700229
 10
4.975194130662306
 20
6.277970036195312
 10
4.973197070771083
 20
6.275616074634074
 10
4.970208259429488
 20
6.274492843325501
 10
4.966682716070641
 20
6.274771344054207
 10
4.963157172711794
 20
6.276409177608859
 10
4.960168361370199
 20
6.279156998677761
 10
4.958171301478976
 20
6.282596476412233
 10
4.957470027303167
 20
6.286203981506145
  0
LWPOLYLINE
  5
18A
330
1F
100
AcDbEntity
  8
0
  6
Continuous
 62
     7
370
    15
100
AcDbPolyline
 90
       17
 70
   128
 43
0.0
 10
4.941192281052866
 20
6.263899131215917
 10
4.941893555228674
 20
6.267125453720836
 10
4.943890615119897
 20
6.269479415282073
 10
4.946879426461492
 20
6.270602646590646
 10
4.95040496982034
 20
6.270324145861941
 10
4.953930513179187
 20
6.268686312307289
 10
4.956919324520781
 20
6.265938491238386
 10
4.958916384412005
 20
6.262499013503914
 10
4.959617658587814
 20
6.258891508410002
 10
4.958916384412005
 20
6.255665185905084
 10
4.956919324520781
 20
6.253311224343846
 10
4.953930513179187
 20
6.252187993035274
 10
4.95040496982034
 20
6.252466493763979
 10
4.946879426461491
 20
6.254104327318631
 10
4.943890615119897
 20
6.256852148387534
 10
4.941893555228674
 20
6.260291626122007
 10
4.941192281052866
 20
6.263899131215917
  0
LWPOLYLINE
  5
18B
330
1F
100
AcDbEntity
  8
0
  6
Continuous
 62
     7
370
    15
100
AcDbPolyline
 90
       17
 70
   128
 43
0.0
 10
4.957470027303167
 20
6.232497429224855
 10
4.958171301478976
 20
6.235723751729772
 10
4.960168361370199
 20
6.23807771329101
 10
4.963157172711794
 20
6.239200944599582
 10
4.966682716070641
 20
6.238922443870878
 10
4.97020825942949
 20
6.237284610316225
 10
4.973197070771083
 20
6.234536789247323
 10
4.975194130662306
 20
6.231097311512852
 10
4.975895404838115
 20
6.227489806418939
 10
4.975194130662306
 20
6.224263483914022
 10
4.973197070771083
 20
6.221909522352784
 10
4.970208259429488
 20
6.220786291044211
 10
4.966682716070641
 20
6.221064791772916
 10
4.963157172711794
 20
6.222702625327569
 10
4.960168361370199
 20
6.225450446396471
 10
4.958171301478976
 20
6.228889924130943
 10
4.957470027303167
 20
6.232497429224855
  0
LWPOLYLINE
  5
18C
330
1F
100
AcDbEntity
  8
0
  6
Continuous
 62
     7
370
    15
100
AcDbPolyline
 90
        6
 70
   128
 43
0.0
 10
4.958471595365661
 20
6.39574079756572
 10
4.960168361370199
 20
6.397544547632018
 10
4.963157172711794
 20
6.398667778940591
 10
4.966682716070641
 20
6.398389278211886
 10
4.97020825942949
 20
6.396751444657233
 10
4.970435258958049
 20
6.396595145656752
  0
LWPOLYLINE
  5
18D
330
1F
100
AcDbEntity
  8
0
  6
Continuous
 62
     7
370
    15
100
AcDbPolyline
 90
       17
 70
   128
 43
0.0
 10
4.908970698014082
 20
6.378860457163902
 10
4.909671972189889
 20
6.38208677966882
 10
4.911669032081113
 20
6.384440741230058
 10
4.914657843422706
 20
6.38556397253863
 10
4.918183386781555
 20
6.385285471809925
 10
4.921708930140403
 20
6.383647638255273
 10
4.924697741481996
 20
6.380899817186369
 10
4.926694801373221
 20
6.377460339451897
 10
4.927396075549028
 20
6.373852834357986
 10
4.926694801373221
 20
6.370626511853068
 10
4.924697741481996
 20
6.368272550291831
 10
4.921708930140403
 20
6.367149318983258
 10
4.918183386781555
 20
6.367427819711963
 10
4.914657843422706
 20
6.369065653266615
 10
4.911669032081113
 20
6.371813474335518
 10
4.909671972189889
 20
6.37525295206999
 10
4.908970698014082
 20
6.378860457163902
  0
LWPOLYLINE
  5
18E
330
1F
100
AcDbEntity
  8
0
  6
Continuous
 62
     7
370
    15
100
AcDbPolyline
 90
       17
 70
   128
 43
0.0
 10
4.908970698014082
 20
6.325153904882611
 10
4.909671972189889
 20
6.32838022738753
 10
4.911669032081113
 20
6.330734188948767
 10
4.914657843422706
 20
6.331857420257339
 10
4.918183386781555
 20
6.331578919528634
 10
4.921708930140403
 20
6.329941085973982
 10
4.924697741481996
 20
6.327193264905079
 10
4.926694801373221
 20
6.323753787170607
 10
4.927396075549028
 20
6.320146282076697
 10
4.926694801373221
 20
6.316919959571777
 10
4.924697741481996
 20
6.314565998010541
 10
4.921708930140403
 20
6.313442766701967
 10
4.918183386781555
 20
6.313721267430673
 10
4.914657843422706
 20
6.315359100985324
 10
4.911669032081113
 20
6.318106922054228
 10
4.909671972189889
 20
6.3215463997887
 10
4.908970698014082
 20
6.325153904882611
  0
LWPOLYLINE
  5
18F
330
1F
100
AcDbEntity
  8
0
  6
Continuous
 62
     7
370
    15
100
AcDbPolyline
 90
       17
 70
   128
 43
0.0
 10
5.019611012668874
 20
6.269752863232573
 10
5.020312286844682
 20
6.272979185737492
 10
5.022309346735905
 20
6.275333147298729
 10
5.025298158077498
 20
6.276456378607301
 10
5.028823701436348
 20
6.276177877878597
 10
5.032349244795195
 20
6.274540044323944
 10
5.035338056136788
 20
6.271792223255042
 10
5.037335116028013
 20
6.26835274552057
 10
5.03803639020382
 20
6.264745240426659
 10
5.037335116028013
 20
6.26151891792174
 10
5.035338056136788
 20
6.259164956360503
 10
5.032349244795195
 20
6.25804172505193
 10
5.028823701436347
 20
6.258320225780635
 10
5.025298158077498
 20
6.259958059335288
 10
5.022309346735905
 20
6.26270588040419
 10
5.020312286844682
 20
6.266145358138662
 10
5.019611012668874
 20
6.269752863232573
  0
LWPOLYLINE
  5
190
330
1F
100
AcDbEntity
  8
0
  6
Continuous
 62
     7
370
    15
100
AcDbPolyline
 90
       17
 70
   128
 43
0.0
 10
5.037948340758705
 20
6.238046815462782
 10
5.038649614934513
 20
6.2412731379677
 10
5.040646674825737
 20
6.243627099528938
 10
5.043635486167332
 20
6.24475033083751
 10
5.047161029526179
 20
6.244471830108804
 10
5.050686572885027
 20
6.242833996554153
 10
5.053675384226621
 20
6.240086175485251
 10
5.055672444117845
 20
6.236646697750778
 10
5.056373718293653
 20
6.233039192656867
 10
5.055672444117845
 20
6.229812870151947
 10
5.053675384226621
 20
6.227458908590711
 10
5.050686572885027
 20
6.226335677282138
 10
5.047161029526179
 20
6.226614178010843
 10
5.043635486167331
 20
6.228252011565496
 10
5.040646674825737
 20
6.230999832634398
 10
5.038649614934513
 20
6.23443931036887
 10
5.037948340758705
 20
6.238046815462782
  0
LWPOLYLINE
  5
191
330
1F
100
AcDbEntity
  8
0
  6
Continuous
 62
     7
370
    15
100
AcDbPolyline
 90
       17
 70
   128
 43
0.0
 10
5.00570393007255
 20
6.246810155373133
 10
5.006405204248357
 20
6.250036477878051
 10
5.008402264139582
 20
6.252390439439288
 10
5.011391075481175
 20
6.25351367074786
 10
5.014916618840024
 20
6.253235170019156
 10
5.018442162198872
 20
6.251597336464503
 10
5.021430973540465
 20
6.248849515395601
 10
5.02342803343169
 20
6.245410037661129
 10
5.024129307607497
 20
6.241802532567217
 10
5.02342803343169
 20
6.238576210062299
 10
5.021430973540465
 20
6.236222248501062
 10
5.018442162198871
 20
6.235099017192489
 10
5.014916618840024
 20
6.235377517921193
 10
5.011391075481175
 20
6.237015351475847
 10
5.008402264139582
 20
6.239763172544749
 10
5.006405204248357
 20
6.243202650279221
 10
5.00570393007255
 20
6.246810155373133
  0
LWPOLYLINE
  5
192
330
1F
100
AcDbEntity
  8
0
  6
Continuous
 62
     7
370
    15
100
AcDbPolyline
 90
       17
 70
   128
 43
0.0
 10
5.019611012668874
 20
6.216046310951283
 10
5.020312286844682
 20
6.219272633456201
 10
5.022309346735905
 20
6.221626595017439
 10
5.025298158077498
 20
6.222749826326011
 10
5.028823701436348
 20
6.222471325597306
 10
5.032349244795195
 20
6.220833492042654
 10
5.035338056136788
 20
6.218085670973752
 10
5.037335116028013
 20
6.214646193239279
 10
5.03803639020382
 20
6.211038688145368
 10
5.037335116028013
 20
6.20781236564045
 10
5.035338056136788
 20
6.205458404079212
 10
5.032349244795195
 20
6.204335172770639
 10
5.028823701436347
 20
6.204613673499344
 10
5.025298158077498
 20
6.206251507053997
 10
5.022309346735905
 20
6.208999328122899
 10
5.020312286844682
 20
6.212438805857372
 10
5.019611012668874
 20
6.216046310951283
  0
LWPOLYLINE
  5
193
330
1F
100
AcDbEntity
  8
0
  6
Continuous
 62
     7
370
    15
100
AcDbPolyline
 90
       17
 70
   128
 43
0.0
 10
5.037948340758705
 20
6.343807097522497
 10
5.038649614934513
 20
6.347033420027415
 10
5.040646674825737
 20
6.349387381588652
 10
5.043635486167331
 20
6.350510612897225
 10
5.047161029526178
 20
6.35023211216852
 10
5.050686572885027
 20
6.348594278613868
 10
5.053675384226621
 20
6.345846457544965
 10
5.055672444117844
 20
6.342406979810493
 10
5.056373718293652
 20
6.338799474716581
 10
5.055672444117844
 20
6.335573152211663
 10
5.053675384226621
 20
6.333219190650426
 10
5.050686572885027
 20
6.332095959341853
 10
5.047161029526178
 20
6.332374460070558
 10
5.043635486167331
 20
6.33401229362521
 10
5.040646674825737
 20
6.336760114694113
 10
5.038649614934513
 20
6.340199592428586
 10
5.037948340758705
 20
6.343807097522497
  0
LWPOLYLINE
  5
194
330
1F
100
AcDbEntity
  8
0
  6
Continuous
 62
     7
370
    15
100
AcDbPolyline
 90
       17
 70
   128
 43
0.0
 10
5.019611012668874
 20
6.375513145292291
 10
5.020312286844682
 20
6.37873946779721
 10
5.022309346735905
 20
6.381093429358447
 10
5.025298158077498
 20
6.382216660667021
 10
5.028823701436348
 20
6.381938159938314
 10
5.032349244795195
 20
6.380300326383662
 10
5.035338056136788
 20
6.37755250531476
 10
5.037335116028013
 20
6.374113027580288
 10
5.03803639020382
 20
6.370505522486377
 10
5.037335116028013
 20
6.367279199981458
 10
5.035338056136788
 20
6.364925238420221
 10
5.032349244795195
 20
6.363802007111649
 10
5.028823701436347
 20
6.364080507840354
 10
5.025298158077498
 20
6.365718341395006
 10
5.022309346735905
 20
6.368466162463908
 10
5.020312286844682
 20
6.371905640198381
 10
5.019611012668874
 20
6.375513145292291
  0
ARC
  5
195
330
1F
100
AcDbEntity
  8
0
  6
Continuous
 62
     7
370
    15
100
AcDbCircle
 10
4.996586311316359
 20
6.378662331834149
 30
0.0
 40
0.0114991356871484
100
AcDbArc
 50
355.735269025927
 51
108.892624897474
  0
LWPOLYLINE
  5
196
330
1F
100
AcDbEntity
  8
0
  6
Continuous
 62
     7
370
    15
100
AcDbPolyline
 90
       17
 70
   128
 43
0.0
 10
5.00570393007255
 20
6.298863885151559
 10
5.006405204248357
 20
6.302090207656476
 10
5.008402264139582
 20
6.304444169217712
 10
5.011391075481175
 20
6.305567400526286
 10
5.014916618840024
 20
6.305288899797581
 10
5.018442162198871
 20
6.303651066242929
 10
5.021430973540464
 20
6.300903245174025
 10
5.023428033431689
 20
6.297463767439554
 10
5.024129307607497
 20
6.293856262345642
 10
5.023428033431689
 20
6.290629939840724
 10
5.021430973540464
 20
6.288275978279487
 10
5.018442162198871
 20
6.287152746970915
 10
5.014916618840024
 20
6.287431247699619
 10
5.011391075481175
 20
6.289069081254272
 10
5.008402264139582
 20
6.291816902323175
 10
5.006405204248357
 20
6.295256380057646
 10
5.00570393007255
 20
6.298863885151559
  0
ARC
  5
197
330
1F
100
AcDbEntity
  8
0
  6
Continuous
 62
     7
370
    15
100
AcDbCircle
 10
4.933879182253618
 20
6.790047134219819
 30
0.0
 40
0.0064037033660696
100
AcDbArc
 50
101.0968238132144
 51
182.9777017519691
  0
ARC
  5
198
330
1F
100
AcDbEntity
  8
0
  6
Continuous
 62
     7
370
    15
100
AcDbCircle
 10
4.939734718336082
 20
6.790214354001034
 30
0.0
 40
0.0122607875838438
100
AcDbArc
 50
182.3366088076656
 51
269.8550707034172
  0
LWPOLYLINE
  5
199
330
1F
100
AcDbEntity
  8
0
  6
Continuous
 62
     7
370
    15
100
AcDbPolyline
 90
       17
 70
   128
 43
0.0
 10
4.957470027303172
 20
6.67536720125429
 10
4.95817130147898
 20
6.678593523759207
 10
4.960168361370204
 20
6.680947485320444
 10
4.963157172711796
 20
6.682070716629016
 10
4.966682716070645
 20
6.681792215900312
 10
4.970208259429492
 20
6.68015438234566
 10
4.973197070771085
 20
6.677406561276757
 10
4.975194130662309
 20
6.673967083542286
 10
4.975895404838117
 20
6.670359578448374
 10
4.975194130662309
 20
6.667133255943458
 10
4.973197070771085
 20
6.66477929438222
 10
4.970208259429492
 20
6.663656063073648
 10
4.966682716070645
 20
6.663934563802352
 10
4.963157172711796
 20
6.665572397357005
 10
4.960168361370203
 20
6.668320218425907
 10
4.95817130147898
 20
6.671759696160378
 10
4.957470027303172
 20
6.67536720125429
  0
ARC
  5
19A
330
1F
100
AcDbEntity
  8
0
  6
Continuous
 62
     7
370
    15
100
AcDbCircle
 10
4.933966632379547
 20
6.578368426783328
 30
0.0
 40
0.0064881981293556
100
AcDbArc
 50
92.13308724035096
 51
182.3998928379138
  0
ARC
  5
19B
330
1F
100
AcDbEntity
  8
0
  6
Continuous
 62
     7
370
    15
100
AcDbCircle
 10
4.9389656595498
 20
6.577985329042088
 30
0.0
 40
0.0114820750937836
100
AcDbArc
 50
179.4440415803753
 51
287.3505917614573
  0
LWPOLYLINE
  5
19C
330
1F
100
AcDbEntity
  8
0
  6
Continuous
 62
     7
370
    15
100
AcDbPolyline
 90
        9
 70
   128
 43
0.0
 10
4.927484124994149
 20
6.631803293650865
 10
4.928185399169957
 20
6.635029616155782
 10
4.93018245906118
 20
6.63738357771702
 10
4.933171270402773
 20
6.638506809025592
 10
4.936696813761622
 20
6.638228308296888
 10
4.94022235712047
 20
6.636590474742235
 10
4.943211168462063
 20
6.633842653673333
 10
4.945208228353288
 20
6.630403175938861
 10
4.945864224975735
 20
6.627692121064446
  0
ARC
  5
19D
330
1F
100
AcDbEntity
  8
0
  6
Continuous
 62
     7
370
    15
100
AcDbCircle
 10
4.939879979638095
 20
6.632385456316222
 30
0.0
 40
0.0124095175459316
100
AcDbArc
 50
182.6888805677742
 51
263.5620826497407
  0
LWPOLYLINE
  5
19E
330
1F
100
AcDbEntity
  8
0
  6
Continuous
 62
     7
370
    15
100
AcDbPolyline
 90
       17
 70
   128
 43
0.0
 10
4.94119228105287
 20
6.653062350964058
 10
4.941893555228678
 20
6.656288673468976
 10
4.943890615119902
 20
6.658642635030213
 10
4.946879426461494
 20
6.659765866338786
 10
4.950404969820342
 20
6.659487365610081
 10
4.95393051317919
 20
6.657849532055429
 10
4.956919324520783
 20
6.655101710986527
 10
4.958916384412006
 20
6.651662233252054
 10
4.959617658587815
 20
6.648054728158144
 10
4.958916384412006
 20
6.644828405653226
 10
4.956919324520783
 20
6.642474444091989
 10
4.95393051317919
 20
6.641351212783416
 10
4.950404969820342
 20
6.641629713512121
 10
4.946879426461494
 20
6.643267547066773
 10
4.943890615119902
 20
6.646015368135675
 10
4.941893555228678
 20
6.649454845870147
 10
4.94119228105287
 20
6.653062350964058
  0
LWPOLYLINE
  5
19F
330
1F
100
AcDbEntity
  8
0
  6
Continuous
 62
     7
370
    15
100
AcDbPolyline
 90
       17
 70
   128
 43
0.0
 10
4.941192281052868
 20
6.706768903245353
 10
4.941893555228676
 20
6.709995225750271
 10
4.9438906151199
 20
6.712349187311509
 10
4.946879426461493
 20
6.713472418620081
 10
4.950404969820341
 20
6.713193917891376
 10
4.953930513179188
 20
6.711556084336724
 10
4.956919324520782
 20
6.708808263267822
 10
4.958916384412005
 20
6.705368785533349
 10
4.959617658587814
 20
6.701761280439439
 10
4.958916384412005
 20
6.698534957934521
 10
4.956919324520782
 20
6.696180996373284
 10
4.953930513179188
 20
6.695057765064711
 10
4.950404969820341
 20
6.695336265793415
 10
4.946879426461493
 20
6.696974099348068
 10
4.9438906151199
 20
6.69972192041697
 10
4.941893555228676
 20
6.703161398151442
 10
4.941192281052868
 20
6.706768903245353
  0
LWPOLYLINE
  5
1A0
330
1F
100
AcDbEntity
  8
0
  6
Continuous
 62
     7
370
    15
100
AcDbPolyline
 90
       17
 70
   128
 43
0.0
 10
4.927484124994147
 20
6.737660749291584
 10
4.928185399169955
 20
6.740887071796501
 10
4.930182459061178
 20
6.743241033357739
 10
4.933171270402772
 20
6.744364264666311
 10
4.936696813761619
 20
6.744085763937606
 10
4.940222357120466
 20
6.742447930382954
 10
4.94321116846206
 20
6.739700109314052
 10
4.945208228353283
 20
6.73626063157958
 10
4.945909502529092
 20
6.732653126485669
 10
4.945208228353283
 20
6.729426803980751
 10
4.94321116846206
 20
6.727072842419515
 10
4.940222357120466
 20
6.725949611110941
 10
4.936696813761619
 20
6.726228111839647
 10
4.933171270402772
 20
6.7278659453943
 10
4.930182459061178
 20
6.730613766463202
 10
4.928185399169955
 20
6.734053244197673
 10
4.927484124994147
 20
6.737660749291584
  0
LWPOLYLINE
  5
1A1
330
1F
100
AcDbEntity
  8
0
  6
Continuous
 62
     7
370
    15
100
AcDbPolyline
 90
       17
 70
   128
 43
0.0
 10
4.908970698014086
 20
6.768023676912045
 10
4.909671972189894
 20
6.771249999416963
 10
4.911669032081118
 20
6.7736039609782
 10
4.914657843422711
 20
6.774727192286773
 10
4.918183386781558
 20
6.774448691558069
 10
4.921708930140407
 20
6.772810858003416
 10
4.924697741481999
 20
6.770063036934514
 10
4.926694801373223
 20
6.766623559200042
 10
4.92739607554903
 20
6.763016054106131
 10
4.926694801373223
 20
6.759789731601213
 10
4.924697741481999
 20
6.757435770039975
 10
4.921708930140407
 20
6.756312538731403
 10
4.918183386781558
 20
6.756591039460108
 10
4.914657843422711
 20
6.75822887301476
 10
4.911669032081118
 20
6.760976694083662
 10
4.909671972189894
 20
6.764416171818135
 10
4.908970698014086
 20
6.768023676912045
  0
LWPOLYLINE
  5
1A2
330
1F
100
AcDbEntity
  8
0
  6
Continuous
 62
     7
370
    15
100
AcDbPolyline
 90
       17
 70
   128
 43
0.0
 10
4.908970698014086
 20
6.821730229193335
 10
4.909671972189894
 20
6.824956551698252
 10
4.911669032081118
 20
6.827310513259489
 10
4.914657843422711
 20
6.828433744568062
 10
4.918183386781558
 20
6.828155243839356
 10
4.921708930140407
 20
6.826517410284705
 10
4.924697741481999
 20
6.823769589215802
 10
4.926694801373223
 20
6.820330111481331
 10
4.92739607554903
 20
6.816722606387419
 10
4.926694801373223
 20
6.813496283882503
 10
4.924697741481999
 20
6.811142322321265
 10
4.921708930140407
 20
6.810019091012692
 10
4.918183386781558
 20
6.810297591741397
 10
4.914657843422711
 20
6.81193542529605
 10
4.911669032081118
 20
6.814683246364952
 10
4.909671972189894
 20
6.818122724099424
 10
4.908970698014086
 20
6.821730229193335
  0
LWPOLYLINE
  5
1A3
330
1F
100
AcDbEntity
  8
0
  6
Continuous
 62
     7
370
    15
100
AcDbPolyline
 90
       17
 70
   128
 43
0.0
 10
4.927484124994147
 20
6.843421031351301
 10
4.928185399169955
 20
6.846647353856218
 10
4.930182459061178
 20
6.849001315417456
 10
4.933171270402772
 20
6.850124546726028
 10
4.936696813761619
 20
6.849846045997322
 10
4.940222357120466
 20
6.848208212442671
 10
4.94321116846206
 20
6.845460391373769
 10
4.945208228353283
 20
6.842020913639296
 10
4.945909502529092
 20
6.838413408545386
 10
4.945208228353283
 20
6.835187086040468
 10
4.94321116846206
 20
6.832833124479231
 10
4.940222357120466
 20
6.831709893170659
 10
4.936696813761619
 20
6.831988393899364
 10
4.933171270402772
 20
6.833626227454016
 10
4.930182459061178
 20
6.836374048522918
 10
4.928185399169955
 20
6.839813526257389
 10
4.927484124994147
 20
6.843421031351301
  0
LWPOLYLINE
  5
1A4
330
1F
100
AcDbEntity
  8
0
  6
Continuous
 62
     7
370
    15
100
AcDbPolyline
 90
       17
 70
   128
 43
0.0
 10
5.019611012668878
 20
6.658916082980718
 10
5.020312286844687
 20
6.662142405485636
 10
5.02230934673591
 20
6.664496367046872
 10
5.025298158077503
 20
6.665619598355446
 10
5.02882370143635
 20
6.66534109762674
 10
5.032349244795199
 20
6.663703264072089
 10
5.035338056136791
 20
6.660955443003185
 10
5.037335116028015
 20
6.657515965268714
 10
5.038036390203822
 20
6.653908460174803
 10
5.037335116028015
 20
6.650682137669886
 10
5.035338056136791
 20
6.648328176108648
 10
5.032349244795199
 20
6.647204944800076
 10
5.02882370143635
 20
6.647483445528781
 10
5.025298158077503
 20
6.649121279083433
 10
5.02230934673591
 20
6.651869100152335
 10
5.020312286844687
 20
6.655308577886807
 10
5.019611012668878
 20
6.658916082980718
  0
LWPOLYLINE
  5
1A5
330
1F
100
AcDbEntity
  8
0
  6
Continuous
 62
     7
370
    15
100
AcDbPolyline
 90
       17
 70
   128
 43
0.0
 10
5.03794834075871
 20
6.627210035210926
 10
5.038649614934517
 20
6.630436357715844
 10
5.04064667482574
 20
6.632790319277082
 10
5.043635486167334
 20
6.633913550585654
 10
5.047161029526182
 20
6.633635049856949
 10
5.050686572885029
 20
6.631997216302297
 10
5.053675384226623
 20
6.629249395233395
 10
5.055672444117845
 20
6.625809917498923
 10
5.056373718293653
 20
6.622202412405012
 10
5.055672444117845
 20
6.618976089900094
 10
5.053675384226623
 20
6.616622128338858
 10
5.050686572885029
 20
6.615498897030284
 10
5.047161029526182
 20
6.615777397758989
 10
5.043635486167334
 20
6.617415231313641
 10
5.04064667482574
 20
6.620163052382543
 10
5.038649614934517
 20
6.623602530117016
 10
5.03794834075871
 20
6.627210035210926
  0
LWPOLYLINE
  5
1A6
330
1F
100
AcDbEntity
  8
0
  6
Continuous
 62
     7
370
    15
100
AcDbPolyline
 90
       15
 70
   128
 43
0.0
 10
5.01962683347263
 20
6.607283930701138
 10
5.020312286844687
 20
6.609991502126211
 10
5.022309346735911
 20
6.612345463687449
 10
5.025298158077504
 20
6.613468694996022
 10
5.028823701436353
 20
6.613190194267316
 10
5.0323492447952
 20
6.611552360712664
 10
5.035338056136795
 20
6.608804539643762
 10
5.037335116028017
 20
6.60536506190929
 10
5.038036390203826
 20
6.601757556815378
 10
5.037335116028017
 20
6.598531234310461
 10
5.035338056136795
 20
6.596177272749223
 10
5.0323492447952
 20
6.59505404144065
 10
5.028823701436353
 20
6.595332542169355
 10
5.025298158077504
 20
6.596970375724008
 10
5.024743738065744
 20
6.597364727089556
  0
LWPOLYLINE
  5
1A7
330
1F
100
AcDbEntity
  8
0
  6
Continuous
 62
     7
370
    15
100
AcDbPolyline
 90
       17
 70
   128
 43
0.0
 10
5.005703930072554
 20
6.635973375121277
 10
5.006405204248362
 20
6.639199697626195
 10
5.008402264139586
 20
6.641553659187431
 10
5.011391075481179
 20
6.642676890496005
 10
5.014916618840026
 20
6.6423983897673
 10
5.018442162198874
 20
6.640760556212648
 10
5.021430973540467
 20
6.638012735143746
 10
5.023428033431691
 20
6.634573257409273
 10
5.024129307607498
 20
6.630965752315363
 10
5.023428033431691
 20
6.627739429810445
 10
5.021430973540467
 20
6.625385468249208
 10
5.018442162198873
 20
6.624262236940635
 10
5.014916618840025
 20
6.62454073766934
 10
5.011391075481179
 20
6.626178571223992
 10
5.008402264139586
 20
6.628926392292894
 10
5.006405204248362
 20
6.632365870027366
 10
5.005703930072554
 20
6.635973375121277
  0
LWPOLYLINE
  5
1A8
330
1F
100
AcDbEntity
  8
0
  6
Continuous
 62
     7
370
    15
100
AcDbPolyline
 90
       17
 70
   128
 43
0.0
 10
5.037948340758708
 20
6.73297031727064
 10
5.038649614934517
 20
6.736196639775559
 10
5.040646674825739
 20
6.738550601336796
 10
5.043635486167333
 20
6.739673832645368
 10
5.04716102952618
 20
6.739395331916663
 10
5.050686572885028
 20
6.737757498362011
 10
5.053675384226621
 20
6.735009677293109
 10
5.055672444117845
 20
6.731570199558637
 10
5.056373718293653
 20
6.727962694464727
 10
5.055672444117845
 20
6.724736371959808
 10
5.053675384226621
 20
6.722382410398572
 10
5.050686572885028
 20
6.721259179089999
 10
5.04716102952618
 20
6.721537679818704
 10
5.043635486167333
 20
6.723175513373357
 10
5.040646674825739
 20
6.725923334442259
 10
5.038649614934517
 20
6.72936281217673
 10
5.037948340758708
 20
6.73297031727064
  0
LWPOLYLINE
  5
1A9
330
1F
100
AcDbEntity
  8
0
  6
Continuous
 62
     7
370
    15
100
AcDbPolyline
 90
       17
 70
   128
 43
0.0
 10
5.019611012668877
 20
6.712622635262009
 10
5.020312286844685
 20
6.715848957766926
 10
5.02230934673591
 20
6.718202919328164
 10
5.025298158077502
 20
6.719326150636736
 10
5.028823701436349
 20
6.719047649908032
 10
5.032349244795198
 20
6.717409816353379
 10
5.03533805613679
 20
6.714661995284477
 10
5.037335116028014
 20
6.711222517550005
 10
5.038036390203822
 20
6.707615012456094
 10
5.037335116028014
 20
6.704388689951176
 10
5.03533805613679
 20
6.70203472838994
 10
5.032349244795198
 20
6.700911497081366
 10
5.028823701436349
 20
6.701189997810073
 10
5.025298158077502
 20
6.702827831364725
 10
5.02230934673591
 20
6.705575652433627
 10
5.020312286844685
 20
6.709015130168098
 10
5.019611012668877
 20
6.712622635262009
  0
LWPOLYLINE
  5
1AA
330
1F
100
AcDbEntity
  8
0
  6
Continuous
 62
     7
370
    15
100
AcDbPolyline
 90
       17
 70
   128
 43
0.0
 10
5.005703930072554
 20
6.741733657180992
 10
5.006405204248362
 20
6.744959979685909
 10
5.008402264139586
 20
6.747313941247147
 10
5.011391075481179
 20
6.748437172555719
 10
5.014916618840026
 20
6.748158671827015
 10
5.018442162198874
 20
6.746520838272362
 10
5.021430973540467
 20
6.74377301720346
 10
5.023428033431691
 20
6.740333539468989
 10
5.024129307607498
 20
6.736726034375076
 10
5.023428033431691
 20
6.73349971187016
 10
5.021430973540467
 20
6.731145750308922
 10
5.018442162198873
 20
6.73002251900035
 10
5.014916618840025
 20
6.730301019729055
 10
5.011391075481179
 20
6.731938853283707
 10
5.008402264139586
 20
6.734686674352609
 10
5.006405204248362
 20
6.738126152087081
 10
5.005703930072554
 20
6.741733657180992
  0
LWPOLYLINE
  5
1AB
330
1F
100
AcDbEntity
  8
0
  6
Continuous
 62
     7
370
    15
100
AcDbPolyline
 90
       17
 70
   128
 43
0.0
 10
4.973459519386397
 20
6.909963831432351
 10
4.974160793562204
 20
6.913190153937269
 10
4.976157853453429
 20
6.915544115498507
 10
4.979146664795021
 20
6.916667346807079
 10
4.982672208153869
 20
6.916388846078374
 10
4.986197751512717
 20
6.914751012523722
 10
4.98918656285431
 20
6.91200319145482
 10
4.991183622745533
 20
6.908563713720348
 10
4.991884896921342
 20
6.904956208626437
 10
4.991183622745533
 20
6.901729886121519
 10
4.98918656285431
 20
6.899375924560283
 10
4.986197751512717
 20
6.898252693251711
 10
4.982672208153869
 20
6.898531193980414
 10
4.979146664795021
 20
6.900169027535066
 10
4.976157853453429
 20
6.902916848603968
 10
4.974160793562204
 20
6.906356326338441
 10
4.973459519386397
 20
6.909963831432351
  0
LWPOLYLINE
  5
1AC
330
1F
100
AcDbEntity
  8
0
  6
Continuous
 62
     7
370
    15
100
AcDbPolyline
 90
       17
 70
   128
 43
0.0
 10
4.927484124994147
 20
6.895474761129729
 10
4.928185399169955
 20
6.898701083634646
 10
4.930182459061178
 20
6.901055045195882
 10
4.933171270402772
 20
6.902178276504455
 10
4.936696813761619
 20
6.90189977577575
 10
4.940222357120466
 20
6.900261942221098
 10
4.94321116846206
 20
6.897514121152195
 10
4.945208228353283
 20
6.894074643417725
 10
4.945909502529092
 20
6.890467138323813
 10
4.945208228353283
 20
6.887240815818896
 10
4.94321116846206
 20
6.884886854257659
 10
4.940222357120466
 20
6.883763622949087
 10
4.936696813761619
 20
6.884042123677791
 10
4.933171270402772
 20
6.885679957232444
 10
4.930182459061178
 20
6.888427778301346
 10
4.928185399169955
 20
6.891867256035817
 10
4.927484124994147
 20
6.895474761129729
  0
LWPOLYLINE
  5
1AD
330
1F
100
AcDbEntity
  8
0
  6
Continuous
 62
     7
370
    15
100
AcDbPolyline
 90
       17
 70
   128
 43
0.0
 10
4.908970698014086
 20
6.873783958971762
 10
4.909671972189894
 20
6.87701028147668
 10
4.911669032081118
 20
6.879364243037916
 10
4.914657843422711
 20
6.88048747434649
 10
4.918183386781558
 20
6.880208973617785
 10
4.921708930140407
 20
6.878571140063133
 10
4.924697741481999
 20
6.875823318994231
 10
4.926694801373223
 20
6.872383841259758
 10
4.92739607554903
 20
6.868776336165848
 10
4.926694801373223
 20
6.86555001366093
 10
4.924697741481999
 20
6.863196052099693
 10
4.921708930140407
 20
6.86207282079112
 10
4.918183386781558
 20
6.862351321519825
 10
4.914657843422711
 20
6.863989155074477
 10
4.911669032081118
 20
6.866736976143379
 10
4.909671972189894
 20
6.870176453877851
 10
4.908970698014086
 20
6.873783958971762
  0
LWPOLYLINE
  5
1AE
330
1F
100
AcDbEntity
  8
0
  6
Continuous
 62
     7
370
    15
100
AcDbPolyline
 90
       17
 70
   128
 43
0.0
 10
4.908970698014084
 20
6.927490511253054
 10
4.909671972189893
 20
6.930716833757973
 10
4.911669032081117
 20
6.933070795319209
 10
4.914657843422709
 20
6.934194026627781
 10
4.918183386781557
 20
6.933915525899077
 10
4.921708930140404
 20
6.932277692344424
 10
4.924697741481998
 20
6.929529871275522
 10
4.926694801373221
 20
6.926090393541051
 10
4.92739607554903
 20
6.92248288844714
 10
4.926694801373221
 20
6.919256565942221
 10
4.924697741481998
 20
6.916902604380985
 10
4.921708930140404
 20
6.915779373072413
 10
4.918183386781556
 20
6.916057873801118
 10
4.914657843422709
 20
6.91769570735577
 10
4.911669032081117
 20
6.920443528424672
 10
4.909671972189893
 20
6.923883006159143
 10
4.908970698014084
 20
6.927490511253054
  0
LWPOLYLINE
  5
1AF
330
1F
100
AcDbEntity
  8
0
  6
Continuous
 62
     7
370
    15
100
AcDbPolyline
 90
       17
 70
   128
 43
0.0
 10
4.927484124994147
 20
6.94918131341102
 10
4.928185399169955
 20
6.952407635915937
 10
4.930182459061178
 20
6.954761597477174
 10
4.933171270402772
 20
6.955884828785747
 10
4.936696813761619
 20
6.955606328057043
 10
4.940222357120466
 20
6.95396849450239
 10
4.94321116846206
 20
6.951220673433487
 10
4.945208228353283
 20
6.947781195699016
 10
4.945909502529092
 20
6.944173690605104
 10
4.945208228353283
 20
6.940947368100188
 10
4.94321116846206
 20
6.93859340653895
 10
4.940222357120466
 20
6.937470175230378
 10
4.936696813761619
 20
6.937748675959083
 10
4.933171270402772
 20
6.939386509513735
 10
4.930182459061178
 20
6.942134330582637
 10
4.928185399169955
 20
6.945573808317109
 10
4.927484124994147
 20
6.94918131341102
  0
LWPOLYLINE
  5
1B0
330
1F
100
AcDbEntity
  8
0
  6
Continuous
 62
     7
370
    15
100
AcDbPolyline
 90
       17
 70
   128
 43
0.0
 10
4.989669774174592
 20
6.878574034159765
 10
4.990371048350398
 20
6.881800356664683
 10
4.992368108241623
 20
6.884154318225919
 10
4.995356919583215
 20
6.885277549534492
 10
4.998882462942063
 20
6.884999048805788
 10
5.00240800630091
 20
6.883361215251135
 10
5.005396817642504
 20
6.880613394182232
 10
5.007393877533727
 20
6.877173916447762
 10
5.008095151709534
 20
6.873566411353849
 10
5.007393877533727
 20
6.870340088848933
 10
5.005396817642504
 20
6.867986127287696
 10
5.00240800630091
 20
6.866862895979124
 10
4.998882462942063
 20
6.867141396707828
 10
4.995356919583215
 20
6.868779230262481
 10
4.992368108241621
 20
6.871527051331383
 10
4.990371048350398
 20
6.874966529065854
 10
4.989669774174592
 20
6.878574034159765
  0
LWPOLYLINE
  5
1B1
330
1F
100
AcDbEntity
  8
0
  6
Continuous
 62
     7
370
    15
100
AcDbPolyline
 90
       17
 70
   128
 43
0.0
 10
5.005703930072554
 20
6.847493939240709
 10
5.006405204248362
 20
6.850720261745626
 10
5.008402264139586
 20
6.853074223306863
 10
5.011391075481179
 20
6.854197454615436
 10
5.014916618840026
 20
6.85391895388673
 10
5.018442162198874
 20
6.852281120332078
 10
5.021430973540467
 20
6.849533299263176
 10
5.023428033431691
 20
6.846093821528705
 10
5.024129307607498
 20
6.842486316434793
 10
5.023428033431691
 20
6.839259993929877
 10
5.021430973540467
 20
6.836906032368639
 10
5.018442162198873
 20
6.835782801060067
 10
5.014916618840025
 20
6.836061301788771
 10
5.011391075481179
 20
6.837699135343424
 10
5.008402264139586
 20
6.840446956412326
 10
5.006405204248362
 20
6.843886434146797
 10
5.005703930072554
 20
6.847493939240709
  0
LWPOLYLINE
  5
1B2
330
1F
100
AcDbEntity
  8
0
  6
Continuous
 62
     7
370
    15
100
AcDbPolyline
 90
       17
 70
   128
 43
0.0
 10
5.005703930072552
 20
6.901200491522001
 10
5.006405204248361
 20
6.904426814026918
 10
5.008402264139584
 20
6.906780775588155
 10
5.011391075481178
 20
6.907904006896727
 10
5.014916618840025
 20
6.907625506168023
 10
5.018442162198873
 20
6.90598767261337
 10
5.021430973540465
 20
6.903239851544468
 10
5.02342803343169
 20
6.899800373809997
 10
5.024129307607497
 20
6.896192868716086
 10
5.02342803343169
 20
6.892966546211168
 10
5.021430973540465
 20
6.890612584649931
 10
5.018442162198873
 20
6.889489353341359
 10
5.014916618840025
 20
6.889767854070064
 10
5.011391075481178
 20
6.891405687624716
 10
5.008402264139584
 20
6.894153508693618
 10
5.006405204248361
 20
6.897592986428089
 10
5.005703930072552
 20
6.901200491522001
  0
LWPOLYLINE
  5
1B3
330
1F
100
AcDbEntity
  8
0
  6
Continuous
 62
     7
370
    15
100
AcDbPolyline
 90
       17
 70
   128
 43
0.0
 10
4.989669774174592
 20
6.932280586441057
 10
4.990371048350398
 20
6.935506908945974
 10
4.992368108241623
 20
6.937860870507212
 10
4.995356919583215
 20
6.938984101815784
 10
4.998882462942063
 20
6.93870560108708
 10
5.00240800630091
 20
6.937067767532427
 10
5.005396817642504
 20
6.934319946463525
 10
5.007393877533727
 20
6.930880468729053
 10
5.008095151709534
 20
6.927272963635142
 10
5.007393877533727
 20
6.924046641130225
 10
5.005396817642504
 20
6.921692679568988
 10
5.00240800630091
 20
6.920569448260414
 10
4.998882462942063
 20
6.920847948989119
 10
4.995356919583215
 20
6.922485782543772
 10
4.992368108241621
 20
6.925233603612674
 10
4.990371048350398
 20
6.928673081347145
 10
4.989669774174592
 20
6.932280586441057
  0
ARC
  5
1B4
330
1F
100
AcDbEntity
  8
0
  6
Continuous
 62
     7
370
    15
100
AcDbCircle
 10
4.933885543940142
 20
7.001571078728201
 30
0.0
 40
0.0064102327887102
100
AcDbArc
 50
115.6503325016323
 51
183.0049216438196
  0
ARC
  5
1B5
330
1F
100
AcDbEntity
  8
0
  6
Continuous
 62
     7
370
    15
100
AcDbCircle
 10
4.940119729936265
 20
7.001987354502234
 30
0.0
 40
0.0126579810619477
100
AcDbArc
 50
183.4073111677282
 51
253.4101968226366
  0
LWPOLYLINE
  5
1B6
330
1F
100
AcDbEntity
  8
0
  6
Continuous
 62
     7
370
    15
100
AcDbPolyline
 90
       17
 70
   128
 43
0.0
 10
4.908970698014084
 20
6.979544241031482
 10
4.909671972189893
 20
6.9827705635364
 10
4.911669032081117
 20
6.985124525097637
 10
4.914657843422709
 20
6.98624775640621
 10
4.918183386781557
 20
6.985969255677504
 10
4.921708930140404
 20
6.984331422122853
 10
4.924697741481998
 20
6.981583601053951
 10
4.926694801373221
 20
6.978144123319479
 10
4.92739607554903
 20
6.974536618225567
 10
4.926694801373221
 20
6.97131029572065
 10
4.924697741481998
 20
6.968956334159413
 10
4.921708930140404
 20
6.967833102850841
 10
4.918183386781556
 20
6.968111603579545
 10
4.914657843422709
 20
6.969749437134198
 10
4.911669032081117
 20
6.9724972582031
 10
4.909671972189893
 20
6.975936735937572
 10
4.908970698014084
 20
6.979544241031482
  0
LWPOLYLINE
  5
1B7
330
1F
100
AcDbEntity
  8
0
  6
Continuous
 62
     7
370
    15
100
AcDbPolyline
 90
       17
 70
   128
 43
0.0
 10
4.908970698014085
 20
7.033250793312771
 10
4.909671972189893
 20
7.036477115817689
 10
4.911669032081117
 20
7.038831077378927
 10
4.91465784342271
 20
7.039954308687499
 10
4.918183386781557
 20
7.039675807958794
 10
4.921708930140405
 20
7.038037974404142
 10
4.924697741481999
 20
7.03529015333524
 10
4.926694801373222
 20
7.031850675600768
 10
4.92739607554903
 20
7.028243170506858
 10
4.926694801373222
 20
7.025016848001939
 10
4.924697741481999
 20
7.022662886440703
 10
4.921708930140405
 20
7.02153965513213
 10
4.918183386781557
 20
7.021818155860835
 10
4.91465784342271
 20
7.023455989415487
 10
4.911669032081117
 20
7.026203810484389
 10
4.909671972189893
 20
7.029643288218861
 10
4.908970698014085
 20
7.033250793312771
  0
LWPOLYLINE
  5
1B8
330
1F
100
AcDbEntity
  8
0
  6
Continuous
 62
     7
370
    15
100
AcDbPolyline
 90
       17
 70
   128
 43
0.0
 10
4.927484124994147
 20
7.054941595470737
 10
4.928185399169955
 20
7.058167917975654
 10
4.930182459061178
 20
7.060521879536891
 10
4.933171270402772
 20
7.061645110845464
 10
4.936696813761619
 20
7.061366610116759
 10
4.940222357120466
 20
7.059728776562106
 10
4.94321116846206
 20
7.056980955493205
 10
4.945208228353283
 20
7.053541477758733
 10
4.945909502529092
 20
7.049933972664821
 10
4.945208228353283
 20
7.046707650159905
 10
4.94321116846206
 20
7.044353688598667
 10
4.940222357120466
 20
7.043230457290095
 10
4.936696813761619
 20
7.0435089580188
 10
4.933171270402772
 20
7.045146791573452
 10
4.930182459061178
 20
7.047894612642354
 10
4.928185399169955
 20
7.051334090376826
 10
4.927484124994147
 20
7.054941595470737
  0
LWPOLYLINE
  5
1B9
330
1F
100
AcDbEntity
  8
0
  6
Continuous
 62
     7
370
    15
100
AcDbPolyline
 90
       17
 70
   128
 43
0.0
 10
5.005703930072552
 20
6.953254221300428
 10
5.006405204248361
 20
6.956480543805347
 10
5.008402264139584
 20
6.958834505366583
 10
5.011391075481178
 20
6.959957736675155
 10
5.014916618840025
 20
6.959679235946451
 10
5.018442162198873
 20
6.958041402391798
 10
5.021430973540465
 20
6.955293581322896
 10
5.02342803343169
 20
6.951854103588424
 10
5.024129307607497
 20
6.948246598494513
 10
5.02342803343169
 20
6.945020275989596
 10
5.021430973540465
 20
6.942666314428359
 10
5.018442162198873
 20
6.941543083119787
 10
5.014916618840025
 20
6.941821583848492
 10
5.011391075481178
 20
6.943459417403144
 10
5.008402264139584
 20
6.946207238472046
 10
5.006405204248361
 20
6.949646716206517
 10
5.005703930072552
 20
6.953254221300428
  0
ARC
  5
1BA
330
1F
100
AcDbEntity
  8
0
  6
Continuous
 62
     7
370
    15
100
AcDbCircle
 10
4.996244035615327
 20
7.032885714471826
 30
0.0
 40
0.0118340901590158
100
AcDbArc
 50
9.371572964417952
 51
98.05620758182893
  0
LINE
  5
1BB
330
1F
100
AcDbEntity
  8
0
  6
Continuous
 62
     7
370
    15
100
AcDbLine
 10
5.063196649314033
 20
7.112763808254912
 30
0.0
 11
5.056351783609725
 21
7.106083009488449
 31
0.0
  0
LINE
  5
1BC
330
1F
100
AcDbEntity
  8
0
  6
Continuous
 62
     7
370
    15
100
AcDbLine
 10
5.063196649314033
 20
7.112763808254912
 30
0.0
 11
5.136898159453818
 21
7.021302708639406
 31
0.0
  0
LINE
  5
1BD
330
1F
100
AcDbEntity
  8
0
  6
Continuous
 62
     7
370
    15
100
AcDbLine
 10
5.136898159453818
 20
7.021302708639406
 30
0.0
 11
5.130053293749511
 21
7.014621909872944
 31
0.0
  0
LINE
  5
1BE
330
1F
100
AcDbEntity
  8
0
  6
Continuous
 62
     7
370
    15
100
AcDbLine
 10
4.633293390162218
 20
6.18215023352538
 30
0.0
 11
4.646264855946821
 21
6.178624867070016
 31
0.0
  0
LINE
  5
1BF
330
1F
100
AcDbEntity
  8
0
  6
Continuous
 62
     7
370
    15
100
AcDbLine
 10
4.633293390162218
 20
6.18215023352538
 30
0.0
 11
4.633293390162215
 21
7.004644287259058
 31
0.0
  0
LINE
  5
1C0
330
1F
100
AcDbEntity
  8
0
  6
Continuous
 62
     7
370
    15
100
AcDbLine
 10
4.784042721057093
 20
7.18863186441001
 30
0.0
 11
4.777197855352786
 21
7.181951065643548
 31
0.0
  0
LINE
  5
1C1
330
1F
100
AcDbEntity
  8
0
  6
Continuous
 62
     7
370
    15
100
AcDbLine
 10
4.784042721057093
 20
7.18863186441001
 30
0.0
 11
5.063196649314033
 21
7.112763808254912
 31
0.0
  0
LINE
  5
1C2
330
1F
100
AcDbEntity
  8
0
  6
Continuous
 62
     7
370
    15
100
AcDbLine
 10
4.741707831058058
 20
7.181890713563572
 30
0.0
 11
4.75467929684266
 21
7.178365347108209
 31
0.0
  0
LINE
  5
1C3
330
1F
100
AcDbEntity
  8
0
  6
Continuous
 62
     7
370
    15
100
AcDbLine
 10
4.672184672573053
 20
7.114033979551259
 30
0.0
 11
4.741707831058058
 21
7.181890713563572
 31
0.0
  0
LINE
  5
1C4
330
1F
100
AcDbEntity
  8
0
  6
Continuous
 62
     7
370
    15
100
AcDbLine
 10
5.136898159453821
 20
6.198808654905733
 30
0.0
 11
5.130053293749512
 21
6.19212785613927
 31
0.0
  0
LINE
  5
1C5
330
1F
100
AcDbEntity
  8
0
  6
Continuous
 62
     7
370
    15
100
AcDbLine
 10
5.136898159453818
 20
7.021302708639406
 30
0.0
 11
5.136898159453821
 21
6.198808654905733
 31
0.0
  0
LWPOLYLINE
  5
1C6
330
1F
100
AcDbEntity
  8
0
  6
Continuous
 62
     7
370
    15
100
AcDbPolyline
 90
       10
 70
   128
 43
0.0
 10
4.711022391495651
 20
7.000162773436175
 10
4.713495170621894
 20
6.995117140680029
 10
4.715627418704095
 20
6.984502126757908
 10
4.715627418704095
 20
6.971215694431076
 10
4.713495170621894
 20
6.956438401518323
 10
4.70942013405681
 20
6.941483275344028
 10
4.703764393890656
 20
6.927679144498265
 10
4.697030487457001
 20
6.916252566585114
 10
4.689816751893737
 20
6.908218843196868
 10
4.6852097018459
 20
6.905185861152114
  0
LINE
  5
1C7
330
1F
100
AcDbEntity
  8
0
  6
Continuous
 62
     7
370
    15
100
AcDbLine
 10
4.757332905090197
 20
5.717124707397446
 30
0.0
 11
4.754679296842665
 21
5.707090421318248
 31
0.0
  0
ARC
  5
1C8
330
1F
100
AcDbEntity
  8
0
  6
Continuous
 62
     7
370
    15
100
AcDbCircle
 10
4.76955796669119
 20
7.157428185029601
 30
0.0
 40
0.0256853960913095
100
AcDbArc
 50
72.69603459077995
 51
125.3989149160486
  0
SPLINE
  5
1C9
330
1F
100
AcDbEntity
  8
0
  6
Continuous
 62
     7
370
    15
100
AcDbSpline
210
0.0
220
0.0
230
1.0
 70
     8
 71
     3
 72
     9
 73
     5
 74
     0
 42
0.0000000001
 43
0.0000000001
 40
0.0
 40
0.0
 40
0.0
 40
0.0
 40
0.4999999999999991
 40
0.9999999999999998
 40
0.9999999999999998
 40
0.9999999999999998
 40
0.9999999999999998
 10
4.777197855352791
 20
5.754579802558812
 30
0.0
 10
4.773612731805856
 20
5.74919690956216
 30
0.0
 10
4.766442484711987
 20
5.738431123568851
 30
0.0
 10
4.760369431630794
 20
5.724226846121249
 30
0.0
 10
4.757332905090198
 20
5.717124707397446
 30
0.0
  0
ARC
  5
1CA
330
1F
100
AcDbEntity
  8
0
  6
Continuous
 62
     7
370
    15
100
AcDbCircle
 10
4.769679730373295
 20
7.142528848855789
 30
0.0
 40
0.0482885446516623
100
AcDbArc
 50
72.69603459078108
 51
125.3989149160464
  0
LINE
  5
1CB
330
1F
100
AcDbEntity
  8
0
  6
Continuous
 62
     7
370
    15
100
AcDbLine
 10
4.43345815474057
 20
5.417884662404189
 30
0.0
 11
4.446429620525172
 21
5.414359295948824
 31
0.0
  0
LINE
  5
1CC
330
1F
100
AcDbEntity
  8
0
  6
Continuous
 62
     7
370
    15
100
AcDbLine
 10
4.619226572324259
 20
6.086478760461737
 30
0.0
 11
4.632198038108862
 21
6.082953394006374
 31
0.0
  0
LINE
  5
1CD
330
1F
100
AcDbEntity
  8
0
  6
Continuous
 62
     7
370
    15
100
AcDbLine
 10
4.43345815474057
 20
5.417884662404189
 30
0.0
 11
4.619226572324259
 21
6.086478760461737
 31
0.0
  0
ARC
  5
1CE
330
1F
100
AcDbEntity
  8
0
  6
Continuous
 62
     7
370
    15
100
AcDbCircle
 10
4.267912808062678
 20
6.187003185130777
 30
0.0
 40
0.3654128089088878
100
AcDbArc
 50
344.0321306280292
 51
359.2390474203506
  0
LINE
  5
1CF
330
1F
100
AcDbEntity
  8
0
  6
Continuous
 62
     7
370
    15
100
AcDbLine
 10
4.420543545828145
 20
5.347836282128819
 30
0.0
 11
4.433515011612747
 21
5.344310915673456
 31
0.0
  0
ARC
  5
1D0
330
1F
100
AcDbEntity
  8
0
  6
Continuous
 62
     7
370
    15
100
AcDbCircle
 10
4.809277801509482
 20
5.312381222041177
 30
0.0
 40
0.3903477716420851
100
AcDbArc
 50
164.319033546068
 51
174.7886754373582
  0
LINE
  5
1D1
330
1F
100
AcDbEntity
  8
0
  6
Continuous
 62
     7
370
    15
100
AcDbLine
 10
5.110240624570633
 20
6.12411177406954
 30
0.0
 11
5.103395758866325
 21
6.117430975303078
 31
0.0
  0
ARC
  5
1D2
330
1F
100
AcDbEntity
  8
0
  6
Continuous
 62
     7
370
    15
100
AcDbCircle
 10
5.026761466033497
 20
6.196008653925239
 30
0.0
 40
0.1101722798305142
100
AcDbArc
 50
319.2631450437942
 51
1.456314732146335
  0
ARC
  5
1D3
330
1F
100
AcDbEntity
  8
0
  6
Continuous
 62
     7
370
    15
100
AcDbCircle
 10
4.412134354286528
 20
5.349138412704431
 30
0.0
 40
0.0263140581489978
100
AcDbArc
 50
264.6319186943848
 51
271.6770060652682
  0
SPLINE
  5
1D4
330
1F
100
AcDbEntity
  8
0
  6
Continuous
 62
     7
370
    15
100
AcDbSpline
210
0.0
220
0.0
230
1.0
 70
     8
 71
     3
 72
    11
 73
     7
 74
     0
 42
0.0000000001
 43
0.0000000001
 40
0.0
 40
0.0
 40
0.0
 40
0.0
 40
0.2446700684725628
 40
0.4928067074880597
 40
0.7445413952187903
 40
1.0
 40
1.0
 40
1.0
 40
1.0
 10
4.412904437789527
 20
5.322835625253911
 30
0.0
 10
4.415604935330346
 20
5.323213584267061
 30
0.0
 10
4.421044191999452
 20
5.323974857347985
 30
0.0
 10
4.427539157698146
 20
5.328626167044358
 30
0.0
 10
4.432208423141959
 20
5.335431227511325
 30
0.0
 10
4.433077355496038
 20
5.341336566882294
 30
0.0
 10
4.433515011612748
 20
5.344310915673456
 30
0.0
  0
SPLINE
  5
1D5
330
1F
100
AcDbEntity
  8
0
  6
Continuous
 62
     7
370
    15
100
AcDbSpline
210
0.0
220
0.0
230
1.0
 70
     8
 71
     3
 72
    10
 73
     6
 74
     0
 42
0.0000000001
 43
0.0000000001
 40
0.0
 40
0.0
 40
0.0
 40
0.0
 40
0.4901469036561681
 40
0.9731487489607415
 40
1.0
 40
1.0
 40
1.0
 40
1.0
 10
4.744645270899457
 20
5.647983586876305
 30
0.0
 10
4.744166796454663
 20
5.645066277707988
 30
0.0
 10
4.743216822469544
 20
5.639274186099733
 30
0.0
 10
4.740407713120742
 20
5.634001829223762
 30
0.0
 10
4.738082522175268
 20
5.632449985717387
 30
0.0
 10
4.737960066734204
 20
5.632368258373056
 30
0.0
  0
SPLINE
  5
1D6
330
1F
100
AcDbEntity
  8
0
  6
Continuous
 62
     7
370
    15
100
AcDbSpline
210
0.0
220
0.0
230
1.0
 70
     8
 71
     3
 72
    10
 73
     6
 74
     0
 42
0.0000000001
 43
0.0000000001
 40
0.0
 40
0.0
 40
0.0
 40
0.0
 40
0.0266978474117164
 40
0.5086467381304591
 40
0.9999999999999998
 40
0.9999999999999998
 40
0.9999999999999998
 40
0.9999999999999998
 10
4.416609392896093
 20
5.339161128107885
 30
0.0
 10
4.416676565327491
 20
5.339206589974706
 30
0.0
 10
4.417956332853146
 20
5.340072728353251
 30
0.0
 10
4.419568928150341
 20
5.343003064046659
 30
0.0
 10
4.420216587302379
 20
5.346214864936383
 30
0.0
 10
4.420543545828145
 20
5.347836282128819
 30
0.0
  0
LINE
  5
1D7
330
1F
100
AcDbEntity
  8
0
  6
Continuous
 62
     7
370
    15
100
AcDbLine
 10
4.412904437789527
 20
5.322835625253911
 30
0.0
 11
4.412156088692289
 21
5.325363745156471
 31
0.0
  0
LINE
  5
1D8
330
1F
100
AcDbEntity
  8
0
  6
Continuous
 62
     7
370
    15
100
AcDbLine
 10
4.77719785535279
 20
5.754579802558814
 30
0.0
 11
4.784042721057097
 21
5.761260601325276
 31
0.0
  0
LINE
  5
1D9
330
1F
100
AcDbEntity
  8
0
  6
Continuous
 62
     7
370
    15
100
AcDbLine
 10
5.110240624570633
 20
6.12411177406954
 30
0.0
 11
4.784042721057099
 21
5.761260601325277
 31
0.0
  0
LWPOLYLINE
  5
1DA
330
1F
100
AcDbEntity
  8
0
  6
Continuous
 62
     7
370
    15
100
AcDbPolyline
 90
       17
 70
   128
 43
0.0
 10
3.589857144707049
 20
7.418479946833612
 10
3.589155870531241
 20
7.415253624328695
 10
3.587158810640017
 20
7.412899662767457
 10
3.584169999298424
 20
7.411776431458884
 10
3.580644455939575
 20
7.412054932187589
 10
3.577118912580727
 20
7.413692765742242
 10
3.574130101239134
 20
7.416440586811144
 10
3.57213304134791
 20
7.419880064545615
 10
3.571431767172102
 20
7.423487569639528
 10
3.57213304134791
 20
7.426713892144446
 10
3.574130101239134
 20
7.429067853705683
 10
3.577118912580728
 20
7.430191085014256
 10
3.580644455939576
 20
7.429912584285552
 10
3.584169999298424
 20
7.428274750730898
 10
3.587158810640017
 20
7.425526929661996
 10
3.589155870531242
 20
7.422087451927524
 10
3.589857144707049
 20
7.418479946833612
  0
LWPOLYLINE
  5
1DB
330
1F
100
AcDbEntity
  8
0
  6
Continuous
 62
     7
370
    15
100
AcDbPolyline
 90
       17
 70
   128
 43
0.0
 10
3.573822988809087
 20
7.396115331919886
 10
3.573121714633279
 20
7.392889009414967
 10
3.571124654742055
 20
7.390535047853729
 10
3.568135843400461
 20
7.389411816545157
 10
3.564610300041614
 20
7.389690317273862
 10
3.561084756682765
 20
7.391328150828515
 10
3.558095945341172
 20
7.394075971897417
 10
3.556098885449948
 20
7.39751544963189
 10
3.55539761127414
 20
7.4011229547258
 10
3.556098885449948
 20
7.404349277230719
 10
3.558095945341172
 20
7.406703238791957
 10
3.561084756682766
 20
7.407826470100529
 10
3.564610300041614
 20
7.407547969371824
 10
3.568135843400462
 20
7.405910135817172
 10
3.571124654742055
 20
7.403162314748269
 10
3.573121714633279
 20
7.399722837013797
 10
3.573822988809087
 20
7.396115331919886
  0
LWPOLYLINE
  5
1DC
330
1F
100
AcDbEntity
  8
0
  6
Continuous
 62
     7
370
    15
100
AcDbPolyline
 90
       17
 70
   128
 43
0.0
 10
3.573822988809088
 20
7.342408779638596
 10
3.57312171463328
 20
7.339182457133678
 10
3.571124654742056
 20
7.33682849557244
 10
3.568135843400463
 20
7.335705264263868
 10
3.564610300041615
 20
7.335983764992572
 10
3.561084756682766
 20
7.337621598547225
 10
3.558095945341172
 20
7.340369419616128
 10
3.556098885449949
 20
7.343808897350601
 10
3.555397611274141
 20
7.347416402444511
 10
3.556098885449949
 20
7.350642724949429
 10
3.558095945341173
 20
7.352996686510667
 10
3.561084756682766
 20
7.35411991781924
 10
3.564610300041615
 20
7.353841417090534
 10
3.568135843400463
 20
7.352203583535882
 10
3.571124654742056
 20
7.34945576246698
 10
3.57312171463328
 20
7.346016284732508
 10
3.573822988809088
 20
7.342408779638596
  0
LWPOLYLINE
  5
1DD
330
1F
100
AcDbEntity
  8
0
  6
Continuous
 62
     7
370
    15
100
AcDbPolyline
 90
       17
 70
   128
 43
0.0
 10
3.58985714470705
 20
7.364773394552323
 10
3.589155870531242
 20
7.361547072047405
 10
3.587158810640018
 20
7.359193110486168
 10
3.584169999298424
 20
7.358069879177595
 10
3.580644455939576
 20
7.3583483799063
 10
3.577118912580728
 20
7.359986213460953
 10
3.574130101239135
 20
7.362734034529855
 10
3.57213304134791
 20
7.366173512264326
 10
3.571431767172103
 20
7.369781017358238
 10
3.57213304134791
 20
7.373007339863156
 10
3.574130101239135
 20
7.375361301424394
 10
3.577118912580728
 20
7.376484532732966
 10
3.580644455939577
 20
7.376206032004261
 10
3.584169999298425
 20
7.374568198449609
 10
3.587158810640018
 20
7.371820377380705
 10
3.589155870531242
 20
7.368380899646234
 10
3.58985714470705
 20
7.364773394552323
  0
LINE
  5
1DE
330
1F
100
AcDbEntity
  8
0
  6
Continuous
 62
     7
370
    15
100
AcDbLine
 10
3.652042793887493
 20
7.401579219863648
 30
0.0
 11
3.652040656493299
 21
7.401387476850713
 31
0.0
  0
LWPOLYLINE
  5
1DF
330
1F
100
AcDbEntity
  8
0
  6
Continuous
 62
     7
370
    15
100
AcDbPolyline
 90
       14
 70
   128
 43
0.0
 10
3.645301450457124
 20
7.394809805159494
 10
3.642830105120019
 20
7.395154205217626
 10
3.639304561761171
 20
7.396792038772278
 10
3.636315750419578
 20
7.399539859841182
 10
3.634318690528353
 20
7.402979337575653
 10
3.633617416352546
 20
7.406586842669564
 10
3.634318690528353
 20
7.409813165174482
 10
3.636315750419578
 20
7.412167126735719
 10
3.639304561761171
 20
7.413290358044292
 10
3.64283010512002
 20
7.413011857315587
 10
3.646355648478868
 20
7.411374023760934
 10
3.649344459820461
 20
7.408626202692032
 10
3.651341519711685
 20
7.405186724957561
 10
3.652042793887493
 20
7.401579219863648
  0
LWPOLYLINE
  5
1E0
330
1F
100
AcDbEntity
  8
0
  6
Continuous
 62
     7
370
    15
100
AcDbPolyline
 90
       17
 70
   128
 43
0.0
 10
3.606067399495243
 20
7.387351992009533
 10
3.605366125319435
 20
7.384125669504616
 10
3.603369065428211
 20
7.381771707943379
 10
3.600380254086618
 20
7.380648476634806
 10
3.596854710727769
 20
7.380926977363511
 10
3.593329167368921
 20
7.382564810918163
 10
3.590340356027327
 20
7.385312631987065
 10
3.588343296136104
 20
7.388752109721537
 10
3.587642021960296
 20
7.392359614815449
 10
3.588343296136104
 20
7.395585937320368
 10
3.590340356027327
 20
7.397939898881604
 10
3.593329167368921
 20
7.399063130190177
 10
3.596854710727769
 20
7.398784629461473
 10
3.600380254086618
 20
7.39714679590682
 10
3.603369065428211
 20
7.394398974837917
 10
3.605366125319435
 20
7.390959497103446
 10
3.606067399495243
 20
7.387351992009533
  0
LWPOLYLINE
  5
1E1
330
1F
100
AcDbEntity
  8
0
  6
Continuous
 62
     7
370
    15
100
AcDbPolyline
 90
       17
 70
   128
 43
0.0
 10
3.541578578122931
 20
7.29911838977052
 10
3.540877303947123
 20
7.295892067265602
 10
3.538880244055899
 20
7.293538105704365
 10
3.535891432714306
 20
7.292414874395792
 10
3.532365889355457
 20
7.292693375124496
 10
3.52884034599661
 20
7.29433120867915
 10
3.525851534655016
 20
7.297079029748052
 10
3.523854474763792
 20
7.300518507482523
 10
3.523153200587984
 20
7.304126012576436
 10
3.523854474763792
 20
7.307352335081353
 10
3.525851534655016
 20
7.309706296642591
 10
3.52884034599661
 20
7.310829527951163
 10
3.532365889355457
 20
7.310551027222459
 10
3.535891432714306
 20
7.308913193667806
 10
3.538880244055899
 20
7.306165372598903
 10
3.540877303947123
 20
7.302725894864431
 10
3.541578578122931
 20
7.29911838977052
  0
LWPOLYLINE
  5
1E2
330
1F
100
AcDbEntity
  8
0
  6
Continuous
 62
     7
370
    15
100
AcDbPolyline
 90
       17
 70
   128
 43
0.0
 10
3.559915906212762
 20
7.320857051833508
 10
3.559214632036954
 20
7.317630729328588
 10
3.557217572145729
 20
7.315276767767352
 10
3.554228760804136
 20
7.314153536458779
 10
3.550703217445288
 20
7.314432037187485
 10
3.54717767408644
 20
7.316069870742137
 10
3.544188862744846
 20
7.318817691811039
 10
3.542191802853623
 20
7.322257169545511
 10
3.541490528677814
 20
7.325864674639423
 10
3.542191802853623
 20
7.329090997144341
 10
3.544188862744847
 20
7.331444958705579
 10
3.54717767408644
 20
7.332568190014152
 10
3.550703217445288
 20
7.332289689285445
 10
3.554228760804136
 20
7.330651855730794
 10
3.55721757214573
 20
7.327904034661892
 10
3.559214632036954
 20
7.324464556927419
 10
3.559915906212762
 20
7.320857051833508
  0
ARC
  5
1E3
330
1F
100
AcDbEntity
  8
0
  6
Continuous
 62
     7
370
    15
100
AcDbCircle
 10
3.594278494335964
 20
7.338788734199556
 30
0.0
 40
0.0066405627053437
100
AcDbArc
 50
86.40509734161037
 51
182.204969896456
  0
LWPOLYLINE
  5
1E4
330
1F
100
AcDbEntity
  8
0
  6
Continuous
 62
     7
370
    15
100
AcDbPolyline
 90
        8
 70
   128
 43
0.0
 10
3.605022594797002
 20
7.355496407229813
 10
3.604332788219331
 20
7.35698484099321
 10
3.603631514043523
 20
7.360592346087122
 10
3.604332788219331
 20
7.363818668592041
 10
3.606329848110556
 20
7.366172630153278
 10
3.609318659452149
 20
7.367295861461851
 10
3.612844202810997
 20
7.367017360733147
 10
3.615625292597293
 20
7.365844965323624
  0
LWPOLYLINE
  5
1E5
330
1F
100
AcDbEntity
  8
0
  6
Continuous
 62
     7
370
    15
100
AcDbPolyline
 90
       10
 70
   128
 43
0.0
 10
3.624317911972616
 20
7.374329228318504
 10
3.622607594360856
 20
7.37609917996796
 10
3.620610534469633
 20
7.379538657702432
 10
3.619909260293824
 20
7.383146162796343
 10
3.620610534469633
 20
7.386372485301262
 10
3.622607594360856
 20
7.388726446862499
 10
3.62559640570245
 20
7.389849678171071
 10
3.629121949061298
 20
7.389571177442367
 10
3.632647492420146
 20
7.387933343887714
 10
3.635549743848419
 20
7.385291840557013
  0
LWPOLYLINE
  5
1E6
330
1F
100
AcDbEntity
  8
0
  6
Continuous
 62
     7
370
    15
100
AcDbPolyline
 90
       17
 70
   128
 43
0.0
 10
3.622056891578469
 20
7.409291275562496
 10
3.621355617402662
 20
7.406064953057579
 10
3.619358557511438
 20
7.403710991496342
 10
3.616369746169845
 20
7.402587760187769
 10
3.612844202810996
 20
7.402866260916473
 10
3.609318659452148
 20
7.404504094471126
 10
3.606329848110554
 20
7.407251915540029
 10
3.604332788219331
 20
7.4106913932745
 10
3.603631514043522
 20
7.414298898368413
 10
3.604332788219331
 20
7.41752522087333
 10
3.606329848110554
 20
7.419879182434567
 10
3.609318659452148
 20
7.42100241374314
 10
3.612844202810996
 20
7.420723913014436
 10
3.616369746169845
 20
7.419086079459783
 10
3.619358557511438
 20
7.41633825839088
 10
3.621355617402662
 20
7.412898780656408
 10
3.622056891578469
 20
7.409291275562496
  0
LWPOLYLINE
  5
1E7
330
1F
100
AcDbEntity
  8
0
  6
Continuous
 62
     7
370
    15
100
AcDbPolyline
 90
       17
 70
   128
 43
0.0
 10
3.559915906212762
 20
7.372910781611936
 10
3.559214632036954
 20
7.369684459107017
 10
3.557217572145729
 20
7.36733049754578
 10
3.554228760804136
 20
7.366207266237206
 10
3.550703217445288
 20
7.366485766965912
 10
3.54717767408644
 20
7.368123600520565
 10
3.544188862744846
 20
7.370871421589467
 10
3.542191802853623
 20
7.374310899323939
 10
3.541490528677814
 20
7.37791840441785
 10
3.542191802853623
 20
7.381144726922769
 10
3.544188862744847
 20
7.383498688484006
 10
3.54717767408644
 20
7.384621919792578
 10
3.550703217445288
 20
7.384343419063873
 10
3.554228760804136
 20
7.382705585509221
 10
3.55721757214573
 20
7.379957764440319
 10
3.559214632036954
 20
7.376518286705846
 10
3.559915906212762
 20
7.372910781611936
  0
LWPOLYLINE
  5
1E8
330
1F
100
AcDbEntity
  8
0
  6
Continuous
 62
     7
370
    15
100
AcDbPolyline
 90
       17
 70
   128
 43
0.0
 10
3.541578578122931
 20
7.351172119548947
 10
3.540877303947123
 20
7.347945797044029
 10
3.538880244055899
 20
7.345591835482792
 10
3.535891432714306
 20
7.344468604174219
 10
3.532365889355457
 20
7.344747104902924
 10
3.52884034599661
 20
7.346384938457577
 10
3.525851534655016
 20
7.349132759526479
 10
3.523854474763792
 20
7.352572237260951
 10
3.523153200587984
 20
7.356179742354863
 10
3.523854474763792
 20
7.359406064859781
 10
3.525851534655016
 20
7.361760026421019
 10
3.52884034599661
 20
7.362883257729591
 10
3.532365889355457
 20
7.362604757000887
 10
3.535891432714306
 20
7.360966923446234
 10
3.538880244055899
 20
7.358219102377332
 10
3.540877303947123
 20
7.354779624642859
 10
3.541578578122931
 20
7.351172119548947
  0
LWPOLYLINE
  5
1E9
330
1F
100
AcDbEntity
  8
0
  6
Continuous
 62
     7
370
    15
100
AcDbPolyline
 90
       17
 70
   128
 43
0.0
 10
3.54157857812293
 20
7.404878671830237
 10
3.540877303947122
 20
7.401652349325318
 10
3.538880244055899
 20
7.399298387764082
 10
3.535891432714305
 20
7.39817515645551
 10
3.532365889355457
 20
7.398453657184213
 10
3.528840345996608
 20
7.400091490738867
 10
3.525851534655015
 20
7.402839311807769
 10
3.523854474763791
 20
7.40627878954224
 10
3.523153200587984
 20
7.409886294636153
 10
3.523854474763791
 20
7.41311261714107
 10
3.525851534655015
 20
7.415466578702308
 10
3.528840345996608
 20
7.416589810010881
 10
3.532365889355457
 20
7.416311309282176
 10
3.535891432714305
 20
7.414673475727523
 10
3.538880244055899
 20
7.411925654658621
 10
3.540877303947122
 20
7.408486176924149
 10
3.54157857812293
 20
7.404878671830237
  0
LWPOLYLINE
  5
1EA
330
1F
100
AcDbEntity
  8
0
  6
Continuous
 62
     7
370
    15
100
AcDbPolyline
 90
       17
 70
   128
 43
0.0
 10
3.559915906212761
 20
7.426617333893225
 10
3.559214632036952
 20
7.423391011388306
 10
3.557217572145729
 20
7.421037049827069
 10
3.554228760804135
 20
7.419913818518497
 10
3.550703217445287
 20
7.420192319247202
 10
3.54717767408644
 20
7.421830152801854
 10
3.544188862744846
 20
7.424577973870756
 10
3.542191802853622
 20
7.428017451605228
 10
3.541490528677814
 20
7.431624956699139
 10
3.542191802853622
 20
7.434851279204059
 10
3.544188862744846
 20
7.437205240765295
 10
3.54717767408644
 20
7.438328472073869
 10
3.550703217445287
 20
7.438049971345163
 10
3.554228760804136
 20
7.436412137790512
 10
3.557217572145729
 20
7.433664316721608
 10
3.559214632036953
 20
7.430224838987136
 10
3.559915906212761
 20
7.426617333893225
  0
LINE
  5
1EB
330
1F
100
AcDbEntity
  8
0
  6
Continuous
 62
     7
370
    15
100
AcDbLine
 10
3.449473625132125
 20
7.203675844262789
 30
0.0
 11
3.449473625132127
 21
7.471367453336788
 31
0.0
  0
LINE
  5
1EC
330
1F
100
AcDbEntity
  8
0
  6
Continuous
 62
     7
370
    15
100
AcDbLine
 10
3.449473625132127
 20
7.471367453336788
 30
0.0
 11
3.523175135271912
 21
7.522767570504972
 31
0.0
  0
LINE
  5
1ED
330
1F
100
AcDbEntity
  8
0
  6
Continuous
 62
     7
370
    15
100
AcDbLine
 10
3.523175135271912
 20
7.522767570504972
 30
0.0
 11
3.721247714938422
 21
7.468935687533607
 31
0.0
  0
LINE
  5
1EE
330
1F
100
AcDbEntity
  8
0
  6
Continuous
 62
     7
370
    15
100
AcDbLine
 10
3.53002000097622
 20
7.529448369271436
 30
0.0
 11
3.523175135271912
 21
7.522767570504972
 31
0.0
  0
LINE
  5
1EF
330
1F
100
AcDbEntity
  8
0
  6
Continuous
 62
     7
370
    15
100
AcDbLine
 10
3.53002000097622
 20
7.529448369271436
 30
0.0
 11
3.72809258064273
 21
7.475616486300071
 31
0.0
  0
LINE
  5
1F0
330
1F
100
AcDbEntity
  8
0
  6
Continuous
 62
     7
370
    15
100
AcDbLine
 10
3.456318490836435
 20
7.47804825210325
 30
0.0
 11
3.449473625132127
 21
7.471367453336788
 31
0.0
  0
LINE
  5
1F1
330
1F
100
AcDbEntity
  8
0
  6
Continuous
 62
     7
370
    15
100
AcDbLine
 10
3.456318490836435
 20
7.47804825210325
 30
0.0
 11
3.53002000097622
 21
7.529448369271436
 31
0.0
  0
LWPOLYLINE
  5
1F2
330
1F
100
AcDbEntity
  8
0
  6
Continuous
 62
     7
370
    15
100
AcDbPolyline
 90
       17
 70
   128
 43
0.0
 10
3.559915906212744
 20
7.426617333893208
 10
3.559214632036935
 20
7.43022483898712
 10
3.557217572145712
 20
7.433664316721592
 10
3.554228760804118
 20
7.436412137790494
 10
3.55070321744527
 20
7.438049971345146
 10
3.547177674086422
 20
7.438328472073852
 10
3.544188862744829
 20
7.437205240765279
 10
3.542191802853605
 20
7.434851279204041
 10
3.541490528677797
 20
7.431624956699123
 10
3.542191802853605
 20
7.428017451605211
 10
3.544188862744829
 20
7.424577973870739
 10
3.547177674086422
 20
7.421830152801836
 10
3.55070321744527
 20
7.420192319247184
 10
3.554228760804118
 20
7.41991381851848
 10
3.557217572145712
 20
7.421037049827052
 10
3.559214632036935
 20
7.423391011388289
 10
3.559915906212744
 20
7.426617333893208
  0
LWPOLYLINE
  5
1F3
330
1F
100
AcDbEntity
  8
0
  6
Continuous
 62
     7
370
    15
100
AcDbPolyline
 90
       17
 70
   128
 43
0.0
 10
3.589857144707032
 20
7.418479946833595
 10
3.589155870531224
 20
7.422087451927508
 10
3.58715881064
 20
7.425526929661979
 10
3.584169999298406
 20
7.428274750730881
 10
3.580644455939558
 20
7.429912584285534
 10
3.57711891258071
 20
7.430191085014238
 10
3.574130101239117
 20
7.429067853705666
 10
3.572133041347893
 20
7.426713892144428
 10
3.571431767172084
 20
7.423487569639511
 10
3.572133041347893
 20
7.4198800645456
 10
3.574130101239117
 20
7.416440586811127
 10
3.57711891258071
 20
7.413692765742224
 10
3.580644455939558
 20
7.412054932187571
 10
3.584169999298406
 20
7.411776431458867
 10
3.58715881064
 20
7.41289966276744
 10
3.589155870531224
 20
7.415253624328677
 10
3.589857144707032
 20
7.418479946833595
  0
LWPOLYLINE
  5
1F4
330
1F
100
AcDbEntity
  8
0
  6
Continuous
 62
     7
370
    15
100
AcDbPolyline
 90
       17
 70
   128
 43
0.0
 10
3.622056891578452
 20
7.40929127556248
 10
3.621355617402644
 20
7.412898780656392
 10
3.619358557511421
 20
7.416338258390863
 10
3.616369746169827
 20
7.419086079459765
 10
3.612844202810979
 20
7.420723913014418
 10
3.609318659452131
 20
7.421002413743123
 10
3.606329848110537
 20
7.41987918243455
 10
3.604332788219313
 20
7.417525220873313
 10
3.603631514043506
 20
7.414298898368395
 10
3.604332788219313
 20
7.410691393274484
 10
3.606329848110537
 20
7.407251915540011
 10
3.609318659452131
 20
7.404504094471109
 10
3.612844202810979
 20
7.402866260916457
 10
3.616369746169827
 20
7.402587760187752
 10
3.619358557511421
 20
7.403710991496324
 10
3.621355617402644
 20
7.406064953057562
 10
3.622056891578452
 20
7.40929127556248
  0
LWPOLYLINE
  5
1F5
330
1F
100
AcDbEntity
  8
0
  6
Continuous
 62
     7
370
    15
100
AcDbPolyline
 90
       15
 70
   128
 43
0.0
 10
3.652040656493281
 20
7.401387476850695
 10
3.652042793887475
 20
7.401579219863632
 10
3.651341519711667
 20
7.405186724957545
 10
3.649344459820444
 20
7.408626202692016
 10
3.64635564847885
 20
7.411374023760918
 10
3.642830105120002
 20
7.413011857315571
 10
3.639304561761154
 20
7.413290358044275
 10
3.63631575041956
 20
7.412167126735703
 10
3.634318690528337
 20
7.409813165174465
 10
3.633617416352528
 20
7.406586842669548
 10
3.634318690528337
 20
7.402979337575636
 10
3.63631575041956
 20
7.399539859841164
 10
3.639304561761154
 20
7.396792038772262
 10
3.642830105120002
 20
7.395154205217609
 10
3.645301450457106
 20
7.394809805159478
  0
LWPOLYLINE
  5
1F6
330
1F
100
AcDbEntity
  8
0
  6
Continuous
 62
     7
370
    15
100
AcDbPolyline
 90
       10
 70
   128
 43
0.0
 10
3.635549743848402
 20
7.385291840556996
 10
3.632647492420128
 20
7.387933343887698
 10
3.629121949061281
 20
7.38957117744235
 10
3.625596405702432
 20
7.389849678171055
 10
3.622607594360839
 20
7.388726446862482
 10
3.620610534469615
 20
7.386372485301245
 10
3.619909260293807
 20
7.383146162796327
 10
3.620610534469615
 20
7.379538657702415
 10
3.622607594360839
 20
7.376099179967943
 10
3.624317911972598
 20
7.374329228318488
  0
LWPOLYLINE
  5
1F7
330
1F
100
AcDbEntity
  8
0
  6
Continuous
 62
     7
370
    15
100
AcDbPolyline
 90
       17
 70
   128
 43
0.0
 10
3.606067399495225
 20
7.387351992009517
 10
3.605366125319418
 20
7.39095949710343
 10
3.603369065428194
 20
7.394398974837901
 10
3.6003802540866
 20
7.397146795906803
 10
3.596854710727752
 20
7.398784629461456
 10
3.593329167368904
 20
7.399063130190161
 10
3.59034035602731
 20
7.397939898881588
 10
3.588343296136086
 20
7.39558593732035
 10
3.587642021960279
 20
7.392359614815433
 10
3.588343296136086
 20
7.38875210972152
 10
3.59034035602731
 20
7.385312631987049
 10
3.593329167368904
 20
7.382564810918146
 10
3.596854710727752
 20
7.380926977363493
 10
3.6003802540866
 20
7.38064847663479
 10
3.603369065428194
 20
7.381771707943362
 10
3.605366125319418
 20
7.3841256695046
 10
3.606067399495225
 20
7.387351992009517
  0
LWPOLYLINE
  5
1F8
330
1F
100
AcDbEntity
  8
0
  6
Continuous
 62
     7
370
    15
100
AcDbPolyline
 90
       17
 70
   128
 43
0.0
 10
3.57382298880907
 20
7.396115331919869
 10
3.573121714633261
 20
7.39972283701378
 10
3.571124654742038
 20
7.403162314748252
 10
3.568135843400444
 20
7.405910135817156
 10
3.564610300041596
 20
7.407547969371807
 10
3.561084756682749
 20
7.407826470100513
 10
3.558095945341155
 20
7.406703238791939
 10
3.556098885449931
 20
7.404349277230703
 10
3.555397611274123
 20
7.401122954725783
 10
3.556098885449931
 20
7.397515449631872
 10
3.558095945341155
 20
7.3940759718974
 10
3.561084756682749
 20
7.391328150828498
 10
3.564610300041597
 20
7.389690317273846
 10
3.568135843400444
 20
7.389411816545139
 10
3.571124654742038
 20
7.390535047853713
 10
3.573121714633261
 20
7.39288900941495
 10
3.57382298880907
 20
7.396115331919869
  0
LWPOLYLINE
  5
1F9
330
1F
100
AcDbEntity
  8
0
  6
Continuous
 62
     7
370
    15
100
AcDbPolyline
 90
       17
 70
   128
 43
0.0
 10
3.541578578122913
 20
7.40487867183022
 10
3.540877303947105
 20
7.408486176924132
 10
3.538880244055881
 20
7.411925654658603
 10
3.535891432714287
 20
7.414673475727506
 10
3.53236588935544
 20
7.416311309282159
 10
3.528840345996591
 20
7.416589810010863
 10
3.525851534654997
 20
7.415466578702291
 10
3.523854474763775
 20
7.413112617141054
 10
3.523153200587966
 20
7.409886294636135
 10
3.523854474763775
 20
7.406278789542224
 10
3.525851534654998
 20
7.402839311807753
 10
3.528840345996592
 20
7.400091490738849
 10
3.53236588935544
 20
7.398453657184196
 10
3.535891432714287
 20
7.398175156455492
 10
3.538880244055881
 20
7.399298387764064
 10
3.540877303947105
 20
7.401652349325302
 10
3.541578578122913
 20
7.40487867183022
  0
LWPOLYLINE
  5
1FA
330
1F
100
AcDbEntity
  8
0
  6
Continuous
 62
     7
370
    15
100
AcDbPolyline
 90
       17
 70
   128
 43
0.0
 10
3.559915906212744
 20
7.372910781611918
 10
3.559214632036935
 20
7.376518286705829
 10
3.557217572145712
 20
7.379957764440302
 10
3.554228760804118
 20
7.382705585509204
 10
3.55070321744527
 20
7.384343419063857
 10
3.547177674086422
 20
7.384621919792561
 10
3.544188862744829
 20
7.383498688483989
 10
3.542191802853605
 20
7.381144726922751
 10
3.541490528677797
 20
7.377918404417833
 10
3.542191802853605
 20
7.374310899323921
 10
3.544188862744829
 20
7.370871421589449
 10
3.547177674086422
 20
7.368123600520547
 10
3.55070321744527
 20
7.366485766965895
 10
3.554228760804118
 20
7.366207266237189
 10
3.557217572145712
 20
7.367330497545762
 10
3.559214632036935
 20
7.369684459107
 10
3.559915906212744
 20
7.372910781611918
  0
LWPOLYLINE
  5
1FB
330
1F
100
AcDbEntity
  8
0
  6
Continuous
 62
     7
370
    15
100
AcDbPolyline
 90
       17
 70
   128
 43
0.0
 10
3.589857144707032
 20
7.364773394552305
 10
3.589155870531224
 20
7.368380899646216
 10
3.58715881064
 20
7.371820377380689
 10
3.584169999298406
 20
7.374568198449591
 10
3.580644455939558
 20
7.376206032004244
 10
3.57711891258071
 20
7.376484532732948
 10
3.574130101239117
 20
7.375361301424376
 10
3.572133041347893
 20
7.373007339863138
 10
3.571431767172084
 20
7.369781017358221
 10
3.572133041347893
 20
7.366173512264309
 10
3.574130101239117
 20
7.362734034529837
 10
3.57711891258071
 20
7.359986213460935
 10
3.580644455939558
 20
7.358348379906282
 10
3.584169999298406
 20
7.358069879177577
 10
3.58715881064
 20
7.35919311048615
 10
3.589155870531224
 20
7.361547072047388
 10
3.589857144707032
 20
7.364773394552305
  0
LWPOLYLINE
  5
1FC
330
1F
100
AcDbEntity
  8
0
  6
Continuous
 62
     7
370
    15
100
AcDbPolyline
 90
        8
 70
   128
 43
0.0
 10
3.615625292597275
 20
7.365844965323607
 10
3.612844202810979
 20
7.367017360733129
 10
3.609318659452131
 20
7.367295861461833
 10
3.606329848110537
 20
7.36617263015326
 10
3.604332788219313
 20
7.363818668592023
 10
3.603631514043506
 20
7.360592346087105
 10
3.604332788219313
 20
7.356984840993193
 10
3.605022594796984
 20
7.355496407229796
  0
ARC
  5
1FD
330
1F
100
AcDbEntity
  8
0
  6
Continuous
 62
     7
370
    15
100
AcDbCircle
 10
3.594292835599659
 20
7.338774040743323
 30
0.0
 40
0.0066543454660219
100
AcDbArc
 50
86.53626947673489
 51
182.0737977613086
  0
LWPOLYLINE
  5
1FE
330
1F
100
AcDbEntity
  8
0
  6
Continuous
 62
     7
370
    15
100
AcDbPolyline
 90
       17
 70
   128
 43
0.0
 10
3.57382298880907
 20
7.342408779638578
 10
3.573121714633261
 20
7.34601628473249
 10
3.571124654742038
 20
7.349455762466962
 10
3.568135843400444
 20
7.352203583535864
 10
3.564610300041596
 20
7.353841417090516
 10
3.561084756682749
 20
7.354119917819222
 10
3.558095945341155
 20
7.352996686510649
 10
3.556098885449931
 20
7.350642724949411
 10
3.555397611274123
 20
7.347416402444493
 10
3.556098885449931
 20
7.343808897350583
 10
3.558095945341155
 20
7.340369419616109
 10
3.561084756682749
 20
7.337621598547207
 10
3.564610300041597
 20
7.335983764992556
 10
3.568135843400444
 20
7.33570526426385
 10
3.571124654742038
 20
7.336828495572422
 10
3.573121714633261
 20
7.33918245713366
 10
3.57382298880907
 20
7.342408779638578
  0
LWPOLYLINE
  5
1FF
330
1F
100
AcDbEntity
  8
0
  6
Continuous
 62
     7
370
    15
100
AcDbPolyline
 90
       17
 70
   128
 43
0.0
 10
3.541578578122913
 20
7.351172119548929
 10
3.540877303947105
 20
7.354779624642842
 10
3.538880244055881
 20
7.358219102377314
 10
3.535891432714287
 20
7.360966923446216
 10
3.53236588935544
 20
7.362604757000869
 10
3.528840345996591
 20
7.362883257729573
 10
3.525851534654997
 20
7.361760026421
 10
3.523854474763775
 20
7.359406064859763
 10
3.523153200587966
 20
7.356179742354846
 10
3.523854474763775
 20
7.352572237260933
 10
3.525851534654998
 20
7.349132759526462
 10
3.528840345996592
 20
7.346384938457559
 10
3.53236588935544
 20
7.344747104902906
 10
3.535891432714287
 20
7.344468604174202
 10
3.538880244055881
 20
7.345591835482775
 10
3.540877303947105
 20
7.347945797044012
 10
3.541578578122913
 20
7.351172119548929
  0
LWPOLYLINE
  5
200
330
1F
100
AcDbEntity
  8
0
  6
Continuous
 62
     7
370
    15
100
AcDbPolyline
 90
       17
 70
   128
 43
0.0
 10
3.559915906212744
 20
7.32085705183349
 10
3.559214632036935
 20
7.324464556927402
 10
3.557217572145712
 20
7.327904034661874
 10
3.554228760804118
 20
7.330651855730776
 10
3.55070321744527
 20
7.332289689285429
 10
3.547177674086422
 20
7.332568190014134
 10
3.544188862744829
 20
7.331444958705561
 10
3.542191802853605
 20
7.329090997144323
 10
3.541490528677797
 20
7.325864674639405
 10
3.542191802853605
 20
7.322257169545493
 10
3.544188862744829
 20
7.318817691811021
 10
3.547177674086422
 20
7.316069870742119
 10
3.55070321744527
 20
7.314432037187467
 10
3.554228760804118
 20
7.314153536458761
 10
3.557217572145712
 20
7.315276767767334
 10
3.559214632036935
 20
7.317630729328572
 10
3.559915906212744
 20
7.32085705183349
  0
LWPOLYLINE
  5
201
330
1F
100
AcDbEntity
  8
0
  6
Continuous
 62
     7
370
    15
100
AcDbPolyline
 90
       17
 70
   128
 43
0.0
 10
3.541578578122913
 20
7.299118389770502
 10
3.540877303947105
 20
7.302725894864414
 10
3.538880244055881
 20
7.306165372598886
 10
3.535891432714287
 20
7.308913193667788
 10
3.53236588935544
 20
7.310551027222441
 10
3.528840345996591
 20
7.310829527951145
 10
3.525851534654997
 20
7.309706296642573
 10
3.523854474763775
 20
7.307352335081336
 10
3.523153200587966
 20
7.304126012576418
 10
3.523854474763775
 20
7.300518507482506
 10
3.525851534654998
 20
7.297079029748034
 10
3.528840345996592
 20
7.294331208679131
 10
3.53236588935544
 20
7.292693375124478
 10
3.535891432714287
 20
7.292414874395774
 10
3.538880244055881
 20
7.293538105704348
 10
3.540877303947105
 20
7.295892067265584
 10
3.541578578122913
 20
7.299118389770502
  0
LWPOLYLINE
  5
202
330
1F
100
AcDbEntity
  8
0
  6
Continuous
 62
     7
370
    15
100
AcDbPolyline
 90
       17
 70
   128
 43
0.0
 10
4.945909502529074
 20
7.049933972664805
 10
4.945208228353267
 20
7.053541477758716
 10
4.943211168462043
 20
7.056980955493187
 10
4.940222357120449
 20
7.059728776562089
 10
4.936696813761602
 20
7.061366610116742
 10
4.933171270402755
 20
7.061645110845446
 10
4.930182459061161
 20
7.060521879536874
 10
4.928185399169938
 20
7.058167917975637
 10
4.92748412499413
 20
7.054941595470721
 10
4.928185399169938
 20
7.051334090376808
 10
4.930182459061161
 20
7.047894612642338
 10
4.933171270402755
 20
7.045146791573435
 10
4.936696813761602
 20
7.043508958018783
 10
4.94022235712045
 20
7.043230457290078
 10
4.943211168462043
 20
7.044353688598651
 10
4.945208228353267
 20
7.046707650159887
 10
4.945909502529074
 20
7.049933972664805
  0
LWPOLYLINE
  5
203
330
1F
100
AcDbEntity
  8
0
  6
Continuous
 62
     7
370
    15
100
AcDbPolyline
 90
       17
 70
   128
 43
0.0
 10
5.038036390203805
 20
7.024895858635231
 10
5.037335116027996
 20
7.028503363729141
 10
5.035338056136773
 20
7.031942841463613
 10
5.03234924479518
 20
7.034690662532515
 10
5.028823701436333
 20
7.036328496087167
 10
5.025298158077484
 20
7.036606996815872
 10
5.022309346735892
 20
7.0354837655073
 10
5.020312286844668
 20
7.033129803946063
 10
5.01961101266886
 20
7.029903481441144
 10
5.020312286844668
 20
7.026295976347234
 10
5.022309346735892
 20
7.022856498612762
 10
5.025298158077486
 20
7.02010867754386
 10
5.028823701436333
 20
7.018470843989208
 10
5.03234924479518
 20
7.018192343260503
 10
5.035338056136773
 20
7.019315574569076
 10
5.037335116027996
 20
7.021669536130313
 10
5.038036390203805
 20
7.024895858635231
  0
LWPOLYLINE
  5
204
330
1F
100
AcDbEntity
  8
0
  6
Continuous
 62
     7
370
    15
100
AcDbPolyline
 90
       17
 70
   128
 43
0.0
 10
5.056373718293635
 20
6.993189810865435
 10
5.055672444117828
 20
6.996797315959346
 10
5.053675384226603
 20
7.000236793693818
 10
5.050686572885011
 20
7.00298461476272
 10
5.047161029526163
 20
7.004622448317372
 10
5.043635486167315
 20
7.004900949046077
 10
5.040646674825723
 20
7.003777717737504
 10
5.038649614934499
 20
7.001423756176267
 10
5.03794834075869
 20
6.998197433671349
 10
5.038649614934499
 20
6.994589928577439
 10
5.040646674825723
 20
6.991150450842966
 10
5.043635486167315
 20
6.988402629774064
 10
5.047161029526163
 20
6.986764796219413
 10
5.050686572885011
 20
6.986486295490707
 10
5.053675384226604
 20
6.987609526799281
 10
5.055672444117828
 20
6.989963488360517
 10
5.056373718293635
 20
6.993189810865435
  0
LWPOLYLINE
  5
205
330
1F
100
AcDbEntity
  8
0
  6
Continuous
 62
     7
370
    15
100
AcDbPolyline
 90
       17
 70
   128
 43
0.0
 10
4.927396075549012
 20
7.02824317050684
 10
4.926694801373204
 20
7.03185067560075
 10
4.92469774148198
 20
7.035290153335222
 10
4.921708930140387
 20
7.038037974404124
 10
4.91818338678154
 20
7.039675807958777
 10
4.914657843422692
 20
7.039954308687481
 10
4.911669032081099
 20
7.038831077378908
 10
4.909671972189875
 20
7.036477115817672
 10
4.908970698014067
 20
7.033250793312753
 10
4.909671972189875
 20
7.029643288218843
 10
4.911669032081099
 20
7.026203810484371
 10
4.914657843422692
 20
7.023455989415469
 10
4.91818338678154
 20
7.021818155860817
 10
4.921708930140388
 20
7.021539655132112
 10
4.92469774148198
 20
7.022662886440685
 10
4.926694801373204
 20
7.025016848001922
 10
4.927396075549012
 20
7.02824317050684
  0
LWPOLYLINE
  5
206
330
1F
100
AcDbEntity
  8
0
  6
Continuous
 62
     7
370
    15
100
AcDbPolyline
 90
        8
 70
   128
 43
0.0
 10
4.9311106963925
 20
7.007349599775353
 10
4.930182459061161
 20
7.006815327255585
 10
4.928185399169938
 20
7.004461365694348
 10
4.92748412499413
 20
7.001235043189431
 10
4.928185399169938
 20
6.997627538095519
 10
4.930182459061161
 20
6.994188060361048
 10
4.933171270402755
 20
6.991440239292146
 10
4.936505650881466
 20
6.989856282119691
  0
ARC
  5
207
330
1F
100
AcDbEntity
  8
0
  6
Continuous
 62
     7
370
    15
100
AcDbCircle
 10
5.025724286684024
 20
6.970663968253783
 30
0.0
 40
0.0123233060986603
100
AcDbArc
 50
2.443238834914208
 51
86.59446859484896
  0
LWPOLYLINE
  5
208
330
1F
100
AcDbEntity
  8
0
  6
Continuous
 62
     7
370
    15
100
AcDbPolyline
 90
        8
 70
   128
 43
0.0
 10
5.020930965456364
 20
6.97123293492924
 10
5.022309346735892
 20
6.969149946331474
 10
5.025298158077486
 20
6.966402125262572
 10
5.028823701436333
 20
6.964764291707919
 10
5.03234924479518
 20
6.964485790979214
 10
5.035338056136773
 20
6.965609022287787
 10
5.037335116027996
 20
6.967962983849023
 10
5.038036390203805
 20
6.971189306353942
  0
LWPOLYLINE
  5
209
330
1F
100
AcDbEntity
  8
0
  6
Continuous
 62
     7
370
    15
100
AcDbPolyline
 90
       17
 70
   128
 43
0.0
 10
5.056373718293635
 20
6.939483258584146
 10
5.055672444117828
 20
6.943090763678057
 10
5.053675384226603
 20
6.946530241412529
 10
5.050686572885011
 20
6.949278062481431
 10
5.047161029526163
 20
6.950915896036083
 10
5.043635486167315
 20
6.951194396764788
 10
5.040646674825723
 20
6.950071165456215
 10
5.038649614934499
 20
6.947717203894978
 10
5.03794834075869
 20
6.94449088139006
 10
5.038649614934499
 20
6.94088337629615
 10
5.040646674825723
 20
6.937443898561677
 10
5.043635486167315
 20
6.934696077492775
 10
5.047161029526163
 20
6.933058243938123
 10
5.050686572885011
 20
6.932779743209418
 10
5.053675384226604
 20
6.933902974517992
 10
5.055672444117828
 20
6.936256936079228
 10
5.056373718293635
 20
6.939483258584146
  0
LWPOLYLINE
  5
20A
330
1F
100
AcDbEntity
  8
0
  6
Continuous
 62
     7
370
    15
100
AcDbPolyline
 90
       17
 70
   128
 43
0.0
 10
5.02412930760748
 20
6.948246598494497
 10
5.023428033431672
 20
6.951854103588408
 10
5.021430973540448
 20
6.955293581322879
 10
5.018442162198856
 20
6.958041402391782
 10
5.014916618840008
 20
6.959679235946434
 10
5.01139107548116
 20
6.959957736675138
 10
5.008402264139567
 20
6.958834505366566
 10
5.006405204248343
 20
6.956480543805329
 10
5.005703930072535
 20
6.953254221300412
 10
5.006405204248343
 20
6.9496467162065
 10
5.008402264139567
 20
6.946207238472029
 10
5.01139107548116
 20
6.943459417403126
 10
5.014916618840008
 20
6.941821583848474
 10
5.018442162198856
 20
6.941543083119769
 10
5.021430973540449
 20
6.942666314428342
 10
5.023428033431672
 20
6.94502027598958
 10
5.02412930760748
 20
6.948246598494497
  0
LWPOLYLINE
  5
20B
330
1F
100
AcDbEntity
  8
0
  6
Continuous
 62
     7
370
    15
100
AcDbPolyline
 90
        8
 70
   128
 43
0.0
 10
4.975190419735267
 20
6.956337227356817
 10
4.976157853453411
 20
6.95497057838238
 10
4.979146664795005
 20
6.952222757313478
 10
4.982672208153853
 20
6.950584923758825
 10
4.986197751512699
 20
6.950306423030121
 10
4.989186562854293
 20
6.951429654338694
 10
4.991183622745515
 20
6.95378361589993
 10
4.991367435273137
 20
6.954200250364259
  0
LWPOLYLINE
  5
20C
330
1F
100
AcDbEntity
  8
0
  6
Continuous
 62
     7
370
    15
100
AcDbPolyline
 90
       12
 70
   128
 43
0.0
 10
4.945207512869471
 20
6.976624149148803
 10
4.943890615119881
 20
6.97592348120935
 10
4.941893555228658
 20
6.973569519648114
 10
4.94119228105285
 20
6.970343197143195
 10
4.941893555228658
 20
6.966735692049285
 10
4.943890615119881
 20
6.963296214314813
 10
4.946879426461475
 20
6.960548393245911
 10
4.950404969820322
 20
6.958910559691259
 10
4.953930513179169
 20
6.958632058962554
 10
4.956919324520764
 20
6.959755290271126
 10
4.958916384411987
 20
6.962109251832363
 10
4.959484181930133
 20
6.963857452375878
  0
LWPOLYLINE
  5
20D
330
1F
100
AcDbEntity
  8
0
  6
Continuous
 62
     7
370
    15
100
AcDbPolyline
 90
       17
 70
   128
 43
0.0
 10
4.927396075549012
 20
6.974536618225551
 10
4.926694801373204
 20
6.978144123319461
 10
4.92469774148198
 20
6.981583601053933
 10
4.921708930140387
 20
6.984331422122835
 10
4.91818338678154
 20
6.985969255677487
 10
4.914657843422692
 20
6.986247756406192
 10
4.911669032081099
 20
6.98512452509762
 10
4.909671972189875
 20
6.982770563536383
 10
4.908970698014067
 20
6.979544241031464
 10
4.909671972189875
 20
6.975936735937554
 10
4.911669032081099
 20
6.972497258203082
 10
4.914657843422692
 20
6.96974943713418
 10
4.91818338678154
 20
6.968111603579528
 10
4.921708930140388
 20
6.967833102850823
 10
4.92469774148198
 20
6.968956334159396
 10
4.926694801373204
 20
6.971310295720633
 10
4.927396075549012
 20
6.974536618225551
  0
LWPOLYLINE
  5
20E
330
1F
100
AcDbEntity
  8
0
  6
Continuous
 62
     7
370
    15
100
AcDbPolyline
 90
       17
 70
   128
 43
0.0
 10
4.945909502529074
 20
6.944173690605088
 10
4.945208228353267
 20
6.947781195698999
 10
4.943211168462043
 20
6.95122067343347
 10
4.940222357120449
 20
6.953968494502372
 10
4.936696813761602
 20
6.955606328057025
 10
4.933171270402755
 20
6.95588482878573
 10
4.930182459061161
 20
6.954761597477157
 10
4.928185399169938
 20
6.95240763591592
 10
4.92748412499413
 20
6.949181313411003
 10
4.928185399169938
 20
6.945573808317091
 10
4.930182459061161
 20
6.94213433058262
 10
4.933171270402755
 20
6.939386509513718
 10
4.936696813761602
 20
6.937748675959065
 10
4.94022235712045
 20
6.937470175230361
 10
4.943211168462043
 20
6.938593406538934
 10
4.945208228353267
 20
6.940947368100171
 10
4.945909502529074
 20
6.944173690605088
  0
LWPOLYLINE
  5
20F
330
1F
100
AcDbEntity
  8
0
  6
Continuous
 62
     7
370
    15
100
AcDbPolyline
 90
       17
 70
   128
 43
0.0
 10
4.975895404838097
 20
6.935586694849081
 10
4.975194130662289
 20
6.939194199942991
 10
4.973197070771066
 20
6.942633677677463
 10
4.970208259429472
 20
6.945381498746365
 10
4.966682716070625
 20
6.947019332301017
 10
4.963157172711777
 20
6.947297833029722
 10
4.960168361370184
 20
6.946174601721149
 10
4.958171301478961
 20
6.943820640159913
 10
4.957470027303153
 20
6.940594317654994
 10
4.958171301478961
 20
6.936986812561084
 10
4.960168361370184
 20
6.933547334826612
 10
4.963157172711778
 20
6.93079951375771
 10
4.966682716070626
 20
6.929161680203058
 10
4.970208259429472
 20
6.928883179474353
 10
4.973197070771066
 20
6.930006410782926
 10
4.975194130662289
 20
6.932360372344163
 10
4.975895404838097
 20
6.935586694849081
  0
LWPOLYLINE
  5
210
330
1F
100
AcDbEntity
  8
0
  6
Continuous
 62
     7
370
    15
100
AcDbPolyline
 90
       17
 70
   128
 43
0.0
 10
5.008095151709518
 20
6.927272963635125
 10
5.00739387753371
 20
6.930880468729037
 10
5.005396817642487
 20
6.934319946463507
 10
5.002408006300893
 20
6.937067767532409
 10
4.998882462942045
 20
6.938705601087062
 10
4.995356919583198
 20
6.938984101815766
 10
4.992368108241605
 20
6.937860870507194
 10
4.990371048350382
 20
6.935506908945958
 10
4.989669774174574
 20
6.93228058644104
 10
4.990371048350382
 20
6.928673081347128
 10
4.992368108241605
 20
6.925233603612658
 10
4.995356919583198
 20
6.922485782543756
 10
4.998882462942045
 20
6.920847948989103
 10
5.002408006300893
 20
6.920569448260398
 10
5.005396817642487
 20
6.921692679568971
 10
5.00739387753371
 20
6.924046641130208
 10
5.008095151709518
 20
6.927272963635125
  0
LWPOLYLINE
  5
211
330
1F
100
AcDbEntity
  8
0
  6
Continuous
 62
     7
370
    15
100
AcDbPolyline
 90
       17
 70
   128
 43
0.0
 10
5.038036390203805
 20
6.919135576575514
 10
5.037335116027996
 20
6.922743081669424
 10
5.035338056136773
 20
6.926182559403897
 10
5.03234924479518
 20
6.928930380472799
 10
5.028823701436333
 20
6.93056821402745
 10
5.025298158077484
 20
6.930846714756156
 10
5.022309346735892
 20
6.929723483447582
 10
5.020312286844668
 20
6.927369521886346
 10
5.01961101266886
 20
6.924143199381428
 10
5.020312286844668
 20
6.920535694287517
 10
5.022309346735892
 20
6.917096216553045
 10
5.025298158077486
 20
6.914348395484143
 10
5.028823701436333
 20
6.912710561929491
 10
5.03234924479518
 20
6.912432061200786
 10
5.035338056136773
 20
6.913555292509359
 10
5.037335116027996
 20
6.915909254070596
 10
5.038036390203805
 20
6.919135576575514
  0
LWPOLYLINE
  5
212
330
1F
100
AcDbEntity
  8
0
  6
Continuous
 62
     7
370
    15
100
AcDbPolyline
 90
       17
 70
   128
 43
0.0
 10
5.056373718293635
 20
6.887429528805719
 10
5.055672444117828
 20
6.891037033899629
 10
5.053675384226603
 20
6.894476511634101
 10
5.050686572885011
 20
6.897224332703003
 10
5.047161029526163
 20
6.898862166257655
 10
5.043635486167315
 20
6.89914066698636
 10
5.040646674825723
 20
6.898017435677787
 10
5.038649614934499
 20
6.89566347411655
 10
5.03794834075869
 20
6.892437151611632
 10
5.038649614934499
 20
6.888829646517722
 10
5.040646674825723
 20
6.88539016878325
 10
5.043635486167315
 20
6.882642347714348
 10
5.047161029526163
 20
6.881004514159696
 10
5.050686572885011
 20
6.880726013430991
 10
5.053675384226604
 20
6.881849244739563
 10
5.055672444117828
 20
6.8842032063008
 10
5.056373718293635
 20
6.887429528805719
  0
LWPOLYLINE
  5
213
330
1F
100
AcDbEntity
  8
0
  6
Continuous
 62
     7
370
    15
100
AcDbPolyline
 90
       17
 70
   128
 43
0.0
 10
5.02412930760748
 20
6.896192868716069
 10
5.023428033431672
 20
6.89980037380998
 10
5.021430973540448
 20
6.903239851544452
 10
5.018442162198856
 20
6.905987672613354
 10
5.014916618840008
 20
6.907625506168007
 10
5.01139107548116
 20
6.907904006896711
 10
5.008402264139567
 20
6.906780775588138
 10
5.006405204248343
 20
6.904426814026901
 10
5.005703930072535
 20
6.901200491521984
 10
5.006405204248343
 20
6.897592986428072
 10
5.008402264139567
 20
6.894153508693601
 10
5.01139107548116
 20
6.891405687624699
 10
5.014916618840008
 20
6.889767854070046
 10
5.018442162198856
 20
6.889489353341342
 10
5.021430973540449
 20
6.890612584649914
 10
5.023428033431672
 20
6.892966546211152
 10
5.02412930760748
 20
6.896192868716069
  0
LWPOLYLINE
  5
214
330
1F
100
AcDbEntity
  8
0
  6
Continuous
 62
     7
370
    15
100
AcDbPolyline
 90
       17
 70
   128
 43
0.0
 10
4.991884896921324
 20
6.90495620862642
 10
4.991183622745515
 20
6.908563713720331
 10
4.989186562854293
 20
6.912003191454803
 10
4.986197751512699
 20
6.914751012523705
 10
4.982672208153852
 20
6.916388846078357
 10
4.979146664795004
 20
6.916667346807062
 10
4.976157853453411
 20
6.915544115498489
 10
4.974160793562188
 20
6.913190153937253
 10
4.97345951938638
 20
6.909963831432334
 10
4.974160793562188
 20
6.906356326338424
 10
4.976157853453411
 20
6.902916848603952
 10
4.979146664795005
 20
6.90016902753505
 10
4.982672208153853
 20
6.898531193980398
 10
4.986197751512699
 20
6.898252693251693
 10
4.989186562854293
 20
6.899375924560265
 10
4.991183622745515
 20
6.901729886121503
 10
4.991884896921324
 20
6.90495620862642
  0
LWPOLYLINE
  5
215
330
1F
100
AcDbEntity
  8
0
  6
Continuous
 62
     7
370
    15
100
AcDbPolyline
 90
       17
 70
   128
 43
0.0
 10
4.959617658587795
 20
6.913281844558853
 10
4.958916384411987
 20
6.916889349652764
 10
4.956919324520764
 20
6.920328827387236
 10
4.953930513179169
 20
6.923076648456137
 10
4.950404969820322
 20
6.92471448201079
 10
4.946879426461475
 20
6.924992982739494
 10
4.943890615119881
 20
6.923869751430922
 10
4.941893555228658
 20
6.921515789869686
 10
4.94119228105285
 20
6.918289467364767
 10
4.941893555228658
 20
6.914681962270857
 10
4.943890615119881
 20
6.911242484536385
 10
4.946879426461475
 20
6.908494663467483
 10
4.950404969820322
 20
6.906856829912831
 10
4.953930513179169
 20
6.906578329184126
 10
4.956919324520764
 20
6.907701560492698
 10
4.958916384411987
 20
6.910055522053936
 10
4.959617658587795
 20
6.913281844558853
  0
LWPOLYLINE
  5
216
330
1F
100
AcDbEntity
  8
0
  6
Continuous
 62
     7
370
    15
100
AcDbPolyline
 90
       17
 70
   128
 43
0.0
 10
4.927396075549012
 20
6.922482888447123
 10
4.926694801373204
 20
6.926090393541033
 10
4.92469774148198
 20
6.929529871275506
 10
4.921708930140387
 20
6.932277692344408
 10
4.91818338678154
 20
6.93391552589906
 10
4.914657843422692
 20
6.934194026627765
 10
4.911669032081099
 20
6.933070795319191
 10
4.909671972189875
 20
6.930716833757955
 10
4.908970698014067
 20
6.927490511253037
 10
4.909671972189875
 20
6.923883006159126
 10
4.911669032081099
 20
6.920443528424654
 10
4.914657843422692
 20
6.917695707355752
 10
4.91818338678154
 20
6.9160578738011
 10
4.921708930140388
 20
6.915779373072395
 10
4.92469774148198
 20
6.916902604380968
 10
4.926694801373204
 20
6.919256565942205
 10
4.927396075549012
 20
6.922482888447123
  0
LWPOLYLINE
  5
217
330
1F
100
AcDbEntity
  8
0
  6
Continuous
 62
     7
370
    15
100
AcDbPolyline
 90
       17
 70
   128
 43
0.0
 10
4.945909502529074
 20
6.890467138323796
 10
4.945208228353267
 20
6.894074643417708
 10
4.943211168462043
 20
6.897514121152179
 10
4.940222357120449
 20
6.900261942221082
 10
4.936696813761602
 20
6.901899775775734
 10
4.933171270402755
 20
6.902178276504439
 10
4.930182459061161
 20
6.901055045195866
 10
4.928185399169938
 20
6.898701083634628
 10
4.92748412499413
 20
6.895474761129711
 10
4.928185399169938
 20
6.8918672560358
 10
4.930182459061161
 20
6.888427778301328
 10
4.933171270402755
 20
6.885679957232426
 10
4.936696813761602
 20
6.884042123677774
 10
4.94022235712045
 20
6.883763622949069
 10
4.943211168462043
 20
6.884886854257643
 10
4.945208228353267
 20
6.887240815818879
 10
4.945909502529074
 20
6.890467138323796
  0
LWPOLYLINE
  5
218
330
1F
100
AcDbEntity
  8
0
  6
Continuous
 62
     7
370
    15
100
AcDbPolyline
 90
       17
 70
   128
 43
0.0
 10
4.975895404838097
 20
6.881880142567788
 10
4.975194130662289
 20
6.8854876476617
 10
4.973197070771066
 20
6.888927125396172
 10
4.970208259429472
 20
6.891674946465074
 10
4.966682716070625
 20
6.893312780019726
 10
4.963157172711777
 20
6.893591280748431
 10
4.960168361370184
 20
6.892468049439858
 10
4.958171301478961
 20
6.890114087878621
 10
4.957470027303153
 20
6.886887765373703
 10
4.958171301478961
 20
6.883280260279793
 10
4.960168361370184
 20
6.87984078254532
 10
4.963157172711778
 20
6.877092961476418
 10
4.966682716070626
 20
6.875455127921767
 10
4.970208259429472
 20
6.875176627193061
 10
4.973197070771066
 20
6.876299858501633
 10
4.975194130662289
 20
6.878653820062871
 10
4.975895404838097
 20
6.881880142567788
  0
LWPOLYLINE
  5
219
330
1F
100
AcDbEntity
  8
0
  6
Continuous
 62
     7
370
    15
100
AcDbPolyline
 90
       17
 70
   128
 43
0.0
 10
5.008095151709518
 20
6.873566411353833
 10
5.00739387753371
 20
6.877173916447746
 10
5.005396817642487
 20
6.880613394182216
 10
5.002408006300893
 20
6.883361215251118
 10
4.998882462942045
 20
6.88499904880577
 10
4.995356919583198
 20
6.885277549534476
 10
4.992368108241605
 20
6.884154318225903
 10
4.990371048350382
 20
6.881800356664665
 10
4.989669774174574
 20
6.878574034159749
 10
4.990371048350382
 20
6.874966529065837
 10
4.992368108241605
 20
6.871527051331366
 10
4.995356919583198
 20
6.868779230262464
 10
4.998882462942045
 20
6.867141396707811
 10
5.002408006300893
 20
6.866862895979106
 10
5.005396817642487
 20
6.867986127287679
 10
5.00739387753371
 20
6.870340088848916
 10
5.008095151709518
 20
6.873566411353833
  0
LWPOLYLINE
  5
21A
330
1F
100
AcDbEntity
  8
0
  6
Continuous
 62
     7
370
    15
100
AcDbPolyline
 90
       17
 70
   128
 43
0.0
 10
5.038036390203805
 20
6.865429024294223
 10
5.037335116027996
 20
6.869036529388133
 10
5.035338056136773
 20
6.872476007122605
 10
5.03234924479518
 20
6.875223828191507
 10
5.028823701436333
 20
6.876861661746159
 10
5.025298158077484
 20
6.877140162474864
 10
5.022309346735892
 20
6.876016931166291
 10
5.020312286844668
 20
6.873662969605054
 10
5.01961101266886
 20
6.870436647100136
 10
5.020312286844668
 20
6.866829142006226
 10
5.022309346735892
 20
6.863389664271754
 10
5.025298158077486
 20
6.860641843202852
 10
5.028823701436333
 20
6.8590040096482
 10
5.03234924479518
 20
6.858725508919495
 10
5.035338056136773
 20
6.859848740228068
 10
5.037335116027996
 20
6.862202701789304
 10
5.038036390203805
 20
6.865429024294223
  0
LWPOLYLINE
  5
21B
330
1F
100
AcDbEntity
  8
0
  6
Continuous
 62
     7
370
    15
100
AcDbPolyline
 90
       17
 70
   128
 43
0.0
 10
5.056373718293635
 20
6.833722976524426
 10
5.055672444117828
 20
6.837330481618337
 10
5.053675384226603
 20
6.840769959352808
 10
5.050686572885011
 20
6.84351778042171
 10
5.047161029526163
 20
6.845155613976363
 10
5.043635486167315
 20
6.845434114705069
 10
5.040646674825723
 20
6.844310883396495
 10
5.038649614934499
 20
6.841956921835259
 10
5.03794834075869
 20
6.838730599330341
 10
5.038649614934499
 20
6.835123094236429
 10
5.040646674825723
 20
6.831683616501958
 10
5.043635486167315
 20
6.828935795433056
 10
5.047161029526163
 20
6.827297961878404
 10
5.050686572885011
 20
6.827019461149699
 10
5.053675384226604
 20
6.828142692458271
 10
5.055672444117828
 20
6.830496654019509
 10
5.056373718293635
 20
6.833722976524426
  0
LWPOLYLINE
  5
21C
330
1F
100
AcDbEntity
  8
0
  6
Continuous
 62
     7
370
    15
100
AcDbPolyline
 90
       17
 70
   128
 43
0.0
 10
5.024129307607481
 20
6.842486316434777
 10
5.023428033431673
 20
6.846093821528688
 10
5.021430973540449
 20
6.84953329926316
 10
5.018442162198857
 20
6.852281120332062
 10
5.014916618840009
 20
6.853918953886714
 10
5.011391075481161
 20
6.854197454615419
 10
5.008402264139568
 20
6.853074223306847
 10
5.006405204248345
 20
6.850720261745609
 10
5.005703930072536
 20
6.847493939240692
 10
5.006405204248345
 20
6.843886434146781
 10
5.008402264139569
 20
6.840446956412309
 10
5.011391075481161
 20
6.837699135343408
 10
5.014916618840009
 20
6.836061301788755
 10
5.018442162198857
 20
6.835782801060049
 10
5.021430973540449
 20
6.836906032368623
 10
5.023428033431673
 20
6.839259993929859
 10
5.024129307607481
 20
6.842486316434777
  0
LWPOLYLINE
  5
21D
330
1F
100
AcDbEntity
  8
0
  6
Continuous
 62
     7
370
    15
100
AcDbPolyline
 90
       17
 70
   128
 43
0.0
 10
4.991884896921324
 20
6.851249656345128
 10
4.991183622745515
 20
6.85485716143904
 10
4.989186562854293
 20
6.858296639173511
 10
4.986197751512699
 20
6.861044460242413
 10
4.982672208153852
 20
6.862682293797065
 10
4.979146664795004
 20
6.862960794525771
 10
4.976157853453411
 20
6.861837563217198
 10
4.974160793562188
 20
6.859483601655961
 10
4.97345951938638
 20
6.856257279151043
 10
4.974160793562188
 20
6.852649774057131
 10
4.976157853453411
 20
6.84921029632266
 10
4.979146664795005
 20
6.846462475253758
 10
4.982672208153853
 20
6.844824641699107
 10
4.986197751512699
 20
6.844546140970401
 10
4.989186562854293
 20
6.845669372278973
 10
4.991183622745515
 20
6.848023333840211
 10
4.991884896921324
 20
6.851249656345128
  0
LWPOLYLINE
  5
21E
330
1F
100
AcDbEntity
  8
0
  6
Continuous
 62
     7
370
    15
100
AcDbPolyline
 90
       17
 70
   128
 43
0.0
 10
4.959617658587796
 20
6.859575292277564
 10
4.958916384411987
 20
6.863182797371475
 10
4.956919324520765
 20
6.866622275105946
 10
4.953930513179171
 20
6.869370096174848
 10
4.950404969820323
 20
6.871007929729501
 10
4.946879426461475
 20
6.871286430458205
 10
4.943890615119883
 20
6.870163199149633
 10
4.941893555228659
 20
6.867809237588397
 10
4.941192281052852
 20
6.864582915083478
 10
4.941893555228659
 20
6.860975409989567
 10
4.943890615119883
 20
6.857535932255096
 10
4.946879426461475
 20
6.854788111186194
 10
4.950404969820323
 20
6.853150277631542
 10
4.953930513179171
 20
6.852871776902836
 10
4.956919324520765
 20
6.853995008211409
 10
4.958916384411987
 20
6.856348969772645
 10
4.959617658587796
 20
6.859575292277564
  0
LWPOLYLINE
  5
21F
330
1F
100
AcDbEntity
  8
0
  6
Continuous
 62
     7
370
    15
100
AcDbPolyline
 90
       17
 70
   128
 43
0.0
 10
4.927396075549013
 20
6.86877633616583
 10
4.926694801373206
 20
6.872383841259742
 10
4.924697741481981
 20
6.875823318994213
 10
4.921708930140389
 20
6.878571140063115
 10
4.918183386781541
 20
6.880208973617768
 10
4.914657843422693
 20
6.880487474346473
 10
4.9116690320811
 20
6.8793642430379
 10
4.909671972189877
 20
6.877010281476662
 10
4.908970698014068
 20
6.873783958971745
 10
4.909671972189877
 20
6.870176453877834
 10
4.9116690320811
 20
6.866736976143363
 10
4.914657843422693
 20
6.863989155074461
 10
4.918183386781541
 20
6.862351321519809
 10
4.921708930140389
 20
6.862072820791104
 10
4.924697741481982
 20
6.863196052099676
 10
4.926694801373206
 20
6.865550013660913
 10
4.927396075549013
 20
6.86877633616583
  0
LWPOLYLINE
  5
220
330
1F
100
AcDbEntity
  8
0
  6
Continuous
 62
     7
370
    15
100
AcDbPolyline
 90
       17
 70
   128
 43
0.0
 10
4.945909502529074
 20
6.83841340854537
 10
4.945208228353267
 20
6.84202091363928
 10
4.943211168462043
 20
6.845460391373752
 10
4.940222357120449
 20
6.848208212442654
 10
4.936696813761602
 20
6.849846045997306
 10
4.933171270402755
 20
6.850124546726011
 10
4.930182459061161
 20
6.849001315417438
 10
4.928185399169938
 20
6.846647353856202
 10
4.92748412499413
 20
6.843421031351283
 10
4.928185399169938
 20
6.839813526257373
 10
4.930182459061161
 20
6.836374048522901
 10
4.933171270402755
 20
6.833626227453999
 10
4.936696813761602
 20
6.831988393899346
 10
4.94022235712045
 20
6.831709893170642
 10
4.943211168462043
 20
6.832833124479214
 10
4.945208228353267
 20
6.835187086040451
 10
4.945909502529074
 20
6.83841340854537
  0
LWPOLYLINE
  5
221
330
1F
100
AcDbEntity
  8
0
  6
Continuous
 62
     7
370
    15
100
AcDbPolyline
 90
       17
 70
   128
 43
0.0
 10
5.038036390203805
 20
6.813375294515794
 10
5.037335116027996
 20
6.816982799609705
 10
5.035338056136773
 20
6.820422277344176
 10
5.03234924479518
 20
6.823170098413078
 10
5.028823701436333
 20
6.824807931967731
 10
5.025298158077484
 20
6.825086432696436
 10
5.022309346735892
 20
6.823963201387863
 10
5.020312286844668
 20
6.821609239826627
 10
5.01961101266886
 20
6.818382917321708
 10
5.020312286844668
 20
6.814775412227797
 10
5.022309346735892
 20
6.811335934493326
 10
5.025298158077486
 20
6.808588113424424
 10
5.028823701436333
 20
6.806950279869772
 10
5.03234924479518
 20
6.806671779141067
 10
5.035338056136773
 20
6.807795010449639
 10
5.037335116027996
 20
6.810148972010876
 10
5.038036390203805
 20
6.813375294515794
  0
LWPOLYLINE
  5
222
330
1F
100
AcDbEntity
  8
0
  6
Continuous
 62
     7
370
    15
100
AcDbPolyline
 90
       17
 70
   128
 43
0.0
 10
5.056373718293635
 20
6.781669246745998
 10
5.055672444117828
 20
6.78527675183991
 10
5.053675384226603
 20
6.788716229574381
 10
5.050686572885011
 20
6.791464050643283
 10
5.047161029526163
 20
6.793101884197935
 10
5.043635486167315
 20
6.79338038492664
 10
5.040646674825723
 20
6.792257153618068
 10
5.038649614934499
 20
6.789903192056831
 10
5.03794834075869
 20
6.786676869551913
 10
5.038649614934499
 20
6.783069364458001
 10
5.040646674825723
 20
6.77962988672353
 10
5.043635486167315
 20
6.776882065654628
 10
5.047161029526163
 20
6.775244232099976
 10
5.050686572885011
 20
6.774965731371271
 10
5.053675384226604
 20
6.776088962679843
 10
5.055672444117828
 20
6.778442924241081
 10
5.056373718293635
 20
6.781669246745998
  0
LWPOLYLINE
  5
223
330
1F
100
AcDbEntity
  8
0
  6
Continuous
 62
     7
370
    15
100
AcDbPolyline
 90
       17
 70
   128
 43
0.0
 10
4.927396075549013
 20
6.816722606387403
 10
4.926694801373206
 20
6.820330111481315
 10
4.924697741481981
 20
6.823769589215785
 10
4.921708930140389
 20
6.826517410284687
 10
4.918183386781541
 20
6.82815524383934
 10
4.914657843422693
 20
6.828433744568044
 10
4.9116690320811
 20
6.827310513259472
 10
4.909671972189877
 20
6.824956551698234
 10
4.908970698014068
 20
6.821730229193318
 10
4.909671972189877
 20
6.818122724099406
 10
4.9116690320811
 20
6.814683246364936
 10
4.914657843422693
 20
6.811935425296034
 10
4.918183386781541
 20
6.810297591741381
 10
4.921708930140389
 20
6.810019091012676
 10
4.924697741481982
 20
6.811142322321249
 10
4.926694801373206
 20
6.813496283882485
 10
4.927396075549013
 20
6.816722606387403
  0
LWPOLYLINE
  5
224
330
1F
100
AcDbEntity
  8
0
  6
Continuous
 62
     7
370
    15
100
AcDbPolyline
 90
        9
 70
   128
 43
0.0
 10
4.932646677038544
 20
6.796331109688841
 10
4.930182459061161
 20
6.795294763136149
 10
4.928185399169938
 20
6.792940801574912
 10
4.92748412499413
 20
6.789714479069994
 10
4.928185399169938
 20
6.786106973976083
 10
4.930182459061161
 20
6.782667496241612
 10
4.933171270402755
 20
6.77991967517271
 10
4.936696813761602
 20
6.778281841618057
 10
4.939703704788039
 20
6.777953605641495
  0
ARC
  5
225
330
1F
100
AcDbEntity
  8
0
  6
Continuous
 62
     7
370
    15
100
AcDbCircle
 10
5.025724286683416
 20
6.759143404133967
 30
0.0
 40
0.0123233060992835
100
AcDbArc
 50
2.44323883655961
 51
86.59446857074268
  0
LWPOLYLINE
  5
226
330
1F
100
AcDbEntity
  8
0
  6
Continuous
 62
     7
370
    15
100
AcDbPolyline
 90
        9
 70
   128
 43
0.0
 10
5.020242790564617
 20
6.761255119878699
 10
5.020312286844668
 20
6.761068859946509
 10
5.022309346735892
 20
6.757629382212037
 10
5.025298158077486
 20
6.754881561143135
 10
5.028823701436333
 20
6.753243727588483
 10
5.03234924479518
 20
6.752965226859778
 10
5.035338056136773
 20
6.75408845816835
 10
5.037335116027996
 20
6.756442419729587
 10
5.038036390203805
 20
6.759668742234506
  0
LWPOLYLINE
  5
227
330
1F
100
AcDbEntity
  8
0
  6
Continuous
 62
     7
370
    15
100
AcDbPolyline
 90
       17
 70
   128
 43
0.0
 10
5.056373718293635
 20
6.727962694464709
 10
5.055672444117828
 20
6.731570199558621
 10
5.053675384226603
 20
6.735009677293093
 10
5.050686572885011
 20
6.737757498361995
 10
5.047161029526163
 20
6.739395331916646
 10
5.043635486167315
 20
6.739673832645352
 10
5.040646674825723
 20
6.738550601336779
 10
5.038649614934499
 20
6.736196639775542
 10
5.03794834075869
 20
6.732970317270624
 10
5.038649614934499
 20
6.729362812176714
 10
5.040646674825723
 20
6.725923334442241
 10
5.043635486167315
 20
6.723175513373339
 10
5.047161029526163
 20
6.721537679818687
 10
5.050686572885011
 20
6.721259179089982
 10
5.053675384226604
 20
6.722382410398554
 10
5.055672444117828
 20
6.724736371959792
 10
5.056373718293635
 20
6.727962694464709
  0
LWPOLYLINE
  5
228
330
1F
100
AcDbEntity
  8
0
  6
Continuous
 62
     7
370
    15
100
AcDbPolyline
 90
       17
 70
   128
 43
0.0
 10
5.024129307607481
 20
6.736726034375061
 10
5.023428033431673
 20
6.740333539468971
 10
5.021430973540449
 20
6.743773017203443
 10
5.018442162198857
 20
6.746520838272345
 10
5.014916618840009
 20
6.748158671826997
 10
5.011391075481161
 20
6.748437172555702
 10
5.008402264139568
 20
6.74731394124713
 10
5.006405204248345
 20
6.744959979685893
 10
5.005703930072536
 20
6.741733657180974
 10
5.006405204248345
 20
6.738126152087064
 10
5.008402264139569
 20
6.734686674352592
 10
5.011391075481161
 20
6.73193885328369
 10
5.014916618840009
 20
6.730301019729037
 10
5.018442162198857
 20
6.730022519000333
 10
5.021430973540449
 20
6.731145750308906
 10
5.023428033431673
 20
6.733499711870142
 10
5.024129307607481
 20
6.736726034375061
  0
LWPOLYLINE
  5
229
330
1F
100
AcDbEntity
  8
0
  6
Continuous
 62
     7
370
    15
100
AcDbPolyline
 90
        9
 70
   128
 43
0.0
 10
4.973536075868106
 20
6.749327500182496
 10
4.974160793562188
 20
6.746889491997415
 10
4.976157853453411
 20
6.743450014262944
 10
4.979146664795005
 20
6.740702193194042
 10
4.982672208153853
 20
6.73906435963939
 10
4.986197751512699
 20
6.738785858910685
 10
4.989186562854293
 20
6.739909090219257
 10
4.991183622745515
 20
6.742263051780494
 10
4.991884896921324
 20
6.745489374285411
  0
LWPOLYLINE
  5
22A
330
1F
100
AcDbEntity
  8
0
  6
Continuous
 62
     7
370
    15
100
AcDbPolyline
 90
       14
 70
   128
 43
0.0
 10
4.949130181462539
 20
6.765508214052389
 10
4.946879426461475
 20
6.765526148398486
 10
4.943890615119883
 20
6.764402917089913
 10
4.941893555228659
 20
6.762048955528676
 10
4.941192281052852
 20
6.758822633023759
 10
4.941893555228659
 20
6.755215127929848
 10
4.943890615119883
 20
6.751775650195376
 10
4.946879426461475
 20
6.749027829126474
 10
4.950404969820323
 20
6.747389995571822
 10
4.953930513179171
 20
6.747111494843117
 10
4.956919324520765
 20
6.74823472615169
 10
4.958916384411987
 20
6.750588687712927
 10
4.959617658587796
 20
6.753815010217844
 10
4.959617658587796
 20
6.753815010217844
  0
LWPOLYLINE
  5
22B
330
1F
100
AcDbEntity
  8
0
  6
Continuous
 62
     7
370
    15
100
AcDbPolyline
 90
       17
 70
   128
 43
0.0
 10
4.927396075549013
 20
6.763016054106114
 10
4.926694801373206
 20
6.766623559200025
 10
4.924697741481981
 20
6.770063036934496
 10
4.921708930140389
 20
6.772810858003398
 10
4.918183386781541
 20
6.774448691558051
 10
4.914657843422693
 20
6.774727192286755
 10
4.9116690320811
 20
6.773603960978183
 10
4.909671972189877
 20
6.771249999416947
 10
4.908970698014068
 20
6.768023676912028
 10
4.909671972189877
 20
6.764416171818117
 10
4.9116690320811
 20
6.760976694083646
 10
4.914657843422693
 20
6.758228873014744
 10
4.918183386781541
 20
6.756591039460092
 10
4.921708930140389
 20
6.756312538731386
 10
4.924697741481982
 20
6.757435770039959
 10
4.926694801373206
 20
6.759789731601196
 10
4.927396075549013
 20
6.763016054106114
  0
LWPOLYLINE
  5
22C
330
1F
100
AcDbEntity
  8
0
  6
Continuous
 62
     7
370
    15
100
AcDbPolyline
 90
       17
 70
   128
 43
0.0
 10
4.945909502529074
 20
6.732653126485653
 10
4.945208228353267
 20
6.736260631579563
 10
4.943211168462043
 20
6.739700109314035
 10
4.940222357120449
 20
6.742447930382937
 10
4.936696813761602
 20
6.744085763937589
 10
4.933171270402755
 20
6.744364264666294
 10
4.930182459061161
 20
6.743241033357721
 10
4.928185399169938
 20
6.740887071796485
 10
4.92748412499413
 20
6.737660749291566
 10
4.928185399169938
 20
6.734053244197656
 10
4.930182459061161
 20
6.730613766463184
 10
4.933171270402755
 20
6.727865945394282
 10
4.936696813761602
 20
6.726228111839629
 10
4.94022235712045
 20
6.725949611110925
 10
4.943211168462043
 20
6.727072842419497
 10
4.945208228353267
 20
6.729426803980735
 10
4.945909502529074
 20
6.732653126485653
  0
LWPOLYLINE
  5
22D
330
1F
100
AcDbEntity
  8
0
  6
Continuous
 62
     7
370
    15
100
AcDbPolyline
 90
       17
 70
   128
 43
0.0
 10
4.975895404838098
 20
6.724066130729649
 10
4.975194130662291
 20
6.72767363582356
 10
4.973197070771067
 20
6.731113113558031
 10
4.970208259429474
 20
6.733860934626934
 10
4.966682716070627
 20
6.735498768181586
 10
4.963157172711779
 20
6.735777268910291
 10
4.960168361370185
 20
6.734654037601718
 10
4.958171301478962
 20
6.732300076040481
 10
4.957470027303154
 20
6.729073753535563
 10
4.958171301478962
 20
6.725466248441652
 10
4.960168361370185
 20
6.722026770707181
 10
4.963157172711779
 20
6.719278949638279
 10
4.966682716070627
 20
6.717641116083626
 10
4.970208259429474
 20
6.717362615354922
 10
4.973197070771067
 20
6.718485846663494
 10
4.975194130662291
 20
6.720839808224731
 10
4.975895404838098
 20
6.724066130729649
  0
LWPOLYLINE
  5
22E
330
1F
100
AcDbEntity
  8
0
  6
Continuous
 62
     7
370
    15
100
AcDbPolyline
 90
       17
 70
   128
 43
0.0
 10
5.008095151709518
 20
6.715752399515689
 10
5.00739387753371
 20
6.7193599046096
 10
5.005396817642487
 20
6.722799382344072
 10
5.002408006300893
 20
6.725547203412974
 10
4.998882462942045
 20
6.727185036967626
 10
4.995356919583198
 20
6.727463537696331
 10
4.992368108241605
 20
6.726340306387759
 10
4.990371048350382
 20
6.723986344826521
 10
4.989669774174574
 20
6.720760022321603
 10
4.990371048350382
 20
6.717152517227693
 10
4.992368108241605
 20
6.713713039493221
 10
4.995356919583198
 20
6.710965218424318
 10
4.998882462942045
 20
6.709327384869666
 10
5.002408006300893
 20
6.709048884140962
 10
5.005396817642487
 20
6.710172115449535
 10
5.00739387753371
 20
6.712526077010771
 10
5.008095151709518
 20
6.715752399515689
  0
LWPOLYLINE
  5
22F
330
1F
100
AcDbEntity
  8
0
  6
Continuous
 62
     7
370
    15
100
AcDbPolyline
 90
       17
 70
   128
 43
0.0
 10
5.038036390203805
 20
6.707615012456078
 10
5.037335116027996
 20
6.711222517549988
 10
5.035338056136773
 20
6.71466199528446
 10
5.03234924479518
 20
6.717409816353363
 10
5.028823701436333
 20
6.719047649908015
 10
5.025298158077484
 20
6.71932615063672
 10
5.022309346735892
 20
6.718202919328146
 10
5.020312286844668
 20
6.71584895776691
 10
5.01961101266886
 20
6.712622635261992
 10
5.020312286844668
 20
6.709015130168081
 10
5.022309346735892
 20
6.705575652433609
 10
5.025298158077486
 20
6.702827831364707
 10
5.028823701436333
 20
6.701189997810055
 10
5.03234924479518
 20
6.70091149708135
 10
5.035338056136773
 20
6.702034728389922
 10
5.037335116027996
 20
6.70438868995116
 10
5.038036390203805
 20
6.707615012456078
  0
LWPOLYLINE
  5
230
330
1F
100
AcDbEntity
  8
0
  6
Continuous
 62
     7
370
    15
100
AcDbPolyline
 90
       17
 70
   128
 43
0.0
 10
5.056373718293635
 20
6.675908964686285
 10
5.055672444117828
 20
6.679516469780195
 10
5.053675384226603
 20
6.682955947514667
 10
5.050686572885011
 20
6.68570376858357
 10
5.047161029526163
 20
6.687341602138221
 10
5.043635486167315
 20
6.687620102866926
 10
5.040646674825723
 20
6.686496871558353
 10
5.038649614934499
 20
6.684142909997117
 10
5.03794834075869
 20
6.680916587492199
 10
5.038649614934499
 20
6.677309082398288
 10
5.040646674825723
 20
6.673869604663816
 10
5.043635486167315
 20
6.671121783594914
 10
5.047161029526163
 20
6.669483950040262
 10
5.050686572885011
 20
6.669205449311557
 10
5.053675384226604
 20
6.670328680620129
 10
5.055672444117828
 20
6.672682642181367
 10
5.056373718293635
 20
6.675908964686285
  0
LWPOLYLINE
  5
231
330
1F
100
AcDbEntity
  8
0
  6
Continuous
 62
     7
370
    15
100
AcDbPolyline
 90
       17
 70
   128
 43
0.0
 10
5.024129307607481
 20
6.684672304596634
 10
5.023428033431673
 20
6.688279809690547
 10
5.021430973540449
 20
6.691719287425017
 10
5.018442162198857
 20
6.69446710849392
 10
5.014916618840009
 20
6.696104942048572
 10
5.011391075481161
 20
6.696383442777277
 10
5.008402264139568
 20
6.695260211468704
 10
5.006405204248345
 20
6.692906249907466
 10
5.005703930072536
 20
6.68967992740255
 10
5.006405204248345
 20
6.686072422308638
 10
5.008402264139569
 20
6.682632944574168
 10
5.011391075481161
 20
6.679885123505266
 10
5.014916618840009
 20
6.678247289950613
 10
5.018442162198857
 20
6.677968789221909
 10
5.021430973540449
 20
6.679092020530481
 10
5.023428033431673
 20
6.681445982091717
 10
5.024129307607481
 20
6.684672304596634
  0
LWPOLYLINE
  5
232
330
1F
100
AcDbEntity
  8
0
  6
Continuous
 62
     7
370
    15
100
AcDbPolyline
 90
       17
 70
   128
 43
0.0
 10
4.991884896921324
 20
6.693435644506986
 10
4.991183622745515
 20
6.697043149600898
 10
4.989186562854293
 20
6.70048262733537
 10
4.986197751512699
 20
6.703230448404271
 10
4.982672208153852
 20
6.704868281958923
 10
4.979146664795004
 20
6.705146782687629
 10
4.976157853453411
 20
6.704023551379055
 10
4.974160793562188
 20
6.701669589817819
 10
4.97345951938638
 20
6.698443267312901
 10
4.974160793562188
 20
6.69483576221899
 10
4.976157853453411
 20
6.691396284484518
 10
4.979146664795005
 20
6.688648463415616
 10
4.982672208153853
 20
6.687010629860964
 10
4.986197751512699
 20
6.686732129132259
 10
4.989186562854293
 20
6.687855360440831
 10
4.991183622745515
 20
6.690209322002069
 10
4.991884896921324
 20
6.693435644506986
  0
LWPOLYLINE
  5
233
330
1F
100
AcDbEntity
  8
0
  6
Continuous
 62
     7
370
    15
100
AcDbPolyline
 90
       17
 70
   128
 43
0.0
 10
4.959617658587796
 20
6.701761280439421
 10
4.958916384411987
 20
6.705368785533333
 10
4.956919324520765
 20
6.708808263267804
 10
4.953930513179171
 20
6.711556084336706
 10
4.950404969820323
 20
6.713193917891358
 10
4.946879426461475
 20
6.713472418620063
 10
4.943890615119883
 20
6.712349187311491
 10
4.941893555228659
 20
6.709995225750255
 10
4.941192281052852
 20
6.706768903245336
 10
4.941893555228659
 20
6.703161398151425
 10
4.943890615119883
 20
6.699721920416954
 10
4.946879426461475
 20
6.696974099348052
 10
4.950404969820323
 20
6.695336265793399
 10
4.953930513179171
 20
6.695057765064695
 10
4.956919324520765
 20
6.696180996373267
 10
4.958916384411987
 20
6.698534957934504
 10
4.959617658587796
 20
6.701761280439421
  0
LWPOLYLINE
  5
234
330
1F
100
AcDbEntity
  8
0
  6
Continuous
 62
     7
370
    15
100
AcDbPolyline
 90
       17
 70
   128
 43
0.0
 10
4.927396075549013
 20
6.710962324327688
 10
4.926694801373206
 20
6.7145698294216
 10
4.924697741481981
 20
6.718009307156071
 10
4.921708930140389
 20
6.720757128224973
 10
4.918183386781541
 20
6.722394961779626
 10
4.914657843422693
 20
6.722673462508331
 10
4.9116690320811
 20
6.721550231199758
 10
4.909671972189877
 20
6.719196269638521
 10
4.908970698014068
 20
6.715969947133603
 10
4.909671972189877
 20
6.712362442039692
 10
4.9116690320811
 20
6.708922964305221
 10
4.914657843422693
 20
6.706175143236318
 10
4.918183386781541
 20
6.704537309681667
 10
4.921708930140389
 20
6.704258808952962
 10
4.924697741481982
 20
6.705382040261534
 10
4.926694801373206
 20
6.70773600182277
 10
4.927396075549013
 20
6.710962324327688
  0
LWPOLYLINE
  5
235
330
1F
100
AcDbEntity
  8
0
  6
Continuous
 62
     7
370
    15
100
AcDbPolyline
 90
       17
 70
   128
 43
0.0
 10
4.945909502529074
 20
6.67894657420436
 10
4.945208228353267
 20
6.682554079298272
 10
4.943211168462043
 20
6.685993557032744
 10
4.940222357120449
 20
6.688741378101646
 10
4.936696813761602
 20
6.690379211656297
 10
4.933171270402755
 20
6.690657712385003
 10
4.930182459061161
 20
6.68953448107643
 10
4.928185399169938
 20
6.687180519515193
 10
4.92748412499413
 20
6.683954197010275
 10
4.928185399169938
 20
6.680346691916365
 10
4.930182459061161
 20
6.676907214181892
 10
4.933171270402755
 20
6.67415939311299
 10
4.936696813761602
 20
6.672521559558338
 10
4.94022235712045
 20
6.672243058829633
 10
4.943211168462043
 20
6.673366290138205
 10
4.945208228353267
 20
6.675720251699443
 10
4.945909502529074
 20
6.67894657420436
  0
LWPOLYLINE
  5
236
330
1F
100
AcDbEntity
  8
0
  6
Continuous
 62
     7
370
    15
100
AcDbPolyline
 90
       17
 70
   128
 43
0.0
 10
4.975895404838098
 20
6.670359578448357
 10
4.975194130662291
 20
6.673967083542269
 10
4.973197070771067
 20
6.67740656127674
 10
4.970208259429474
 20
6.680154382345642
 10
4.966682716070627
 20
6.681792215900293
 10
4.963157172711779
 20
6.682070716628999
 10
4.960168361370185
 20
6.680947485320427
 10
4.958171301478962
 20
6.67859352375919
 10
4.957470027303154
 20
6.675367201254272
 10
4.958171301478962
 20
6.67175969616036
 10
4.960168361370185
 20
6.668320218425889
 10
4.963157172711779
 20
6.665572397356987
 10
4.966682716070627
 20
6.663934563802334
 10
4.970208259429474
 20
6.66365606307363
 10
4.973197070771067
 20
6.664779294382202
 10
4.975194130662291
 20
6.66713325594344
 10
4.975895404838098
 20
6.670359578448357
  0
LWPOLYLINE
  5
237
330
1F
100
AcDbEntity
  8
0
  6
Continuous
 62
     7
370
    15
100
AcDbPolyline
 90
       17
 70
   128
 43
0.0
 10
5.008095151709518
 20
6.662045847234398
 10
5.00739387753371
 20
6.665653352328308
 10
5.005396817642487
 20
6.669092830062781
 10
5.002408006300893
 20
6.671840651131683
 10
4.998882462942045
 20
6.673478484686334
 10
4.995356919583198
 20
6.67375698541504
 10
4.992368108241605
 20
6.672633754106466
 10
4.990371048350382
 20
6.67027979254523
 10
4.989669774174574
 20
6.667053470040312
 10
4.990371048350382
 20
6.663445964946401
 10
4.992368108241605
 20
6.660006487211929
 10
4.995356919583198
 20
6.657258666143027
 10
4.998882462942045
 20
6.655620832588375
 10
5.002408006300893
 20
6.65534233185967
 10
5.005396817642487
 20
6.656465563168243
 10
5.00739387753371
 20
6.65881952472948
 10
5.008095151709518
 20
6.662045847234398
  0
LWPOLYLINE
  5
238
330
1F
100
AcDbEntity
  8
0
  6
Continuous
 62
     7
370
    15
100
AcDbPolyline
 90
       17
 70
   128
 43
0.0
 10
5.038036390203805
 20
6.653908460174785
 10
5.037335116027996
 20
6.657515965268697
 10
5.035338056136773
 20
6.660955443003168
 10
5.03234924479518
 20
6.66370326407207
 10
5.028823701436333
 20
6.665341097626723
 10
5.025298158077484
 20
6.665619598355427
 10
5.022309346735892
 20
6.664496367046855
 10
5.020312286844668
 20
6.662142405485618
 10
5.01961101266886
 20
6.658916082980701
 10
5.020312286844668
 20
6.655308577886789
 10
5.022309346735892
 20
6.651869100152318
 10
5.025298158077486
 20
6.649121279083415
 10
5.028823701436333
 20
6.647483445528764
 10
5.03234924479518
 20
6.647204944800059
 10
5.035338056136773
 20
6.648328176108631
 10
5.037335116027996
 20
6.650682137669869
 10
5.038036390203805
 20
6.653908460174785
  0
LWPOLYLINE
  5
239
330
1F
100
AcDbEntity
  8
0
  6
Continuous
 62
     7
370
    15
100
AcDbPolyline
 90
       17
 70
   128
 43
0.0
 10
5.056373718293637
 20
6.622202412404995
 10
5.055672444117829
 20
6.625809917498906
 10
5.053675384226606
 20
6.629249395233377
 10
5.050686572885012
 20
6.631997216302279
 10
5.047161029526164
 20
6.633635049856931
 10
5.043635486167317
 20
6.633913550585637
 10
5.040646674825723
 20
6.632790319277064
 10
5.0386496149345
 20
6.630436357715828
 10
5.037948340758693
 20
6.62721003521091
 10
5.0386496149345
 20
6.623602530116998
 10
5.040646674825724
 20
6.620163052382527
 10
5.043635486167317
 20
6.617415231313625
 10
5.047161029526164
 20
6.615777397758972
 10
5.050686572885012
 20
6.615498897030268
 10
5.053675384226606
 20
6.61662212833884
 10
5.055672444117829
 20
6.618976089900078
 10
5.056373718293637
 20
6.622202412404995
  0
LWPOLYLINE
  5
23A
330
1F
100
AcDbEntity
  8
0
  6
Continuous
 62
     7
370
    15
100
AcDbPolyline
 90
       17
 70
   128
 43
0.0
 10
5.024129307607481
 20
6.630965752315345
 10
5.023428033431673
 20
6.634573257409257
 10
5.021430973540449
 20
6.638012735143728
 10
5.018442162198857
 20
6.64076055621263
 10
5.014916618840009
 20
6.642398389767283
 10
5.011391075481161
 20
6.642676890495987
 10
5.008402264139568
 20
6.641553659187415
 10
5.006405204248345
 20
6.639199697626178
 10
5.005703930072536
 20
6.635973375121261
 10
5.006405204248345
 20
6.632365870027349
 10
5.008402264139569
 20
6.628926392292878
 10
5.011391075481161
 20
6.626178571223976
 10
5.014916618840009
 20
6.624540737669324
 10
5.018442162198857
 20
6.624262236940619
 10
5.021430973540449
 20
6.625385468249191
 10
5.023428033431673
 20
6.627739429810429
 10
5.024129307607481
 20
6.630965752315345
  0
LWPOLYLINE
  5
23B
330
1F
100
AcDbEntity
  8
0
  6
Continuous
 62
     7
370
    15
100
AcDbPolyline
 90
       12
 70
   128
 43
0.0
 10
4.991884896921324
 20
6.639729092225698
 10
4.991183622745515
 20
6.643336597319608
 10
4.989186562854293
 20
6.646776075054081
 10
4.986197751512699
 20
6.649523896122983
 10
4.982672208153852
 20
6.651161729677635
 10
4.979146664795004
 20
6.65144023040634
 10
4.976157853453411
 20
6.650316999097766
 10
4.974160793562188
 20
6.64796303753653
 10
4.97345951938638
 20
6.644736715031612
 10
4.974160793562188
 20
6.641129209937701
 10
4.976157853453411
 20
6.637689732203229
 10
4.977147058412776
 20
6.636589670012983
  0
ARC
  5
23C
330
1F
100
AcDbEntity
  8
0
  6
Continuous
 62
     7
370
    15
100
AcDbCircle
 10
4.985485975472153
 20
6.639392503999157
 30
0.0
 40
0.0064077677350938
100
AcDbArc
 50
294.8584900936269
 51
3.011027433091688
  0
LWPOLYLINE
  5
23D
330
1F
100
AcDbEntity
  8
0
  6
Continuous
 62
     7
370
    15
100
AcDbPolyline
 90
       17
 70
   128
 43
0.0
 10
4.959617658587797
 20
6.648054728158126
 10
4.958916384411989
 20
6.651662233252038
 10
4.956919324520765
 20
6.655101710986509
 10
4.953930513179172
 20
6.657849532055411
 10
4.950404969820325
 20
6.659487365610064
 10
4.946879426461476
 20
6.659765866338769
 10
4.943890615119884
 20
6.658642635030196
 10
4.94189355522866
 20
6.656288673468959
 10
4.941192281052853
 20
6.653062350964042
 10
4.94189355522866
 20
6.649454845870131
 10
4.943890615119884
 20
6.646015368135659
 10
4.946879426461476
 20
6.643267547066757
 10
4.950404969820325
 20
6.641629713512105
 10
4.953930513179172
 20
6.6413512127834
 10
4.956919324520765
 20
6.642474444091972
 10
4.958916384411989
 20
6.64482840565321
 10
4.959617658587797
 20
6.648054728158126
  0
LWPOLYLINE
  5
23E
330
1F
100
AcDbEntity
  8
0
  6
Continuous
 62
     7
370
    15
100
AcDbPolyline
 90
       17
 70
   128
 43
0.0
 10
4.927396075549013
 20
6.657255772046399
 10
4.926694801373206
 20
6.660863277140311
 10
4.924697741481981
 20
6.664302754874783
 10
4.921708930140389
 20
6.667050575943685
 10
4.918183386781541
 20
6.668688409498336
 10
4.914657843422693
 20
6.668966910227042
 10
4.9116690320811
 20
6.667843678918469
 10
4.909671972189877
 20
6.665489717357232
 10
4.908970698014068
 20
6.662263394852314
 10
4.909671972189877
 20
6.658655889758403
 10
4.9116690320811
 20
6.655216412023932
 10
4.914657843422693
 20
6.652468590955029
 10
4.918183386781541
 20
6.650830757400377
 10
4.921708930140389
 20
6.650552256671672
 10
4.924697741481982
 20
6.651675487980245
 10
4.926694801373206
 20
6.654029449541482
 10
4.927396075549013
 20
6.657255772046399
  0
LWPOLYLINE
  5
23F
330
1F
100
AcDbEntity
  8
0
  6
Continuous
 62
     7
370
    15
100
AcDbPolyline
 90
       14
 70
   128
 43
0.0
 10
4.945864224975717
 20
6.627692121064429
 10
4.94520822835327
 20
6.630403175938844
 10
4.943211168462046
 20
6.633842653673315
 10
4.940222357120452
 20
6.636590474742217
 10
4.936696813761605
 20
6.638228308296871
 10
4.933171270402757
 20
6.638506809025575
 10
4.930182459061162
 20
6.637383577717002
 10
4.928185399169939
 20
6.635029616155766
 10
4.927484124994131
 20
6.631803293650847
 10
4.928185399169939
 20
6.628195788556936
 10
4.930182459061163
 20
6.624756310822463
 10
4.933171270402757
 20
6.622008489753561
 10
4.936696813761605
 20
6.620370656198909
 10
4.938488543048605
 20
6.620054194015022
  0
LWPOLYLINE
  5
240
330
1F
100
AcDbEntity
  8
0
  6
Continuous
 62
     7
370
    15
100
AcDbPolyline
 90
        9
 70
   128
 43
0.0
 10
5.038036390203808
 20
6.601757556815361
 10
5.037335116028
 20
6.605365061909273
 10
5.035338056136777
 20
6.608804539643744
 10
5.032349244795184
 20
6.611552360712647
 10
5.028823701436335
 20
6.6131901942673
 10
5.025298158077487
 20
6.613468694996004
 10
5.022309346735893
 20
6.612345463687431
 10
5.020312286844669
 20
6.609991502126195
 10
5.019626833472619
 20
6.607283930701234
  0
LWPOLYLINE
  5
241
330
1F
100
AcDbEntity
  8
0
  6
Continuous
 62
     7
370
    15
100
AcDbPolyline
 90
        7
 70
   128
 43
0.0
 10
5.024743738065829
 20
6.597364727089463
 10
5.025298158077487
 20
6.59697037572399
 10
5.028823701436335
 20
6.595332542169337
 10
5.032349244795184
 20
6.595054041440633
 10
5.035338056136777
 20
6.596177272749206
 10
5.037335116028
 20
6.598531234310443
 10
5.038036390203808
 20
6.601757556815361
  0
LWPOLYLINE
  5
242
330
1F
100
AcDbEntity
  8
0
  6
Continuous
 62
     7
370
    15
100
AcDbPolyline
 90
       17
 70
   128
 43
0.0
 10
5.056373718293643
 20
6.569789666597054
 10
5.055672444117834
 20
6.573397171690966
 10
5.05367538422661
 20
6.576836649425438
 10
5.050686572885016
 20
6.57958447049434
 10
5.047161029526169
 20
6.581222304048992
 10
5.043635486167321
 20
6.581500804777697
 10
5.040646674825726
 20
6.580377573469125
 10
5.038649614934503
 20
6.578023611907887
 10
5.037948340758695
 20
6.57479728940297
 10
5.038649614934503
 20
6.571189784309058
 10
5.040646674825727
 20
6.567750306574586
 10
5.043635486167321
 20
6.565002485505684
 10
5.047161029526169
 20
6.56336465195103
 10
5.050686572885016
 20
6.563086151222326
 10
5.05367538422661
 20
6.564209382530899
 10
5.055672444117834
 20
6.566563344092137
 10
5.056373718293643
 20
6.569789666597054
  0
LWPOLYLINE
  5
243
330
1F
100
AcDbEntity
  8
0
  6
Continuous
 62
     7
370
    15
100
AcDbPolyline
 90
       17
 70
   128
 43
0.0
 10
4.927396075549018
 20
6.604843026238454
 10
4.926694801373209
 20
6.608450531332366
 10
4.924697741481987
 20
6.611890009066838
 10
4.921708930140393
 20
6.614637830135742
 10
4.918183386781544
 20
6.616275663690394
 10
4.914657843422697
 20
6.616554164419098
 10
4.911669032081103
 20
6.615430933110526
 10
4.909671972189879
 20
6.613076971549289
 10
4.908970698014071
 20
6.60985064904437
 10
4.909671972189879
 20
6.606243143950459
 10
4.911669032081103
 20
6.602803666215987
 10
4.914657843422697
 20
6.600055845147084
 10
4.918183386781544
 20
6.598418011592432
 10
4.921708930140393
 20
6.598139510863727
 10
4.924697741481987
 20
6.5992627421723
 10
4.926694801373209
 20
6.601616703733537
 10
4.927396075549018
 20
6.604843026238454
  0
LWPOLYLINE
  5
244
330
1F
100
AcDbEntity
  8
0
  6
Continuous
 62
     7
370
    15
100
AcDbPolyline
 90
       11
 70
   128
 43
0.0
 10
4.933725136480298
 20
6.58485212902018
 10
4.933171270402759
 20
6.584800256744284
 10
4.930182459061166
 20
6.583677025435712
 10
4.928185399169941
 20
6.581323063874474
 10
4.927484124994134
 20
6.578096741369557
 10
4.928185399169941
 20
6.574489236275645
 10
4.930182459061166
 20
6.571049758541173
 10
4.933171270402759
 20
6.56830193747227
 10
4.936696813761606
 20
6.566664103917617
 10
4.940222357120456
 20
6.566385603188913
 10
4.942389818780524
 20
6.567025713080626
  0
ARC
  5
245
330
1F
100
AcDbEntity
  8
0
  6
Continuous
 62
     7
370
    15
100
AcDbCircle
 10
5.026429906691435
 20
6.548079825225082
 30
0.0
 40
0.0116065192954355
100
AcDbArc
 50
359.857726023404
 51
103.8681769634315
  0
LWPOLYLINE
  5
246
330
1F
100
AcDbEntity
  8
0
  6
Continuous
 62
     7
370
    15
100
AcDbPolyline
 90
       10
 70
   128
 43
0.0
 10
5.01969143249823
 20
6.554213964556924
 10
5.019611012668864
 20
6.553058627339986
 10
5.020312286844673
 20
6.549451122246074
 10
5.022309346735896
 20
6.546011644511602
 10
5.02529815807749
 20
6.5432638234427
 10
5.028823701436338
 20
6.541625989888046
 10
5.032349244795185
 20
6.541347489159342
 10
5.035338056136779
 20
6.542470720467915
 10
5.037335116028003
 20
6.544824682029153
 10
5.038036390203812
 20
6.54805100453407
  0
LWPOLYLINE
  5
247
330
1F
100
AcDbEntity
  8
0
  6
Continuous
 62
     7
370
    15
100
AcDbPolyline
 90
       17
 70
   128
 43
0.0
 10
4.945909502529073
 20
6.395543636515935
 10
4.945208228353265
 20
6.399151141609845
 10
4.943211168462042
 20
6.402590619344318
 10
4.940222357120448
 20
6.40533844041322
 10
4.936696813761599
 20
6.406976273967873
 10
4.933171270402751
 20
6.407254774696578
 10
4.930182459061158
 20
6.406131543388005
 10
4.928185399169934
 20
6.403777581826767
 10
4.927484124994125
 20
6.40055125932185
 10
4.928185399169934
 20
6.396943754227938
 10
4.930182459061158
 20
6.393504276493466
 10
4.933171270402751
 20
6.390756455424564
 10
4.936696813761599
 20
6.38911862186991
 10
4.940222357120448
 20
6.388840121141206
 10
4.943211168462042
 20
6.389963352449779
 10
4.945208228353265
 20
6.392317314011017
 10
4.945909502529073
 20
6.395543636515935
  0
ARC
  5
248
330
1F
100
AcDbEntity
  8
0
  6
Continuous
 62
     7
370
    15
100
AcDbCircle
 10
4.964866169966465
 20
6.390388224321434
 30
0.0
 40
0.008339102149495
100
AcDbArc
 50
48.10032222392511
 51
140.0690119884063
  0
ARC
  5
249
330
1F
100
AcDbEntity
  8
0
  6
Continuous
 62
     7
370
    15
100
AcDbCircle
 10
4.99669948528965
 20
6.378810239773787
 30
0.0
 40
0.011396894864744
100
AcDbArc
 50
359.1587480245939
 51
109.6717263816304
  0
LWPOLYLINE
  5
24A
330
1F
100
AcDbEntity
  8
0
  6
Continuous
 62
     7
370
    15
100
AcDbPolyline
 90
       17
 70
   128
 43
0.0
 10
5.038036390203803
 20
6.37050552248636
 10
5.037335116027995
 20
6.37411302758027
 10
5.035338056136771
 20
6.377552505314744
 10
5.032349244795177
 20
6.380300326383646
 10
5.02882370143633
 20
6.381938159938298
 10
5.025298158077482
 20
6.382216660667003
 10
5.022309346735887
 20
6.381093429358431
 10
5.020312286844665
 20
6.378739467797193
 10
5.019611012668856
 20
6.375513145292275
 10
5.020312286844665
 20
6.371905640198363
 10
5.022309346735887
 20
6.368466162463891
 10
5.025298158077482
 20
6.365718341394988
 10
5.02882370143633
 20
6.364080507840336
 10
5.032349244795177
 20
6.363802007111631
 10
5.035338056136771
 20
6.364925238420204
 10
5.037335116027995
 20
6.367279199981441
 10
5.038036390203803
 20
6.37050552248636
  0
LWPOLYLINE
  5
24B
330
1F
100
AcDbEntity
  8
0
  6
Continuous
 62
     7
370
    15
100
AcDbPolyline
 90
       17
 70
   128
 43
0.0
 10
5.056373718293634
 20
6.338799474716563
 10
5.055672444117826
 20
6.342406979810475
 10
5.053675384226602
 20
6.345846457544947
 10
5.050686572885009
 20
6.34859427861385
 10
5.047161029526161
 20
6.350232112168503
 10
5.043635486167312
 20
6.350510612897207
 10
5.040646674825718
 20
6.349387381588634
 10
5.038649614934495
 20
6.347033420027398
 10
5.037948340758687
 20
6.34380709752248
 10
5.038649614934495
 20
6.340199592428568
 10
5.040646674825718
 20
6.336760114694096
 10
5.043635486167312
 20
6.334012293625193
 10
5.047161029526161
 20
6.332374460070541
 10
5.050686572885009
 20
6.332095959341836
 10
5.053675384226602
 20
6.333219190650409
 10
5.055672444117826
 20
6.335573152211646
 10
5.056373718293634
 20
6.338799474716563
  0
LWPOLYLINE
  5
24C
330
1F
100
AcDbEntity
  8
0
  6
Continuous
 62
     7
370
    15
100
AcDbPolyline
 90
       17
 70
   128
 43
0.0
 10
4.927396075549011
 20
6.373852834357968
 10
4.926694801373202
 20
6.37746033945188
 10
4.924697741481979
 20
6.380899817186352
 10
4.921708930140385
 20
6.383647638255255
 10
4.918183386781537
 20
6.385285471809908
 10
4.914657843422689
 20
6.385563972538612
 10
4.911669032081095
 20
6.384440741230039
 10
4.909671972189872
 20
6.382086779668802
 10
4.908970698014063
 20
6.378860457163884
 10
4.909671972189872
 20
6.375252952069973
 10
4.911669032081095
 20
6.371813474335501
 10
4.914657843422689
 20
6.369065653266598
 10
4.918183386781537
 20
6.367427819711945
 10
4.921708930140385
 20
6.367149318983241
 10
4.924697741481979
 20
6.368272550291814
 10
4.926694801373202
 20
6.370626511853051
 10
4.927396075549011
 20
6.373852834357968
  0
ARC
  5
24D
330
1F
100
AcDbEntity
  8
0
  6
Continuous
 62
     7
370
    15
100
AcDbCircle
 10
4.938102482906141
 20
6.346151600245089
 30
0.0
 40
0.0104114241306403
100
AcDbArc
 50
148.4310683009532
 51
244.7820321126313
  0
ARC
  5
24E
330
1F
100
AcDbEntity
  8
0
  6
Continuous
 62
     7
370
    15
100
AcDbCircle
 10
5.026222837326826
 20
6.31668707241382
 30
0.0
 40
0.0118140828121705
100
AcDbArc
 50
0.5426885134389336
 51
97.71170687587421
  0
LWPOLYLINE
  5
24F
330
1F
100
AcDbEntity
  8
0
  6
Continuous
 62
     7
370
    15
100
AcDbPolyline
 90
        9
 70
   128
 43
0.0
 10
5.020295458030672
 20
6.318243307057126
 10
5.020312286844665
 20
6.318199087917073
 10
5.022309346735887
 20
6.314759610182601
 10
5.025298158077482
 20
6.312011789113698
 10
5.02882370143633
 20
6.310373955559046
 10
5.032349244795177
 20
6.310095454830341
 10
5.035338056136771
 20
6.311218686138914
 10
5.037335116027995
 20
6.313572647700151
 10
5.038036390203803
 20
6.31679897020507
  0
LWPOLYLINE
  5
250
330
1F
100
AcDbEntity
  8
0
  6
Continuous
 62
     7
370
    15
100
AcDbPolyline
 90
       17
 70
   128
 43
0.0
 10
5.056373718293634
 20
6.285092922435273
 10
5.055672444117826
 20
6.288700427529185
 10
5.053675384226602
 20
6.292139905263657
 10
5.050686572885009
 20
6.29488772633256
 10
5.047161029526161
 20
6.296525559887212
 10
5.043635486167312
 20
6.296804060615917
 10
5.040646674825718
 20
6.295680829307344
 10
5.038649614934495
 20
6.293326867746108
 10
5.037948340758687
 20
6.290100545241188
 10
5.038649614934495
 20
6.286493040147278
 10
5.040646674825718
 20
6.283053562412805
 10
5.043635486167312
 20
6.280305741343902
 10
5.047161029526161
 20
6.27866790778925
 10
5.050686572885009
 20
6.278389407060545
 10
5.053675384226602
 20
6.279512638369117
 10
5.055672444117826
 20
6.281866599930356
 10
5.056373718293634
 20
6.285092922435273
  0
LWPOLYLINE
  5
251
330
1F
100
AcDbEntity
  8
0
  6
Continuous
 62
     7
370
    15
100
AcDbPolyline
 90
       17
 70
   128
 43
0.0
 10
5.024129307607478
 20
6.293856262345625
 10
5.02342803343167
 20
6.297463767439536
 10
5.021430973540446
 20
6.300903245174009
 10
5.018442162198853
 20
6.303651066242911
 10
5.014916618840006
 20
6.305288899797564
 10
5.011391075481157
 20
6.305567400526268
 10
5.008402264139563
 20
6.304444169217696
 10
5.00640520424834
 20
6.302090207656458
 10
5.005703930072532
 20
6.29886388515154
 10
5.00640520424834
 20
6.295256380057628
 10
5.008402264139563
 20
6.291816902323156
 10
5.011391075481157
 20
6.289069081254254
 10
5.014916618840006
 20
6.287431247699601
 10
5.018442162198853
 20
6.287152746970897
 10
5.021430973540446
 20
6.288275978279469
 10
5.02342803343167
 20
6.290629939840707
 10
5.024129307607478
 20
6.293856262345625
  0
LWPOLYLINE
  5
252
330
1F
100
AcDbEntity
  8
0
  6
Continuous
 62
     7
370
    15
100
AcDbPolyline
 90
        8
 70
   128
 43
0.0
 10
4.976125026587435
 20
6.300621140408938
 10
4.976157853453408
 20
6.300580242233507
 10
4.979146664795002
 20
6.297832421164605
 10
4.982672208153849
 20
6.296194587609953
 10
4.986197751512698
 20
6.295916086881248
 10
4.989186562854292
 20
6.29703931818982
 10
4.991183622745515
 20
6.299393279751058
 10
4.991198184695392
 20
6.299423595598173
  0
LWPOLYLINE
  5
253
330
1F
100
AcDbEntity
  8
0
  6
Continuous
 62
     7
370
    15
100
AcDbPolyline
 90
       11
 70
   128
 43
0.0
 10
4.94357173242217
 20
6.321294824917494
 10
4.941893555228656
 20
6.319179183499243
 10
4.941192281052847
 20
6.315952860994325
 10
4.941893555228656
 20
6.312345355900413
 10
4.943890615119879
 20
6.308905878165941
 10
4.946879426461474
 20
6.306158057097039
 10
4.950404969820321
 20
6.304520223542387
 10
4.953930513179169
 20
6.304241722813682
 10
4.956919324520763
 20
6.305364954122254
 10
4.958916384411987
 20
6.307718915683492
 10
4.95902573377957
 20
6.307957210072636
  0
LWPOLYLINE
  5
254
330
1F
100
AcDbEntity
  8
0
  6
Continuous
 62
     7
370
    15
100
AcDbPolyline
 90
       17
 70
   128
 43
0.0
 10
4.927396075549011
 20
6.320146282076678
 10
4.926694801373202
 20
6.32375378717059
 10
4.924697741481979
 20
6.327193264905062
 10
4.921708930140385
 20
6.329941085973965
 10
4.918183386781537
 20
6.331578919528618
 10
4.914657843422689
 20
6.331857420257322
 10
4.911669032081095
 20
6.33073418894875
 10
4.909671972189872
 20
6.328380227387512
 10
4.908970698014063
 20
6.325153904882594
 10
4.909671972189872
 20
6.321546399788682
 10
4.911669032081095
 20
6.31810692205421
 10
4.914657843422689
 20
6.315359100985308
 10
4.918183386781537
 20
6.313721267430655
 10
4.921708930140385
 20
6.313442766701951
 10
4.924697741481979
 20
6.314565998010523
 10
4.926694801373202
 20
6.31691995957176
 10
4.927396075549011
 20
6.320146282076678
  0
LWPOLYLINE
  5
255
330
1F
100
AcDbEntity
  8
0
  6
Continuous
 62
     7
370
    15
100
AcDbPolyline
 90
       17
 70
   128
 43
0.0
 10
4.945909502529073
 20
6.289783354456216
 10
4.945208228353265
 20
6.293390859550127
 10
4.943211168462042
 20
6.2968303372846
 10
4.940222357120448
 20
6.299578158353503
 10
4.936696813761599
 20
6.301215991908155
 10
4.933171270402751
 20
6.30149449263686
 10
4.930182459061158
 20
6.300371261328288
 10
4.928185399169934
 20
6.29801729976705
 10
4.927484124994125
 20
6.294790977262132
 10
4.928185399169934
 20
6.29118347216822
 10
4.930182459061158
 20
6.287743994433748
 10
4.933171270402751
 20
6.284996173364845
 10
4.936696813761599
 20
6.283358339810193
 10
4.940222357120448
 20
6.283079839081488
 10
4.943211168462042
 20
6.284203070390061
 10
4.945208228353265
 20
6.286557031951298
 10
4.945909502529073
 20
6.289783354456216
  0
LWPOLYLINE
  5
256
330
1F
100
AcDbEntity
  8
0
  6
Continuous
 62
     7
370
    15
100
AcDbPolyline
 90
       17
 70
   128
 43
0.0
 10
4.975895404838097
 20
6.281196358700213
 10
4.975194130662289
 20
6.284803863794124
 10
4.973197070771066
 20
6.288243341528596
 10
4.970208259429472
 20
6.290991162597499
 10
4.966682716070623
 20
6.292628996152152
 10
4.963157172711776
 20
6.292907496880856
 10
4.960168361370183
 20
6.291784265572283
 10
4.958171301478958
 20
6.289430304011046
 10
4.957470027303151
 20
6.286203981506128
 10
4.958171301478958
 20
6.282596476412217
 10
4.960168361370183
 20
6.279156998677745
 10
4.963157172711776
 20
6.276409177608842
 10
4.966682716070623
 20
6.274771344054189
 10
4.970208259429472
 20
6.274492843325485
 10
4.973197070771066
 20
6.275616074634058
 10
4.975194130662289
 20
6.277970036195294
 10
4.975895404838097
 20
6.281196358700213
  0
LWPOLYLINE
  5
257
330
1F
100
AcDbEntity
  8
0
  6
Continuous
 62
     7
370
    15
100
AcDbPolyline
 90
       17
 70
   128
 43
0.0
 10
5.008095151709517
 20
6.272882627486254
 10
5.007393877533709
 20
6.276490132580165
 10
5.005396817642485
 20
6.279929610314637
 10
5.002408006300891
 20
6.282677431383539
 10
4.998882462942043
 20
6.284315264938191
 10
4.995356919583196
 20
6.284593765666896
 10
4.992368108241601
 20
6.283470534358324
 10
4.990371048350378
 20
6.281116572797087
 10
4.989669774174569
 20
6.277890250292168
 10
4.990371048350378
 20
6.274282745198257
 10
4.992368108241602
 20
6.270843267463785
 10
4.995356919583196
 20
6.268095446394881
 10
4.998882462942043
 20
6.26645761284023
 10
5.002408006300891
 20
6.266179112111524
 10
5.005396817642485
 20
6.267302343420098
 10
5.007393877533709
 20
6.269656304981335
 10
5.008095151709517
 20
6.272882627486254
  0
LWPOLYLINE
  5
258
330
1F
100
AcDbEntity
  8
0
  6
Continuous
 62
     7
370
    15
100
AcDbPolyline
 90
       17
 70
   128
 43
0.0
 10
5.038036390203803
 20
6.264745240426641
 10
5.037335116027995
 20
6.268352745520552
 10
5.035338056136771
 20
6.271792223255025
 10
5.032349244795177
 20
6.274540044323928
 10
5.02882370143633
 20
6.276177877878581
 10
5.025298158077482
 20
6.276456378607285
 10
5.022309346735887
 20
6.275333147298712
 10
5.020312286844665
 20
6.272979185737475
 10
5.019611012668856
 20
6.269752863232556
 10
5.020312286844665
 20
6.266145358138644
 10
5.022309346735887
 20
6.262705880404173
 10
5.025298158077482
 20
6.259958059335271
 10
5.02882370143633
 20
6.258320225780618
 10
5.032349244795177
 20
6.258041725051914
 10
5.035338056136771
 20
6.259164956360486
 10
5.037335116027995
 20
6.261518917921724
 10
5.038036390203803
 20
6.264745240426641
  0
LWPOLYLINE
  5
259
330
1F
100
AcDbEntity
  8
0
  6
Continuous
 62
     7
370
    15
100
AcDbPolyline
 90
       17
 70
   128
 43
0.0
 10
5.056373718293635
 20
6.233039192656849
 10
5.055672444117828
 20
6.236646697750761
 10
5.053675384226603
 20
6.240086175485233
 10
5.05068657288501
 20
6.242833996554136
 10
5.047161029526162
 20
6.244471830108788
 10
5.043635486167314
 20
6.244750330837493
 10
5.040646674825721
 20
6.24362709952892
 10
5.038649614934496
 20
6.241273137967683
 10
5.037948340758688
 20
6.238046815462764
 10
5.038649614934496
 20
6.234439310368852
 10
5.040646674825721
 20
6.23099983263438
 10
5.043635486167314
 20
6.228252011565478
 10
5.047161029526162
 20
6.226614178010826
 10
5.05068657288501
 20
6.226335677282121
 10
5.053675384226603
 20
6.227458908590693
 10
5.055672444117828
 20
6.229812870151931
 10
5.056373718293635
 20
6.233039192656849
  0
LWPOLYLINE
  5
25A
330
1F
100
AcDbEntity
  8
0
  6
Continuous
 62
     7
370
    15
100
AcDbPolyline
 90
       17
 70
   128
 43
0.0
 10
5.02412930760748
 20
6.2418025325672
 10
5.023428033431672
 20
6.245410037661112
 10
5.021430973540448
 20
6.248849515395584
 10
5.018442162198854
 20
6.251597336464487
 10
5.014916618840006
 20
6.25323517001914
 10
5.011391075481158
 20
6.253513670747844
 10
5.008402264139564
 20
6.25239043943927
 10
5.006405204248341
 20
6.250036477878034
 10
5.005703930072533
 20
6.246810155373116
 10
5.006405204248341
 20
6.243202650279203
 10
5.008402264139564
 20
6.239763172544732
 10
5.011391075481158
 20
6.23701535147583
 10
5.014916618840006
 20
6.235377517921177
 10
5.018442162198854
 20
6.235099017192473
 10
5.021430973540448
 20
6.236222248501045
 10
5.023428033431672
 20
6.238576210062282
 10
5.02412930760748
 20
6.2418025325672
  0
LWPOLYLINE
  5
25B
330
1F
100
AcDbEntity
  8
0
  6
Continuous
 62
     7
370
    15
100
AcDbPolyline
 90
       17
 70
   128
 43
0.0
 10
4.991884896921323
 20
6.250565872477551
 10
4.991183622745515
 20
6.254173377571463
 10
4.989186562854291
 20
6.257612855305935
 10
4.986197751512697
 20
6.260360676374838
 10
4.982672208153849
 20
6.26199850992949
 10
4.979146664795002
 20
6.262277010658195
 10
4.976157853453408
 20
6.261153779349623
 10
4.974160793562184
 20
6.258799817788386
 10
4.973459519386375
 20
6.255573495283467
 10
4.974160793562184
 20
6.251965990189556
 10
4.976157853453408
 20
6.248526512455084
 10
4.979146664795002
 20
6.24577869138618
 10
4.982672208153849
 20
6.244140857831529
 10
4.986197751512698
 20
6.243862357102823
 10
4.989186562854292
 20
6.244985588411397
 10
4.991183622745515
 20
6.247339549972633
 10
4.991884896921323
 20
6.250565872477551
  0
LWPOLYLINE
  5
25C
330
1F
100
AcDbEntity
  8
0
  6
Continuous
 62
     7
370
    15
100
AcDbPolyline
 90
       17
 70
   128
 43
0.0
 10
4.959617658587796
 20
6.258891508409986
 10
4.958916384411987
 20
6.262499013503897
 10
4.956919324520764
 20
6.265938491238369
 10
4.953930513179169
 20
6.268686312307271
 10
4.950404969820322
 20
6.270324145861923
 10
4.946879426461475
 20
6.270602646590628
 10
4.943890615119881
 20
6.269479415282056
 10
4.941893555228657
 20
6.267125453720819
 10
4.941192281052848
 20
6.2638991312159
 10
4.941893555228657
 20
6.260291626121989
 10
4.943890615119881
 20
6.256852148387517
 10
4.946879426461475
 20
6.254104327318615
 10
4.950404969820322
 20
6.252466493763962
 10
4.953930513179169
 20
6.252187993035256
 10
4.956919324520764
 20
6.25331122434383
 10
4.958916384411987
 20
6.255665185905067
 10
4.959617658587796
 20
6.258891508409986
  0
LWPOLYLINE
  5
25D
330
1F
100
AcDbEntity
  8
0
  6
Continuous
 62
     7
370
    15
100
AcDbPolyline
 90
       17
 70
   128
 43
0.0
 10
4.927396075549012
 20
6.268092552298254
 10
4.926694801373203
 20
6.271700057392165
 10
4.92469774148198
 20
6.275139535126637
 10
4.921708930140387
 20
6.277887356195541
 10
4.918183386781538
 20
6.279525189750192
 10
4.91465784342269
 20
6.279803690478898
 10
4.911669032081096
 20
6.278680459170324
 10
4.909671972189872
 20
6.276326497609088
 10
4.908970698014065
 20
6.273100175104168
 10
4.909671972189873
 20
6.269492670010257
 10
4.911669032081096
 20
6.266053192275785
 10
4.91465784342269
 20
6.263305371206883
 10
4.918183386781539
 20
6.261667537652231
 10
4.921708930140387
 20
6.261389036923526
 10
4.92469774148198
 20
6.262512268232098
 10
4.926694801373203
 20
6.264866229793335
 10
4.927396075549012
 20
6.268092552298254
  0
LWPOLYLINE
  5
25E
330
1F
100
AcDbEntity
  8
0
  6
Continuous
 62
     7
370
    15
100
AcDbPolyline
 90
       17
 70
   128
 43
0.0
 10
4.945909502529073
 20
6.236076802174926
 10
4.945208228353265
 20
6.239684307268837
 10
4.943211168462042
 20
6.243123785003309
 10
4.940222357120448
 20
6.245871606072213
 10
4.936696813761599
 20
6.247509439626864
 10
4.933171270402751
 20
6.24778794035557
 10
4.930182459061158
 20
6.246664709046996
 10
4.928185399169934
 20
6.244310747485759
 10
4.927484124994125
 20
6.241084424980842
 10
4.928185399169934
 20
6.23747691988693
 10
4.930182459061158
 20
6.234037442152458
 10
4.933171270402751
 20
6.231289621083555
 10
4.936696813761599
 20
6.229651787528903
 10
4.940222357120448
 20
6.229373286800198
 10
4.943211168462042
 20
6.230496518108771
 10
4.945208228353265
 20
6.232850479670007
 10
4.945909502529073
 20
6.236076802174926
  0
LWPOLYLINE
  5
25F
330
1F
100
AcDbEntity
  8
0
  6
Continuous
 62
     7
370
    15
100
AcDbPolyline
 90
       17
 70
   128
 43
0.0
 10
4.975895404838097
 20
6.227489806418922
 10
4.975194130662289
 20
6.231097311512834
 10
4.973197070771066
 20
6.234536789247306
 10
4.970208259429472
 20
6.237284610316208
 10
4.966682716070623
 20
6.238922443870861
 10
4.963157172711776
 20
6.239200944599565
 10
4.960168361370183
 20
6.238077713290993
 10
4.958171301478958
 20
6.235723751729756
 10
4.957470027303151
 20
6.232497429224838
 10
4.958171301478958
 20
6.228889924130927
 10
4.960168361370183
 20
6.225450446396455
 10
4.963157172711776
 20
6.222702625327551
 10
4.966682716070623
 20
6.221064791772899
 10
4.970208259429472
 20
6.220786291044194
 10
4.973197070771066
 20
6.221909522352768
 10
4.975194130662289
 20
6.224263483914004
 10
4.975895404838097
 20
6.227489806418922
  0
LWPOLYLINE
  5
260
330
1F
100
AcDbEntity
  8
0
  6
Continuous
 62
     7
370
    15
100
AcDbPolyline
 90
       17
 70
   128
 43
0.0
 10
5.008095151709517
 20
6.219176075204963
 10
5.007393877533709
 20
6.222783580298875
 10
5.005396817642485
 20
6.226223058033347
 10
5.002408006300891
 20
6.228970879102249
 10
4.998882462942043
 20
6.230608712656901
 10
4.995356919583196
 20
6.230887213385606
 10
4.992368108241601
 20
6.229763982077034
 10
4.990371048350378
 20
6.227410020515796
 10
4.989669774174569
 20
6.224183698010878
 10
4.990371048350378
 20
6.220576192916967
 10
4.992368108241602
 20
6.217136715182494
 10
4.995356919583196
 20
6.214388894113591
 10
4.998882462942043
 20
6.212751060558939
 10
5.002408006300891
 20
6.212472559830234
 10
5.005396817642485
 20
6.213595791138807
 10
5.007393877533709
 20
6.215949752700045
 10
5.008095151709517
 20
6.219176075204963
  0
LWPOLYLINE
  5
261
330
1F
100
AcDbEntity
  8
0
  6
Continuous
 62
     7
370
    15
100
AcDbPolyline
 90
       17
 70
   128
 43
0.0
 10
5.038036390203803
 20
6.211038688145351
 10
5.037335116027995
 20
6.214646193239262
 10
5.035338056136771
 20
6.218085670973734
 10
5.032349244795177
 20
6.220833492042638
 10
5.02882370143633
 20
6.22247132559729
 10
5.025298158077482
 20
6.222749826325995
 10
5.022309346735887
 20
6.221626595017421
 10
5.020312286844665
 20
6.219272633456185
 10
5.019611012668856
 20
6.216046310951266
 10
5.020312286844665
 20
6.212438805857354
 10
5.022309346735887
 20
6.208999328122883
 10
5.025298158077482
 20
6.20625150705398
 10
5.02882370143633
 20
6.204613673499328
 10
5.032349244795177
 20
6.204335172770623
 10
5.035338056136771
 20
6.205458404079196
 10
5.037335116027995
 20
6.207812365640433
 10
5.038036390203803
 20
6.211038688145351
  0
LWPOLYLINE
  5
262
330
1F
100
AcDbEntity
  8
0
  6
Continuous
 62
     7
370
    15
100
AcDbPolyline
 90
       17
 70
   128
 43
0.0
 10
5.056373718293635
 20
6.179332640375559
 10
5.055672444117828
 20
6.18294014546947
 10
5.053675384226603
 20
6.186379623203943
 10
5.05068657288501
 20
6.189127444272846
 10
5.047161029526162
 20
6.190765277827498
 10
5.043635486167314
 20
6.191043778556203
 10
5.040646674825721
 20
6.18992054724763
 10
5.038649614934496
 20
6.187566585686393
 10
5.037948340758688
 20
6.184340263181474
 10
5.038649614934496
 20
6.180732758087562
 10
5.040646674825721
 20
6.17729328035309
 10
5.043635486167314
 20
6.174545459284188
 10
5.047161029526162
 20
6.172907625729536
 10
5.05068657288501
 20
6.172629125000831
 10
5.053675384226603
 20
6.173752356309403
 10
5.055672444117828
 20
6.176106317870641
 10
5.056373718293635
 20
6.179332640375559
  0
LWPOLYLINE
  5
263
330
1F
100
AcDbEntity
  8
0
  6
Continuous
 62
     7
370
    15
100
AcDbPolyline
 90
       17
 70
   128
 43
0.0
 10
5.02412930760748
 20
6.188095980285909
 10
5.023428033431672
 20
6.191703485379822
 10
5.021430973540448
 20
6.195142963114293
 10
5.018442162198854
 20
6.197890784183195
 10
5.014916618840006
 20
6.199528617737849
 10
5.011391075481158
 20
6.199807118466554
 10
5.008402264139564
 20
6.19868388715798
 10
5.006405204248341
 20
6.196329925596744
 10
5.005703930072533
 20
6.193103603091825
 10
5.006405204248341
 20
6.189496097997913
 10
5.008402264139564
 20
6.186056620263442
 10
5.011391075481158
 20
6.183308799194539
 10
5.014916618840006
 20
6.181670965639887
 10
5.018442162198854
 20
6.181392464911183
 10
5.021430973540448
 20
6.182515696219755
 10
5.023428033431672
 20
6.184869657780992
 10
5.02412930760748
 20
6.188095980285909
  0
LWPOLYLINE
  5
264
330
1F
100
AcDbEntity
  8
0
  6
Continuous
 62
     7
370
    15
100
AcDbPolyline
 90
       17
 70
   128
 43
0.0
 10
4.927396075549012
 20
6.214386000016963
 10
4.926694801373203
 20
6.217993505110875
 10
4.92469774148198
 20
6.221432982845347
 10
4.921708930140387
 20
6.22418080391425
 10
4.918183386781538
 20
6.225818637468902
 10
4.91465784342269
 20
6.226097138197607
 10
4.911669032081096
 20
6.224973906889034
 10
4.909671972189872
 20
6.222619945327798
 10
4.908970698014065
 20
6.219393622822878
 10
4.909671972189873
 20
6.215786117728967
 10
4.911669032081096
 20
6.212346639994494
 10
4.91465784342269
 20
6.209598818925592
 10
4.918183386781539
 20
6.207960985370941
 10
4.921708930140387
 20
6.207682484642235
 10
4.92469774148198
 20
6.208805715950807
 10
4.926694801373203
 20
6.211159677512045
 10
4.927396075549012
 20
6.214386000016963
  0
LWPOLYLINE
  5
265
330
1F
100
AcDbEntity
  8
0
  6
Continuous
 62
     7
370
    15
100
AcDbPolyline
 90
       17
 70
   128
 43
0.0
 10
5.038036390203806
 20
6.158887784785927
 10
5.037335116027998
 20
6.162495289879839
 10
5.035338056136774
 20
6.165934767614311
 10
5.032349244795181
 20
6.168682588683213
 10
5.028823701436333
 20
6.170320422237865
 10
5.025298158077484
 20
6.17059892296657
 10
5.022309346735891
 20
6.169475691657998
 10
5.020312286844666
 20
6.16712173009676
 10
5.01961101266886
 20
6.163895407591843
 10
5.020312286844666
 20
6.16028790249793
 10
5.022309346735891
 20
6.156848424763459
 10
5.025298158077484
 20
6.154100603694556
 10
5.028823701436333
 20
6.152462770139903
 10
5.032349244795181
 20
6.152184269411199
 10
5.035338056136774
 20
6.153307500719772
 10
5.037335116027998
 20
6.155661462281009
 10
5.038036390203806
 20
6.158887784785927
  0
ARC
  5
266
330
1F
100
AcDbEntity
  8
0
  6
Continuous
 62
     7
370
    15
100
AcDbCircle
 10
5.012309024706902
 20
6.135566667415413
 30
0.0
 40
0.011820857656274
100
AcDbArc
 50
0.5650105226747204
 51
97.50096157156576
  0
LWPOLYLINE
  5
267
330
1F
100
AcDbEntity
  8
0
  6
Continuous
 62
     7
370
    15
100
AcDbPolyline
 90
        9
 70
   128
 43
0.0
 10
5.0059041801704
 20
6.138784908438452
 10
5.006405204248345
 20
6.137083352189974
 10
5.008402264139569
 20
6.133643874455502
 10
5.011391075481162
 20
6.1308960533866
 10
5.01491661884001
 20
6.129258219831948
 10
5.018442162198858
 20
6.128979719103243
 10
5.021430973540451
 20
6.130102950411815
 10
5.023428033431676
 20
6.132456911973053
 10
5.024129307607484
 20
6.135683234477971
  0
LWPOLYLINE
  5
268
330
1F
100
AcDbEntity
  8
0
  6
Continuous
 62
     7
370
    15
100
AcDbPolyline
 90
       11
 70
   128
 43
0.0
 10
4.916813188370469
 20
6.173678975116518
 10
4.914657843422694
 20
6.173684392389668
 10
4.911669032081101
 20
6.172561161081095
 10
4.909671972189877
 20
6.170207199519857
 10
4.908970698014068
 20
6.16698087701494
 10
4.909671972189877
 20
6.163373371921028
 10
4.911669032081101
 20
6.159933894186556
 10
4.914657843422694
 20
6.157186073117654
 10
4.918183386781542
 20
6.155548239563001
 10
4.92170893014039
 20
6.155269738834297
 10
4.923186433219943
 20
6.155619866378643
  0
LWPOLYLINE
  5
269
330
1F
100
AcDbEntity
  8
0
  6
Continuous
 62
     7
370
    15
100
AcDbPolyline
 90
       14
 70
   128
 43
0.0
 10
4.933178627528117
 20
6.141931435120176
 10
4.933171270402757
 20
6.141930484714849
 10
4.930182459061162
 20
6.140807253406277
 10
4.928185399169939
 20
6.13845329184504
 10
4.927484124994131
 20
6.135226969340122
 10
4.928185399169939
 20
6.13161946424621
 10
4.930182459061163
 20
6.128179986511739
 10
4.933171270402757
 20
6.125432165442837
 10
4.936696813761605
 20
6.123794331888182
 10
4.940222357120452
 20
6.123515831159478
 10
4.943211168462046
 20
6.124639062468052
 10
4.94520822835327
 20
6.126993024029289
 10
4.945909502529079
 20
6.130219346534207
 10
4.945909502529079
 20
6.130219346534207
  0
LWPOLYLINE
  5
26A
330
1F
100
AcDbEntity
  8
0
  6
Continuous
 62
     7
370
    15
100
AcDbPolyline
 90
        9
 70
   128
 43
0.0
 10
4.957699963620402
 20
6.125470013867638
 10
4.958171301478962
 20
6.123907408547363
 10
4.960168361370187
 20
6.120467930812891
 10
4.96315717271178
 20
6.117720109743988
 10
4.966682716070628
 20
6.116082276189335
 10
4.970208259429476
 20
6.115803775460631
 10
4.973197070771069
 20
6.116927006769204
 10
4.975194130662293
 20
6.119280968330441
 10
4.975893132206075
 20
6.122309594231439
  0
LWPOLYLINE
  5
26B
330
1F
100
AcDbEntity
  8
0
  6
Continuous
 62
     7
370
    15
100
AcDbPolyline
 90
       17
 70
   128
 43
0.0
 10
5.008095151709522
 20
6.113318619564248
 10
5.007393877533714
 20
6.116926124658158
 10
5.00539681764249
 20
6.120365602392631
 10
5.002408006300896
 20
6.123113423461534
 10
4.998882462942048
 20
6.124751257016186
 10
4.9953569195832
 20
6.125029757744891
 10
4.992368108241606
 20
6.123906526436319
 10
4.990371048350383
 20
6.121552564875081
 10
4.989669774174575
 20
6.118326242370163
 10
4.990371048350383
 20
6.114718737276251
 10
4.992368108241606
 20
6.111279259541779
 10
4.9953569195832
 20
6.108531438472876
 10
4.998882462942048
 20
6.106893604918224
 10
5.002408006300896
 20
6.106615104189519
 10
5.00539681764249
 20
6.107738335498092
 10
5.007393877533714
 20
6.110092297059329
 10
5.008095151709522
 20
6.113318619564248
  0
LWPOLYLINE
  5
26C
330
1F
100
AcDbEntity
  8
0
  6
Continuous
 62
     7
370
    15
100
AcDbPolyline
 90
       17
 70
   128
 43
0.0
 10
4.667163017831225
 20
6.036279284038029
 10
4.665302636650968
 20
6.033783828560502
 10
4.663725481641008
 20
6.030308950732122
 10
4.662671660354664
 20
6.02638366920241
 10
4.662301607529871
 20
6.022605572501503
 10
4.662671660354664
 20
6.019549841603581
 10
4.663725481641008
 20
6.017681683837582
 10
4.665302636650968
 20
6.017285509288488
 10
4.667163017831225
 20
6.018421631940068
 10
4.669023399011483
 20
6.020917087417594
 10
4.670600554021444
 20
6.024391965245976
 10
4.671654375307786
 20
6.028317246775685
 10
4.67202442813258
 20
6.032095343476592
 10
4.671654375307786
 20
6.035151074374515
 10
4.670600554021444
 20
6.037019232140514
 10
4.669023399011483
 20
6.037415406689609
 10
4.667163017831225
 20
6.036279284038029
  0
LWPOLYLINE
  5
26D
330
1F
100
AcDbEntity
  8
0
  6
Continuous
 62
     7
370
    15
100
AcDbPolyline
 90
       17
 70
   128
 43
0.0
 10
4.651363434351822
 20
6.020858406203509
 10
4.649503053171565
 20
6.018362950725983
 10
4.647925898161604
 20
6.014888072897601
 10
4.64687207687526
 20
6.010962791367891
 10
4.646502024050467
 20
6.007184694666984
 10
4.64687207687526
 20
6.004128963769061
 10
4.647925898161604
 20
6.002260806003062
 10
4.649503053171565
 20
6.001864631453968
 10
4.651363434351822
 20
6.003000754105547
 10
4.65322381553208
 20
6.005496209583075
 10
4.654800970542041
 20
6.008971087411456
 10
4.655854791828383
 20
6.012896368941166
 10
4.656224844653177
 20
6.016674465642074
 10
4.655854791828383
 20
6.019730196539996
 10
4.654800970542041
 20
6.021598354305994
 10
4.65322381553208
 20
6.021994528855088
 10
4.651363434351822
 20
6.020858406203509
  0
LWPOLYLINE
  5
26E
330
1F
100
AcDbEntity
  8
0
  6
Continuous
 62
     7
370
    15
100
AcDbPolyline
 90
       10
 70
   128
 43
0.0
 10
4.642809503832305
 20
5.98578715286721
 10
4.640949122652047
 20
5.983291697389683
 10
4.639371967642087
 20
5.979816819561301
 10
4.638318146355743
 20
5.975891538031591
 10
4.637948093530949
 20
5.972113441330684
 10
4.638318146355743
 20
5.969057710432761
 10
4.639371967642087
 20
5.967189552666762
 10
4.640949122652047
 20
5.966793378117668
 10
4.642809503832305
 20
5.967929500769248
 10
4.64416171204969
 20
5.969601653592111
  0
LWPOLYLINE
  5
26F
330
1F
100
AcDbEntity
  8
0
  6
Continuous
 62
     7
370
    15
100
AcDbPolyline
 90
        8
 70
   128
 43
0.0
 10
4.646203656962052
 20
5.973778803481713
 10
4.646247040022522
 20
5.973899834075156
 10
4.647300861308866
 20
5.977825115604867
 10
4.647670914133659
 20
5.981603212305773
 10
4.647300861308865
 20
5.984658943203696
 10
4.646247040022522
 20
5.986527100969694
 10
4.644669885012562
 20
5.986923275518789
 10
4.642809503832305
 20
5.98578715286721
  0
ARC
  5
270
330
1F
100
AcDbEntity
  8
0
  6
Continuous
 62
     7
370
    15
100
AcDbCircle
 10
4.676268393719089
 20
5.988854580652973
 30
0.0
 40
0.0213008525606214
100
AcDbArc
 50
140.5325404657701
 51
178.9609813569423
  0
LWPOLYLINE
  5
271
330
1F
100
AcDbEntity
  8
0
  6
Continuous
 62
     7
370
    15
100
AcDbPolyline
 90
        5
 70
   128
 43
0.0
 10
4.664683388825014
 20
5.99849200252422
 10
4.664315797363608
 20
6.001266042410102
 10
4.663261976077264
 20
6.003134200176099
 10
4.661684821067304
 20
6.003530374725194
 10
4.659824439887046
 20
6.002394252073615
  0
LWPOLYLINE
  5
272
330
1F
100
AcDbEntity
  8
0
  6
Continuous
 62
     7
370
    15
100
AcDbPolyline
 90
       17
 70
   128
 43
0.0
 10
4.676839375941788
 20
6.019001351280021
 10
4.674978994761531
 20
6.016505895802494
 10
4.673401839751569
 20
6.013031017974113
 10
4.672348018465227
 20
6.009105736444403
 10
4.671977965640433
 20
6.005327639743496
 10
4.672348018465227
 20
6.002271908845574
 10
4.673401839751569
 20
6.000403751079574
 10
4.674978994761531
 20
6.00000757653048
 10
4.676839375941788
 20
6.001143699182059
 10
4.678699757122045
 20
6.003639154659586
 10
4.680276912132006
 20
6.007114032487967
 10
4.68133073341835
 20
6.011039314017678
 10
4.681700786243143
 20
6.014817410718586
 10
4.68133073341835
 20
6.017873141616507
 10
4.680276912132006
 20
6.019741299382507
 10
4.678699757122045
 20
6.0201374739316
 10
4.676839375941788
 20
6.019001351280021
  0
LWPOLYLINE
  5
273
330
1F
100
AcDbEntity
  8
0
  6
Continuous
 62
     7
370
    15
100
AcDbPolyline
 90
       11
 70
   128
 43
0.0
 10
4.634372066783386
 20
5.950130288252397
 10
4.632511685603128
 20
5.94763483277487
 10
4.630934530593168
 20
5.944159954946488
 10
4.629880709306824
 20
5.940234673416779
 10
4.629510656482031
 20
5.936456576715872
 10
4.629880709306824
 20
5.933400845817949
 10
4.630934530593168
 20
5.93153268805195
 10
4.632511685603128
 20
5.931136513502855
 10
4.634372066783386
 20
5.932272636154435
 10
4.636232447963643
 20
5.934768091631962
 10
4.63635574126841
 20
5.93498591232782
  0
LWPOLYLINE
  5
274
330
1F
100
AcDbEntity
  8
0
  6
Continuous
 62
     7
370
    15
100
AcDbPolyline
 90
        4
 70
   128
 43
0.0
 10
4.638259582939562
 20
5.950357038340066
 10
4.637809602973605
 20
5.950870236354882
 10
4.636232447963643
 20
5.951266410903976
 10
4.634372066783386
 20
5.950130288252397
  0
LWPOLYLINE
  5
275
330
1F
100
AcDbEntity
  8
0
  6
Continuous
 62
     7
370
    15
100
AcDbPolyline
 90
       17
 70
   128
 43
0.0
 10
4.625782521939166
 20
5.915017836228616
 10
4.623922140758908
 20
5.912522380751089
 10
4.622344985748948
 20
5.909047502922708
 10
4.621291164462604
 20
5.905122221392997
 10
4.620921111637811
 20
5.901344124692091
 10
4.621291164462604
 20
5.898288393794168
 10
4.622344985748948
 20
5.89642023602817
 10
4.623922140758908
 20
5.896024061479076
 10
4.625782521939166
 20
5.897160184130654
 10
4.627642903119423
 20
5.899655639608181
 10
4.629220058129384
 20
5.903130517436562
 10
4.630273879415727
 20
5.907055798966273
 10
4.630643932240521
 20
5.91083389566718
 10
4.630273879415727
 20
5.913889626565103
 10
4.629220058129384
 20
5.915757784331102
 10
4.627642903119423
 20
5.916153958880196
 10
4.625782521939166
 20
5.915017836228616
  0
LWPOLYLINE
  5
276
330
1F
100
AcDbEntity
  8
0
  6
Continuous
 62
     7
370
    15
100
AcDbPolyline
 90
        7
 70
   128
 43
0.0
 10
4.646502135720942
 20
5.901485041042389
 10
4.646502024050467
 20
5.901424412607269
 10
4.64687207687526
 20
5.898368681709347
 10
4.647925898161604
 20
5.896500523943348
 10
4.649503053171565
 20
5.896104349394255
 10
4.651363434351822
 20
5.897240472045833
 10
4.652841765056802
 20
5.899106222133658
  0
LWPOLYLINE
  5
277
330
1F
100
AcDbEntity
  8
0
  6
Continuous
 62
     7
370
    15
100
AcDbPolyline
 90
       17
 70
   128
 43
0.0
 10
4.634372066783386
 20
5.898076558473968
 10
4.632511685603128
 20
5.895581102996443
 10
4.630934530593168
 20
5.892106225168062
 10
4.629880709306824
 20
5.888180943638351
 10
4.629510656482031
 20
5.884402846937444
 10
4.629880709306824
 20
5.881347116039521
 10
4.630934530593168
 20
5.879478958273522
 10
4.632511685603128
 20
5.879082783724428
 10
4.634372066783386
 20
5.880218906376008
 10
4.636232447963643
 20
5.882714361853534
 10
4.637809602973605
 20
5.886189239681915
 10
4.638863424259947
 20
5.890114521211626
 10
4.639233477084741
 20
5.893892617912533
 10
4.638863424259947
 20
5.896948348810456
 10
4.637809602973605
 20
5.898816506576454
 10
4.636232447963643
 20
5.899212681125548
 10
4.634372066783386
 20
5.898076558473968
  0
LWPOLYLINE
  5
278
330
1F
100
AcDbEntity
  8
0
  6
Continuous
 62
     7
370
    15
100
AcDbPolyline
 90
       17
 70
   128
 43
0.0
 10
4.618548914817677
 20
5.88307014710287
 10
4.61668853363742
 20
5.880574691625342
 10
4.615111378627458
 20
5.877099813796961
 10
4.614057557341116
 20
5.873174532267251
 10
4.613687504516322
 20
5.869396435566343
 10
4.614057557341116
 20
5.866340704668421
 10
4.615111378627458
 20
5.864472546902423
 10
4.61668853363742
 20
5.864076372353329
 10
4.618548914817677
 20
5.865212495004907
 10
4.620409295997935
 20
5.867707950482435
 10
4.621986451007895
 20
5.871182828310816
 10
4.623040272294239
 20
5.875108109840526
 10
4.623410325119032
 20
5.878886206541433
 10
4.623040272294239
 20
5.881941937439355
 10
4.621986451007895
 20
5.883810095205355
 10
4.620409295997935
 20
5.884206269754449
 10
4.618548914817677
 20
5.88307014710287
  0
LWPOLYLINE
  5
279
330
1F
100
AcDbEntity
  8
0
  6
Continuous
 62
     7
370
    15
100
AcDbPolyline
 90
       17
 70
   128
 43
0.0
 10
4.60877963172282
 20
5.84681267239468
 10
4.606919250542564
 20
5.844317216917153
 10
4.605342095532602
 20
5.840842339088772
 10
4.604288274246259
 20
5.836917057559062
 10
4.603918221421466
 20
5.833138960858154
 10
4.604288274246259
 20
5.830083229960232
 10
4.605342095532603
 20
5.828215072194233
 10
4.606919250542564
 20
5.82781889764514
 10
4.60877963172282
 20
5.828955020296718
 10
4.610640012903078
 20
5.831450475774245
 10
4.612217167913039
 20
5.834925353602626
 10
4.613270989199382
 20
5.838850635132336
 10
4.613641042024176
 20
5.842628731833244
 10
4.613270989199382
 20
5.845684462731166
 10
4.612217167913039
 20
5.847552620497165
 10
4.610640012903078
 20
5.847948795046259
 10
4.60877963172282
 20
5.84681267239468
  0
LWPOLYLINE
  5
27A
330
1F
100
AcDbEntity
  8
0
  6
Continuous
 62
     7
370
    15
100
AcDbPolyline
 90
       17
 70
   128
 43
0.0
 10
4.625782521939166
 20
5.862964106450192
 10
4.623922140758908
 20
5.860468650972666
 10
4.622344985748948
 20
5.856993773144285
 10
4.621291164462604
 20
5.853068491614573
 10
4.620921111637811
 20
5.849290394913666
 10
4.621291164462604
 20
5.846234664015744
 10
4.622344985748948
 20
5.844366506249746
 10
4.623922140758908
 20
5.843970331700652
 10
4.625782521939166
 20
5.845106454352231
 10
4.627642903119423
 20
5.847601909829757
 10
4.629220058129384
 20
5.851076787658138
 10
4.630273879415727
 20
5.855002069187849
 10
4.630643932240521
 20
5.858780165888756
 10
4.630273879415727
 20
5.861835896786678
 10
4.629220058129384
 20
5.863704054552678
 10
4.627642903119423
 20
5.864100229101771
 10
4.625782521939166
 20
5.862964106450192
  0
LWPOLYLINE
  5
27B
330
1F
100
AcDbEntity
  8
0
  6
Continuous
 62
     7
370
    15
100
AcDbPolyline
 90
       17
 70
   128
 43
0.0
 10
4.642809503832305
 20
5.88002687080749
 10
4.640949122652047
 20
5.877531415329965
 10
4.639371967642087
 20
5.874056537501584
 10
4.638318146355743
 20
5.870131255971873
 10
4.637948093530949
 20
5.866353159270966
 10
4.638318146355743
 20
5.863297428373043
 10
4.639371967642087
 20
5.861429270607044
 10
4.640949122652047
 20
5.86103309605795
 10
4.642809503832305
 20
5.86216921870953
 10
4.644669885012562
 20
5.864664674187057
 10
4.646247040022522
 20
5.868139552015438
 10
4.647300861308866
 20
5.872064833545149
 10
4.647670914133659
 20
5.875842930246055
 10
4.647300861308865
 20
5.878898661143978
 10
4.646247040022522
 20
5.880766818909976
 10
4.644669885012562
 20
5.881162993459071
 10
4.642809503832305
 20
5.88002687080749
  0
LWPOLYLINE
  5
27C
330
1F
100
AcDbEntity
  8
0
  6
Continuous
 62
     7
370
    15
100
AcDbPolyline
 90
       17
 70
   128
 43
0.0
 10
4.660065927471555
 20
5.896858646355902
 10
4.659824439887046
 20
5.896633970013898
 10
4.657964058706788
 20
5.89413851453637
 10
4.656386903696827
 20
5.890663636707989
 10
4.655333082410485
 20
5.886738355178279
 10
4.654963029585691
 20
5.882960258477371
 10
4.655333082410485
 20
5.879904527579449
 10
4.656386903696827
 20
5.878036369813449
 10
4.657964058706788
 20
5.877640195264356
 10
4.659824439887046
 20
5.878776317915935
 10
4.661684821067304
 20
5.881271773393462
 10
4.663261976077264
 20
5.884746651221844
 10
4.664315797363608
 20
5.888671932751554
 10
4.664685850188401
 20
5.892450029452461
 10
4.664315797363608
 20
5.895505760350384
 10
4.663261976077264
 20
5.897373918116382
 10
4.662790619335436
 20
5.897674423401982
  0
LWPOLYLINE
  5
27D
330
1F
100
AcDbEntity
  8
0
  6
Continuous
 62
     7
370
    15
100
AcDbPolyline
 90
       11
 70
   128
 43
0.0
 10
4.6720497415861
 20
5.901166065490588
 10
4.671977965640433
 20
5.899567357683777
 10
4.672348018465227
 20
5.896511626785854
 10
4.673401839751569
 20
5.894643469019857
 10
4.674978994761531
 20
5.894247294470762
 10
4.676839375941788
 20
5.895383417122341
 10
4.678699757122045
 20
5.897878872599868
 10
4.680276912132006
 20
5.901353750428249
 10
4.68133073341835
 20
5.90527903195796
 10
4.681700786243143
 20
5.909057128658867
 10
4.681461740073263
 20
5.911589248115058
  0
LWPOLYLINE
  5
27E
330
1F
100
AcDbEntity
  8
0
  6
Continuous
 62
     7
370
    15
100
AcDbPolyline
 90
       17
 70
   128
 43
0.0
 10
4.667163017831225
 20
5.876812449697024
 10
4.665302636650968
 20
5.874316994219499
 10
4.663725481641008
 20
5.870842116391116
 10
4.662671660354664
 20
5.866916834861407
 10
4.662301607529871
 20
5.8631387381605
 10
4.662671660354664
 20
5.860083007262577
 10
4.663725481641008
 20
5.858214849496578
 10
4.665302636650968
 20
5.857818674947484
 10
4.667163017831225
 20
5.858954797599063
 10
4.669023399011483
 20
5.86145025307659
 10
4.670600554021444
 20
5.86492513090497
 10
4.671654375307786
 20
5.868850412434682
 10
4.67202442813258
 20
5.872628509135589
 10
4.671654375307786
 20
5.87568424003351
 10
4.670600554021444
 20
5.87755239779951
 10
4.669023399011483
 20
5.877948572348604
 10
4.667163017831225
 20
5.876812449697024
  0
LWPOLYLINE
  5
27F
330
1F
100
AcDbEntity
  8
0
  6
Continuous
 62
     7
370
    15
100
AcDbPolyline
 90
       17
 70
   128
 43
0.0
 10
4.651363434351822
 20
5.861391571862505
 10
4.649503053171565
 20
5.858896116384978
 10
4.647925898161604
 20
5.855421238556597
 10
4.64687207687526
 20
5.851495957026886
 10
4.646502024050467
 20
5.847717860325979
 10
4.64687207687526
 20
5.844662129428057
 10
4.647925898161604
 20
5.842793971662057
 10
4.649503053171565
 20
5.842397797112964
 10
4.651363434351822
 20
5.843533919764543
 10
4.65322381553208
 20
5.84602937524207
 10
4.654800970542041
 20
5.849504253070451
 10
4.655854791828383
 20
5.853429534600161
 10
4.656224844653177
 20
5.857207631301069
 10
4.655854791828383
 20
5.860263362198991
 10
4.654800970542041
 20
5.862131519964989
 10
4.65322381553208
 20
5.862527694514083
 10
4.651363434351822
 20
5.861391571862505
  0
LWPOLYLINE
  5
280
330
1F
100
AcDbEntity
  8
0
  6
Continuous
 62
     7
370
    15
100
AcDbPolyline
 90
       17
 70
   128
 43
0.0
 10
4.634372066783386
 20
5.844370006192678
 10
4.632511685603128
 20
5.841874550715152
 10
4.630934530593168
 20
5.838399672886771
 10
4.629880709306824
 20
5.83447439135706
 10
4.629510656482031
 20
5.830696294656154
 10
4.629880709306824
 20
5.827640563758231
 10
4.630934530593168
 20
5.825772405992232
 10
4.632511685603128
 20
5.825376231443137
 10
4.634372066783386
 20
5.826512354094717
 10
4.636232447963643
 20
5.829007809572244
 10
4.637809602973605
 20
5.832482687400625
 10
4.638863424259947
 20
5.836407968930336
 10
4.639233477084741
 20
5.840186065631243
 10
4.638863424259947
 20
5.843241796529166
 10
4.637809602973605
 20
5.845109954295164
 10
4.636232447963643
 20
5.845506128844258
 10
4.634372066783386
 20
5.844370006192678
  0
LWPOLYLINE
  5
281
330
1F
100
AcDbEntity
  8
0
  6
Continuous
 62
     7
370
    15
100
AcDbPolyline
 90
       17
 70
   128
 43
0.0
 10
4.618548914817677
 20
5.829363594821579
 10
4.61668853363742
 20
5.826868139344052
 10
4.615111378627458
 20
5.823393261515671
 10
4.614057557341116
 20
5.819467979985961
 10
4.613687504516322
 20
5.815689883285053
 10
4.614057557341116
 20
5.812634152387131
 10
4.615111378627458
 20
5.810765994621132
 10
4.61668853363742
 20
5.810369820072039
 10
4.618548914817677
 20
5.811505942723617
 10
4.620409295997935
 20
5.814001398201144
 10
4.621986451007895
 20
5.817476276029525
 10
4.623040272294239
 20
5.821401557559235
 10
4.623410325119032
 20
5.825179654260143
 10
4.623040272294239
 20
5.828235385158065
 10
4.621986451007895
 20
5.830103542924065
 10
4.620409295997935
 20
5.830499717473158
 10
4.618548914817677
 20
5.829363594821579
  0
LWPOLYLINE
  5
282
330
1F
100
AcDbEntity
  8
0
  6
Continuous
 62
     7
370
    15
100
AcDbPolyline
 90
       17
 70
   128
 43
0.0
 10
4.599951545805458
 20
5.81477268626133
 10
4.598091164625201
 20
5.812277230783803
 10
4.596514009615241
 20
5.808802352955422
 10
4.595460188328897
 20
5.804877071425711
 10
4.595090135504103
 20
5.801098974724804
 10
4.595460188328897
 20
5.798043243826882
 10
4.596514009615241
 20
5.796175086060883
 10
4.598091164625201
 20
5.795778911511789
 10
4.599951545805458
 20
5.796915034163368
 10
4.601811926985716
 20
5.799410489640894
 10
4.603389081995676
 20
5.802885367469276
 10
4.60444290328202
 20
5.806810648998986
 10
4.604812956106814
 20
5.810588745699893
 10
4.60444290328202
 20
5.813644476597816
 10
4.603389081995676
 20
5.815512634363815
 10
4.601811926985716
 20
5.815908808912909
 10
4.599951545805458
 20
5.81477268626133
  0
LWPOLYLINE
  5
283
330
1F
100
AcDbEntity
  8
0
  6
Continuous
 62
     7
370
    15
100
AcDbPolyline
 90
       17
 70
   128
 43
0.0
 10
4.59139761528594
 20
5.779701432925025
 10
4.589537234105683
 20
5.7772059774475
 10
4.587960079095722
 20
5.773731099619118
 10
4.586906257809379
 20
5.769805818089408
 10
4.586536204984585
 20
5.766027721388501
 10
4.586906257809379
 20
5.762971990490578
 10
4.587960079095722
 20
5.761103832724579
 10
4.589537234105683
 20
5.760707658175485
 10
4.59139761528594
 20
5.761843780827065
 10
4.593257996466197
 20
5.76433923630459
 10
4.594835151476158
 20
5.767814114132971
 10
4.595888972762502
 20
5.771739395662683
 10
4.596259025587295
 20
5.775517492363589
 10
4.595888972762502
 20
5.778573223261512
 10
4.594835151476158
 20
5.780441381027511
 10
4.593257996466197
 20
5.780837555576605
 10
4.59139761528594
 20
5.779701432925025
  0
LWPOLYLINE
  5
284
330
1F
100
AcDbEntity
  8
0
  6
Continuous
 62
     7
370
    15
100
AcDbPolyline
 90
       17
 70
   128
 43
0.0
 10
4.60877963172282
 20
5.79310612011339
 10
4.606919250542564
 20
5.790610664635862
 10
4.605342095532602
 20
5.787135786807481
 10
4.604288274246259
 20
5.783210505277771
 10
4.603918221421466
 20
5.779432408576864
 10
4.604288274246259
 20
5.776376677678942
 10
4.605342095532603
 20
5.774508519912943
 10
4.606919250542564
 20
5.77411234536385
 10
4.60877963172282
 20
5.775248468015427
 10
4.610640012903078
 20
5.777743923492955
 10
4.612217167913039
 20
5.781218801321336
 10
4.613270989199382
 20
5.785144082851046
 10
4.613641042024176
 20
5.788922179551954
 10
4.613270989199382
 20
5.791977910449876
 10
4.612217167913039
 20
5.793846068215875
 10
4.610640012903078
 20
5.794242242764968
 10
4.60877963172282
 20
5.79310612011339
  0
LWPOLYLINE
  5
285
330
1F
100
AcDbEntity
  8
0
  6
Continuous
 62
     7
370
    15
100
AcDbPolyline
 90
       17
 70
   128
 43
0.0
 10
4.625782521939166
 20
5.809257554168902
 10
4.623922140758908
 20
5.806762098691375
 10
4.622344985748948
 20
5.803287220862994
 10
4.621291164462604
 20
5.799361939333283
 10
4.620921111637811
 20
5.795583842632377
 10
4.621291164462604
 20
5.792528111734455
 10
4.622344985748948
 20
5.790659953968456
 10
4.623922140758908
 20
5.790263779419361
 10
4.625782521939166
 20
5.79139990207094
 10
4.627642903119423
 20
5.793895357548467
 10
4.629220058129384
 20
5.797370235376848
 10
4.630273879415727
 20
5.801295516906559
 10
4.630643932240521
 20
5.805073613607465
 10
4.630273879415727
 20
5.808129344505389
 10
4.629220058129384
 20
5.809997502271387
 10
4.627642903119423
 20
5.810393676820481
 10
4.625782521939166
 20
5.809257554168902
  0
LWPOLYLINE
  5
286
330
1F
100
AcDbEntity
  8
0
  6
Continuous
 62
     7
370
    15
100
AcDbPolyline
 90
       17
 70
   128
 43
0.0
 10
4.642809503832305
 20
5.8263203185262
 10
4.640949122652047
 20
5.823824863048675
 10
4.639371967642087
 20
5.820349985220294
 10
4.638318146355743
 20
5.816424703690583
 10
4.637948093530949
 20
5.812646606989676
 10
4.638318146355743
 20
5.809590876091753
 10
4.639371967642087
 20
5.807722718325754
 10
4.640949122652047
 20
5.80732654377666
 10
4.642809503832305
 20
5.80846266642824
 10
4.644669885012562
 20
5.810958121905766
 10
4.646247040022522
 20
5.814432999734147
 10
4.647300861308866
 20
5.818358281263858
 10
4.647670914133659
 20
5.822136377964765
 10
4.647300861308865
 20
5.825192108862688
 10
4.646247040022522
 20
5.827060266628686
 10
4.644669885012562
 20
5.82745644117778
 10
4.642809503832305
 20
5.8263203185262
  0
LWPOLYLINE
  5
287
330
1F
100
AcDbEntity
  8
0
  6
Continuous
 62
     7
370
    15
100
AcDbPolyline
 90
       17
 70
   128
 43
0.0
 10
4.659824439887046
 20
5.842927417732607
 10
4.657964058706788
 20
5.84043196225508
 10
4.656386903696827
 20
5.836957084426699
 10
4.655333082410485
 20
5.833031802896988
 10
4.654963029585691
 20
5.829253706196081
 10
4.655333082410485
 20
5.826197975298159
 10
4.656386903696827
 20
5.824329817532159
 10
4.657964058706788
 20
5.823933642983066
 10
4.659824439887046
 20
5.825069765634645
 10
4.661684821067304
 20
5.827565221112172
 10
4.663261976077264
 20
5.831040098940554
 10
4.664315797363608
 20
5.834965380470263
 10
4.664685850188401
 20
5.838743477171171
 10
4.664315797363608
 20
5.841799208069093
 10
4.663261976077264
 20
5.843667365835091
 10
4.661684821067304
 20
5.844063540384185
 10
4.659824439887046
 20
5.842927417732607
  0
LWPOLYLINE
  5
288
330
1F
100
AcDbEntity
  8
0
  6
Continuous
 62
     7
370
    15
100
AcDbPolyline
 90
       17
 70
   128
 43
0.0
 10
4.676839375941788
 20
5.859534516939013
 10
4.674978994761531
 20
5.857039061461486
 10
4.673401839751569
 20
5.853564183633105
 10
4.672348018465227
 20
5.849638902103394
 10
4.671977965640433
 20
5.845860805402486
 10
4.672348018465227
 20
5.842805074504564
 10
4.673401839751569
 20
5.840936916738566
 10
4.674978994761531
 20
5.840540742189472
 10
4.676839375941788
 20
5.841676864841051
 10
4.678699757122045
 20
5.844172320318578
 10
4.680276912132006
 20
5.847647198146959
 10
4.68133073341835
 20
5.851572479676669
 10
4.681700786243143
 20
5.855350576377576
 10
4.68133073341835
 20
5.858406307275498
 10
4.680276912132006
 20
5.860274465041498
 10
4.678699757122045
 20
5.860670639590592
 10
4.676839375941788
 20
5.859534516939013
  0
LWPOLYLINE
  5
289
330
1F
100
AcDbEntity
  8
0
  6
Continuous
 62
     7
370
    15
100
AcDbPolyline
 90
       17
 70
   128
 43
0.0
 10
4.667163017831226
 20
5.824661546337599
 10
4.665302636650969
 20
5.822166090860071
 10
4.663725481641008
 20
5.81869121303169
 10
4.662671660354665
 20
5.814765931501979
 10
4.662301607529871
 20
5.810987834801072
 10
4.662671660354665
 20
5.80793210390315
 10
4.663725481641008
 20
5.806063946137151
 10
4.665302636650969
 20
5.805667771588058
 10
4.667163017831226
 20
5.806803894239636
 10
4.669023399011484
 20
5.809299349717163
 10
4.670600554021445
 20
5.812774227545545
 10
4.671654375307788
 20
5.816699509075255
 10
4.672024428132582
 20
5.820477605776162
 10
4.671654375307788
 20
5.823533336674084
 10
4.670600554021445
 20
5.825401494440083
 10
4.669023399011484
 20
5.825797668989178
 10
4.667163017831226
 20
5.824661546337599
  0
LWPOLYLINE
  5
28A
330
1F
100
AcDbEntity
  8
0
  6
Continuous
 62
     7
370
    15
100
AcDbPolyline
 90
       17
 70
   128
 43
0.0
 10
4.651363434351823
 20
5.809240668503079
 10
4.649503053171565
 20
5.806745213025552
 10
4.647925898161605
 20
5.80327033519717
 10
4.646872076875262
 20
5.79934505366746
 10
4.646502024050469
 20
5.795566956966553
 10
4.646872076875262
 20
5.792511226068631
 10
4.647925898161605
 20
5.790643068302632
 10
4.649503053171565
 20
5.790246893753537
 10
4.651363434351823
 20
5.791383016405116
 10
4.653223815532081
 20
5.793878471882644
 10
4.654800970542042
 20
5.797353349711025
 10
4.655854791828385
 20
5.801278631240736
 10
4.656224844653179
 20
5.805056727941643
 10
4.655854791828385
 20
5.808112458839565
 10
4.654800970542042
 20
5.809980616605563
 10
4.653223815532081
 20
5.810376791154657
 10
4.651363434351823
 20
5.809240668503079
  0
ARC
  5
28B
330
1F
100
AcDbEntity
  8
0
  6
Continuous
 62
     7
370
    15
100
AcDbCircle
 10
4.650817152481365
 20
5.779552419903648
 30
0.0
 40
0.0213029668527505
100
AcDbArc
 50
140.5304234474896
 51
179.1722418950245
  0
LWPOLYLINE
  5
28C
330
1F
100
AcDbEntity
  8
0
  6
Continuous
 62
     7
370
    15
100
AcDbPolyline
 90
        9
 70
   128
 43
0.0
 10
4.636120633126461
 20
5.777540610524961
 10
4.636232447963645
 20
5.777731846269973
 10
4.637809602973606
 20
5.781206724098354
 10
4.638863424259948
 20
5.785132005628065
 10
4.639233477084743
 20
5.788910102328972
 10
4.638863424259948
 20
5.791965833226894
 10
4.637809602973606
 20
5.793833990992894
 10
4.636232447963645
 20
5.794230165541987
 10
4.634372066783387
 20
5.793094042890408
  0
LWPOLYLINE
  5
28D
330
1F
100
AcDbEntity
  8
0
  6
Continuous
 62
     7
370
    15
100
AcDbPolyline
 90
       17
 70
   128
 43
0.0
 10
4.582960178237024
 20
5.746475157289233
 10
4.581099797056766
 20
5.743979701811706
 10
4.579522642046805
 20
5.740504823983326
 10
4.578468820760462
 20
5.736579542453615
 10
4.578098767935668
 20
5.732801445752707
 10
4.578468820760462
 20
5.729745714854785
 10
4.579522642046805
 20
5.727877557088786
 10
4.581099797056766
 20
5.727481382539693
 10
4.582960178237024
 20
5.728617505191271
 10
4.584820559417281
 20
5.731112960668798
 10
4.586397714427241
 20
5.734587838497179
 10
4.587451535713585
 20
5.738513120026889
 10
4.587821588538378
 20
5.742291216727797
 10
4.587451535713585
 20
5.745346947625719
 10
4.586397714427241
 20
5.747215105391719
 10
4.584820559417281
 20
5.747611279940811
 10
4.582960178237024
 20
5.746475157289233
  0
LWPOLYLINE
  5
28E
330
1F
100
AcDbEntity
  8
0
  6
Continuous
 62
     7
370
    15
100
AcDbPolyline
 90
       17
 70
   128
 43
0.0
 10
4.574370633392804
 20
5.711113738846462
 10
4.572510252212546
 20
5.708618283368935
 10
4.570933097202585
 20
5.705143405540554
 10
4.569879275916242
 20
5.701218124010844
 10
4.569509223091449
 20
5.697440027309936
 10
4.569879275916242
 20
5.694384296412014
 10
4.570933097202585
 20
5.692516138646015
 10
4.572510252212546
 20
5.692119964096922
 10
4.574370633392804
 20
5.6932560867485
 10
4.57623101457306
 20
5.695751542226027
 10
4.577808169583021
 20
5.699226420054408
 10
4.578861990869365
 20
5.703151701584118
 10
4.579232043694158
 20
5.706929798285026
 10
4.578861990869365
 20
5.709985529182948
 10
4.577808169583021
 20
5.711853686948947
 10
4.57623101457306
 20
5.71224986149804
 10
4.574370633392804
 20
5.711113738846462
  0
LWPOLYLINE
  5
28F
330
1F
100
AcDbEntity
  8
0
  6
Continuous
 62
     7
370
    15
100
AcDbPolyline
 90
        8
 70
   128
 43
0.0
 10
4.645805931205302
 20
5.760872287791176
 10
4.646247040022524
 20
5.762020253926211
 10
4.647300861308868
 20
5.765945535455921
 10
4.647670914133661
 20
5.769723632156829
 10
4.647300861308868
 20
5.772779363054751
 10
4.646247040022524
 20
5.77464752082075
 10
4.644669885012564
 20
5.775043695369843
 10
4.642809503832306
 20
5.773907572718265
  0
LWPOLYLINE
  5
290
330
1F
100
AcDbEntity
  8
0
  6
Continuous
 62
     7
370
    15
100
AcDbPolyline
 90
       17
 70
   128
 43
0.0
 10
4.659824439887048
 20
5.790514671924674
 10
4.65796405870679
 20
5.788019216447148
 10
4.656386903696829
 20
5.784544338618767
 10
4.655333082410487
 20
5.780619057089056
 10
4.654963029585692
 20
5.776840960388149
 10
4.655333082410487
 20
5.773785229490226
 10
4.656386903696829
 20
5.771917071724227
 10
4.65796405870679
 20
5.771520897175133
 10
4.659824439887048
 20
5.772657019826713
 10
4.661684821067305
 20
5.775152475304239
 10
4.663261976077266
 20
5.77862735313262
 10
4.664315797363609
 20
5.782552634662331
 10
4.664685850188402
 20
5.786330731363238
 10
4.664315797363609
 20
5.789386462261161
 10
4.663261976077266
 20
5.791254620027159
 10
4.661684821067305
 20
5.791650794576253
 10
4.659824439887048
 20
5.790514671924674
  0
LWPOLYLINE
  5
291
330
1F
100
AcDbEntity
  8
0
  6
Continuous
 62
     7
370
    15
100
AcDbPolyline
 90
       17
 70
   128
 43
0.0
 10
4.676839375941789
 20
5.80712177113108
 10
4.674978994761532
 20
5.804626315653553
 10
4.673401839751572
 20
5.801151437825172
 10
4.672348018465228
 20
5.797226156295462
 10
4.671977965640435
 20
5.793448059594554
 10
4.672348018465228
 20
5.790392328696632
 10
4.673401839751572
 20
5.788524170930633
 10
4.674978994761532
 20
5.78812799638154
 10
4.67683937594179
 20
5.789264119033118
 10
4.678699757122047
 20
5.791759574510645
 10
4.680276912132008
 20
5.795234452339026
 10
4.681330733418351
 20
5.799159733868736
 10
4.681700786243145
 20
5.802937830569644
 10
4.681330733418351
 20
5.805993561467566
 10
4.680276912132008
 20
5.807861719233565
 10
4.678699757122047
 20
5.808257893782658
 10
4.676839375941789
 20
5.80712177113108
  0
LWPOLYLINE
  5
292
330
1F
100
AcDbEntity
  8
0
  6
Continuous
 62
     7
370
    15
100
AcDbPolyline
 90
       17
 70
   128
 43
0.0
 10
4.667163017831227
 20
5.770954994056309
 10
4.66530263665097
 20
5.768459538578782
 10
4.663725481641009
 20
5.764984660750401
 10
4.662671660354666
 20
5.76105937922069
 10
4.662301607529872
 20
5.757281282519783
 10
4.662671660354666
 20
5.754225551621861
 10
4.663725481641009
 20
5.752357393855862
 10
4.66530263665097
 20
5.751961219306768
 10
4.667163017831227
 20
5.753097341958347
 10
4.669023399011486
 20
5.755592797435874
 10
4.670600554021445
 20
5.759067675264256
 10
4.671654375307789
 20
5.762992956793966
 10
4.672024428132583
 20
5.766771053494872
 10
4.671654375307789
 20
5.769826784392795
 10
4.670600554021445
 20
5.771694942158794
 10
4.669023399011486
 20
5.772091116707887
 10
4.667163017831227
 20
5.770954994056309
  0
LWPOLYLINE
  5
293
330
1F
100
AcDbEntity
  8
0
  6
Continuous
 62
     7
370
    15
100
AcDbPolyline
 90
       17
 70
   128
 43
0.0
 10
4.651363434351824
 20
5.75553411622179
 10
4.649503053171567
 20
5.753038660744262
 10
4.647925898161606
 20
5.749563782915881
 10
4.646872076875263
 20
5.745638501386171
 10
4.646502024050469
 20
5.741860404685264
 10
4.646872076875263
 20
5.738804673787342
 10
4.647925898161606
 20
5.736936516021343
 10
4.649503053171567
 20
5.736540341472248
 10
4.651363434351824
 20
5.737676464123827
 10
4.653223815532082
 20
5.740171919601355
 10
4.654800970542043
 20
5.743646797429736
 10
4.655854791828386
 20
5.747572078959446
 10
4.65622484465318
 20
5.751350175660354
 10
4.655854791828386
 20
5.754405906558276
 10
4.654800970542043
 20
5.756274064324274
 10
4.653223815532082
 20
5.756670238873368
 10
4.651363434351824
 20
5.75553411622179
  0
LWPOLYLINE
  5
294
330
1F
100
AcDbEntity
  8
0
  6
Continuous
 62
     7
370
    15
100
AcDbPolyline
 90
       17
 70
   128
 43
0.0
 10
4.582960178237024
 20
5.692768605007944
 10
4.581099797056767
 20
5.690273149530417
 10
4.579522642046805
 20
5.686798271702036
 10
4.578468820760463
 20
5.682872990172326
 10
4.578098767935669
 20
5.679094893471418
 10
4.578468820760463
 20
5.676039162573496
 10
4.579522642046806
 20
5.674171004807496
 10
4.581099797056767
 20
5.673774830258403
 10
4.582960178237024
 20
5.674910952909982
 10
4.584820559417281
 20
5.677406408387509
 10
4.586397714427242
 20
5.68088128621589
 10
4.587451535713586
 20
5.6848065677456
 10
4.587821588538379
 20
5.688584664446508
 10
4.587451535713586
 20
5.69164039534443
 10
4.586397714427242
 20
5.693508553110429
 10
4.584820559417281
 20
5.693904727659522
 10
4.582960178237024
 20
5.692768605007944
  0
LWPOLYLINE
  5
295
330
1F
100
AcDbEntity
  8
0
  6
Continuous
 62
     7
370
    15
100
AcDbPolyline
 90
       17
 70
   128
 43
0.0
 10
4.567137026271315
 20
5.676887253579685
 10
4.565276645091058
 20
5.674391798102157
 10
4.563699490081097
 20
5.670916920273778
 10
4.562645668794754
 20
5.666991638744067
 10
4.56227561596996
 20
5.663213542043159
 10
4.562645668794754
 20
5.660157811145237
 10
4.563699490081097
 20
5.658289653379238
 10
4.565276645091058
 20
5.657893478830144
 10
4.567137026271315
 20
5.659029601481724
 10
4.568997407451573
 20
5.661525056959249
 10
4.570574562461533
 20
5.664999934787631
 10
4.571628383747877
 20
5.668925216317341
 10
4.571998436572671
 20
5.672703313018248
 10
4.571628383747877
 20
5.675759043916171
 10
4.570574562461533
 20
5.67762720168217
 10
4.568997407451573
 20
5.678023376231264
 10
4.567137026271315
 20
5.676887253579685
  0
LWPOLYLINE
  5
296
330
1F
100
AcDbEntity
  8
0
  6
Continuous
 62
     8
370
    15
100
AcDbPolyline
 90
       13
 70
   128
 43
0.0
 10
4.941368046432843
 20
6.62330371296986
 10
4.94577696790403
 20
6.62686072483102
 10
4.956972125990356
 20
6.631523213383307
 10
4.970013233214841
 20
6.63214354096259
 10
4.983741529970634
 20
6.628666588741182
 10
4.996937196845345
 20
6.621401299182313
 10
5.008427740928923
 20
6.610993225146484
 10
5.017192176954125
 20
6.598367169686858
 10
5.022451746318013
 20
6.584645013239558
 10
5.023739113201369
 20
6.571046029623617
 10
5.020939889407087
 20
6.558778548211466
 10
5.014302798253483
 20
6.548932588561532
 10
5.014126187958951
 20
6.548758778292101
  0
LWPOLYLINE
  5
297
330
1F
100
AcDbEntity
  8
0
  6
Continuous
 62
     8
370
    15
100
AcDbPolyline
 90
        9
 70
   128
 43
0.0
 10
4.647603438925803
 20
5.924171922607536
 10
4.64868333302386
 20
5.938385020749683
 10
4.651827061988384
 20
5.953443242239524
 10
4.656755291704848
 20
5.968008598015769
 10
4.663030127335765
 20
5.980786892298687
 10
4.670094022198665
 20
5.990642717564621
 10
4.677319318235587
 20
5.996700340487116
 10
4.684064016185963
 20
5.998421514686067
 10
4.685366485012965
 20
5.998209148085043
  0
LWPOLYLINE
  5
298
330
1F
100
AcDbEntity
  8
0
  6
Continuous
 62
     8
370
    15
100
AcDbPolyline
 90
        5
 70
   128
 43
0.0
 10
4.65825084503292
 20
5.897636150098712
 10
4.656755291704848
 20
5.898200224950033
 10
4.651827061988384
 20
5.903145374156007
 10
4.648683333023861
 20
5.912066843956165
 10
4.647603438925803
 20
5.924171922607536
  0
LWPOLYLINE
  5
299
330
1F
100
AcDbEntity
  8
0
  6
Continuous
 62
     8
370
    15
100
AcDbPolyline
 90
        5
 70
   128
 43
0.0
 10
4.638390750158329
 20
5.926675734010493
 10
4.639470644256387
 20
5.914570655359122
 10
4.642614373220911
 20
5.905649185558965
 10
4.647542602937375
 20
5.90070403635299
 10
4.649038156265446
 20
5.90013996150167
  0
LWPOLYLINE
  5
29A
330
1F
100
AcDbEntity
  8
0
  6
Continuous
 62
     8
370
    15
100
AcDbPolyline
 90
        9
 70
   128
 43
0.0
 10
4.67635744706476
 20
6.000660361394761
 10
4.67485132741849
 20
6.000925326089024
 10
4.668106629468114
 20
5.999204151890073
 10
4.660881333431191
 20
5.993146528967578
 10
4.653817438568291
 20
5.983290703701644
 10
4.647542602937375
 20
5.970512409418726
 10
4.642614373220911
 20
5.955947053642481
 10
4.639470644256387
 20
5.940888832152641
 10
4.638390750158329
 20
5.926675734010493
  0
LWPOLYLINE
  5
29B
330
1F
100
AcDbEntity
  8
0
  6
Continuous
 62
     8
370
    15
100
AcDbPolyline
 90
       13
 70
   128
 43
0.0
 10
4.941477073702263
 20
6.829873224735399
 10
4.945885995173449
 20
6.833430236596559
 10
4.957081153259776
 20
6.838092725148848
 10
4.97012226048426
 20
6.838713052728128
 10
4.983850557240053
 20
6.835236100506722
 10
4.997046224114763
 20
6.827970810947852
 10
5.008536768198343
 20
6.817562736912023
 10
5.017301204223543
 20
6.804936681452399
 10
5.022560773587432
 20
6.791214525005099
 10
5.023848140470787
 20
6.777615541389156
 10
5.021048916676506
 20
6.765348059977006
 10
5.014411825522902
 20
6.755502100327072
 10
5.014235215228371
 20
6.755328290057639
  0
LWPOLYLINE
  5
29C
330
1F
100
AcDbEntity
  8
0
  6
Continuous
 62
     8
370
    15
100
AcDbPolyline
 90
        9
 70
   128
 43
0.0
 10
4.595471808868023
 20
5.704809606068802
 10
4.596551702966079
 20
5.71902270421095
 10
4.599695431930603
 20
5.734080925700791
 10
4.604623661647067
 20
5.748646281477035
 10
4.610898497277984
 20
5.761424575759954
 10
4.617962392140885
 20
5.771280401025888
 10
4.625187688177807
 20
5.777338023948382
 10
4.631932386128183
 20
5.779059198147334
 10
4.633234854955185
 20
5.778846831546309
  0
LWPOLYLINE
  5
29D
330
1F
100
AcDbEntity
  8
0
  6
Continuous
 62
     8
370
    15
100
AcDbPolyline
 90
        5
 70
   128
 43
0.0
 10
4.606119214975139
 20
5.678273833559979
 10
4.604623661647067
 20
5.678837908411298
 10
4.599695431930603
 20
5.683783057617273
 10
4.596551702966079
 20
5.692704527417431
 10
4.595471808868023
 20
5.704809606068802
  0
LWPOLYLINE
  5
29E
330
1F
100
AcDbEntity
  8
0
  6
Continuous
 62
     8
370
    15
100
AcDbPolyline
 90
        5
 70
   128
 43
0.0
 10
4.586259120100549
 20
5.70731341747176
 10
4.587339014198607
 20
5.695208338820388
 10
4.59048274316313
 20
5.686286869020231
 10
4.595410972879594
 20
5.681341719814256
 10
4.596906526207666
 20
5.680777644962936
  0
LWPOLYLINE
  5
29F
330
1F
100
AcDbEntity
  8
0
  6
Continuous
 62
     8
370
    15
100
AcDbPolyline
 90
        9
 70
   128
 43
0.0
 10
4.62422581700698
 20
5.781298044856028
 10
4.622719697360709
 20
5.781563009550291
 10
4.615974999410334
 20
5.779841835351339
 10
4.608749703373411
 20
5.773784212428845
 10
4.601685808510511
 20
5.763928387162911
 10
4.595410972879593
 20
5.751150092879992
 10
4.590482743163129
 20
5.736584737103748
 10
4.587339014198606
 20
5.721526515613907
 10
4.586259120100549
 20
5.70731341747176
  0
LWPOLYLINE
  5
2A0
330
1F
100
AcDbEntity
  8
0
  6
Continuous
 62
     8
370
    15
100
AcDbPolyline
 90
       13
 70
   128
 43
0.0
 10
4.940433329371155
 20
7.037785320237244
 10
4.944842250842341
 20
7.041342332098404
 10
4.956037408928667
 20
7.046004820650692
 10
4.969078516153152
 20
7.046625148229973
 10
4.982806812908945
 20
7.043148196008566
 10
4.996002479783656
 20
7.035882906449696
 10
5.007493023867235
 20
7.025474832413867
 10
5.016257459892435
 20
7.012848776954243
 10
5.021517029256325
 20
6.999126620506943
 10
5.022804396139679
 20
6.985527636891
 10
5.020005172345397
 20
6.97326015547885
 10
5.013368081191795
 20
6.963414195828916
 10
5.013191470897263
 20
6.963240385559484
  0
LWPOLYLINE
  5
2A1
330
1F
100
AcDbEntity
  8
0
  6
Continuous
 62
     8
370
    15
100
AcDbPolyline
 90
       13
 70
   128
 43
0.0
 10
4.925872644842039
 20
6.205931047141833
 10
4.930281566313226
 20
6.209488059002993
 10
4.94147672439955
 20
6.214150547555281
 10
4.954517831624037
 20
6.214770875134563
 10
4.968246128379829
 20
6.211293922913156
 10
4.98144179525454
 20
6.204028633354286
 10
4.992932339338119
 20
6.193620559318457
 10
5.001696775363321
 20
6.180994503858832
 10
5.006956344727209
 20
6.167272347411532
 10
5.008243711610564
 20
6.15367336379559
 10
5.005444487816283
 20
6.141405882383439
 10
4.998807396662678
 20
6.131559922733506
 10
4.998630786368146
 20
6.131386112464074
  0
LWPOLYLINE
  5
2A2
330
1F
100
AcDbEntity
  8
0
  6
Continuous
 62
     8
370
    15
100
AcDbPolyline
 90
       13
 70
   128
 43
0.0
 10
4.938441964863775
 20
6.38287424284123
 10
4.942850886334962
 20
6.38643125470239
 10
4.954046044421287
 20
6.391093743254678
 10
4.967087151645772
 20
6.39171407083396
 10
4.980815448401565
 20
6.388237118612553
 10
4.994011115276276
 20
6.380971829053684
 10
5.005501659359855
 20
6.370563755017854
 10
5.014266095385056
 20
6.35793769955823
 10
5.019525664748945
 20
6.34421554311093
 10
5.020813031632299
 20
6.330616559494988
 10
5.018013807838019
 20
6.318349078082838
 10
5.011376716684415
 20
6.308503118432904
 10
5.011200106389883
 20
6.308329308163471
  0
TEXT
  5
2AD
330
1F
100
AcDbEntity
  8
0
100
AcDbText
 10
2.562935368302255
 20
3.343209055907141
 30
0.0
 40
0.25
  1
USP  JN26-2
100
AcDbText
  0
TEXT
  5
2AE
330
1F
100
AcDbEntity
  8
0
100
AcDbText
 10
1.497758430806811
 20
2.885047294640884
 30
0.0
 40
0.25
  1
SIMIPSON  MMLU26-2
100
AcDbText
  0
ENDSEC
  0
SECTION
  2
OBJECTS
  0
DICTIONARY
  5
C
330
0
100
AcDbDictionary
281
     1
  3
ACAD_COLOR
350
2A5
  3
ACAD_GROUP
350
D
  3
ACAD_LAYOUT
350
1A
  3
ACAD_MATERIAL
350
2A4
  3
ACAD_MLINESTYLE
350
17
  3
ACAD_PLOTSETTINGS
350
19
  3
ACAD_PLOTSTYLENAME
350
E
  0
DICTIONARY
  5
2A5
102
{ACAD_REACTORS
330
C
102
}
330
C
100
AcDbDictionary
281
     1
  0
DICTIONARY
  5
D
102
{ACAD_REACTORS
330
C
102
}
330
C
100
AcDbDictionary
281
     1
  0
DICTIONARY
  5
1A
102
{ACAD_REACTORS
330
C
102
}
330
C
100
AcDbDictionary
281
     1
  3
Layout1
350
1E
  3
Layout2
350
26
  3
Model
350
22
  0
DICTIONARY
  5
2A4
102
{ACAD_REACTORS
330
C
102
}
330
C
100
AcDbDictionary
281
     1
  0
DICTIONARY
  5
17
102
{ACAD_REACTORS
330
C
102
}
330
C
100
AcDbDictionary
281
     1
  3
Standard
350
18
  0
DICTIONARY
  5
19
102
{ACAD_REACTORS
330
C
102
}
330
C
100
AcDbDictionary
281
     1
  0
ACDBDICTIONARYWDFLT
  5
E
102
{ACAD_REACTORS
330
C
102
}
330
C
100
AcDbDictionary
281
     1
  3
Normal
350
F
100
AcDbDictionaryWithDefault
340
F
  0
LAYOUT
  5
1E
102
{ACAD_REACTORS
330
1A
102
}
330
1A
100
AcDbPlotSettings
  1

  2
none_device
  4

  6

 40
0.0
 41
0.0
 42
0.0
 43
0.0
 44
0.0
 45
0.0
 46
0.0
 47
0.0
 48
0.0
 49
0.0
140
0.0
141
0.0
142
1.0
143
1.0
 70
   688
 72
     0
 73
     0
 74
     5
  7

 75
    16
147
1.0
 76
     0
 77
     2
 78
   300
148
0.0
149
0.0
100
AcDbLayout
  1
Layout1
 70
     1
 71
     1
 10
0.0
 20
0.0
 11
12.0
 21
9.0
 12
0.0
 22
0.0
 32
0.0
 14
1.000000000000000E+20
 24
1.000000000000000E+20
 34
1.000000000000000E+20
 15
-1.000000000000000E+20
 25
-1.000000000000000E+20
 35
-1.000000000000000E+20
146
0.0
 13
0.0
 23
0.0
 33
0.0
 16
1.0
 26
0.0
 36
0.0
 17
0.0
 27
1.0
 37
0.0
 76
     0
330
1B
  0
LAYOUT
  5
26
102
{ACAD_REACTORS
330
1A
102
}
330
1A
100
AcDbPlotSettings
  1

  2
none_device
  4

  6

 40
0.0
 41
0.0
 42
0.0
 43
0.0
 44
0.0
 45
0.0
 46
0.0
 47
0.0
 48
0.0
 49
0.0
140
0.0
141
0.0
142
1.0
143
1.0
 70
   688
 72
     0
 73
     0
 74
     5
  7

 75
    16
147
1.0
 76
     0
 77
     2
 78
   300
148
0.0
149
0.0
100
AcDbLayout
  1
Layout2
 70
     1
 71
     2
 10
0.0
 20
0.0
 11
0.0
 21
0.0
 12
0.0
 22
0.0
 32
0.0
 14
0.0
 24
0.0
 34
0.0
 15
0.0
 25
0.0
 35
0.0
146
0.0
 13
0.0
 23
0.0
 33
0.0
 16
1.0
 26
0.0
 36
0.0
 17
0.0
 27
1.0
 37
0.0
 76
     0
330
23
  0
LAYOUT
  5
22
102
{ACAD_REACTORS
330
1A
102
}
330
1A
100
AcDbPlotSettings
  1

  2
none_device
  4

  6

 40
0.0
 41
0.0
 42
0.0
 43
0.0
 44
0.0
 45
0.0
 46
0.0
 47
0.0
 48
0.0
 49
0.0
140
0.0
141
0.0
142
1.0
143
1.0
 70
  1712
 72
     0
 73
     0
 74
     0
  7

 75
     0
147
1.0
 76
     0
 77
     2
 78
   300
148
0.0
149
0.0
100
AcDbLayout
  1
Model
 70
     1
 71
     0
 10
0.0
 20
0.0
 11
8.5
 21
11.0
 12
0.0
 22
0.0
 32
0.0
 14
0.0
 24
0.0
 34
0.0
 15
8.5
 25
11.0
 35
0.0
146
0.0
 13
0.0
 23
0.0
 33
0.0
 16
1.0
 26
0.0
 36
0.0
 17
0.0
 27
1.0
 37
0.0
 76
     0
330
1F
  0
MLINESTYLE
  5
18
102
{ACAD_REACTORS
330
17
102
}
330
17
100
AcDbMlineStyle
  2
STANDARD
 70
     0
  3

 62
   256
 51
90.0
 52
90.0
 71
     2
 49
0.5
 62
   256
  6
BYLAYER
 49
-0.5
 62
   256
  6
BYLAYER
  0
ACDBPLACEHOLDER
  5
F
102
{ACAD_REACTORS
330
E
102
}
330
E
  0
ENDSEC
  0
EOF
