  0
SECTION
  2
HEADER
  9
$ACADVER
  1
AC1018
  9
$ACADMAINTVER
 70
     0
  9
$DWGCODEPAGE
  3
ANSI_1252
  9
$INSBASE
 10
0.0
 20
0.0
 30
0.0
  9
$EXTMIN
 10
1.060047991560481
 20
2.718278826650482
 30
0.0
  9
$EXTMAX
 10
6.835815610087845
 20
9.871144728886658
 30
0.0
  9
$LIMMIN
 10
0.0
 20
0.0
  9
$LIMMAX
 10
8.5
 20
11.0
  9
$ORTHOMODE
 70
     0
  9
$REGENMODE
 70
     1
  9
$FILLMODE
 70
     1
  9
$QTEXTMODE
 70
     0
  9
$MIRRTEXT
 70
     1
  9
$LTSCALE
 40
1.0
  9
$ATTMODE
 70
     1
  9
$TEXTSIZE
 40
0.25
  9
$TRACEWID
 40
0.05
  9
$TEXTSTYLE
  7
Standard
  9
$CLAYER
  8
0
  9
$CELTYPE
  6
ByLayer
  9
$CECOLOR
 62
   256
  9
$CELTSCALE
 40
1.0
  9
$DISPSILH
 70
     0
  9
$DIMSCALE
 40
1.0
  9
$DIMASZ
 40
0.156
  9
$DIMEXO
 40
0.05
  9
$DIMDLI
 40
0.38
  9
$DIMRND
 40
0.0
  9
$DIMDLE
 40
0.0
  9
$DIMEXE
 40
0.125
  9
$DIMTP
 40
0.0
  9
$DIMTM
 40
0.0
  9
$DIMTXT
 40
0.125
  9
$DIMCEN
 40
0.09
  9
$DIMTSZ
 40
0.0
  9
$DIMTOL
 70
     0
  9
$DIMLIM
 70
     0
  9
$DIMTIH
 70
     1
  9
$DIMTOH
 70
     1
  9
$DIMSE1
 70
     0
  9
$DIMSE2
 70
     0
  9
$DIMTAD
 70
     0
  9
$DIMZIN
 70
     0
  9
$DIMBLK
  1

  9
$DIMASO
 70
     1
  9
$DIMSHO
 70
     1
  9
$DIMPOST
  1

  9
$DIMAPOST
  1

  9
$DIMALT
 70
     0
  9
$DIMALTD
 70
     2
  9
$DIMALTF
 40
25.4
  9
$DIMLFAC
 40
32.0
  9
$DIMTOFL
 70
     0
  9
$DIMTVP
 40
0.0
  9
$DIMTIX
 70
     0
  9
$DIMSOXD
 70
     0
  9
$DIMSAH
 70
     0
  9
$DIMBLK1
  1

  9
$DIMBLK2
  1

  9
$DIMSTYLE
  2
Standard
  9
$DIMCLRD
 70
     0
  9
$DIMCLRE
 70
     0
  9
$DIMCLRT
 70
     0
  9
$DIMTFAC
 40
1.0
  9
$DIMGAP
 40
0.06
  9
$DIMJUST
 70
     0
  9
$DIMSD1
 70
     0
  9
$DIMSD2
 70
     0
  9
$DIMTOLJ
 70
     1
  9
$DIMTZIN
 70
     0
  9
$DIMALTZ
 70
     0
  9
$DIMALTTZ
 70
     0
  9
$DIMUPT
 70
     0
  9
$DIMDEC
 70
     3
  9
$DIMTDEC
 70
     3
  9
$DIMALTU
 70
     2
  9
$DIMALTTD
 70
     2
  9
$DIMTXSTY
  7
Standard
  9
$DIMAUNIT
 70
     0
  9
$DIMADEC
 70
     0
  9
$DIMALTRND
 40
0.0
  9
$DIMAZIN
 70
     0
  9
$DIMDSEP
 70
    46
  9
$DIMATFIT
 70
     3
  9
$DIMFRAC
 70
     0
  9
$DIMLDRBLK
  1

  9
$DIMLUNIT
 70
     2
  9
$DIMLWD
 70
    -2
  9
$DIMLWE
 70
    -2
  9
$DIMTMOVE
 70
     0
  9
$LUNITS
 70
     2
  9
$LUPREC
 70
     3
  9
$SKETCHINC
 40
0.1
  9
$FILLETRAD
 40
0.5
  9
$AUNITS
 70
     0
  9
$AUPREC
 70
     0
  9
$MENU
  1
.
  9
$ELEVATION
 40
0.0
  9
$PELEVATION
 40
0.0
  9
$THICKNESS
 40
0.0
  9
$LIMCHECK
 70
     0
  9
$CHAMFERA
 40
0.5
  9
$CHAMFERB
 40
0.5
  9
$CHAMFERC
 40
1.0
  9
$CHAMFERD
 40
0.0
  9
$SKPOLY
 70
     0
  9
$TDCREATE
 40
2456515.397281863
  9
$TDUCREATE
 40
2456515.605615197
  9
$TDUPDATE
 40
2456526.409934873
  9
$TDUUPDATE
 40
2456526.618268206
  9
$TDINDWG
 40
0.0025916204
  9
$TDUSRTIMER
 40
0.0025916204
  9
$USRTIMER
 70
     1
  9
$ANGBASE
 50
0.0
  9
$ANGDIR
 70
     0
  9
$PDMODE
 70
     0
  9
$PDSIZE
 40
-1.0
  9
$PLINEWID
 40
0.0
  9
$SPLFRAME
 70
     0
  9
$SPLINETYPE
 70
     6
  9
$SPLINESEGS
 70
     8
  9
$HANDSEED
  5
3BB
  9
$SURFTAB1
 70
     6
  9
$SURFTAB2
 70
     6
  9
$SURFTYPE
 70
     6
  9
$SURFU
 70
     6
  9
$SURFV
 70
     6
  9
$UCSBASE
  2

  9
$UCSNAME
  2

  9
$UCSORG
 10
0.0
 20
0.0
 30
0.0
  9
$UCSXDIR
 10
1.0
 20
0.0
 30
0.0
  9
$UCSYDIR
 10
0.0
 20
1.0
 30
0.0
  9
$UCSORTHOREF
  2

  9
$UCSORTHOVIEW
 70
     0
  9
$UCSORGTOP
 10
0.0
 20
0.0
 30
0.0
  9
$UCSORGBOTTOM
 10
0.0
 20
0.0
 30
0.0
  9
$UCSORGLEFT
 10
0.0
 20
0.0
 30
0.0
  9
$UCSORGRIGHT
 10
0.0
 20
0.0
 30
0.0
  9
$UCSORGFRONT
 10
0.0
 20
0.0
 30
0.0
  9
$UCSORGBACK
 10
0.0
 20
0.0
 30
0.0
  9
$PUCSBASE
  2

  9
$PUCSNAME
  2

  9
$PUCSORG
 10
0.0
 20
0.0
 30
0.0
  9
$PUCSXDIR
 10
1.0
 20
0.0
 30
0.0
  9
$PUCSYDIR
 10
0.0
 20
1.0
 30
0.0
  9
$PUCSORTHOREF
  2

  9
$PUCSORTHOVIEW
 70
     0
  9
$PUCSORGTOP
 10
0.0
 20
0.0
 30
0.0
  9
$PUCSORGBOTTOM
 10
0.0
 20
0.0
 30
0.0
  9
$PUCSORGLEFT
 10
0.0
 20
0.0
 30
0.0
  9
$PUCSORGRIGHT
 10
0.0
 20
0.0
 30
0.0
  9
$PUCSORGFRONT
 10
0.0
 20
0.0
 30
0.0
  9
$PUCSORGBACK
 10
0.0
 20
0.0
 30
0.0
  9
$USERI1
 70
     0
  9
$USERI2
 70
     0
  9
$USERI3
 70
     0
  9
$USERI4
 70
     0
  9
$USERI5
 70
     0
  9
$USERR1
 40
0.0
  9
$USERR2
 40
0.0
  9
$USERR3
 40
0.0
  9
$USERR4
 40
0.0
  9
$USERR5
 40
0.0
  9
$WORLDVIEW
 70
     1
  9
$SHADEDGE
 70
     3
  9
$SHADEDIF
 70
    70
  9
$TILEMODE
 70
     1
  9
$MAXACTVP
 70
    64
  9
$PINSBASE
 10
0.0
 20
0.0
 30
0.0
  9
$PLIMCHECK
 70
     0
  9
$PEXTMIN
 10
1.000000000000000E+20
 20
1.000000000000000E+20
 30
1.000000000000000E+20
  9
$PEXTMAX
 10
-1.000000000000000E+20
 20
-1.000000000000000E+20
 30
-1.000000000000000E+20
  9
$PLIMMIN
 10
0.0
 20
0.0
  9
$PLIMMAX
 10
12.0
 20
9.0
  9
$UNITMODE
 70
     0
  9
$VISRETAIN
 70
     1
  9
$PLINEGEN
 70
     0
  9
$PSLTSCALE
 70
     1
  9
$TREEDEPTH
 70
  3020
  9
$CMLSTYLE
  2
Standard
  9
$CMLJUST
 70
     0
  9
$CMLSCALE
 40
1.0
  9
$PROXYGRAPHICS
 70
     1
  9
$MEASUREMENT
 70
     0
  9
$CELWEIGHT
370
    -1
  9
$ENDCAPS
280
     0
  9
$JOINSTYLE
280
     0
  9
$LWDISPLAY
290
     1
  9
$INSUNITS
 70
     1
  9
$HYPERLINKBASE
  1

  9
$STYLESHEET
  1

  9
$XEDIT
290
     1
  9
$CEPSNTYPE
380
     0
  9
$PSTYLEMODE
290
     1
  9
$FINGERPRINTGUID
  2
{D2A793C8-1B17-4D2A-8412-86E46724490C}
  9
$VERSIONGUID
  2
{36AC5568-A74D-41C6-8B31-4FE22DF5EC9E}
  9
$EXTNAMES
290
     1
  9
$PSVPSCALE
 40
0.0
  9
$OLESTARTUP
290
     0
  9
$SORTENTS
280
   127
  9
$INDEXCTL
280
     0
  9
$HIDETEXT
280
     0
  9
$XCLIPFRAME
290
     0
  9
$HALOGAP
280
     0
  9
$OBSCOLOR
 70
   257
  9
$OBSLTYPE
280
     0
  9
$INTERSECTIONDISPLAY
280
     0
  9
$INTERSECTIONCOLOR
 70
   257
  9
$DIMASSOC
280
     1
  9
$PROJECTNAME
  1

  0
ENDSEC
  0
SECTION
  2
CLASSES
  0
CLASS
  1
ACDBDICTIONARYWDFLT
  2
AcDbDictionaryWithDefault
  3
ObjectDBX Classes
 90
        0
 91
        1
280
     0
281
     0
  0
CLASS
  1
VISUALSTYLE
  2
AcDbVisualStyle
  3
ObjectDBX Classes
 90
     4095
 91
        0
280
     0
281
     0
  0
CLASS
  1
MATERIAL
  2
AcDbMaterial
  3
ObjectDBX Classes
 90
        0
 91
        0
280
     0
281
     0
  0
ENDSEC
  0
SECTION
  2
TABLES
  0
TABLE
  2
VPORT
  5
8
330
0
100
AcDbSymbolTable
 70
     3
  0
VPORT
  5
3BA
330
8
100
AcDbSymbolTableRecord
100
AcDbViewportTableRecord
  2
*Active
 70
     0
 10
0.0
 20
0.0
 11
1.0
 21
1.0
 12
4.053695927246796
 22
6.238462492368021
 13
0.0
 23
0.0
 14
0.5
 24
0.5
 15
0.5
 25
0.5
 16
0.0
 26
0.0
 36
1.0
 17
0.0
 27
0.0
 37
0.0
 40
8.36475632024168
 41
2.144329896907216
 42
50.0
 43
0.0
 44
0.0
 50
0.0
 51
0.0
 71
     0
 72
  2000
 73
     1
 74
     3
 75
     0
 76
     0
 77
     0
 78
     0
281
     0
 65
     1
110
0.0
120
0.0
130
0.0
111
1.0
121
0.0
131
0.0
112
0.0
122
1.0
132
0.0
 79
     0
146
0.0
  0
ENDTAB
  0
TABLE
  2
LTYPE
  5
5
330
0
100
AcDbSymbolTable
 70
     6
  0
LTYPE
  5
14
330
5
100
AcDbSymbolTableRecord
100
AcDbLinetypeTableRecord
  2
ByBlock
 70
     0
  3

 72
    65
 73
     0
 40
0.0
  0
LTYPE
  5
15
330
5
100
AcDbSymbolTableRecord
100
AcDbLinetypeTableRecord
  2
ByLayer
 70
     0
  3

 72
    65
 73
     0
 40
0.0
  0
LTYPE
  5
16
330
5
100
AcDbSymbolTableRecord
100
AcDbLinetypeTableRecord
  2
Continuous
 70
     0
  3
Solid line
 72
    65
 73
     0
 40
0.0
  0
LTYPE
  5
3F
330
5
100
AcDbSymbolTableRecord
100
AcDbLinetypeTableRecord
  2
HIDDEN
 70
     0
  3
Hidden __ __ __ __ __ __ __ __ __ __ __ __ __ __
 72
    65
 73
     2
 40
0.075
 49
0.05
 74
     0
 49
-0.025
 74
     0
  0
LTYPE
  5
40
330
5
100
AcDbSymbolTableRecord
100
AcDbLinetypeTableRecord
  2
PHANTOM
 70
     0
  3
Phantom ______  __  __  ______  __  __  ______
 72
    65
 73
     6
 40
0.5
 49
0.25
 74
     0
 49
-0.05
 74
     0
 49
0.05
 74
     0
 49
-0.05
 74
     0
 49
0.05
 74
     0
 49
-0.05
 74
     0
  0
LTYPE
  5
41
330
5
100
AcDbSymbolTableRecord
100
AcDbLinetypeTableRecord
  2
CENTER
 70
     0
  3
Center ____ _ ____ _ ____ _ ____ _ ____ _ ____
 72
    65
 73
     4
 40
0.4
 49
0.25
 74
     0
 49
-0.05
 74
     0
 49
0.05
 74
     0
 49
-0.05
 74
     0
  0
LTYPE
  5
42
330
5
100
AcDbSymbolTableRecord
100
AcDbLinetypeTableRecord
  2
CENTERX2
 70
     0
  3
Center (2x) ________  __  ________  __  _____
 72
    65
 73
     4
 40
0.8
 49
0.5
 74
     0
 49
-0.1
 74
     0
 49
0.1
 74
     0
 49
-0.1
 74
     0
  0
LTYPE
  5
43
330
5
100
AcDbSymbolTableRecord
100
AcDbLinetypeTableRecord
  2
DOT2
 70
     0
  3
Dot (.5x) ........................................
 72
    65
 73
     2
 40
0.025
 49
0.0
 74
     0
 49
-0.025
 74
     0
  0
ENDTAB
  0
TABLE
  2
LAYER
  5
2
330
0
100
AcDbSymbolTable
 70
     7
  0
LAYER
  5
10
330
2
100
AcDbSymbolTableRecord
100
AcDbLayerTableRecord
  2
0
 70
     0
 62
     7
  6
Continuous
370
    -3
390
F
  0
LAYER
  5
44
330
2
100
AcDbSymbolTableRecord
100
AcDbLayerTableRecord
  2
SLD-0
 70
     0
 62
   179
  6
Continuous
370
    -3
390
F
  0
LAYER
  5
45
330
2
100
AcDbSymbolTableRecord
100
AcDbLayerTableRecord
  2
SLD-DEFPOINTS
 70
     0
 62
   179
  6
Continuous
370
    -3
390
F
  0
LAYER
  5
46
330
2
100
AcDbSymbolTableRecord
100
AcDbLayerTableRecord
  2
OBJ
 70
     0
 62
   179
  6
Continuous
370
    -3
390
F
  0
LAYER
  5
47
330
2
100
AcDbSymbolTableRecord
100
AcDbLayerTableRecord
  2
FORMAT
 70
     0
 62
     7
  6
Continuous
370
    -3
390
F
  0
LAYER
  5
48
330
2
100
AcDbSymbolTableRecord
100
AcDbLayerTableRecord
  2
TOLERANCES
 70
     0
 62
     7
  6
Continuous
370
    -3
390
F
  0
LAYER
  5
49
330
2
100
AcDbSymbolTableRecord
100
AcDbLayerTableRecord
  2
QTY-BLANK-SIZE-1
 70
     0
 62
     7
  6
Continuous
370
    -3
390
F
  0
ENDTAB
  0
TABLE
  2
STYLE
  5
3
330
0
100
AcDbSymbolTable
 70
     2
  0
STYLE
  5
11
330
3
100
AcDbSymbolTableRecord
100
AcDbTextStyleTableRecord
  2
Standard
 70
     0
 40
0.0
 41
1.0
 50
0.0
 71
     0
 42
0.25
  3
txt
  4

  0
STYLE
  5
3A7
330
3
100
AcDbSymbolTableRecord
100
AcDbTextStyleTableRecord
  2
SLDTEXTSTYLE0
 70
     0
 40
0.0
 41
0.7
 50
0.0
 71
     0
 42
0.2
  3
TXT
  4

  0
ENDTAB
  0
TABLE
  2
VIEW
  5
6
330
0
100
AcDbSymbolTable
 70
     0
  0
ENDTAB
  0
TABLE
  2
UCS
  5
7
330
0
100
AcDbSymbolTable
 70
     0
  0
ENDTAB
  0
TABLE
  2
APPID
  5
9
330
0
100
AcDbSymbolTable
 70
     2
  0
APPID
  5
12
330
9
100
AcDbSymbolTableRecord
100
AcDbRegAppTableRecord
  2
ACAD
 70
     0
  0
APPID
  5
3B2
330
9
100
AcDbSymbolTableRecord
100
AcDbRegAppTableRecord
  2
DCO15
 70
     0
  0
ENDTAB
  0
TABLE
  2
DIMSTYLE
  5
A
330
0
100
AcDbSymbolTable
 70
     1
100
AcDbDimStyleTable
 71
     0
  0
DIMSTYLE
105
27
330
A
100
AcDbSymbolTableRecord
100
AcDbDimStyleTableRecord
  2
Standard
 70
     0
340
11
  0
ENDTAB
  0
TABLE
  2
BLOCK_RECORD
  5
1
330
0
100
AcDbSymbolTable
 70
     1
  0
BLOCK_RECORD
  5
1F
330
1
100
AcDbSymbolTableRecord
100
AcDbBlockTableRecord
  2
*Model_Space
340
22
  0
BLOCK_RECORD
  5
1B
330
1
100
AcDbSymbolTableRecord
100
AcDbBlockTableRecord
  2
*Paper_Space
340
1E
  0
BLOCK_RECORD
  5
23
330
1
100
AcDbSymbolTableRecord
100
AcDbBlockTableRecord
  2
*Paper_Space0
340
26
  0
ENDTAB
  0
ENDSEC
  0
SECTION
  2
BLOCKS
  0
BLOCK
  5
20
330
1F
100
AcDbEntity
  8
0
100
AcDbBlockBegin
  2
*Model_Space
 70
     0
 10
0.0
 20
0.0
 30
0.0
  3
*Model_Space
  1

  0
ENDBLK
  5
21
330
1F
100
AcDbEntity
  8
0
100
AcDbBlockEnd
  0
BLOCK
  5
1C
330
1B
100
AcDbEntity
 67
     1
  8
0
100
AcDbBlockBegin
  2
*Paper_Space
 70
     0
 10
0.0
 20
0.0
 30
0.0
  3
*Paper_Space
  1

  0
ENDBLK
  5
1D
330
1B
100
AcDbEntity
 67
     1
  8
0
100
AcDbBlockEnd
  0
BLOCK
  5
24
330
23
100
AcDbEntity
  8
0
100
AcDbBlockBegin
  2
*Paper_Space0
 70
     0
 10
0.0
 20
0.0
 30
0.0
  3
*Paper_Space0
  1

  0
ENDBLK
  5
25
330
23
100
AcDbEntity
  8
0
100
AcDbBlockEnd
  0
ENDSEC
  0
SECTION
  2
ENTITIES
  0
LINE
  5
4A
330
1F
100
AcDbEntity
  8
0
  6
Continuous
 62
     7
370
    15
100
AcDbLine
 10
4.40900518799908
 20
6.964968471427231
 30
0.0
 11
4.4091341733985
 21
6.964769834091167
 31
0.0
  0
LINE
  5
4B
330
1F
100
AcDbEntity
  8
0
  6
Continuous
 62
     7
370
    15
100
AcDbLine
 10
4.446908045966234
 20
7.185716479113516
 30
0.0
 11
4.349680863553082
 21
7.066909297699214
 31
0.0
  0
SPLINE
  5
4C
330
1F
100
AcDbEntity
  8
0
  6
Continuous
 62
     7
370
    15
100
AcDbSpline
210
0.0
220
0.0
230
1.0
 70
     8
 71
     3
 72
    10
 73
     6
 74
     0
 42
0.0000000001
 43
0.0000000001
 40
0.0
 40
0.0
 40
0.0
 40
0.0
 40
0.1279145591682523
 40
0.8055595215547878
 40
0.9999999999999998
 40
0.9999999999999998
 40
0.9999999999999998
 40
0.9999999999999998
 10
4.351037195031815
 20
7.065793571121248
 30
0.0
 10
4.351027892594571
 20
7.065792988906586
 30
0.0
 10
4.350969309217167
 20
7.065789322329711
 30
0.0
 10
4.351033163522887
 20
7.065685734872356
 30
0.0
 10
4.351164220320289
 20
7.065488740646953
 30
0.0
 10
4.351193440790208
 20
7.065444818744758
 30
0.0
  0
LINE
  5
4D
330
1F
100
AcDbEntity
  8
0
  6
Continuous
 62
     7
370
    15
100
AcDbLine
 10
4.509866814586638
 20
6.525383917445315
 30
0.0
 11
4.510804156264981
 21
6.522261287482628
 31
0.0
  0
SPLINE
  5
4E
330
1F
100
AcDbEntity
  8
0
  6
Continuous
 62
     7
370
    15
100
AcDbSpline
210
0.0
220
0.0
230
1.0
 70
     8
 71
     3
 72
    12
 73
     8
 74
     0
 42
0.0000000001
 43
0.0000000001
 40
0.0
 40
0.0
 40
0.0
 40
0.0
 40
0.1778647317501535
 40
0.3707346108835621
 40
0.5800891230913149
 40
0.8062481040361916
 40
0.9999999999999998
 40
0.9999999999999998
 40
0.9999999999999998
 40
0.9999999999999998
 10
4.450586913513419
 20
7.183813506794347
 30
0.0
 10
4.450335916278419
 20
7.183887432423352
 30
0.0
 10
4.44981274700627
 20
7.184041520246352
 30
0.0
 10
4.449168017863736
 20
7.184294686093676
 30
0.0
 10
4.448657399073502
 20
7.184508281751647
 30
0.0
 10
4.448332124184894
 20
7.184643465947826
 30
0.0
 10
4.448285767139578
 20
7.184614238451557
 30
0.0
 10
4.448264377444966
 20
7.184600752535549
 30
0.0
  0
LINE
  5
4F
330
1F
100
AcDbEntity
  8
0
  6
Continuous
 62
     7
370
    15
100
AcDbLine
 10
6.256957084659953
 20
6.244207627531394
 30
0.0
 11
6.256957084659953
 21
6.241747289929833
 31
0.0
  0
LINE
  5
50
330
1F
100
AcDbEntity
  8
0
  6
Continuous
 62
     7
370
    15
100
AcDbLine
 10
5.872467772389768
 20
6.36616073576607
 30
0.0
 11
5.872467772389768
 21
6.36370039816451
 31
0.0
  0
LINE
  5
51
330
1F
100
AcDbEntity
  8
0
  6
Continuous
 62
     7
370
    15
100
AcDbLine
 10
5.404009529853682
 20
6.491665876279428
 30
0.0
 11
5.404009529853682
 21
6.489205538677868
 31
0.0
  0
LINE
  5
52
330
1F
100
AcDbEntity
  8
0
  6
Continuous
 62
     7
370
    15
100
AcDbLine
 10
5.098716177076391
 20
6.554513167396871
 30
0.0
 11
5.098716177076391
 21
6.552457733860757
 31
0.0
  0
LINE
  5
53
330
1F
100
AcDbEntity
  8
0
  6
Continuous
 62
     7
370
    15
100
AcDbLine
 10
4.714226864806206
 20
6.676466275631549
 30
0.0
 11
4.714226864806206
 21
6.674410842095435
 31
0.0
  0
LINE
  5
54
330
1F
100
AcDbEntity
  8
0
  6
Continuous
 62
     7
370
    15
100
AcDbLine
 10
3.940475269492828
 20
6.864818707262349
 30
0.0
 11
3.940475269492828
 21
6.863323238039303
 31
0.0
  0
LINE
  5
55
330
1F
100
AcDbEntity
  8
0
  6
Continuous
 62
     7
370
    15
100
AcDbLine
 10
3.555985957222643
 20
6.986771815497027
 30
0.0
 11
3.555985957222643
 21
6.985276346273979
 31
0.0
  0
LINE
  5
56
330
1F
100
AcDbEntity
  8
0
  6
Continuous
 62
     7
370
    15
100
AcDbLine
 10
3.087527714686556
 20
7.112276956010383
 30
0.0
 11
3.087527714686556
 21
7.110781486787336
 31
0.0
  0
LINE
  5
57
330
1F
100
AcDbEntity
  8
0
  6
Continuous
 62
     7
370
    15
100
AcDbLine
 10
4.496206521415908
 20
7.075686814997595
 30
0.0
 11
4.448256469648853
 21
7.184624942003964
 31
0.0
  0
LINE
  5
58
330
1F
100
AcDbEntity
  8
0
  6
Continuous
 62
     7
370
    15
100
AcDbLine
 10
4.407569873491911
 20
6.967376874829694
 30
0.0
 11
4.496206521415908
 21
7.075686814997596
 31
0.0
  0
LINE
  5
59
330
1F
100
AcDbEntity
  8
0
  6
Continuous
 62
     7
370
    15
100
AcDbLine
 10
4.386413445597318
 20
6.985428192788204
 30
0.0
 11
4.407569873491911
 21
6.967376874829693
 31
0.0
  0
LINE
  5
5A
330
1F
100
AcDbEntity
  8
0
  6
Continuous
 62
     7
370
    15
100
AcDbLine
 10
4.351029287235702
 20
7.065817760589662
 30
0.0
 11
4.386413445597318
 21
6.985428192788204
 31
0.0
  0
LINE
  5
5B
330
1F
100
AcDbEntity
  8
0
  6
Continuous
 62
     7
370
    15
100
AcDbLine
 10
4.351029287235702
 20
7.065817760589662
 30
0.0
 11
4.448256469648853
 21
7.184624942003964
 31
0.0
  0
LINE
  5
5C
330
1F
100
AcDbEntity
  8
0
  6
Continuous
 62
     7
370
    15
100
AcDbLine
 10
4.413914326019813
 20
6.959967944344533
 30
0.0
 11
4.501288165445427
 21
7.06673479013661
 31
0.0
  0
SPLINE
  5
5D
330
1F
100
AcDbEntity
  8
0
  6
Continuous
 62
     7
370
    15
100
AcDbSpline
210
0.0
220
0.0
230
1.0
 70
     8
 71
     3
 72
    11
 73
     7
 74
     0
 42
0.0000000001
 43
0.0000000001
 40
0.0
 40
0.0
 40
0.0
 40
0.0
 40
0.250000000000006
 40
0.5000000000000067
 40
0.7500000000000075
 40
1.0
 40
1.0
 40
1.0
 40
1.0
 10
4.407569873491911
 20
6.967376874829693
 30
0.0
 10
4.408139580533873
 20
6.967014093500787
 30
0.0
 10
4.4092789946178
 20
6.966288530842974
 30
0.0
 10
4.411200680480922
 20
6.964419313386529
 30
0.0
 10
4.412918772024435
 20
6.962218495924799
 30
0.0
 10
4.41358247468802
 20
6.960718128204621
 30
0.0
 10
4.413914326019813
 20
6.959967944344533
 30
0.0
  0
SPLINE
  5
5E
330
1F
100
AcDbEntity
  8
0
  6
Continuous
 62
     7
370
    15
100
AcDbSpline
210
0.0
220
0.0
230
1.0
 70
     8
 71
     3
 72
    11
 73
     7
 74
     0
 42
0.0000000001
 43
0.0000000001
 40
0.0
 40
0.0
 40
0.0
 40
0.0
 40
0.2499999999999819
 40
0.5000000000000093
 40
0.7499999999999979
 40
1.0
 40
1.0
 40
1.0
 40
1.0
 10
4.501288165445426
 20
7.06673479013661
 30
0.0
 10
4.501061548155167
 20
7.067613565194684
 30
0.0
 10
4.500608313574646
 20
7.069371115310833
 30
0.0
 10
4.499205924155728
 20
7.071957706366521
 30
0.0
 10
4.497599940417202
 20
7.074212697416919
 30
0.0
 10
4.49667099441634
 20
7.075195442470704
 30
0.0
 10
4.496206521415908
 20
7.075686814997595
 30
0.0
  0
LINE
  5
5F
330
1F
100
AcDbEntity
  8
0
  6
Continuous
 62
     7
370
    15
100
AcDbLine
 10
4.501288165445426
 20
7.048813982238522
 30
0.0
 11
4.501288165445426
 21
7.06673479013661
 31
0.0
  0
LINE
  5
60
330
1F
100
AcDbEntity
  8
0
  6
Continuous
 62
     7
370
    15
100
AcDbLine
 10
4.506252319468767
 20
7.026555987863066
 30
0.0
 11
4.501288165445426
 21
7.048813982238522
 31
0.0
  0
LINE
  5
61
330
1F
100
AcDbEntity
  8
0
  6
Continuous
 62
     7
370
    15
100
AcDbLine
 10
4.506252319468767
 20
7.026555987863066
 30
0.0
 11
4.506252319468767
 21
6.54594804706404
 31
0.0
  0
LINE
  5
62
330
1F
100
AcDbEntity
  8
0
  6
Continuous
 62
     7
370
    15
100
AcDbLine
 10
4.413914326019813
 20
6.959967944344533
 30
0.0
 11
4.506252319468767
 21
6.54594804706404
 31
0.0
  0
LINE
  5
63
330
1F
100
AcDbEntity
  8
0
  6
Continuous
 62
     7
370
    15
100
AcDbLine
 10
4.52462010674335
 20
6.007356041981008
 30
0.0
 11
4.538762242367081
 21
5.984298334534198
 31
0.0
  0
LINE
  5
64
330
1F
100
AcDbEntity
  8
0
  6
Continuous
 62
     7
370
    15
100
AcDbLine
 10
4.52462010674335
 20
6.451191057825102
 30
0.0
 11
4.52462010674335
 21
6.007356041981008
 31
0.0
  0
LINE
  5
65
330
1F
100
AcDbEntity
  8
0
  6
Continuous
 62
     7
370
    15
100
AcDbLine
 10
4.516151814405379
 20
6.493698208541784
 30
0.0
 11
4.52462010674335
 21
6.451191057825102
 31
0.0
  0
LINE
  5
66
330
1F
100
AcDbEntity
  8
0
  6
Continuous
 62
     7
370
    15
100
AcDbLine
 10
4.516151814405379
 20
6.97430614934081
 30
0.0
 11
4.516151814405379
 21
6.493698208541784
 31
0.0
  0
LINE
  5
67
330
1F
100
AcDbEntity
  8
0
  6
Continuous
 62
     7
370
    15
100
AcDbLine
 10
4.6218472891565
 20
6.443760757659913
 30
0.0
 11
4.516151814405379
 21
6.97430614934081
 31
0.0
  0
LINE
  5
68
330
1F
100
AcDbEntity
  8
0
  6
Continuous
 62
     7
370
    15
100
AcDbLine
 10
4.6218472891565
 20
5.981307805270689
 30
0.0
 11
4.6218472891565
 21
6.443760757659913
 31
0.0
  0
LINE
  5
69
330
1F
100
AcDbEntity
  8
0
  6
Continuous
 62
     7
370
    15
100
AcDbLine
 10
4.607705153532768
 20
5.965827766685063
 30
0.0
 11
4.6218472891565
 21
5.981307805270689
 31
0.0
  0
LINE
  5
6A
330
1F
100
AcDbEntity
  8
0
  6
Continuous
 62
     7
370
    15
100
AcDbLine
 10
4.538762242367081
 20
5.984298334534198
 30
0.0
 11
4.607705153532768
 21
5.965827766685063
 31
0.0
  0
LWPOLYLINE
  5
6B
330
1F
100
AcDbEntity
  8
0
  6
Continuous
 62
     7
370
    15
100
AcDbPolyline
 90
       17
 70
   128
 43
0.0
 10
4.537542321827753
 20
6.076926325485756
 10
4.537962159157991
 20
6.073938033824173
 10
4.539157754721009
 20
6.071179724357624
 10
4.540947089930439
 20
6.069071324698249
 10
4.543057754721009
 20
6.067933819581499
 10
4.545168419511579
 20
6.067940383849891
 10
4.546957754721009
 20
6.069090018153066
 10
4.548153350284026
 20
6.071207701089826
 10
4.548573187614264
 20
6.073971034629893
 10
4.548153350284026
 20
6.076959326291475
 10
4.546957754721009
 20
6.079717635758025
 10
4.545168419511579
 20
6.0818260354174
 10
4.543057754721009
 20
6.082963540534151
 10
4.540947089930439
 20
6.082956976265759
 10
4.539157754721009
 20
6.081807341962583
 10
4.537962159157991
 20
6.079689659025824
 10
4.537542321827753
 20
6.076926325485756
  0
LWPOLYLINE
  5
6C
330
1F
100
AcDbEntity
  8
0
  6
Continuous
 62
     7
370
    15
100
AcDbPolyline
 90
       17
 70
   128
 43
0.0
 10
4.593712680253424
 20
6.02060146238622
 10
4.594132517583662
 20
6.017613170724639
 10
4.595328113146678
 20
6.014854861258089
 10
4.597117448356109
 20
6.012746461598715
 10
4.599228113146679
 20
6.011608956481965
 10
4.601338777937249
 20
6.011615520750356
 10
4.603128113146679
 20
6.01276515505353
 10
4.604323708709697
 20
6.014882837990291
 10
4.604743546039935
 20
6.017646171530359
 10
4.604323708709697
 20
6.020634463191941
 10
4.603128113146679
 20
6.023392772658491
 10
4.601338777937249
 20
6.025501172317865
 10
4.599228113146679
 20
6.026638677434615
 10
4.597117448356109
 20
6.026632113166225
 10
4.595328113146678
 20
6.025482478863049
 10
4.594132517583662
 20
6.02336479592629
 10
4.593712680253424
 20
6.02060146238622
  0
LWPOLYLINE
  5
6D
330
1F
100
AcDbEntity
  8
0
  6
Continuous
 62
     7
370
    15
100
AcDbPolyline
 90
       17
 70
   128
 43
0.0
 10
4.537542321827753
 20
6.269615055647932
 10
4.537962159157991
 20
6.266626763986351
 10
4.539157754721009
 20
6.2638684545198
 10
4.540947089930439
 20
6.261760054860427
 10
4.543057754721009
 20
6.260622549743676
 10
4.545168419511579
 20
6.260629114012068
 10
4.546957754721009
 20
6.261778748315242
 10
4.548153350284026
 20
6.263896431252002
 10
4.548573187614264
 20
6.266659764792071
 10
4.548153350284026
 20
6.269648056453652
 10
4.546957754721009
 20
6.272406365920202
 10
4.545168419511579
 20
6.274514765579578
 10
4.543057754721009
 20
6.275652270696326
 10
4.540947089930439
 20
6.275645706427936
 10
4.539157754721009
 20
6.274496072124761
 10
4.537962159157991
 20
6.272378389187999
 10
4.537542321827753
 20
6.269615055647932
  0
LWPOLYLINE
  5
6E
330
1F
100
AcDbEntity
  8
0
  6
Continuous
 62
     7
370
    15
100
AcDbPolyline
 90
       17
 70
   128
 43
0.0
 10
4.593712680253424
 20
6.213290192548398
 10
4.594132517583662
 20
6.210301900886816
 10
4.595328113146678
 20
6.207543591420266
 10
4.597117448356109
 20
6.205435191760892
 10
4.599228113146679
 20
6.204297686644142
 10
4.601338777937249
 20
6.204304250912533
 10
4.603128113146679
 20
6.205453885215708
 10
4.604323708709697
 20
6.207571568152467
 10
4.604743546039935
 20
6.210334901692537
 10
4.604323708709697
 20
6.213323193354118
 10
4.603128113146679
 20
6.216081502820668
 10
4.601338777937249
 20
6.218189902480042
 10
4.599228113146679
 20
6.219327407596792
 10
4.597117448356109
 20
6.219320843328401
 10
4.595328113146678
 20
6.218171209025227
 10
4.594132517583662
 20
6.216053526088465
 10
4.593712680253424
 20
6.213290192548398
  0
LWPOLYLINE
  5
6F
330
1F
100
AcDbEntity
  8
0
  6
Continuous
 62
     7
370
    15
100
AcDbPolyline
 90
       17
 70
   128
 43
0.0
 10
4.58307681988087
 20
6.12011947758943
 10
4.583496657211107
 20
6.117131185927848
 10
4.584692252774126
 20
6.114372876461297
 10
4.586481587983556
 20
6.112264476801923
 10
4.588592252774126
 20
6.111126971685174
 10
4.590702917564696
 20
6.111133535953565
 10
4.592492252774126
 20
6.112283170256739
 10
4.593687848337143
 20
6.1144008531935
 10
4.59410768566738
 20
6.117164186733567
 10
4.593687848337143
 20
6.12015247839515
 10
4.592492252774126
 20
6.1229107878617
 10
4.590702917564696
 20
6.125019187521075
 10
4.588592252774126
 20
6.126156692637824
 10
4.586481587983556
 20
6.126150128369433
 10
4.584692252774126
 20
6.125000494066259
 10
4.583496657211107
 20
6.122882811129498
 10
4.58307681988087
 20
6.12011947758943
  0
LWPOLYLINE
  5
70
330
1F
100
AcDbEntity
  8
0
  6
Continuous
 62
     7
370
    15
100
AcDbPolyline
 90
       17
 70
   128
 43
0.0
 10
4.547307206327117
 20
6.15088811406136
 10
4.547727043657354
 20
6.147899822399779
 10
4.548922639220371
 20
6.145141512933228
 10
4.550711974429802
 20
6.143033113273853
 10
4.552822639220372
 20
6.141895608157105
 10
4.554933304010942
 20
6.141902172425495
 10
4.556722639220372
 20
6.14305180672867
 10
4.557918234783389
 20
6.14516948966543
 10
4.558338072113627
 20
6.147932823205499
 10
4.557918234783389
 20
6.15092111486708
 10
4.556722639220372
 20
6.15367942433363
 10
4.554933304010942
 20
6.155787823993004
 10
4.552822639220372
 20
6.156925329109754
 10
4.550711974429802
 20
6.156918764841362
 10
4.548922639220371
 20
6.155769130538189
 10
4.547727043657354
 20
6.153651447601427
 10
4.547307206327117
 20
6.15088811406136
  0
LWPOLYLINE
  5
71
330
1F
100
AcDbEntity
  8
0
  6
Continuous
 62
     7
370
    15
100
AcDbPolyline
 90
       17
 70
   128
 43
0.0
 10
4.552253248138395
 20
6.319846684145312
 10
4.552673085468632
 20
6.31685839248373
 10
4.55386868103165
 20
6.31410008301718
 10
4.55565801624108
 20
6.311991683357804
 10
4.55776868103165
 20
6.310854178241055
 10
4.55987934582222
 20
6.310860742509447
 10
4.561668681031649
 20
6.312010376812621
 10
4.562864276594668
 20
6.314128059749382
 10
4.563284113924905
 20
6.316891393289449
 10
4.562864276594668
 20
6.319879684951031
 10
4.561668681031649
 20
6.322637994417581
 10
4.55987934582222
 20
6.324746394076955
 10
4.55776868103165
 20
6.325883899193706
 10
4.555658016241079
 20
6.325877334925314
 10
4.55386868103165
 20
6.32472770062214
 10
4.552673085468632
 20
6.322610017685379
 10
4.552253248138395
 20
6.319846684145312
  0
LWPOLYLINE
  5
72
330
1F
100
AcDbEntity
  8
0
  6
Continuous
 62
     7
370
    15
100
AcDbPolyline
 90
       17
 70
   128
 43
0.0
 10
4.578632188301743
 20
6.39584262980363
 10
4.57905202563198
 20
6.392854338142048
 10
4.580247621194998
 20
6.390096028675498
 10
4.582036956404428
 20
6.387987629016124
 10
4.584147621194998
 20
6.386850123899374
 10
4.586258285985568
 20
6.386856688167766
 10
4.588047621194998
 20
6.388006322470939
 10
4.589243216758016
 20
6.390124005407701
 10
4.589663054088253
 20
6.392887338947768
 10
4.589243216758016
 20
6.395875630609349
 10
4.588047621194998
 20
6.3986339400759
 10
4.586258285985568
 20
6.400742339735274
 10
4.584147621194998
 20
6.401879844852023
 10
4.582036956404428
 20
6.401873280583633
 10
4.580247621194998
 20
6.400723646280458
 10
4.57905202563198
 20
6.398605963343698
 10
4.578632188301743
 20
6.39584262980363
  0
LINE
  5
73
330
1F
100
AcDbEntity
  8
0
  6
Continuous
 62
     7
370
    15
100
AcDbLine
 10
4.6218472891565
 20
6.443760757659913
 30
0.0
 11
4.625948508487382
 21
6.444859519644785
 31
0.0
  0
LINE
  5
74
330
1F
100
AcDbEntity
  8
0
  6
Continuous
 62
     7
370
    15
100
AcDbLine
 10
4.520253033736261
 20
6.975404911325681
 30
0.0
 11
4.516151814405379
 21
6.97430614934081
 31
0.0
  0
LINE
  5
75
330
1F
100
AcDbEntity
  8
0
  6
Continuous
 62
     7
370
    15
100
AcDbLine
 10
4.625948508487382
 20
6.444859519644785
 30
0.0
 11
4.520253033736261
 21
6.975404911325681
 31
0.0
  0
LINE
  5
76
330
1F
100
AcDbEntity
  8
0
  6
Continuous
 62
     7
370
    15
100
AcDbLine
 10
4.409813106688931
 20
6.961066706329405
 30
0.0
 11
4.413914326019813
 21
6.959967944344533
 31
0.0
  0
LINE
  5
77
330
1F
100
AcDbEntity
  8
0
  6
Continuous
 62
     7
370
    15
100
AcDbLine
 10
4.40900518799908
 20
6.964968471427231
 30
0.0
 11
4.407569873491911
 21
6.967376874829693
 31
0.0
  0
SPLINE
  5
78
330
1F
100
AcDbEntity
  8
0
  6
Continuous
 62
     7
370
    15
100
AcDbSpline
210
0.0
220
0.0
230
1.0
 70
     8
 71
     3
 72
    10
 73
     6
 74
     0
 42
0.0000000001
 43
0.0000000001
 40
0.0
 40
0.0
 40
0.0
 40
0.0
 40
0.3064929740718689
 40
0.6532464870358882
 40
1.0
 40
1.0
 40
1.0
 40
1.0
 10
4.409919630990258
 20
6.962864546928787
 30
0.0
 10
4.409924126860619
 20
6.962696675803034
 30
0.0
 10
4.409933709173325
 20
6.962338882207585
 30
0.0
 10
4.409927523919053
 20
6.961714536565795
 30
0.0
 10
4.409851245765638
 20
6.961282649741535
 30
0.0
 10
4.409813106688931
 20
6.961066706329405
 30
0.0
  0
LINE
  5
79
330
1F
100
AcDbEntity
  8
0
  6
Continuous
 62
     7
370
    15
100
AcDbLine
 10
4.386413445597318
 20
6.985428192788204
 30
0.0
 11
4.38792907583413
 21
6.982885022632131
 31
0.0
  0
LINE
  5
7A
330
1F
100
AcDbEntity
  8
0
  6
Continuous
 62
     7
370
    15
100
AcDbLine
 10
4.506252319468767
 20
6.545948047064038
 30
0.0
 11
4.502151100137885
 21
6.54704680904891
 31
0.0
  0
LINE
  5
7B
330
1F
100
AcDbEntity
  8
0
  6
Continuous
 62
     7
370
    15
100
AcDbLine
 10
4.409813106688931
 20
6.961066706329405
 30
0.0
 11
4.502151100137885
 21
6.54704680904891
 31
0.0
  0
LINE
  5
7C
330
1F
100
AcDbEntity
  8
0
  6
Continuous
 62
     7
370
    15
100
AcDbLine
 10
4.448256469648853
 20
7.184624942003964
 30
0.0
 11
4.450608832417354
 21
7.180677766338154
 31
0.0
  0
LINE
  5
7D
330
1F
100
AcDbEntity
  8
0
  6
Continuous
 62
     7
370
    15
100
AcDbLine
 10
4.452936871662481
 20
7.175388674343142
 30
0.0
 11
4.450608832417354
 21
7.180677766338154
 31
0.0
  0
SPLINE
  5
7E
330
1F
100
AcDbEntity
  8
0
  6
Continuous
 62
     7
370
    15
100
AcDbSpline
210
0.0
220
0.0
230
1.0
 70
     8
 71
     3
 72
     9
 73
     5
 74
     0
 42
0.0000000001
 43
0.0000000001
 40
0.0
 40
0.0
 40
0.0
 40
0.0
 40
0.5000000000000001
 40
1.0
 40
1.0
 40
1.0
 40
1.0
 10
4.516151814405379
 20
6.97430614934081
 30
0.0
 10
4.514501898582611
 20
6.983289098417365
 30
0.0
 10
4.511202066937073
 20
7.001254996570475
 30
0.0
 10
4.507902235291536
 20
7.01812232409887
 30
0.0
 10
4.506252319468767
 20
7.026555987863066
 30
0.0
  0
SPLINE
  5
7F
330
1F
100
AcDbEntity
  8
0
  6
Continuous
 62
     7
370
    15
100
AcDbSpline
210
0.0
220
0.0
230
1.0
 70
     8
 71
     3
 72
    10
 73
     6
 74
     0
 42
0.0000000001
 43
0.0000000001
 40
0.0
 40
0.0
 40
0.0
 40
0.0
 40
0.4419530803348594
 40
0.8839061606697319
 40
1.0
 40
1.0
 40
1.0
 40
1.0
 10
4.520253033736261
 20
6.975404911325682
 30
0.0
 10
4.518937799455601
 20
6.980032344896207
 30
0.0
 10
4.516307330894282
 20
6.989287212037255
 30
0.0
 10
4.512395000822455
 20
6.999411572501481
 30
0.0
 10
4.510342371814608
 20
7.0047801126551
 30
0.0
 10
4.509915351121823
 20
7.005896962181672
 30
0.0
  0
SPLINE
  5
80
330
1F
100
AcDbEntity
  8
0
  6
Continuous
 62
     7
370
    15
100
AcDbSpline
210
0.0
220
0.0
230
1.0
 70
     8
 71
     3
 72
     9
 73
     5
 74
     0
 42
0.0000000001
 43
0.0000000001
 40
0.0
 40
0.0
 40
0.0
 40
0.0
 40
0.4999999999999981
 40
1.0
 40
1.0
 40
1.0
 40
1.0
 10
4.506252319468767
 20
6.54594804706404
 30
0.0
 10
4.507902235291536
 20
6.537514383299843
 30
0.0
 10
4.511202066937073
 20
6.520647055771449
 30
0.0
 10
4.514501898582611
 20
6.502681157618339
 30
0.0
 10
4.516151814405379
 20
6.493698208541784
 30
0.0
  0
SPLINE
  5
81
330
1F
100
AcDbEntity
  8
0
  6
Continuous
 62
     7
370
    15
100
AcDbSpline
210
0.0
220
0.0
230
1.0
 70
     8
 71
     3
 72
    11
 73
     7
 74
     0
 42
0.0000000001
 43
0.0000000001
 40
0.0
 40
0.0
 40
0.0
 40
0.0
 40
0.1823704859670979
 40
0.4549136573114046
 40
0.7274568286557012
 40
1.0
 40
1.0
 40
1.0
 40
1.0
 10
4.351029919987202
 20
7.065816698856601
 30
0.0
 10
4.350705322581097
 20
7.066036539708459
 30
0.0
 10
4.349895631295898
 20
7.066584921237493
 30
0.0
 10
4.349564388128592
 20
7.066984114533112
 30
0.0
 10
4.34988204995628
 20
7.066875773483348
 30
0.0
 10
4.350646874809228
 20
7.066170431554223
 30
0.0
 10
4.351029287235702
 20
7.065817760589662
 30
0.0
  0
SPLINE
  5
82
330
1F
100
AcDbEntity
  8
0
  6
Continuous
 62
     7
370
    15
100
AcDbSpline
210
0.0
220
0.0
230
1.0
 70
     8
 71
     3
 72
     9
 73
     5
 74
     0
 42
0.0000000001
 43
0.0000000001
 40
0.0
 40
0.0
 40
0.0
 40
0.0
 40
0.537294749398537
 40
1.0
 40
1.0
 40
1.0
 40
1.0
 10
4.448256469648853
 20
7.184624942003964
 30
0.0
 10
4.447860321956042
 20
7.184989861670812
 30
0.0
 10
4.447123021445933
 20
7.18566904133385
 30
0.0
 10
4.447007394980616
 20
7.185672660056996
 30
0.0
 10
4.446953894008006
 20
7.185674334459195
 30
0.0
  0
SPLINE
  5
83
330
1F
100
AcDbEntity
  8
0
  6
Continuous
 62
     7
370
    15
100
AcDbSpline
210
0.0
220
0.0
230
1.0
 70
     8
 71
     3
 72
     9
 73
     5
 74
     0
 42
0.0000000001
 43
0.0000000001
 40
0.0
 40
0.0
 40
0.0
 40
0.0
 40
0.4999999999999908
 40
1.0
 40
1.0
 40
1.0
 40
1.0
 10
4.450608832417354
 20
7.180677766338154
 30
0.0
 10
4.450857459558016
 20
7.181192022033637
 30
0.0
 10
4.45135471383934
 20
7.182220533424606
 30
0.0
 10
4.452312857988157
 20
7.182888683469057
 30
0.0
 10
4.452791930062565
 20
7.183222758491282
 30
0.0
  0
LINE
  5
84
330
1F
100
AcDbEntity
  8
0
  6
Continuous
 62
     7
370
    15
100
AcDbLine
 10
4.452791930062564
 20
7.183222758491282
 30
0.0
 11
4.458317051985663
 21
7.181963009254768
 31
0.0
  0
LINE
  5
85
330
1F
100
AcDbEntity
  8
0
  6
Continuous
 62
     7
370
    15
100
AcDbLine
 10
4.6218472891565
 20
5.981307805270689
 30
0.0
 11
4.625948508487382
 21
5.982406567255561
 31
0.0
  0
LINE
  5
86
330
1F
100
AcDbEntity
  8
0
  6
Continuous
 62
     7
370
    15
100
AcDbLine
 10
4.625948508487382
 20
5.982406567255561
 30
0.0
 11
4.625948508487382
 21
6.444859519644785
 31
0.0
  0
ARC
  5
87
330
1F
100
AcDbEntity
  8
0
  6
Continuous
 62
     7
370
    15
100
AcDbCircle
 10
4.591817003203762
 20
6.396419696576831
 30
0.0
 40
0.0092176999388513
100
AcDbArc
 50
144.1263637856114
 51
245.8695583625394
  0
SPLINE
  5
88
330
1F
100
AcDbEntity
  8
0
  6
Continuous
 62
     7
370
    15
100
AcDbSpline
210
0.0
220
0.0
230
1.0
 70
     8
 71
     3
 72
     9
 73
     5
 74
     0
 42
0.0000000001
 43
0.0000000001
 40
0.0
 40
0.0
 40
0.0
 40
0.0
 40
0.5756004013635448
 40
1.0
 40
1.0
 40
1.0
 40
1.0
 10
4.502151100137885
 20
6.547046809048911
 30
0.0
 10
4.503463766100918
 20
6.542986717874788
 30
0.0
 10
4.505744282167139
 20
6.535933055013355
 30
0.0
 10
4.508672581893337
 20
6.528460409246747
 30
0.0
 10
4.509915351121823
 20
6.525289021382646
 30
0.0
  0
ARC
  5
89
330
1F
100
AcDbEntity
  8
0
  6
Continuous
 62
     7
370
    15
100
AcDbCircle
 10
4.606897495155367
 20
6.213867259321581
 30
0.0
 40
0.0092176999387827
100
AcDbArc
 50
144.1263637842451
 51
245.8695583638964
  0
LINE
  5
8A
330
1F
100
AcDbEntity
  8
0
  6
Continuous
 62
     7
370
    15
100
AcDbLine
 10
4.450586913513419
 20
7.183813506794347
 30
0.0
 11
4.452791930062564
 21
7.183222758491282
 31
0.0
  0
LINE
  5
8B
330
1F
100
AcDbEntity
  8
0
  6
Continuous
 62
     7
370
    15
100
AcDbLine
 10
4.449736495478477
 20
7.184083077496132
 30
0.0
 11
4.458429929762055
 21
7.182100940748047
 31
0.0
  0
ARC
  5
8C
330
1F
100
AcDbEntity
  8
0
  6
Continuous
 62
     7
370
    15
100
AcDbCircle
 10
4.565438063040347
 20
6.320423750918496
 30
0.0
 40
0.009217699938791
100
AcDbArc
 50
144.1263637844263
 51
245.8695583637138
  0
ARC
  5
8D
330
1F
100
AcDbEntity
  8
0
  6
Continuous
 62
     7
370
    15
100
AcDbCircle
 10
4.596261634782895
 20
6.120696544362634
 30
0.0
 40
0.0092176999388561
100
AcDbArc
 50
144.1263637857412
 51
245.869558362419
  0
ARC
  5
8E
330
1F
100
AcDbEntity
  8
0
  6
Continuous
 62
     7
370
    15
100
AcDbCircle
 10
4.550727136729736
 20
6.270192122421126
 30
0.0
 40
0.0092176999388177
100
AcDbArc
 50
144.1263637849459
 51
245.8695583632075
  0
LINE
  5
8F
330
1F
100
AcDbEntity
  8
0
  6
Continuous
 62
     7
370
    15
100
AcDbLine
 10
4.61180637286365
 20
5.966926528669934
 30
0.0
 11
4.607705153532768
 21
5.965827766685063
 31
0.0
  0
LINE
  5
90
330
1F
100
AcDbEntity
  8
0
  6
Continuous
 62
     7
370
    15
100
AcDbLine
 10
4.625948508487382
 20
5.982406567255561
 30
0.0
 11
4.61180637286365
 21
5.966926528669934
 31
0.0
  0
ARC
  5
91
330
1F
100
AcDbEntity
  8
0
  6
Continuous
 62
     7
370
    15
100
AcDbCircle
 10
4.606897495155422
 20
6.021178529159418
 30
0.0
 40
0.0092176999388318
100
AcDbArc
 50
144.1263637852236
 51
245.8695583629247
  0
ARC
  5
92
330
1F
100
AcDbEntity
  8
0
  6
Continuous
 62
     7
370
    15
100
AcDbCircle
 10
4.560492021229049
 20
6.151465180834539
 30
0.0
 40
0.0092176999387736
100
AcDbArc
 50
144.126363784056
 51
245.8695583640817
  0
ARC
  5
93
330
1F
100
AcDbEntity
  8
0
  6
Continuous
 62
     7
370
    15
100
AcDbCircle
 10
4.550727136729751
 20
6.077503392258954
 30
0.0
 40
0.0092176999388318
100
AcDbArc
 50
144.1263637852172
 51
245.8695583629443
  0
LINE
  5
94
330
1F
100
AcDbEntity
  8
0
  6
Continuous
 62
     7
370
    15
100
AcDbLine
 10
1.364987790947181
 20
6.785417853017895
 30
0.0
 11
1.621313999127304
 21
6.716745228963416
 31
0.0
  0
ARC
  5
95
330
1F
100
AcDbEntity
  8
0
  6
Continuous
 62
     7
370
    15
100
AcDbCircle
 10
1.650084789257685
 20
6.830427084898405
 30
0.0
 40
0.1172660340147569
100
AcDbArc
 50
255.7976988062914
 51
264.5718230255577
  0
ARC
  5
96
330
1F
100
AcDbEntity
  8
0
  6
Continuous
 62
     7
370
    15
100
AcDbCircle
 10
1.650084789257673
 20
6.759352793290445
 30
0.0
 40
0.117266034014655
100
AcDbArc
 50
95.42817697444187
 51
104.2023011937158
  0
LINE
  5
97
330
1F
100
AcDbEntity
  8
0
  6
Continuous
 62
     7
370
    15
100
AcDbLine
 10
1.621313999127304
 20
6.873034649225332
 30
0.0
 11
1.364987790947181
 21
6.804362025170854
 31
0.0
  0
LWPOLYLINE
  5
98
330
1F
100
AcDbEntity
  8
0
  6
Continuous
 62
     7
370
    15
100
AcDbPolyline
 90
       10
 70
   128
 43
0.0
 10
1.364987790947181
 20
6.804362025170854
 10
1.359385527792059
 20
6.802573312413806
 10
1.355027740654677
 20
6.80055114424642
 10
1.352046838692055
 20
6.798356963225199
 10
1.350533395101921
 20
6.79605743843016
 10
1.350533395101921
 20
6.793722439758588
 10
1.352046838692055
 20
6.79142291496355
 10
1.355027740654676
 20
6.789228733942328
 10
1.359385527792059
 20
6.787206565774942
 10
1.364987790947181
 20
6.785417853017895
  0
LINE
  5
99
330
1F
100
AcDbEntity
  8
0
  6
Continuous
 62
     7
370
    15
100
AcDbLine
 10
2.182580006694124
 20
6.509543346040421
 30
0.0
 11
2.200257676223787
 21
6.51427938907866
 31
0.0
  0
LINE
  5
9A
330
1F
100
AcDbEntity
  8
0
  6
Continuous
 62
     7
370
    15
100
AcDbLine
 10
1.060047991560481
 20
6.810282078968654
 30
0.0
 11
2.182580006694124
 21
6.509543346040421
 31
0.0
  0
LINE
  5
9B
330
1F
100
AcDbEntity
  8
0
  6
Continuous
 62
     7
370
    15
100
AcDbLine
 10
1.130758669679137
 20
6.829226251121615
 30
0.0
 11
1.060047991560481
 21
6.810282078968654
 31
0.0
  0
LINE
  5
9C
330
1F
100
AcDbEntity
  8
0
  6
Continuous
 62
     7
370
    15
100
AcDbLine
 10
1.130758669679137
 20
6.829226251121615
 30
0.0
 11
1.166114008738463
 21
6.819754165045134
 31
0.0
  0
ARC
  5
9D
330
1F
100
AcDbEntity
  8
0
  6
Continuous
 62
     7
370
    15
100
AcDbCircle
 10
1.201469347797791
 20
6.971570258376523
 30
0.0
 40
0.1558785623310821
100
AcDbArc
 50
256.8904673339724
 51
283.1095326660292
  0
LINE
  5
9E
330
1F
100
AcDbEntity
  8
0
  6
Continuous
 62
     7
370
    15
100
AcDbLine
 10
1.236824686857119
 20
6.819754165045134
 30
0.0
 11
1.563861573155898
 21
6.907370961252571
 31
0.0
  0
LWPOLYLINE
  5
9F
330
1F
100
AcDbEntity
  8
0
  6
Continuous
 62
     7
370
    15
100
AcDbPolyline
 90
       10
 70
   128
 43
0.0
 10
1.563861573155898
 20
6.907370961252571
 10
1.56946383631102
 20
6.90915967400962
 10
1.573821623448402
 20
6.911181842177005
 10
1.576802525411024
 20
6.913376023198227
 10
1.578315969001157
 20
6.915675547993266
 10
1.578315969001157
 20
6.918010546664838
 10
1.576802525411024
 20
6.920310071459876
 10
1.573821623448402
 20
6.922504252481098
 10
1.56946383631102
 20
6.924526420648484
 10
1.563861573155898
 20
6.926315133405532
  0
LINE
  5
A0
330
1F
100
AcDbEntity
  8
0
  6
Continuous
 62
     7
370
    15
100
AcDbLine
 10
1.563861573155898
 20
6.926315133405532
 30
0.0
 11
1.52850623409657
 21
6.935787219482011
 31
0.0
  0
LINE
  5
A1
330
1F
100
AcDbEntity
  8
0
  6
Continuous
 62
     7
370
    15
100
AcDbLine
 10
1.599216912215226
 20
6.954731391634971
 30
0.0
 11
1.52850623409657
 21
6.935787219482011
 31
0.0
  0
LINE
  5
A2
330
1F
100
AcDbEntity
  8
0
  6
Continuous
 62
     7
370
    15
100
AcDbLine
 10
1.638991668656967
 20
6.944075294798932
 30
0.0
 11
1.599216912215226
 21
6.954731391634971
 31
0.0
  0
LINE
  5
A3
330
1F
100
AcDbEntity
  8
0
  6
Continuous
 62
     7
370
    15
100
AcDbLine
 10
2.182580006694124
 20
6.509543346040421
 30
0.0
 11
2.182580006694124
 21
5.774917562297121
 31
0.0
  0
LINE
  5
A4
330
1F
100
AcDbEntity
  8
0
  6
Continuous
 62
     7
370
    15
100
AcDbLine
 10
2.182580006694124
 20
5.774917562297121
 30
0.0
 11
2.200257676223789
 21
5.779653605335361
 31
0.0
  0
LINE
  5
A5
330
1F
100
AcDbEntity
  8
0
  6
Continuous
 62
     7
370
    15
100
AcDbLine
 10
1.060047991560481
 20
6.810282078968654
 30
0.0
 11
1.060047991560481
 21
6.075656295225354
 31
0.0
  0
LINE
  5
A6
330
1F
100
AcDbEntity
  8
0
  6
Continuous
 62
     7
370
    15
100
AcDbLine
 10
1.060047991560481
 20
6.075656295225354
 30
0.0
 11
2.182580006694124
 21
5.774917562297121
 31
0.0
  0
LINE
  5
A7
330
1F
100
AcDbEntity
  8
0
  6
Continuous
 62
     7
370
    15
100
AcDbLine
 10
1.52850623409657
 20
6.897898875176092
 30
0.0
 11
1.52850623409657
 21
6.935787219482011
 31
0.0
  0
LINE
  5
A8
330
1F
100
AcDbEntity
  8
0
  6
Continuous
 62
     7
370
    15
100
AcDbLine
 10
3.954766377042906
 20
6.817552997740715
 30
0.0
 11
3.954766377042906
 21
6.566647056407338
 31
0.0
  0
LINE
  5
A9
330
1F
100
AcDbEntity
  8
0
  6
Continuous
 62
     7
370
    15
100
AcDbLine
 10
3.954766377042906
 20
6.817552997740715
 30
0.0
 11
4.123174835921373
 21
6.772434510379375
 31
0.0
  0
LINE
  5
AA
330
1F
100
AcDbEntity
  8
0
  6
Continuous
 62
     7
370
    15
100
AcDbLine
 10
4.58535709834701
 20
6.648610774298902
 30
0.0
 11
5.077298392176548
 21
6.516814264812483
 31
0.0
  0
LINE
  5
AB
330
1F
100
AcDbEntity
  8
0
  6
Continuous
 62
     7
370
    15
100
AcDbLine
 10
5.077298392176548
 20
6.516814264812483
 30
0.0
 11
5.077298392176548
 21
5.782188481069182
 31
0.0
  0
LINE
  5
AC
330
1F
100
AcDbEntity
  8
0
  6
Continuous
 62
     7
370
    15
100
AcDbLine
 10
4.012460100623745
 20
6.067470427826781
 30
0.0
 11
5.077298392176548
 21
5.782188481069182
 31
0.0
  0
LINE
  5
AD
330
1F
100
AcDbEntity
  8
0
  6
Continuous
 62
     7
370
    15
100
AcDbLine
 10
5.077298392176548
 20
6.516814264812483
 30
0.0
 11
5.148009070295204
 21
6.535758436965442
 31
0.0
  0
LINE
  5
AE
330
1F
100
AcDbEntity
  8
0
  6
Continuous
 62
     7
370
    15
100
AcDbLine
 10
5.077298392176548
 20
5.782188481069182
 30
0.0
 11
5.094976061706213
 21
5.786924524107422
 31
0.0
  0
LINE
  5
AF
330
1F
100
AcDbEntity
  8
0
  6
Continuous
 62
     7
370
    15
100
AcDbLine
 10
5.311527513444592
 20
6.686127803429558
 30
0.0
 11
5.05520130526447
 21
6.754800427484036
 31
0.0
  0
ARC
  5
B0
330
1F
100
AcDbEntity
  8
0
  6
Continuous
 62
     7
370
    15
100
AcDbCircle
 10
5.019845966205141
 20
6.602984334152644
 30
0.0
 40
0.1558785623310859
100
AcDbArc
 50
76.89046733397138
 51
103.109532666028
  0
LINE
  5
B1
330
1F
100
AcDbEntity
  8
0
  6
Continuous
 62
     7
370
    15
100
AcDbLine
 10
4.984490627145814
 20
6.754800427484036
 30
0.0
 11
4.728164418965692
 21
6.686127803429559
 31
0.0
  0
LWPOLYLINE
  5
B2
330
1F
100
AcDbEntity
  8
0
  6
Continuous
 62
     7
370
    15
100
AcDbPolyline
 90
       10
 70
   128
 43
0.0
 10
4.728164418965692
 20
6.686127803429559
 10
4.72256215581057
 20
6.68433909067251
 10
4.718204368673187
 20
6.682316922505124
 10
4.715223466710566
 20
6.680122741483903
 10
4.713710023120432
 20
6.677823216688865
 10
4.713710023120432
 20
6.675488218017292
 10
4.715223466710566
 20
6.673188693222254
 10
4.718204368673187
 20
6.670994512201032
 10
4.72256215581057
 20
6.668972344033647
 10
4.728164418965692
 20
6.667183631276599
  0
LINE
  5
B3
330
1F
100
AcDbEntity
  8
0
  6
Continuous
 62
     7
370
    15
100
AcDbLine
 10
4.728164418965692
 20
6.667183631276599
 30
0.0
 11
4.984490627145815
 21
6.59851100722212
 31
0.0
  0
ARC
  5
B4
330
1F
100
AcDbEntity
  8
0
  6
Continuous
 62
     7
370
    15
100
AcDbCircle
 10
5.019845966205143
 20
6.750327100553473
 30
0.0
 40
0.1558785623310467
100
AcDbArc
 50
256.8904673339692
 51
283.1095326660321
  0
LINE
  5
B5
330
1F
100
AcDbEntity
  8
0
  6
Continuous
 62
     7
370
    15
100
AcDbLine
 10
5.05520130526447
 20
6.59851100722212
 30
0.0
 11
5.311527513444592
 21
6.667183631276598
 31
0.0
  0
LWPOLYLINE
  5
B6
330
1F
100
AcDbEntity
  8
0
  6
Continuous
 62
     7
370
    15
100
AcDbPolyline
 90
       10
 70
   128
 43
0.0
 10
5.311527513444592
 20
6.667183631276598
 10
5.317129776599715
 20
6.668972344033647
 10
5.321487563737098
 20
6.670994512201032
 10
5.324468465699719
 20
6.673188693222254
 10
5.325981909289853
 20
6.675488218017292
 10
5.325981909289853
 20
6.677823216688865
 10
5.324468465699719
 20
6.680122741483903
 10
5.321487563737098
 20
6.682316922505124
 10
5.317129776599715
 20
6.68433909067251
 10
5.311527513444592
 20
6.686127803429558
  0
ARC
  5
B7
330
1F
100
AcDbEntity
  8
0
  6
Continuous
 62
     7
370
    15
100
AcDbCircle
 10
5.47504595659398
 20
6.499975398070954
 30
0.0
 40
0.1558785623310592
100
AcDbArc
 50
76.89046733396877
 51
103.1095326660296
  0
LINE
  5
B8
330
1F
100
AcDbEntity
  8
0
  6
Continuous
 62
     7
370
    15
100
AcDbLine
 10
5.439690617534655
 20
6.651791491402319
 30
0.0
 11
5.112653731235877
 21
6.564174695194881
 31
0.0
  0
LWPOLYLINE
  5
B9
330
1F
100
AcDbEntity
  8
0
  6
Continuous
 62
     7
370
    15
100
AcDbPolyline
 90
       10
 70
   128
 43
0.0
 10
5.112653731235877
 20
6.564174695194881
 10
5.107051468080754
 20
6.562385982437833
 10
5.102693680943371
 20
6.560363814270447
 10
5.099712778980751
 20
6.558169633249225
 10
5.098199335390617
 20
6.555870108454188
 10
5.098199335390617
 20
6.553535109782615
 10
5.099712778980751
 20
6.551235584987576
 10
5.102693680943371
 20
6.549041403966355
 10
5.107051468080754
 20
6.54701923579897
 10
5.112653731235877
 20
6.545230523041921
  0
LINE
  5
BA
330
1F
100
AcDbEntity
  8
0
  6
Continuous
 62
     7
370
    15
100
AcDbLine
 10
5.112653731235877
 20
6.545230523041921
 30
0.0
 11
5.148009070295204
 21
6.535758436965442
 31
0.0
  0
LINE
  5
BB
330
1F
100
AcDbEntity
  8
0
  6
Continuous
 62
     7
370
    15
100
AcDbLine
 10
4.025477055161561
 20
6.836497169893675
 30
0.0
 11
3.954766377042906
 21
6.817552997740715
 31
0.0
  0
LINE
  5
BC
330
1F
100
AcDbEntity
  8
0
  6
Continuous
 62
     7
370
    15
100
AcDbLine
 10
4.025477055161561
 20
6.836497169893675
 30
0.0
 11
4.060832394220888
 21
6.827025083817196
 31
0.0
  0
ARC
  5
BD
330
1F
100
AcDbEntity
  8
0
  6
Continuous
 62
     7
370
    15
100
AcDbCircle
 10
4.096187733280217
 20
6.978841177148559
 30
0.0
 40
0.1558785623310574
100
AcDbArc
 50
256.8904673339698
 51
283.1095326660305
  0
LINE
  5
BE
330
1F
100
AcDbEntity
  8
0
  6
Continuous
 62
     7
370
    15
100
AcDbLine
 10
4.131543072339542
 20
6.827025083817195
 30
0.0
 11
4.178045122068455
 21
6.839483496874015
 31
0.0
  0
LINE
  5
BF
330
1F
100
AcDbEntity
  8
0
  6
Continuous
 62
     7
370
    15
100
AcDbLine
 10
5.616467312831291
 20
6.661263577478798
 30
0.0
 11
5.05037098759181
 21
6.812927039431447
 31
0.0
  0
LINE
  5
C0
330
1F
100
AcDbEntity
  8
0
  6
Continuous
 62
     7
370
    15
100
AcDbLine
 10
5.545756634712637
 20
6.642319405325839
 30
0.0
 11
5.616467312831291
 21
6.661263577478798
 31
0.0
  0
LINE
  5
C1
330
1F
100
AcDbEntity
  8
0
  6
Continuous
 62
     7
370
    15
100
AcDbLine
 10
5.545756634712637
 20
6.642319405325839
 30
0.0
 11
5.51040129565331
 21
6.651791491402319
 31
0.0
  0
LINE
  5
C2
330
1F
100
AcDbEntity
  8
0
  6
Continuous
 62
     7
370
    15
100
AcDbLine
 10
5.616467312831291
 20
6.661263577478798
 30
0.0
 11
5.616467312831291
 21
6.651791491402319
 31
0.0
  0
LINE
  5
C3
330
1F
100
AcDbEntity
  8
0
  6
Continuous
 62
     7
370
    15
100
AcDbLine
 10
1.638991668656967
 20
7.437974635750141
 30
0.0
 11
1.638991668656967
 21
6.703348852006842
 31
0.0
  0
LINE
  5
C4
330
1F
100
AcDbEntity
  8
0
  6
Continuous
 62
     7
370
    15
100
AcDbLine
 10
1.638991668656967
 20
7.437974635750141
 30
0.0
 11
2.761523683790609
 21
7.137235902821908
 31
0.0
  0
LINE
  5
C5
330
1F
100
AcDbEntity
  8
0
  6
Continuous
 62
     7
370
    15
100
AcDbLine
 10
2.761523683790609
 20
7.137235902821908
 30
0.0
 11
2.761523683790609
 21
6.402610119078608
 31
0.0
  0
LINE
  5
C6
330
1F
100
AcDbEntity
  8
0
  6
Continuous
 62
     7
370
    15
100
AcDbLine
 10
1.638991668656967
 20
6.703348852006842
 30
0.0
 11
2.761523683790609
 21
6.402610119078608
 31
0.0
  0
LINE
  5
C7
330
1F
100
AcDbEntity
  8
0
  6
Continuous
 62
     7
370
    15
100
AcDbLine
 10
2.761523683790609
 20
7.137235902821908
 30
0.0
 11
2.832234361909265
 21
7.156180074974868
 31
0.0
  0
LINE
  5
C8
330
1F
100
AcDbEntity
  8
0
  6
Continuous
 62
     7
370
    15
100
AcDbLine
 10
2.761523683790609
 20
6.402610119078608
 30
0.0
 11
2.779201353320273
 21
6.407346162116849
 31
0.0
  0
LINE
  5
C9
330
1F
100
AcDbEntity
  8
0
  6
Continuous
 62
     7
370
    15
100
AcDbLine
 10
1.943931468043665
 20
7.413110409799382
 30
0.0
 11
2.200257676223788
 21
7.344437785744903
 31
0.0
  0
ARC
  5
CA
330
1F
100
AcDbEntity
  8
0
  6
Continuous
 62
     7
370
    15
100
AcDbCircle
 10
2.235613015283115
 20
7.496253879076302
 30
0.0
 40
0.1558785623310916
100
AcDbArc
 50
256.8904673339732
 51
283.1095326660284
  0
LINE
  5
CB
330
1F
100
AcDbEntity
  8
0
  6
Continuous
 62
     7
370
    15
100
AcDbLine
 10
2.270968354342443
 20
7.344437785744903
 30
0.0
 11
2.527294562522566
 21
7.413110409799382
 31
0.0
  0
LWPOLYLINE
  5
CC
330
1F
100
AcDbEntity
  8
0
  6
Continuous
 62
     7
370
    15
100
AcDbPolyline
 90
       10
 70
   128
 43
0.0
 10
2.527294562522566
 20
7.413110409799382
 10
2.532896825677688
 20
7.41489912255643
 10
2.537254612815071
 20
7.416921290723816
 10
2.540235514777692
 20
7.419115471745037
 10
2.541748958367826
 20
7.421414996540075
 10
2.541748958367826
 20
7.423749995211648
 10
2.540235514777693
 20
7.426049520006686
 10
2.537254612815072
 20
7.428243701027907
 10
2.532896825677689
 20
7.430265869195292
 10
2.527294562522566
 20
7.432054581952341
  0
LINE
  5
CD
330
1F
100
AcDbEntity
  8
0
  6
Continuous
 62
     7
370
    15
100
AcDbLine
 10
2.527294562522566
 20
7.432054581952341
 30
0.0
 11
2.270968354342444
 21
7.500727206006819
 31
0.0
  0
ARC
  5
CE
330
1F
100
AcDbEntity
  8
0
  6
Continuous
 62
     7
370
    15
100
AcDbCircle
 10
2.235613015283115
 20
7.348911112675412
 30
0.0
 40
0.1558785623311004
100
AcDbArc
 50
76.8904673339728
 51
103.1095326660269
  0
LINE
  5
CF
330
1F
100
AcDbEntity
  8
0
  6
Continuous
 62
     7
370
    15
100
AcDbLine
 10
2.200257676223788
 20
7.500727206006819
 30
0.0
 11
1.943931468043665
 21
7.432054581952342
 31
0.0
  0
LWPOLYLINE
  5
D0
330
1F
100
AcDbEntity
  8
0
  6
Continuous
 62
     7
370
    15
100
AcDbPolyline
 90
       10
 70
   128
 43
0.0
 10
1.943931468043665
 20
7.432054581952342
 10
1.938329204888544
 20
7.430265869195293
 10
1.933971417751161
 20
7.428243701027907
 10
1.93099051578854
 20
7.426049520006686
 10
1.929477072198405
 20
7.423749995211649
 10
1.929477072198405
 20
7.421414996540075
 10
1.930990515788539
 20
7.419115471745037
 10
1.933971417751161
 20
7.416921290723816
 10
1.938329204888543
 20
7.41489912255643
 10
1.943931468043665
 20
7.413110409799382
  0
LINE
  5
D1
330
1F
100
AcDbEntity
  8
0
  6
Continuous
 62
     7
370
    15
100
AcDbLine
 10
2.995752805058654
 20
7.306549441438984
 30
0.0
 11
2.739426596878531
 21
7.375222065493463
 31
0.0
  0
ARC
  5
D2
330
1F
100
AcDbEntity
  8
0
  6
Continuous
 62
     7
370
    15
100
AcDbCircle
 10
2.704071257819203
 20
7.223405972162026
 30
0.0
 40
0.1558785623311279
100
AcDbArc
 50
76.89046733397548
 51
103.1095326660245
  0
LINE
  5
D3
330
1F
100
AcDbEntity
  8
0
  6
Continuous
 62
     7
370
    15
100
AcDbLine
 10
2.668715918759875
 20
7.375222065493463
 30
0.0
 11
2.412389710579753
 21
7.306549441438984
 31
0.0
  0
LWPOLYLINE
  5
D4
330
1F
100
AcDbEntity
  8
0
  6
Continuous
 62
     7
370
    15
100
AcDbPolyline
 90
       10
 70
   128
 43
0.0
 10
2.412389710579753
 20
7.306549441438984
 10
2.406787447424631
 20
7.304760728681936
 10
2.402429660287248
 20
7.302738560514551
 10
2.399448758324627
 20
7.300544379493329
 10
2.397935314734493
 20
7.298244854698291
 10
2.397935314734493
 20
7.295909856026718
 10
2.399448758324627
 20
7.29361033123168
 10
2.402429660287248
 20
7.291416150210459
 10
2.406787447424632
 20
7.289393982043073
 10
2.412389710579753
 20
7.287605269286024
  0
LINE
  5
D5
330
1F
100
AcDbEntity
  8
0
  6
Continuous
 62
     7
370
    15
100
AcDbLine
 10
2.412389710579753
 20
7.287605269286024
 30
0.0
 11
2.668715918759876
 21
7.218932645231546
 31
0.0
  0
ARC
  5
D6
330
1F
100
AcDbEntity
  8
0
  6
Continuous
 62
     7
370
    15
100
AcDbCircle
 10
2.704071257819205
 20
7.370748738562959
 30
0.0
 40
0.1558785623311059
100
AcDbArc
 50
256.8904673339737
 51
283.1095326660265
  0
LINE
  5
D7
330
1F
100
AcDbEntity
  8
0
  6
Continuous
 62
     7
370
    15
100
AcDbLine
 10
2.739426596878531
 20
7.218932645231546
 30
0.0
 11
2.995752805058654
 21
7.287605269286024
 31
0.0
  0
LWPOLYLINE
  5
D8
330
1F
100
AcDbEntity
  8
0
  6
Continuous
 62
     7
370
    15
100
AcDbPolyline
 90
       10
 70
   128
 43
0.0
 10
2.995752805058654
 20
7.287605269286024
 10
3.001355068213776
 20
7.289393982043073
 10
3.005712855351159
 20
7.291416150210459
 10
3.00869375731378
 20
7.29361033123168
 10
3.010207200903914
 20
7.295909856026717
 10
3.010207200903914
 20
7.29824485469829
 10
3.00869375731378
 20
7.300544379493328
 10
3.00571285535116
 20
7.302738560514551
 10
3.001355068213776
 20
7.304760728681936
 10
2.995752805058654
 20
7.306549441438984
  0
ARC
  5
D9
330
1F
100
AcDbEntity
  8
0
  6
Continuous
 62
     7
370
    15
100
AcDbCircle
 10
3.159271248208042
 20
7.120397036080358
 30
0.0
 40
0.1558785623310796
100
AcDbArc
 50
76.89046733397119
 51
103.1095326660283
  0
LINE
  5
DA
330
1F
100
AcDbEntity
  8
0
  6
Continuous
 62
     7
370
    15
100
AcDbLine
 10
3.123915909148716
 20
7.272213129411745
 30
0.0
 11
2.796879022849938
 21
7.184596333204308
 31
0.0
  0
LWPOLYLINE
  5
DB
330
1F
100
AcDbEntity
  8
0
  6
Continuous
 62
     7
370
    15
100
AcDbPolyline
 90
       10
 70
   128
 43
0.0
 10
2.796879022849938
 20
7.184596333204308
 10
2.791276759694816
 20
7.182807620447259
 10
2.786918972557433
 20
7.180785452279874
 10
2.783938070594811
 20
7.178591271258651
 10
2.782424627004678
 20
7.176291746463613
 10
2.782424627004678
 20
7.173956747792041
 10
2.783938070594812
 20
7.171657222997002
 10
2.786918972557433
 20
7.169463041975781
 10
2.791276759694815
 20
7.167440873808397
 10
2.796879022849938
 20
7.165652161051347
  0
LINE
  5
DC
330
1F
100
AcDbEntity
  8
0
  6
Continuous
 62
     7
370
    15
100
AcDbLine
 10
2.796879022849938
 20
7.165652161051347
 30
0.0
 11
2.832234361909265
 21
7.156180074974868
 31
0.0
  0
LINE
  5
DD
330
1F
100
AcDbEntity
  8
0
  6
Continuous
 62
     7
370
    15
100
AcDbLine
 10
1.709702346775621
 20
7.4569188079031
 30
0.0
 11
1.638991668656967
 21
7.437974635750141
 31
0.0
  0
LINE
  5
DE
330
1F
100
AcDbEntity
  8
0
  6
Continuous
 62
     7
370
    15
100
AcDbLine
 10
1.709702346775621
 20
7.4569188079031
 30
0.0
 11
1.745057685834949
 21
7.447446721826621
 31
0.0
  0
ARC
  5
DF
330
1F
100
AcDbEntity
  8
0
  6
Continuous
 62
     7
370
    15
100
AcDbCircle
 10
1.780413024894277
 20
7.599262815157974
 30
0.0
 40
0.1558785623310466
100
AcDbArc
 50
256.8904673339693
 51
283.1095326660322
  0
LINE
  5
E0
330
1F
100
AcDbEntity
  8
0
  6
Continuous
 62
     7
370
    15
100
AcDbLine
 10
1.815768363953604
 20
7.447446721826621
 30
0.0
 11
2.142805250252382
 21
7.535063518034059
 31
0.0
  0
LWPOLYLINE
  5
E1
330
1F
100
AcDbEntity
  8
0
  6
Continuous
 62
     7
370
    15
100
AcDbPolyline
 90
       10
 70
   128
 43
0.0
 10
2.142805250252382
 20
7.535063518034059
 10
2.148407513407505
 20
7.536852230791107
 10
2.152765300544887
 20
7.538874398958492
 10
2.155746202507508
 20
7.541068579979715
 10
2.157259646097643
 20
7.543368104774753
 10
2.157259646097642
 20
7.545703103446325
 10
2.155746202507509
 20
7.548002628241363
 10
2.152765300544887
 20
7.550196809262585
 10
2.148407513407504
 20
7.552218977429969
 10
2.142805250252382
 20
7.554007690187019
  0
LINE
  5
E2
330
1F
100
AcDbEntity
  8
0
  6
Continuous
 62
     7
370
    15
100
AcDbLine
 10
2.142805250252382
 20
7.554007690187019
 30
0.0
 11
2.107449911193056
 21
7.563479776263497
 31
0.0
  0
LINE
  5
E3
330
1F
100
AcDbEntity
  8
0
  6
Continuous
 62
     7
370
    15
100
AcDbLine
 10
2.17816058931171
 20
7.582423948416457
 30
0.0
 11
2.107449911193056
 21
7.563479776263497
 31
0.0
  0
LINE
  5
E4
330
1F
100
AcDbEntity
  8
0
  6
Continuous
 62
     7
370
    15
100
AcDbLine
 10
3.300692604445353
 20
7.281685215488225
 30
0.0
 11
2.17816058931171
 21
7.582423948416457
 31
0.0
  0
LINE
  5
E5
330
1F
100
AcDbEntity
  8
0
  6
Continuous
 62
     7
370
    15
100
AcDbLine
 10
3.229981926326698
 20
7.262741043335265
 30
0.0
 11
3.300692604445353
 21
7.281685215488225
 31
0.0
  0
LINE
  5
E6
330
1F
100
AcDbEntity
  8
0
  6
Continuous
 62
     7
370
    15
100
AcDbLine
 10
3.229981926326698
 20
7.262741043335265
 30
0.0
 11
3.194626587267371
 21
7.272213129411745
 31
0.0
  0
LINE
  5
E7
330
1F
100
AcDbEntity
  8
0
  6
Continuous
 62
     7
370
    15
100
AcDbLine
 10
3.300692604445353
 20
7.281685215488225
 30
0.0
 11
3.300692604445353
 21
7.272213129411745
 31
0.0
  0
LINE
  5
E8
330
1F
100
AcDbEntity
  8
0
  6
Continuous
 62
     7
370
    15
100
AcDbLine
 10
6.235185746369518
 20
6.206603445807768
 30
0.0
 11
6.235185746369518
 21
5.471977662064469
 31
0.0
  0
LINE
  5
E9
330
1F
100
AcDbEntity
  8
0
  6
Continuous
 62
     7
370
    15
100
AcDbLine
 10
6.235185746369518
 20
6.206603445807768
 30
0.0
 11
6.305896424488173
 21
6.225547617960728
 31
0.0
  0
LINE
  5
EA
330
1F
100
AcDbEntity
  8
0
  6
Continuous
 62
     7
370
    15
100
AcDbLine
 10
6.305896424488173
 20
5.490921834217429
 30
0.0
 11
6.305896424488173
 21
6.225547617960728
 31
0.0
  0
LINE
  5
EB
330
1F
100
AcDbEntity
  8
0
  6
Continuous
 62
     7
370
    15
100
AcDbLine
 10
6.235185746369518
 20
5.471977662064469
 30
0.0
 11
6.305896424488173
 21
5.490921834217429
 31
0.0
  0
LINE
  5
EC
330
1F
100
AcDbEntity
  8
0
  6
Continuous
 62
     7
370
    15
100
AcDbLine
 10
5.417593530622574
 20
6.482477952785243
 30
0.0
 11
5.673919738802696
 21
6.413805328730764
 31
0.0
  0
ARC
  5
ED
330
1F
100
AcDbEntity
  8
0
  6
Continuous
 62
     7
370
    15
100
AcDbCircle
 10
5.709275077862025
 20
6.565621422062155
 30
0.0
 40
0.1558785623310839
100
AcDbArc
 50
256.8904673339724
 51
283.1095326660289
  0
LINE
  5
EE
330
1F
100
AcDbEntity
  8
0
  6
Continuous
 62
     7
370
    15
100
AcDbLine
 10
5.744630416921352
 20
6.413805328730764
 30
0.0
 11
6.000956625101475
 21
6.482477952785242
 31
0.0
  0
LWPOLYLINE
  5
EF
330
1F
100
AcDbEntity
  8
0
  6
Continuous
 62
     7
370
    15
100
AcDbPolyline
 90
       10
 70
   128
 43
0.0
 10
6.000956625101475
 20
6.482477952785242
 10
6.006558888256598
 20
6.484266665542291
 10
6.010916675393979
 20
6.486288833709675
 10
6.013897577356601
 20
6.488483014730897
 10
6.015411020946735
 20
6.490782539525936
 10
6.015411020946735
 20
6.493117538197509
 10
6.013897577356601
 20
6.495417062992547
 10
6.010916675393979
 20
6.497611244013769
 10
6.006558888256598
 20
6.499633412181153
 10
6.000956625101475
 20
6.501422124938202
  0
LINE
  5
F0
330
1F
100
AcDbEntity
  8
0
  6
Continuous
 62
     7
370
    15
100
AcDbLine
 10
6.000956625101475
 20
6.501422124938202
 30
0.0
 11
5.744630416921353
 21
6.57009474899268
 31
0.0
  0
ARC
  5
F1
330
1F
100
AcDbEntity
  8
0
  6
Continuous
 62
     7
370
    15
100
AcDbCircle
 10
5.709275077862025
 20
6.418278655661321
 30
0.0
 40
0.1558785623310528
100
AcDbArc
 50
76.89046733396889
 51
103.1095326660311
  0
LINE
  5
F2
330
1F
100
AcDbEntity
  8
0
  6
Continuous
 62
     7
370
    15
100
AcDbLine
 10
5.673919738802696
 20
6.57009474899268
 30
0.0
 11
5.417593530622575
 21
6.501422124938202
 31
0.0
  0
LWPOLYLINE
  5
F3
330
1F
100
AcDbEntity
  8
0
  6
Continuous
 62
     7
370
    15
100
AcDbPolyline
 90
       10
 70
   128
 43
0.0
 10
5.417593530622575
 20
6.501422124938202
 10
5.411991267467453
 20
6.499633412181154
 10
5.407633480330069
 20
6.497611244013769
 10
5.404652578367448
 20
6.495417062992547
 10
5.403139134777315
 20
6.493117538197509
 10
5.403139134777315
 20
6.490782539525936
 10
5.404652578367448
 20
6.488483014730897
 10
5.407633480330069
 20
6.486288833709676
 10
5.411991267467453
 20
6.484266665542292
 10
5.417593530622574
 20
6.482477952785243
  0
LINE
  5
F4
330
1F
100
AcDbEntity
  8
0
  6
Continuous
 62
     7
370
    15
100
AcDbLine
 10
6.469414867637562
 20
6.375916984424845
 30
0.0
 11
6.21308865945744
 21
6.444589608479323
 31
0.0
  0
ARC
  5
F5
330
1F
100
AcDbEntity
  8
0
  6
Continuous
 62
     7
370
    15
100
AcDbCircle
 10
6.177733320398112
 20
6.292773515147932
 30
0.0
 40
0.1558785623310839
100
AcDbArc
 50
76.89046733397155
 51
103.1095326660284
  0
LINE
  5
F6
330
1F
100
AcDbEntity
  8
0
  6
Continuous
 62
     7
370
    15
100
AcDbLine
 10
6.142377981338784
 20
6.444589608479323
 30
0.0
 11
5.886051773158661
 21
6.375916984424845
 31
0.0
  0
LWPOLYLINE
  5
F7
330
1F
100
AcDbEntity
  8
0
  6
Continuous
 62
     7
370
    15
100
AcDbPolyline
 90
       10
 70
   128
 43
0.0
 10
5.886051773158661
 20
6.375916984424845
 10
5.88044951000354
 20
6.374128271667796
 10
5.876091722866157
 20
6.372106103500412
 10
5.873110820903535
 20
6.36991192247919
 10
5.871597377313402
 20
6.367612397684152
 10
5.871597377313402
 20
6.36527739901258
 10
5.873110820903535
 20
6.362977874217541
 10
5.876091722866157
 20
6.360783693196318
 10
5.88044951000354
 20
6.358761525028934
 10
5.886051773158661
 20
6.356972812271886
  0
LINE
  5
F8
330
1F
100
AcDbEntity
  8
0
  6
Continuous
 62
     7
370
    15
100
AcDbLine
 10
5.886051773158661
 20
6.356972812271886
 30
0.0
 11
6.142377981338785
 21
6.288300188217407
 31
0.0
  0
ARC
  5
F9
330
1F
100
AcDbEntity
  8
0
  6
Continuous
 62
     7
370
    15
100
AcDbCircle
 10
6.177733320398112
 20
6.440116281548796
 30
0.0
 40
0.1558785623310822
100
AcDbArc
 50
256.8904673339726
 51
283.1095326660294
  0
LINE
  5
FA
330
1F
100
AcDbEntity
  8
0
  6
Continuous
 62
     7
370
    15
100
AcDbLine
 10
6.21308865945744
 20
6.288300188217407
 30
0.0
 11
6.469414867637562
 21
6.356972812271886
 31
0.0
  0
LWPOLYLINE
  5
FB
330
1F
100
AcDbEntity
  8
0
  6
Continuous
 62
     7
370
    15
100
AcDbPolyline
 90
       10
 70
   128
 43
0.0
 10
6.469414867637562
 20
6.356972812271886
 10
6.475017130792685
 20
6.358761525028934
 10
6.479374917930067
 20
6.360783693196318
 10
6.482355819892689
 20
6.36297787421754
 10
6.483869263482823
 20
6.365277399012578
 10
6.483869263482823
 20
6.367612397684152
 10
6.482355819892689
 20
6.36991192247919
 10
6.479374917930067
 20
6.372106103500411
 10
6.475017130792685
 20
6.374128271667796
 10
6.469414867637562
 20
6.375916984424845
  0
ARC
  5
FC
330
1F
100
AcDbEntity
  8
0
  6
Continuous
 62
     7
370
    15
100
AcDbCircle
 10
6.632933310786953
 20
6.189764579066189
 30
0.0
 40
0.155878562331109
100
AcDbArc
 50
76.89046733397401
 51
103.1095326660263
  0
LINE
  5
FD
330
1F
100
AcDbEntity
  8
0
  6
Continuous
 62
     7
370
    15
100
AcDbLine
 10
6.597577971727624
 20
6.341580672397606
 30
0.0
 11
6.270541085428846
 21
6.253963876190168
 31
0.0
  0
LWPOLYLINE
  5
FE
330
1F
100
AcDbEntity
  8
0
  6
Continuous
 62
     7
370
    15
100
AcDbPolyline
 90
       10
 70
   128
 43
0.0
 10
6.270541085428846
 20
6.253963876190168
 10
6.264938822273723
 20
6.252175163433119
 10
6.260581035136342
 20
6.250152995265734
 10
6.25760013317372
 20
6.247958814244513
 10
6.256086689583587
 20
6.245659289449474
 10
6.256086689583587
 20
6.243324290777902
 10
6.25760013317372
 20
6.241024765982864
 10
6.260581035136341
 20
6.238830584961642
 10
6.264938822273723
 20
6.236808416794256
 10
6.270541085428846
 20
6.235019704037208
  0
LINE
  5
FF
330
1F
100
AcDbEntity
  8
0
  6
Continuous
 62
     7
370
    15
100
AcDbLine
 10
6.270541085428846
 20
6.235019704037208
 30
0.0
 11
6.305896424488173
 21
6.225547617960728
 31
0.0
  0
LINE
  5
100
330
1F
100
AcDbEntity
  8
0
  6
Continuous
 62
     7
370
    15
100
AcDbLine
 10
5.112653731235876
 20
6.507342178736002
 30
0.0
 11
6.235185746369518
 21
6.206603445807768
 31
0.0
  0
LINE
  5
101
330
1F
100
AcDbEntity
  8
0
  6
Continuous
 62
     7
370
    15
100
AcDbLine
 10
5.18336440935453
 20
6.526286350888962
 30
0.0
 11
5.112653731235876
 21
6.507342178736002
 31
0.0
  0
LINE
  5
102
330
1F
100
AcDbEntity
  8
0
  6
Continuous
 62
     7
370
    15
100
AcDbLine
 10
5.18336440935453
 20
6.526286350888962
 30
0.0
 11
5.218719748413857
 21
6.516814264812483
 31
0.0
  0
ARC
  5
103
330
1F
100
AcDbEntity
  8
0
  6
Continuous
 62
     7
370
    15
100
AcDbCircle
 10
5.254075087473185
 20
6.668630358143835
 30
0.0
 40
0.1558785623310467
100
AcDbArc
 50
256.8904673339692
 51
283.1095326660321
  0
LINE
  5
104
330
1F
100
AcDbEntity
  8
0
  6
Continuous
 62
     7
370
    15
100
AcDbLine
 10
5.289430426532512
 20
6.516814264812483
 30
0.0
 11
5.616467312831291
 21
6.604431061019919
 31
0.0
  0
LWPOLYLINE
  5
105
330
1F
100
AcDbEntity
  8
0
  6
Continuous
 62
     7
370
    15
100
AcDbPolyline
 90
       10
 70
   128
 43
0.0
 10
5.616467312831291
 20
6.604431061019919
 10
5.622069575986413
 20
6.606219773776968
 10
5.626427363123796
 20
6.608241941944354
 10
5.629408265086418
 20
6.610436122965575
 10
5.630921708676551
 20
6.612735647760612
 10
5.630921708676551
 20
6.615070646432186
 10
5.629408265086418
 20
6.617370171227223
 10
5.626427363123796
 20
6.619564352248446
 10
5.622069575986413
 20
6.621586520415831
 10
5.616467312831291
 20
6.623375233172879
  0
LINE
  5
106
330
1F
100
AcDbEntity
  8
0
  6
Continuous
 62
     7
370
    15
100
AcDbLine
 10
5.616467312831291
 20
6.623375233172879
 30
0.0
 11
5.581111973771964
 21
6.632847319249359
 31
0.0
  0
LINE
  5
107
330
1F
100
AcDbEntity
  8
0
  6
Continuous
 62
     7
370
    15
100
AcDbLine
 10
5.651822651890618
 20
6.651791491402319
 30
0.0
 11
5.581111973771964
 21
6.632847319249359
 31
0.0
  0
LINE
  5
108
330
1F
100
AcDbEntity
  8
0
  6
Continuous
 62
     7
370
    15
100
AcDbLine
 10
6.774354667024261
 20
6.351052758474085
 30
0.0
 11
5.651822651890618
 21
6.651791491402319
 31
0.0
  0
LINE
  5
109
330
1F
100
AcDbEntity
  8
0
  6
Continuous
 62
     7
370
    15
100
AcDbLine
 10
6.703643988905606
 20
6.332108586321126
 30
0.0
 11
6.774354667024261
 21
6.351052758474085
 31
0.0
  0
LINE
  5
10A
330
1F
100
AcDbEntity
  8
0
  6
Continuous
 62
     7
370
    15
100
AcDbLine
 10
6.703643988905606
 20
6.332108586321126
 30
0.0
 11
6.66828864984628
 21
6.341580672397606
 31
0.0
  0
LINE
  5
10B
330
1F
100
AcDbEntity
  8
0
  6
Continuous
 62
     7
370
    15
100
AcDbLine
 10
5.112653731235876
 20
6.507342178736002
 30
0.0
 11
5.112653731235876
 21
5.772716394992703
 31
0.0
  0
LINE
  5
10C
330
1F
100
AcDbEntity
  8
0
  6
Continuous
 62
     7
370
    15
100
AcDbLine
 10
5.112653731235876
 20
5.772716394992703
 30
0.0
 11
6.235185746369518
 21
5.471977662064469
 31
0.0
  0
LINE
  5
10D
330
1F
100
AcDbEntity
  8
0
  6
Continuous
 62
     7
370
    15
100
AcDbLine
 10
6.774354667024261
 20
6.351052758474085
 30
0.0
 11
6.774354667024261
 21
5.616426974730785
 31
0.0
  0
LINE
  5
10E
330
1F
100
AcDbEntity
  8
0
  6
Continuous
 62
     7
370
    15
100
AcDbLine
 10
6.704704649077386
 20
5.59776696516012
 30
0.0
 11
6.774354667024261
 21
5.616426974730785
 31
0.0
  0
LINE
  5
10F
330
1F
100
AcDbEntity
  8
0
  6
Continuous
 62
     7
370
    15
100
AcDbLine
 10
5.581111973771964
 20
6.63227899408477
 30
0.0
 11
5.581111973771964
 21
6.632847319249359
 31
0.0
  0
LINE
  5
110
330
1F
100
AcDbEntity
  8
0
  6
Continuous
 62
     7
370
    15
100
AcDbLine
 10
3.375822699946421
 20
6.189860440959227
 30
0.0
 11
3.375822699946421
 21
5.859204294349452
 31
0.0
  0
LINE
  5
111
330
1F
100
AcDbEntity
  8
0
  6
Continuous
 62
     7
370
    15
100
AcDbLine
 10
3.375822699946421
 20
6.189860440959227
 30
0.0
 11
3.597759620903012
 21
6.130401087017744
 31
0.0
  0
LINE
  5
112
330
1F
100
AcDbEntity
  8
0
  6
Continuous
 62
     7
370
    15
100
AcDbLine
 10
3.980126856622615
 20
6.027960678696833
 30
0.0
 11
4.498354715080063
 21
5.889121708030994
 31
0.0
  0
LINE
  5
113
330
1F
100
AcDbEntity
  8
0
  6
Continuous
 62
     7
370
    15
100
AcDbLine
 10
4.498354715080063
 20
5.889121708030994
 30
0.0
 11
4.498354715080063
 21
5.154495924287695
 31
0.0
  0
LINE
  5
114
330
1F
100
AcDbEntity
  8
0
  6
Continuous
 62
     7
370
    15
100
AcDbLine
 10
3.487044885605385
 20
5.425437004465147
 30
0.0
 11
4.498354715080063
 21
5.154495924287695
 31
0.0
  0
LINE
  5
115
330
1F
100
AcDbEntity
  8
0
  6
Continuous
 62
     7
370
    15
100
AcDbLine
 10
4.498354715080063
 20
5.889121708030994
 30
0.0
 11
4.516032384609728
 21
5.893857751069234
 31
0.0
  0
LINE
  5
116
330
1F
100
AcDbEntity
  8
0
  6
Continuous
 62
     7
370
    15
100
AcDbLine
 10
4.498354715080063
 20
5.154495924287695
 30
0.0
 11
4.516032384609729
 21
5.159231967325935
 31
0.0
  0
LINE
  5
117
330
1F
100
AcDbEntity
  8
0
  6
Continuous
 62
     7
370
    15
100
AcDbLine
 10
3.393500369476085
 20
6.194596483997467
 30
0.0
 11
3.375822699946421
 21
6.189860440959227
 31
0.0
  0
LINE
  5
118
330
1F
100
AcDbEntity
  8
0
  6
Continuous
 62
     7
370
    15
100
AcDbLine
 10
2.796879022849937
 20
7.127763816745429
 30
0.0
 11
2.796879022849937
 21
6.393138033002129
 31
0.0
  0
LINE
  5
119
330
1F
100
AcDbEntity
  8
0
  6
Continuous
 62
     7
370
    15
100
AcDbLine
 10
2.796879022849937
 20
7.127763816745429
 30
0.0
 11
3.919411037983579
 21
6.827025083817195
 31
0.0
  0
LINE
  5
11A
330
1F
100
AcDbEntity
  8
0
  6
Continuous
 62
     7
370
    15
100
AcDbLine
 10
3.919411037983579
 20
6.827025083817195
 30
0.0
 11
3.919411037983579
 21
6.523444444983957
 31
0.0
  0
LINE
  5
11B
330
1F
100
AcDbEntity
  8
0
  6
Continuous
 62
     7
370
    15
100
AcDbLine
 10
2.796879022849937
 20
6.393138033002129
 30
0.0
 11
3.630092864904142
 21
6.169910836147691
 31
0.0
  0
LINE
  5
11C
330
1F
100
AcDbEntity
  8
0
  6
Continuous
 62
     7
370
    15
100
AcDbLine
 10
3.101818822236635
 20
7.102899590794669
 30
0.0
 11
3.358145030416757
 21
7.034226966740191
 31
0.0
  0
ARC
  5
11D
330
1F
100
AcDbEntity
  8
0
  6
Continuous
 62
     7
370
    15
100
AcDbCircle
 10
3.393500369476084
 20
7.186043060071568
 30
0.0
 40
0.155878562331071
100
AcDbArc
 50
256.8904673339718
 51
283.1095326660305
  0
LINE
  5
11E
330
1F
100
AcDbEntity
  8
0
  6
Continuous
 62
     7
370
    15
100
AcDbLine
 10
3.428855708535413
 20
7.034226966740191
 30
0.0
 11
3.685181916715536
 21
7.102899590794669
 31
0.0
  0
LWPOLYLINE
  5
11F
330
1F
100
AcDbEntity
  8
0
  6
Continuous
 62
     7
370
    15
100
AcDbPolyline
 90
       10
 70
   128
 43
0.0
 10
3.685181916715536
 20
7.102899590794669
 10
3.690784179870658
 20
7.104688303551717
 10
3.695141967008042
 20
7.106710471719101
 10
3.698122868970662
 20
7.108904652740323
 10
3.699636312560796
 20
7.111204177535363
 10
3.699636312560796
 20
7.113539176206935
 10
3.698122868970662
 20
7.115838701001973
 10
3.695141967008042
 20
7.118032882023195
 10
3.690784179870659
 20
7.12005505019058
 10
3.685181916715536
 20
7.121843762947628
  0
LINE
  5
120
330
1F
100
AcDbEntity
  8
0
  6
Continuous
 62
     7
370
    15
100
AcDbLine
 10
3.685181916715536
 20
7.121843762947628
 30
0.0
 11
3.428855708535413
 21
7.190516387002107
 31
0.0
  0
ARC
  5
121
330
1F
100
AcDbEntity
  8
0
  6
Continuous
 62
     7
370
    15
100
AcDbCircle
 10
3.393500369476086
 20
7.038700293670705
 30
0.0
 40
0.1558785623310951
100
AcDbArc
 50
76.89046733397266
 51
103.1095326660273
  0
LINE
  5
122
330
1F
100
AcDbEntity
  8
0
  6
Continuous
 62
     7
370
    15
100
AcDbLine
 10
3.358145030416758
 20
7.190516387002107
 30
0.0
 11
3.101818822236635
 21
7.121843762947629
 31
0.0
  0
LWPOLYLINE
  5
123
330
1F
100
AcDbEntity
  8
0
  6
Continuous
 62
     7
370
    15
100
AcDbPolyline
 90
       10
 70
   128
 43
0.0
 10
3.101818822236635
 20
7.121843762947629
 10
3.096216559081513
 20
7.120055050190581
 10
3.09185877194413
 20
7.118032882023195
 10
3.088877869981509
 20
7.115838701001973
 10
3.087364426391375
 20
7.113539176206935
 10
3.087364426391375
 20
7.111204177535363
 10
3.088877869981509
 20
7.108904652740324
 10
3.09185877194413
 20
7.106710471719103
 10
3.096216559081513
 20
7.104688303551717
 10
3.101818822236635
 20
7.102899590794669
  0
LINE
  5
124
330
1F
100
AcDbEntity
  8
0
  6
Continuous
 62
     7
370
    15
100
AcDbLine
 10
4.153640159251623
 20
6.996338622434271
 30
0.0
 11
3.897313951071501
 21
7.065011246488749
 31
0.0
  0
ARC
  5
125
330
1F
100
AcDbEntity
  8
0
  6
Continuous
 62
     7
370
    15
100
AcDbCircle
 10
3.861958612012171
 20
6.913195153157336
 30
0.0
 40
0.1558785623311059
100
AcDbArc
 50
76.89046733397276
 51
103.1095326660256
  0
LINE
  5
126
330
1F
100
AcDbEntity
  8
0
  6
Continuous
 62
     7
370
    15
100
AcDbLine
 10
3.826603272952845
 20
7.06501124648875
 30
0.0
 11
3.570277064772723
 21
6.996338622434271
 31
0.0
  0
LWPOLYLINE
  5
127
330
1F
100
AcDbEntity
  8
0
  6
Continuous
 62
     7
370
    15
100
AcDbPolyline
 90
       10
 70
   128
 43
0.0
 10
3.570277064772723
 20
6.996338622434271
 10
3.5646748016176
 20
6.994549909677223
 10
3.560317014480218
 20
6.992527741509837
 10
3.557336112517596
 20
6.990333560488616
 10
3.555822668927462
 20
6.988034035693578
 10
3.555822668927462
 20
6.985699037022006
 10
3.557336112517596
 20
6.983399512226967
 10
3.560317014480218
 20
6.981205331205746
 10
3.564674801617601
 20
6.97918316303836
 10
3.570277064772722
 20
6.977394450281312
  0
LINE
  5
128
330
1F
100
AcDbEntity
  8
0
  6
Continuous
 62
     7
370
    15
100
AcDbLine
 10
3.570277064772722
 20
6.977394450281312
 30
0.0
 11
3.826603272952846
 21
6.908721826226833
 31
0.0
  0
ARC
  5
129
330
1F
100
AcDbEntity
  8
0
  6
Continuous
 62
     7
370
    15
100
AcDbCircle
 10
3.861958612012173
 20
7.060537919558266
 30
0.0
 40
0.1558785623311254
100
AcDbArc
 50
256.8904673339762
 51
283.1095326660255
  0
LINE
  5
12A
330
1F
100
AcDbEntity
  8
0
  6
Continuous
 62
     7
370
    15
100
AcDbLine
 10
3.897313951071501
 20
6.908721826226833
 30
0.0
 11
4.153640159251623
 21
6.977394450281312
 31
0.0
  0
LWPOLYLINE
  5
12B
330
1F
100
AcDbEntity
  8
0
  6
Continuous
 62
     7
370
    15
100
AcDbPolyline
 90
       10
 70
   128
 43
0.0
 10
4.153640159251623
 20
6.977394450281312
 10
4.159242422406746
 20
6.97918316303836
 10
4.163600209544129
 20
6.981205331205745
 10
4.16658111150675
 20
6.983399512226966
 10
4.168094555096883
 20
6.985699037022005
 10
4.168094555096883
 20
6.988034035693578
 10
4.16658111150675
 20
6.990333560488616
 10
4.163600209544129
 20
6.992527741509837
 10
4.159242422406745
 20
6.994549909677223
 10
4.153640159251623
 20
6.996338622434271
  0
LINE
  5
12C
330
1F
100
AcDbEntity
  8
0
  6
Continuous
 62
     7
370
    15
100
AcDbLine
 10
4.277328726871195
 20
6.960803532634608
 30
0.0
 11
3.954766377042908
 21
6.874385514199594
 31
0.0
  0
LWPOLYLINE
  5
12D
330
1F
100
AcDbEntity
  8
0
  6
Continuous
 62
     7
370
    15
100
AcDbPolyline
 90
       10
 70
   128
 43
0.0
 10
3.954766377042908
 20
6.874385514199594
 10
3.949164113887785
 20
6.872596801442546
 10
3.944806326750402
 20
6.870574633275161
 10
3.941825424787781
 20
6.868380452253939
 10
3.940311981197647
 20
6.8660809274589
 10
3.940311981197647
 20
6.863745928787328
 10
3.941825424787781
 20
6.86144640399229
 10
3.944806326750402
 20
6.859252222971068
 10
3.949164113887785
 20
6.857230054803682
 10
3.954766377042908
 20
6.855441342046634
  0
LINE
  5
12E
330
1F
100
AcDbEntity
  8
0
  6
Continuous
 62
     7
370
    15
100
AcDbLine
 10
3.954766377042908
 20
6.855441342046634
 30
0.0
 11
3.990121716102235
 21
6.845969255970155
 31
0.0
  0
LINE
  5
12F
330
1F
100
AcDbEntity
  8
0
  6
Continuous
 62
     7
370
    15
100
AcDbLine
 10
3.919411037983579
 20
6.827025083817195
 30
0.0
 11
3.990121716102235
 21
6.845969255970155
 31
0.0
  0
LINE
  5
130
330
1F
100
AcDbEntity
  8
0
  6
Continuous
 62
     7
370
    15
100
AcDbLine
 10
2.867589700968591
 20
7.146707988898388
 30
0.0
 11
2.796879022849937
 21
7.127763816745429
 31
0.0
  0
LINE
  5
131
330
1F
100
AcDbEntity
  8
0
  6
Continuous
 62
     7
370
    15
100
AcDbLine
 10
2.867589700968591
 20
7.146707988898388
 30
0.0
 11
2.902945040027919
 21
7.137235902821909
 31
0.0
  0
ARC
  5
132
330
1F
100
AcDbEntity
  8
0
  6
Continuous
 62
     7
370
    15
100
AcDbCircle
 10
2.938300379087248
 20
7.289051996153273
 30
0.0
 40
0.1558785623310582
100
AcDbArc
 50
256.8904673339698
 51
283.1095326660305
  0
LINE
  5
133
330
1F
100
AcDbEntity
  8
0
  6
Continuous
 62
     7
370
    15
100
AcDbLine
 10
2.973655718146574
 20
7.137235902821908
 30
0.0
 11
3.300692604445352
 21
7.224852699029346
 31
0.0
  0
LWPOLYLINE
  5
134
330
1F
100
AcDbEntity
  8
0
  6
Continuous
 62
     7
370
    15
100
AcDbPolyline
 90
       10
 70
   128
 43
0.0
 10
3.300692604445352
 20
7.224852699029346
 10
3.306294867600474
 20
7.226641411786395
 10
3.310652654737857
 20
7.22866357995378
 10
3.313633556700478
 20
7.230857760975002
 10
3.315147000290612
 20
7.233157285770039
 10
3.315147000290612
 20
7.235492284441612
 10
3.313633556700479
 20
7.23779180923665
 10
3.310652654737858
 20
7.239985990257872
 10
3.306294867600475
 20
7.242008158425257
 10
3.300692604445352
 20
7.243796871182306
  0
LINE
  5
135
330
1F
100
AcDbEntity
  8
0
  6
Continuous
 62
     7
370
    15
100
AcDbLine
 10
3.300692604445352
 20
7.243796871182306
 30
0.0
 11
3.265337265386025
 21
7.253268957258786
 31
0.0
  0
LINE
  5
136
330
1F
100
AcDbEntity
  8
0
  6
Continuous
 62
     7
370
    15
100
AcDbLine
 10
3.33604794350468
 20
7.272213129411745
 30
0.0
 11
3.265337265386025
 21
7.253268957258786
 31
0.0
  0
LINE
  5
137
330
1F
100
AcDbEntity
  8
0
  6
Continuous
 62
     7
370
    15
100
AcDbLine
 10
4.317084043514554
 20
7.009382715939128
 30
0.0
 11
3.33604794350468
 21
7.272213129411745
 31
0.0
  0
LINE
  5
138
330
1F
100
AcDbEntity
  8
0
  6
Continuous
 62
     7
370
    15
100
AcDbLine
 10
3.265337265386025
 20
7.253079515537256
 30
0.0
 11
3.265337265386025
 21
7.253268957258786
 31
0.0
  0
LINE
  5
139
330
1F
100
AcDbEntity
  8
0
  6
Continuous
 62
     7
370
    15
100
AcDbLine
 10
4.533710054139391
 20
5.879649621954515
 30
0.0
 11
4.533710054139391
 21
5.145023838211214
 31
0.0
  0
LINE
  5
13A
330
1F
100
AcDbEntity
  8
0
  6
Continuous
 62
     7
370
    15
100
AcDbLine
 10
4.533710054139391
 20
5.879649621954515
 30
0.0
 11
5.656242069273033
 21
5.578910889026281
 31
0.0
  0
LINE
  5
13B
330
1F
100
AcDbEntity
  8
0
  6
Continuous
 62
     7
370
    15
100
AcDbLine
 10
5.656242069273033
 20
5.578910889026281
 30
0.0
 11
5.656242069273033
 21
4.844285105282981
 31
0.0
  0
LINE
  5
13C
330
1F
100
AcDbEntity
  8
0
  6
Continuous
 62
     7
370
    15
100
AcDbLine
 10
4.533710054139391
 20
5.145023838211214
 30
0.0
 11
5.656242069273033
 21
4.844285105282981
 31
0.0
  0
LINE
  5
13D
330
1F
100
AcDbEntity
  8
0
  6
Continuous
 62
     7
370
    15
100
AcDbLine
 10
5.656242069273033
 20
5.578910889026281
 30
0.0
 11
5.726952747391688
 21
5.597855061179241
 31
0.0
  0
LINE
  5
13E
330
1F
100
AcDbEntity
  8
0
  6
Continuous
 62
     7
370
    15
100
AcDbLine
 10
5.726952747391688
 20
4.863229277435941
 30
0.0
 11
5.726952747391688
 21
5.597855061179241
 31
0.0
  0
LINE
  5
13F
330
1F
100
AcDbEntity
  8
0
  6
Continuous
 62
     7
370
    15
100
AcDbLine
 10
5.656242069273033
 20
4.844285105282981
 30
0.0
 11
5.726952747391688
 21
4.863229277435941
 31
0.0
  0
LINE
  5
140
330
1F
100
AcDbEntity
  8
0
  6
Continuous
 62
     7
370
    15
100
AcDbLine
 10
4.551387723669055
 20
5.884385664992755
 30
0.0
 11
4.533710054139391
 21
5.879649621954515
 31
0.0
  0
LINE
  5
141
330
1F
100
AcDbEntity
  8
0
  6
Continuous
 62
     7
370
    15
100
AcDbLine
 10
6.018634294631139
 20
4.979262331872818
 30
0.0
 11
5.726952747391688
 21
4.90111762174186
 31
0.0
  0
ARC
  5
142
330
1F
100
AcDbEntity
  8
0
  6
Continuous
 62
     7
370
    15
100
AcDbCircle
 10
6.053989633690467
 20
4.827446238541429
 30
0.0
 40
0.1558785623310822
100
AcDbArc
 50
76.89046733397171
 51
103.1095326660286
  0
LINE
  5
143
330
1F
100
AcDbEntity
  8
0
  6
Continuous
 62
     7
370
    15
100
AcDbLine
 10
6.195410989927776
 20
5.482633758900508
 30
0.0
 11
6.195410989927776
 21
4.988734417949298
 31
0.0
  0
LINE
  5
144
330
1F
100
AcDbEntity
  8
0
  6
Continuous
 62
     7
370
    15
100
AcDbLine
 10
6.124700311809122
 20
4.969790245796339
 30
0.0
 11
6.124700311809122
 21
5.501577931053469
 31
0.0
  0
LINE
  5
145
330
1F
100
AcDbEntity
  8
0
  6
Continuous
 62
     7
370
    15
100
AcDbLine
 10
6.124700311809122
 20
4.969790245796339
 30
0.0
 11
6.195410989927776
 21
4.988734417949298
 31
0.0
  0
LINE
  5
146
330
1F
100
AcDbEntity
  8
0
  6
Continuous
 62
     7
370
    15
100
AcDbLine
 10
6.124700311809122
 20
4.969790245796339
 30
0.0
 11
6.089344972749795
 21
4.979262331872818
 31
0.0
  0
LINE
  5
147
330
1F
100
AcDbEntity
  8
0
  6
Continuous
 62
     7
370
    15
100
AcDbLine
 10
6.235185746369518
 20
4.64100751324008
 30
0.0
 11
6.235185746369518
 21
3.90638172949678
 31
0.0
  0
LINE
  5
148
330
1F
100
AcDbEntity
  8
0
  6
Continuous
 62
     7
370
    15
100
AcDbLine
 10
6.235185746369518
 20
4.64100751324008
 30
0.0
 11
6.305896424488174
 21
4.65995168539304
 31
0.0
  0
LINE
  5
149
330
1F
100
AcDbEntity
  8
0
  6
Continuous
 62
     7
370
    15
100
AcDbLine
 10
6.305896424488174
 20
3.92532590164974
 30
0.0
 11
6.305896424488174
 21
4.65995168539304
 31
0.0
  0
LINE
  5
14A
330
1F
100
AcDbEntity
  8
0
  6
Continuous
 62
     7
370
    15
100
AcDbLine
 10
6.235185746369518
 20
3.90638172949678
 30
0.0
 11
6.305896424488174
 21
3.92532590164974
 31
0.0
  0
LINE
  5
14B
330
1F
100
AcDbEntity
  8
0
  6
Continuous
 62
     7
370
    15
100
AcDbLine
 10
6.469414867637563
 20
4.810321051857156
 30
0.0
 11
6.21308865945744
 21
4.878993675911635
 31
0.0
  0
ARC
  5
14C
330
1F
100
AcDbEntity
  8
0
  6
Continuous
 62
     7
370
    15
100
AcDbCircle
 10
6.177733320398112
 20
4.727177582580199
 30
0.0
 40
0.155878562331128
100
AcDbArc
 50
76.89046733397532
 51
103.1095326660243
  0
LINE
  5
14D
330
1F
100
AcDbEntity
  8
0
  6
Continuous
 62
     7
370
    15
100
AcDbLine
 10
6.142377981338785
 20
4.878993675911635
 30
0.0
 11
5.886051773158661
 21
4.810321051857156
 31
0.0
  0
LWPOLYLINE
  5
14E
330
1F
100
AcDbEntity
  8
0
  6
Continuous
 62
     7
370
    15
100
AcDbPolyline
 90
       10
 70
   128
 43
0.0
 10
5.886051773158661
 20
4.810321051857156
 10
5.880449510003541
 20
4.808532339100108
 10
5.876091722866157
 20
4.806510170932723
 10
5.873110820903535
 20
4.804315989911501
 10
5.871597377313402
 20
4.802016465116463
 10
5.871597377313402
 20
4.799681466444891
 10
5.873110820903535
 20
4.797381941649852
 10
5.876091722866157
 20
4.79518776062863
 10
5.880449510003541
 20
4.793165592461245
 10
5.886051773158661
 20
4.791376879704197
  0
LINE
  5
14F
330
1F
100
AcDbEntity
  8
0
  6
Continuous
 62
     7
370
    15
100
AcDbLine
 10
5.886051773158661
 20
4.791376879704197
 30
0.0
 11
6.142377981338785
 21
4.722704255649719
 31
0.0
  0
ARC
  5
150
330
1F
100
AcDbEntity
  8
0
  6
Continuous
 62
     7
370
    15
100
AcDbCircle
 10
6.177733320398112
 20
4.874520348981108
 30
0.0
 40
0.1558785623310822
100
AcDbArc
 50
256.8904673339726
 51
283.1095326660294
  0
LINE
  5
151
330
1F
100
AcDbEntity
  8
0
  6
Continuous
 62
     7
370
    15
100
AcDbLine
 10
6.21308865945744
 20
4.722704255649719
 30
0.0
 11
6.469414867637563
 21
4.791376879704197
 31
0.0
  0
LWPOLYLINE
  5
152
330
1F
100
AcDbEntity
  8
0
  6
Continuous
 62
     7
370
    15
100
AcDbPolyline
 90
       10
 70
   128
 43
0.0
 10
6.469414867637563
 20
4.791376879704197
 10
6.475017130792685
 20
4.793165592461245
 10
6.479374917930067
 20
4.79518776062863
 10
6.482355819892689
 20
4.797381941649851
 10
6.483869263482823
 20
4.79968146644489
 10
6.483869263482823
 20
4.802016465116463
 10
6.482355819892689
 20
4.804315989911501
 10
6.479374917930067
 20
4.806510170932723
 10
6.475017130792685
 20
4.808532339100108
 10
6.469414867637563
 20
4.810321051857156
  0
ARC
  5
153
330
1F
100
AcDbEntity
  8
0
  6
Continuous
 62
     7
370
    15
100
AcDbCircle
 10
6.632933310786953
 20
4.624168646498526
 30
0.0
 40
0.1558785623310839
100
AcDbArc
 50
76.89046733397187
 51
103.1095326660284
  0
LINE
  5
154
330
1F
100
AcDbEntity
  8
0
  6
Continuous
 62
     7
370
    15
100
AcDbLine
 10
6.597577971727624
 20
4.775984739829917
 30
0.0
 11
6.270541085428846
 21
4.68836794362248
 31
0.0
  0
LWPOLYLINE
  5
155
330
1F
100
AcDbEntity
  8
0
  6
Continuous
 62
     7
370
    15
100
AcDbPolyline
 90
       10
 70
   128
 43
0.0
 10
6.270541085428846
 20
4.68836794362248
 10
6.264938822273724
 20
4.686579230865431
 10
6.260581035136342
 20
4.684557062698046
 10
6.25760013317372
 20
4.682362881676824
 10
6.256086689583588
 20
4.680063356881785
 10
6.256086689583588
 20
4.677728358210213
 10
6.25760013317372
 20
4.675428833415175
 10
6.260581035136342
 20
4.673234652393952
 10
6.264938822273724
 20
4.671212484226568
 10
6.270541085428847
 20
4.66942377146952
  0
LINE
  5
156
330
1F
100
AcDbEntity
  8
0
  6
Continuous
 62
     7
370
    15
100
AcDbLine
 10
6.270541085428847
 20
4.66942377146952
 30
0.0
 11
6.305896424488174
 21
4.65995168539304
 31
0.0
  0
LINE
  5
157
330
1F
100
AcDbEntity
  8
0
  6
Continuous
 62
     7
370
    15
100
AcDbLine
 10
5.112653731235876
 20
4.941746246168313
 30
0.0
 11
6.235185746369518
 21
4.64100751324008
 31
0.0
  0
LINE
  5
158
330
1F
100
AcDbEntity
  8
0
  6
Continuous
 62
     7
370
    15
100
AcDbLine
 10
5.13033140076554
 20
4.946482289206554
 30
0.0
 11
5.112653731235876
 21
4.941746246168313
 31
0.0
  0
LINE
  5
159
330
1F
100
AcDbEntity
  8
0
  6
Continuous
 62
     7
370
    15
100
AcDbLine
 10
6.774354667024262
 20
4.785456825906397
 30
0.0
 11
6.177733320398114
 21
4.945298278446992
 31
0.0
  0
LINE
  5
15A
330
1F
100
AcDbEntity
  8
0
  6
Continuous
 62
     7
370
    15
100
AcDbLine
 10
6.703643988905607
 20
4.766512653753438
 30
0.0
 11
6.774354667024262
 21
4.785456825906397
 31
0.0
  0
LINE
  5
15B
330
1F
100
AcDbEntity
  8
0
  6
Continuous
 62
     7
370
    15
100
AcDbLine
 10
6.703643988905607
 20
4.766512653753438
 30
0.0
 11
6.66828864984628
 21
4.775984739829917
 31
0.0
  0
LINE
  5
15C
330
1F
100
AcDbEntity
  8
0
  6
Continuous
 62
     7
370
    15
100
AcDbLine
 10
5.112653731235876
 20
4.941746246168313
 30
0.0
 11
5.112653731235876
 21
4.207120462425014
 31
0.0
  0
LINE
  5
15D
330
1F
100
AcDbEntity
  8
0
  6
Continuous
 62
     7
370
    15
100
AcDbLine
 10
5.112653731235876
 20
4.207120462425014
 30
0.0
 11
6.235185746369518
 21
3.90638172949678
 31
0.0
  0
LINE
  5
15E
330
1F
100
AcDbEntity
  8
0
  6
Continuous
 62
     7
370
    15
100
AcDbLine
 10
6.597577971727624
 20
4.041358956086617
 30
0.0
 11
6.597577971727624
 21
4.775984739829917
 31
0.0
  0
LINE
  5
15F
330
1F
100
AcDbEntity
  8
0
  6
Continuous
 62
     7
370
    15
100
AcDbLine
 10
6.597577971727624
 20
4.041358956086617
 30
0.0
 11
6.305896424488174
 21
3.963214245955659
 31
0.0
  0
LINE
  5
160
330
1F
100
AcDbEntity
  8
0
  6
Continuous
 62
     7
370
    15
100
AcDbLine
 10
6.774354667024262
 20
4.785456825906397
 30
0.0
 11
6.774354667024262
 21
4.050831042163097
 31
0.0
  0
LINE
  5
161
330
1F
100
AcDbEntity
  8
0
  6
Continuous
 62
     7
370
    15
100
AcDbLine
 10
6.703643988905607
 20
4.031886870010137
 30
0.0
 11
6.703643988905607
 21
4.766512653753438
 31
0.0
  0
LINE
  5
162
330
1F
100
AcDbEntity
  8
0
  6
Continuous
 62
     7
370
    15
100
AcDbLine
 10
6.703643988905607
 20
4.031886870010137
 30
0.0
 11
6.774354667024262
 21
4.050831042163097
 31
0.0
  0
LINE
  5
163
330
1F
100
AcDbEntity
  8
0
  6
Continuous
 62
     7
370
    15
100
AcDbLine
 10
6.66828864984628
 20
4.041358956086617
 30
0.0
 11
6.66828864984628
 21
4.775984739829917
 31
0.0
  0
ARC
  5
164
330
1F
100
AcDbEntity
  8
0
  6
Continuous
 62
     7
370
    15
100
AcDbCircle
 10
6.632933310786953
 20
3.889542862755238
 30
0.0
 40
0.1558785623310722
100
AcDbArc
 50
76.89046733397086
 51
103.1095326660294
  0
LINE
  5
165
330
1F
100
AcDbEntity
  8
0
  6
Continuous
 62
     7
370
    15
100
AcDbLine
 10
6.703643988905607
 20
4.031886870010137
 30
0.0
 11
6.66828864984628
 21
4.041358956086617
 31
0.0
  0
LINE
  5
166
330
1F
100
AcDbEntity
  8
0
  6
Continuous
 62
     7
370
    15
100
AcDbLine
 10
2.796879022849937
 20
5.56216788417774
 30
0.0
 11
2.796879022849937
 21
4.82754210043444
 31
0.0
  0
LINE
  5
167
330
1F
100
AcDbEntity
  8
0
  6
Continuous
 62
     7
370
    15
100
AcDbLine
 10
2.796879022849937
 20
5.56216788417774
 30
0.0
 11
3.335637043214429
 21
5.417828656240397
 31
0.0
  0
LINE
  5
168
330
1F
100
AcDbEntity
  8
0
  6
Continuous
 62
     7
370
    15
100
AcDbLine
 10
3.454711641604255
 20
5.385927255335201
 30
0.0
 11
3.919411037983579
 21
5.261429151249506
 31
0.0
  0
LINE
  5
169
330
1F
100
AcDbEntity
  8
0
  6
Continuous
 62
     7
370
    15
100
AcDbLine
 10
3.919411037983579
 20
5.261429151249506
 30
0.0
 11
3.919411037983579
 21
4.526803367506206
 31
0.0
  0
LINE
  5
16A
330
1F
100
AcDbEntity
  8
0
  6
Continuous
 62
     7
370
    15
100
AcDbLine
 10
2.796879022849937
 20
4.82754210043444
 30
0.0
 11
3.919411037983579
 21
4.526803367506206
 31
0.0
  0
LINE
  5
16B
330
1F
100
AcDbEntity
  8
0
  6
Continuous
 62
     7
370
    15
100
AcDbLine
 10
3.919411037983579
 20
5.261429151249506
 30
0.0
 11
3.937088707513242
 21
5.266165194287746
 31
0.0
  0
LINE
  5
16C
330
1F
100
AcDbEntity
  8
0
  6
Continuous
 62
     7
370
    15
100
AcDbLine
 10
2.814556692379601
 20
5.56690392721598
 30
0.0
 11
2.796879022849937
 21
5.56216788417774
 31
0.0
  0
LINE
  5
16D
330
1F
100
AcDbEntity
  8
0
  6
Continuous
 62
     7
370
    15
100
AcDbLine
 10
3.919411037983579
 20
4.526803367506206
 30
0.0
 11
3.937088707513242
 21
4.531539410544447
 31
0.0
  0
LINE
  5
16E
330
1F
100
AcDbEntity
  8
0
  6
Continuous
 62
     7
370
    15
100
AcDbLine
 10
5.077298392176548
 20
4.951218332244794
 30
0.0
 11
5.094976061706213
 21
4.955954375283033
 31
0.0
  0
LINE
  5
16F
330
1F
100
AcDbEntity
  8
0
  6
Continuous
 62
     7
370
    15
100
AcDbLine
 10
3.954766377042907
 20
5.251957065173027
 30
0.0
 11
5.077298392176548
 21
4.951218332244794
 31
0.0
  0
LINE
  5
170
330
1F
100
AcDbEntity
  8
0
  6
Continuous
 62
     7
370
    15
100
AcDbLine
 10
3.97244404657257
 20
5.256693108211267
 30
0.0
 11
3.954766377042907
 21
5.251957065173027
 31
0.0
  0
LINE
  5
171
330
1F
100
AcDbEntity
  8
0
  6
Continuous
 62
     7
370
    15
100
AcDbLine
 10
5.077298392176548
 20
4.951218332244794
 30
0.0
 11
5.077298392176548
 21
4.216592548501493
 31
0.0
  0
LINE
  5
172
330
1F
100
AcDbEntity
  8
0
  6
Continuous
 62
     7
370
    15
100
AcDbLine
 10
5.077298392176548
 20
4.216592548501493
 30
0.0
 11
5.094976061706213
 21
4.221328591539734
 31
0.0
  0
LINE
  5
173
330
1F
100
AcDbEntity
  8
0
  6
Continuous
 62
     7
370
    15
100
AcDbLine
 10
3.954766377042907
 20
5.251957065173027
 30
0.0
 11
3.954766377042907
 21
4.517331281429727
 31
0.0
  0
LINE
  5
174
330
1F
100
AcDbEntity
  8
0
  6
Continuous
 62
     7
370
    15
100
AcDbLine
 10
3.954766377042907
 20
4.517331281429727
 30
0.0
 11
5.077298392176548
 21
4.216592548501493
 31
0.0
  0
LINE
  5
175
330
1F
100
AcDbEntity
  8
0
  6
Continuous
 62
     7
370
    15
100
AcDbLine
 10
2.217935345753451
 20
6.500071259963941
 30
0.0
 11
2.217935345753451
 21
5.765445476220642
 31
0.0
  0
LINE
  5
176
330
1F
100
AcDbEntity
  8
0
  6
Continuous
 62
     7
370
    15
100
AcDbLine
 10
2.217935345753451
 20
6.500071259963941
 30
0.0
 11
3.340467360887094
 21
6.199332527035707
 31
0.0
  0
LINE
  5
177
330
1F
100
AcDbEntity
  8
0
  6
Continuous
 62
     7
370
    15
100
AcDbLine
 10
3.340467360887094
 20
6.199332527035707
 30
0.0
 11
3.340467360887094
 21
5.81600168292607
 31
0.0
  0
LINE
  5
178
330
1F
100
AcDbEntity
  8
0
  6
Continuous
 62
     7
370
    15
100
AcDbLine
 10
2.217935345753451
 20
5.765445476220642
 30
0.0
 11
3.335637043214429
 21
5.46600083878094
 31
0.0
  0
LINE
  5
179
330
1F
100
AcDbEntity
  8
0
  6
Continuous
 62
     7
370
    15
100
AcDbLine
 10
3.340467360887094
 20
6.199332527035707
 30
0.0
 11
3.358145030416757
 21
6.204068570073947
 31
0.0
  0
LINE
  5
17A
330
1F
100
AcDbEntity
  8
0
  6
Continuous
 62
     7
370
    15
100
AcDbLine
 10
2.235613015283115
 20
6.504807303002181
 30
0.0
 11
2.217935345753451
 21
6.500071259963941
 31
0.0
  0
LINE
  5
17B
330
1F
100
AcDbEntity
  8
0
  6
Continuous
 62
     7
370
    15
100
AcDbLine
 10
1.638991668656967
 20
5.872378703182453
 30
0.0
 11
1.638991668656967
 21
5.137752919439154
 31
0.0
  0
LINE
  5
17C
330
1F
100
AcDbEntity
  8
0
  6
Continuous
 62
     7
370
    15
100
AcDbLine
 10
1.638991668656967
 20
5.872378703182453
 30
0.0
 11
2.761523683790609
 21
5.57163997025422
 31
0.0
  0
LINE
  5
17D
330
1F
100
AcDbEntity
  8
0
  6
Continuous
 62
     7
370
    15
100
AcDbLine
 10
2.761523683790609
 20
5.57163997025422
 30
0.0
 11
2.761523683790609
 21
4.83701418651092
 31
0.0
  0
LINE
  5
17E
330
1F
100
AcDbEntity
  8
0
  6
Continuous
 62
     7
370
    15
100
AcDbLine
 10
1.638991668656967
 20
5.137752919439154
 30
0.0
 11
2.761523683790609
 21
4.83701418651092
 31
0.0
  0
LINE
  5
17F
330
1F
100
AcDbEntity
  8
0
  6
Continuous
 62
     7
370
    15
100
AcDbLine
 10
2.761523683790609
 20
5.57163997025422
 30
0.0
 11
2.779201353320272
 21
5.576376013292459
 31
0.0
  0
LINE
  5
180
330
1F
100
AcDbEntity
  8
0
  6
Continuous
 62
     7
370
    15
100
AcDbLine
 10
1.65666933818663
 20
5.877114746220693
 30
0.0
 11
1.638991668656967
 21
5.872378703182453
 31
0.0
  0
LINE
  5
181
330
1F
100
AcDbEntity
  8
0
  6
Continuous
 62
     7
370
    15
100
AcDbLine
 10
2.761523683790609
 20
4.83701418651092
 30
0.0
 11
2.779201353320273
 21
4.84175022954916
 31
0.0
  0
LINE
  5
182
330
1F
100
AcDbEntity
  8
0
  6
Continuous
 62
     7
370
    15
100
AcDbLine
 10
3.441703060392411
 20
5.781682996859253
 30
0.0
 11
3.335637043214429
 21
5.810099255088692
 31
0.0
  0
LINE
  5
183
330
1F
100
AcDbEntity
  8
0
  6
Continuous
 62
     7
370
    15
100
AcDbLine
 10
6.659038914791208
 20
9.871144728886658
 30
0.0
 11
4.452794629619147
 21
7.175214861055255
 31
0.0
  0
LINE
  5
184
330
1F
100
AcDbEntity
  8
0
  6
Continuous
 62
     7
370
    15
100
AcDbLine
 10
4.355309794570706
 20
7.056092839874714
 30
0.0
 11
3.335637043214429
 21
5.810099255088692
 31
0.0
  0
LINE
  5
185
330
1F
100
AcDbEntity
  8
0
  6
Continuous
 62
     7
370
    15
100
AcDbLine
 10
6.659038914791208
 20
9.871144728886658
 30
0.0
 11
6.76510493196919
 21
9.84272847065722
 31
0.0
  0
LINE
  5
186
330
1F
100
AcDbEntity
  8
0
  6
Continuous
 62
     7
370
    15
100
AcDbLine
 10
6.76510493196919
 20
9.84272847065722
 30
0.0
 11
4.498430016765504
 21
7.072955129766611
 31
0.0
  0
LINE
  5
187
330
1F
100
AcDbEntity
  8
0
  6
Continuous
 62
     7
370
    15
100
AcDbLine
 10
4.409547158066387
 20
6.964344331263625
 30
0.0
 11
3.441703060392411
 21
5.781682996859253
 31
0.0
  0
LINE
  5
188
330
1F
100
AcDbEntity
  8
0
  6
Continuous
 62
     7
370
    15
100
AcDbLine
 10
4.948205318441457
 20
7.210908395394564
 30
0.0
 11
4.611971808200069
 21
7.120827721993039
 31
0.0
  0
LINE
  5
189
330
1F
100
AcDbEntity
  8
0
  6
Continuous
 62
     7
370
    15
100
AcDbLine
 10
4.611971808200069
 20
7.120827721993039
 30
0.0
 11
4.611971808200069
 21
6.72340721603355
 31
0.0
  0
LINE
  5
18A
330
1F
100
AcDbEntity
  8
0
  6
Continuous
 62
     7
370
    15
100
AcDbLine
 10
6.782782601498854
 20
7.614264534962765
 30
0.0
 11
5.230690241738298
 21
7.198441838265417
 31
0.0
  0
LINE
  5
18B
330
1F
100
AcDbEntity
  8
0
  6
Continuous
 62
     7
370
    15
100
AcDbLine
 10
6.782782601498854
 20
7.614264534962765
 30
0.0
 11
6.782782601498854
 21
7.476999490255721
 31
0.0
  0
LINE
  5
18C
330
1F
100
AcDbEntity
  8
0
  6
Continuous
 62
     7
370
    15
100
AcDbLine
 10
6.782782601498854
 20
7.476999490255721
 30
0.0
 11
6.835815610087845
 21
7.45987002518558
 31
0.0
  0
LINE
  5
18D
330
1F
100
AcDbEntity
  8
0
  6
Continuous
 62
     7
370
    15
100
AcDbLine
 10
6.835815610087845
 20
7.45987002518558
 30
0.0
 11
6.800460271028518
 21
7.431369782033309
 31
0.0
  0
LINE
  5
18E
330
1F
100
AcDbEntity
  8
0
  6
Continuous
 62
     7
370
    15
100
AcDbLine
 10
6.800460271028518
 20
7.431369782033309
 30
0.0
 11
6.800460271028518
 21
7.281795300217194
 31
0.0
  0
LINE
  5
18F
330
1F
100
AcDbEntity
  8
0
  6
Continuous
 62
     7
370
    15
100
AcDbLine
 10
4.577842378955187
 20
6.686331402854614
 30
0.0
 11
6.800460271028518
 21
7.281795300217194
 31
0.0
  0
LINE
  5
190
330
1F
100
AcDbEntity
  8
0
  6
Continuous
 62
     7
370
    15
100
AcDbLine
 10
3.441703060392411
 20
5.370031362544532
 30
0.0
 11
4.481329164125561
 21
6.640407033665107
 31
0.0
  0
LINE
  5
191
330
1F
100
AcDbEntity
  8
0
  6
Continuous
 62
     7
370
    15
100
AcDbLine
 10
3.441703060392411
 20
5.781682996859253
 30
0.0
 11
3.441703060392411
 21
5.370031362544532
 31
0.0
  0
LINE
  5
192
330
1F
100
AcDbEntity
  8
0
  6
Continuous
 62
     7
370
    15
100
AcDbLine
 10
6.76510493196919
 20
9.84272847065722
 30
0.0
 11
6.76510493196919
 21
9.692093484164164
 31
0.0
  0
LINE
  5
193
330
1F
100
AcDbEntity
  8
0
  6
Continuous
 62
     7
370
    15
100
AcDbLine
 10
6.76510493196919
 20
9.692093484164164
 30
0.0
 11
6.835815610087845
 21
9.723307876346625
 31
0.0
  0
LINE
  5
194
330
1F
100
AcDbEntity
  8
0
  6
Continuous
 62
     7
370
    15
100
AcDbLine
 10
6.835815610087845
 20
9.723307876346625
 30
0.0
 11
6.782782601498854
 21
9.615749973339427
 31
0.0
  0
LINE
  5
195
330
1F
100
AcDbEntity
  8
0
  6
Continuous
 62
     7
370
    15
100
AcDbLine
 10
6.782782601498854
 20
9.615749973339427
 30
0.0
 11
6.782782601498854
 21
9.452678142054191
 31
0.0
  0
LINE
  5
196
330
1F
100
AcDbEntity
  8
0
  6
Continuous
 62
     7
370
    15
100
AcDbLine
 10
4.948205318441457
 20
7.210908395394564
 30
0.0
 11
6.782782601498854
 21
9.452678142054191
 31
0.0
  0
LINE
  5
197
330
1F
100
AcDbEntity
  8
0
  6
Continuous
 62
     7
370
    15
100
AcDbLine
 10
3.441703060392411
 20
5.370031362544532
 30
0.0
 11
3.335637043214429
 21
5.39844762077397
 31
0.0
  0
LINE
  5
198
330
1F
100
AcDbEntity
  8
0
  6
Continuous
 62
     7
370
    15
100
AcDbLine
 10
3.335637043214429
 20
5.810099255088692
 30
0.0
 11
3.335637043214429
 21
5.39844762077397
 31
0.0
  0
LINE
  5
199
330
1F
100
AcDbEntity
  8
0
  6
Continuous
 62
     7
370
    15
100
AcDbLine
 10
5.230690241738298
 20
7.281853185293195
 30
0.0
 11
5.221851406973467
 21
7.284221206812316
 31
0.0
  0
LINE
  5
19A
330
1F
100
AcDbEntity
  8
0
  6
Continuous
 62
     7
370
    15
100
AcDbLine
 10
5.230690241738298
 20
7.281853185293195
 30
0.0
 11
4.6208106429649
 21
7.11845970047392
 31
0.0
  0
LINE
  5
19B
330
1F
100
AcDbEntity
  8
0
  6
Continuous
 62
     7
370
    15
100
AcDbLine
 10
4.6208106429649
 20
7.11845970047392
 30
0.0
 11
4.611971808200069
 21
7.120827721993039
 31
0.0
  0
LINE
  5
19C
330
1F
100
AcDbEntity
  8
0
  6
Continuous
 62
     7
370
    15
100
AcDbLine
 10
5.221851406973467
 20
7.284221206812316
 30
0.0
 11
4.948205318441457
 21
7.210908395394564
 31
0.0
  0
LINE
  5
19D
330
1F
100
AcDbEntity
  8
0
  6
Continuous
 62
     7
370
    15
100
AcDbLine
 10
4.6208106429649
 20
6.72103919451443
 30
0.0
 11
5.230690241738298
 21
6.884432679333706
 31
0.0
  0
LINE
  5
19E
330
1F
100
AcDbEntity
  8
0
  6
Continuous
 62
     7
370
    15
100
AcDbLine
 10
4.6208106429649
 20
7.11845970047392
 30
0.0
 11
4.6208106429649
 21
6.72103919451443
 31
0.0
  0
LINE
  5
19F
330
1F
100
AcDbEntity
  8
0
  6
Continuous
 62
     7
370
    15
100
AcDbLine
 10
5.230690241738298
 20
6.884432679333706
 30
0.0
 11
5.230690241738298
 21
7.281853185293195
 31
0.0
  0
LINE
  5
1A0
330
1F
100
AcDbEntity
  8
0
  6
Continuous
 62
     7
370
    15
100
AcDbLine
 10
4.629649477729732
 20
7.084698585087632
 30
0.0
 11
4.735715494907715
 21
7.11311484331707
 31
0.0
  0
LINE
  5
1A1
330
1F
100
AcDbEntity
  8
0
  6
Continuous
 62
     7
370
    15
100
AcDbLine
 10
4.735715494907715
 20
7.11311484331707
 30
0.0
 11
4.735715494907715
 21
7.137200934587343
 31
0.0
  0
LINE
  5
1A2
330
1F
100
AcDbEntity
  8
0
  6
Continuous
 62
     7
370
    15
100
AcDbLine
 10
4.735715494907715
 20
7.137200934587343
 30
0.0
 11
4.629649477729732
 21
7.108784676357904
 31
0.0
  0
LINE
  5
1A3
330
1F
100
AcDbEntity
  8
0
  6
Continuous
 62
     7
370
    15
100
AcDbLine
 10
4.629649477729732
 20
7.108784676357904
 30
0.0
 11
4.629649477729732
 21
7.084698585087632
 31
0.0
  0
LINE
  5
1A4
330
1F
100
AcDbEntity
  8
0
  6
Continuous
 62
     7
370
    15
100
AcDbLine
 10
4.749857630531446
 20
7.116903677747663
 30
0.0
 11
4.855923647709428
 21
7.145319935977102
 31
0.0
  0
LINE
  5
1A5
330
1F
100
AcDbEntity
  8
0
  6
Continuous
 62
     7
370
    15
100
AcDbLine
 10
4.855923647709428
 20
7.145319935977102
 30
0.0
 11
4.855923647709428
 21
7.169406027247374
 31
0.0
  0
LINE
  5
1A6
330
1F
100
AcDbEntity
  8
0
  6
Continuous
 62
     7
370
    15
100
AcDbLine
 10
4.855923647709428
 20
7.169406027247374
 30
0.0
 11
4.749857630531446
 21
7.140989769017935
 31
0.0
  0
LINE
  5
1A7
330
1F
100
AcDbEntity
  8
0
  6
Continuous
 62
     7
370
    15
100
AcDbLine
 10
4.749857630531446
 20
7.140989769017935
 30
0.0
 11
4.749857630531446
 21
7.116903677747663
 31
0.0
  0
LINE
  5
1A8
330
1F
100
AcDbEntity
  8
0
  6
Continuous
 62
     7
370
    15
100
AcDbLine
 10
4.870065783333159
 20
7.149108770407694
 30
0.0
 11
4.976131800511141
 21
7.177525028637133
 31
0.0
  0
LINE
  5
1A9
330
1F
100
AcDbEntity
  8
0
  6
Continuous
 62
     7
370
    15
100
AcDbLine
 10
4.976131800511141
 20
7.177525028637133
 30
0.0
 11
4.976131800511141
 21
7.201611119907405
 31
0.0
  0
LINE
  5
1AA
330
1F
100
AcDbEntity
  8
0
  6
Continuous
 62
     7
370
    15
100
AcDbLine
 10
4.976131800511141
 20
7.201611119907405
 30
0.0
 11
4.870065783333159
 21
7.173194861677965
 31
0.0
  0
LINE
  5
1AB
330
1F
100
AcDbEntity
  8
0
  6
Continuous
 62
     7
370
    15
100
AcDbLine
 10
4.870065783333159
 20
7.173194861677965
 30
0.0
 11
4.870065783333159
 21
7.149108770407694
 31
0.0
  0
LINE
  5
1AC
330
1F
100
AcDbEntity
  8
0
  6
Continuous
 62
     7
370
    15
100
AcDbLine
 10
4.990273936134872
 20
7.181313863067726
 30
0.0
 11
5.096339953312854
 21
7.209730121297164
 31
0.0
  0
LINE
  5
1AD
330
1F
100
AcDbEntity
  8
0
  6
Continuous
 62
     7
370
    15
100
AcDbLine
 10
5.096339953312854
 20
7.209730121297164
 30
0.0
 11
5.096339953312854
 21
7.233816212567436
 31
0.0
  0
LINE
  5
1AE
330
1F
100
AcDbEntity
  8
0
  6
Continuous
 62
     7
370
    15
100
AcDbLine
 10
5.096339953312854
 20
7.233816212567436
 30
0.0
 11
4.990273936134872
 21
7.205399954337997
 31
0.0
  0
LINE
  5
1AF
330
1F
100
AcDbEntity
  8
0
  6
Continuous
 62
     7
370
    15
100
AcDbLine
 10
4.990273936134872
 20
7.205399954337997
 30
0.0
 11
4.990273936134872
 21
7.181313863067726
 31
0.0
  0
LINE
  5
1B0
330
1F
100
AcDbEntity
  8
0
  6
Continuous
 62
     7
370
    15
100
AcDbLine
 10
5.110482088936585
 20
7.213518955727757
 30
0.0
 11
5.216548106114568
 21
7.241935213957196
 31
0.0
  0
LINE
  5
1B1
330
1F
100
AcDbEntity
  8
0
  6
Continuous
 62
     7
370
    15
100
AcDbLine
 10
5.216548106114568
 20
7.241935213957196
 30
0.0
 11
5.216548106114568
 21
7.266021305227467
 31
0.0
  0
LINE
  5
1B2
330
1F
100
AcDbEntity
  8
0
  6
Continuous
 62
     7
370
    15
100
AcDbLine
 10
5.216548106114568
 20
7.266021305227467
 30
0.0
 11
5.110482088936585
 21
7.237605046998028
 31
0.0
  0
LINE
  5
1B3
330
1F
100
AcDbEntity
  8
0
  6
Continuous
 62
     7
370
    15
100
AcDbLine
 10
5.110482088936585
 20
7.237605046998028
 30
0.0
 11
5.110482088936585
 21
7.213518955727757
 31
0.0
  0
LINE
  5
1B4
330
1F
100
AcDbEntity
  8
0
  6
Continuous
 62
     7
370
    15
100
AcDbLine
 10
4.749857630531446
 20
7.079329375366039
 30
0.0
 11
4.855923647709428
 21
7.107745633595478
 31
0.0
  0
LINE
  5
1B5
330
1F
100
AcDbEntity
  8
0
  6
Continuous
 62
     7
370
    15
100
AcDbLine
 10
4.855923647709428
 20
7.107745633595478
 30
0.0
 11
4.855923647709428
 21
7.13183172486575
 31
0.0
  0
LINE
  5
1B6
330
1F
100
AcDbEntity
  8
0
  6
Continuous
 62
     7
370
    15
100
AcDbLine
 10
4.855923647709428
 20
7.13183172486575
 30
0.0
 11
4.749857630531446
 21
7.10341546663631
 31
0.0
  0
LINE
  5
1B7
330
1F
100
AcDbEntity
  8
0
  6
Continuous
 62
     7
370
    15
100
AcDbLine
 10
4.749857630531446
 20
7.10341546663631
 30
0.0
 11
4.749857630531446
 21
7.079329375366039
 31
0.0
  0
LINE
  5
1B8
330
1F
100
AcDbEntity
  8
0
  6
Continuous
 62
     7
370
    15
100
AcDbLine
 10
4.870065783333159
 20
7.11153446802607
 30
0.0
 11
4.976131800511142
 21
7.139950726255509
 31
0.0
  0
LINE
  5
1B9
330
1F
100
AcDbEntity
  8
0
  6
Continuous
 62
     7
370
    15
100
AcDbLine
 10
4.976131800511142
 20
7.139950726255509
 30
0.0
 11
4.976131800511142
 21
7.164036817525781
 31
0.0
  0
LINE
  5
1BA
330
1F
100
AcDbEntity
  8
0
  6
Continuous
 62
     7
370
    15
100
AcDbLine
 10
4.976131800511142
 20
7.164036817525781
 30
0.0
 11
4.870065783333159
 21
7.135620559296341
 31
0.0
  0
LINE
  5
1BB
330
1F
100
AcDbEntity
  8
0
  6
Continuous
 62
     7
370
    15
100
AcDbLine
 10
4.870065783333159
 20
7.135620559296341
 30
0.0
 11
4.870065783333159
 21
7.11153446802607
 31
0.0
  0
LINE
  5
1BC
330
1F
100
AcDbEntity
  8
0
  6
Continuous
 62
     7
370
    15
100
AcDbLine
 10
4.990273936134872
 20
7.143739560686101
 30
0.0
 11
5.096339953312854
 21
7.17215581891554
 31
0.0
  0
LINE
  5
1BD
330
1F
100
AcDbEntity
  8
0
  6
Continuous
 62
     7
370
    15
100
AcDbLine
 10
5.096339953312854
 20
7.17215581891554
 30
0.0
 11
5.096339953312854
 21
7.196241910185812
 31
0.0
  0
LINE
  5
1BE
330
1F
100
AcDbEntity
  8
0
  6
Continuous
 62
     7
370
    15
100
AcDbLine
 10
5.096339953312854
 20
7.196241910185812
 30
0.0
 11
4.990273936134872
 21
7.167825651956373
 31
0.0
  0
LINE
  5
1BF
330
1F
100
AcDbEntity
  8
0
  6
Continuous
 62
     7
370
    15
100
AcDbLine
 10
4.990273936134872
 20
7.167825651956373
 30
0.0
 11
4.990273936134872
 21
7.143739560686101
 31
0.0
  0
LINE
  5
1C0
330
1F
100
AcDbEntity
  8
0
  6
Continuous
 62
     7
370
    15
100
AcDbLine
 10
5.110482088936585
 20
7.175944653346132
 30
0.0
 11
5.216548106114568
 21
7.204360911575571
 31
0.0
  0
LINE
  5
1C1
330
1F
100
AcDbEntity
  8
0
  6
Continuous
 62
     7
370
    15
100
AcDbLine
 10
5.216548106114568
 20
7.204360911575571
 30
0.0
 11
5.216548106114568
 21
7.228447002845844
 31
0.0
  0
LINE
  5
1C2
330
1F
100
AcDbEntity
  8
0
  6
Continuous
 62
     7
370
    15
100
AcDbLine
 10
5.216548106114568
 20
7.228447002845844
 30
0.0
 11
5.110482088936585
 21
7.200030744616404
 31
0.0
  0
LINE
  5
1C3
330
1F
100
AcDbEntity
  8
0
  6
Continuous
 62
     7
370
    15
100
AcDbLine
 10
5.110482088936585
 20
7.200030744616404
 30
0.0
 11
5.110482088936585
 21
7.175944653346132
 31
0.0
  0
LINE
  5
1C4
330
1F
100
AcDbEntity
  8
0
  6
Continuous
 62
     7
370
    15
100
AcDbLine
 10
4.749857630531446
 20
7.041755072984415
 30
0.0
 11
4.855923647709428
 21
7.070171331213853
 31
0.0
  0
LINE
  5
1C5
330
1F
100
AcDbEntity
  8
0
  6
Continuous
 62
     7
370
    15
100
AcDbLine
 10
4.855923647709428
 20
7.070171331213853
 30
0.0
 11
4.855923647709428
 21
7.094257422484126
 31
0.0
  0
LINE
  5
1C6
330
1F
100
AcDbEntity
  8
0
  6
Continuous
 62
     7
370
    15
100
AcDbLine
 10
4.855923647709428
 20
7.094257422484126
 30
0.0
 11
4.749857630531446
 21
7.065841164254687
 31
0.0
  0
LINE
  5
1C7
330
1F
100
AcDbEntity
  8
0
  6
Continuous
 62
     7
370
    15
100
AcDbLine
 10
4.749857630531446
 20
7.065841164254687
 30
0.0
 11
4.749857630531446
 21
7.041755072984415
 31
0.0
  0
LINE
  5
1C8
330
1F
100
AcDbEntity
  8
0
  6
Continuous
 62
     7
370
    15
100
AcDbLine
 10
4.870065783333159
 20
7.073960165644446
 30
0.0
 11
4.976131800511142
 21
7.102376423873885
 31
0.0
  0
LINE
  5
1C9
330
1F
100
AcDbEntity
  8
0
  6
Continuous
 62
     7
370
    15
100
AcDbLine
 10
4.976131800511142
 20
7.102376423873885
 30
0.0
 11
4.976131800511142
 21
7.126462515144157
 31
0.0
  0
LINE
  5
1CA
330
1F
100
AcDbEntity
  8
0
  6
Continuous
 62
     7
370
    15
100
AcDbLine
 10
4.976131800511142
 20
7.126462515144157
 30
0.0
 11
4.870065783333159
 21
7.098046256914718
 31
0.0
  0
LINE
  5
1CB
330
1F
100
AcDbEntity
  8
0
  6
Continuous
 62
     7
370
    15
100
AcDbLine
 10
4.870065783333159
 20
7.098046256914718
 30
0.0
 11
4.870065783333159
 21
7.073960165644446
 31
0.0
  0
LINE
  5
1CC
330
1F
100
AcDbEntity
  8
0
  6
Continuous
 62
     7
370
    15
100
AcDbLine
 10
4.990273936134872
 20
7.106165258304477
 30
0.0
 11
5.096339953312854
 21
7.134581516533916
 31
0.0
  0
LINE
  5
1CD
330
1F
100
AcDbEntity
  8
0
  6
Continuous
 62
     7
370
    15
100
AcDbLine
 10
5.096339953312854
 20
7.134581516533916
 30
0.0
 11
5.096339953312854
 21
7.158667607804188
 31
0.0
  0
LINE
  5
1CE
330
1F
100
AcDbEntity
  8
0
  6
Continuous
 62
     7
370
    15
100
AcDbLine
 10
5.096339953312854
 20
7.158667607804188
 30
0.0
 11
4.990273936134872
 21
7.130251349574749
 31
0.0
  0
LINE
  5
1CF
330
1F
100
AcDbEntity
  8
0
  6
Continuous
 62
     7
370
    15
100
AcDbLine
 10
4.990273936134872
 20
7.130251349574749
 30
0.0
 11
4.990273936134872
 21
7.106165258304477
 31
0.0
  0
LINE
  5
1D0
330
1F
100
AcDbEntity
  8
0
  6
Continuous
 62
     7
370
    15
100
AcDbLine
 10
5.110482088936587
 20
7.138370350964508
 30
0.0
 11
5.216548106114568
 21
7.166786609193947
 31
0.0
  0
LINE
  5
1D1
330
1F
100
AcDbEntity
  8
0
  6
Continuous
 62
     7
370
    15
100
AcDbLine
 10
5.216548106114568
 20
7.166786609193947
 30
0.0
 11
5.216548106114568
 21
7.190872700464219
 31
0.0
  0
LINE
  5
1D2
330
1F
100
AcDbEntity
  8
0
  6
Continuous
 62
     7
370
    15
100
AcDbLine
 10
5.216548106114568
 20
7.190872700464219
 30
0.0
 11
5.110482088936587
 21
7.16245644223478
 31
0.0
  0
LINE
  5
1D3
330
1F
100
AcDbEntity
  8
0
  6
Continuous
 62
     7
370
    15
100
AcDbLine
 10
5.110482088936587
 20
7.16245644223478
 30
0.0
 11
5.110482088936587
 21
7.138370350964508
 31
0.0
  0
LINE
  5
1D4
330
1F
100
AcDbEntity
  8
0
  6
Continuous
 62
     7
370
    15
100
AcDbLine
 10
4.749857630531447
 20
7.00418077060279
 30
0.0
 11
4.855923647709428
 21
7.032597028832229
 31
0.0
  0
LINE
  5
1D5
330
1F
100
AcDbEntity
  8
0
  6
Continuous
 62
     7
370
    15
100
AcDbLine
 10
4.855923647709428
 20
7.032597028832229
 30
0.0
 11
4.855923647709428
 21
7.056683120102501
 31
0.0
  0
LINE
  5
1D6
330
1F
100
AcDbEntity
  8
0
  6
Continuous
 62
     7
370
    15
100
AcDbLine
 10
4.855923647709428
 20
7.056683120102501
 30
0.0
 11
4.749857630531447
 21
7.028266861873063
 31
0.0
  0
LINE
  5
1D7
330
1F
100
AcDbEntity
  8
0
  6
Continuous
 62
     7
370
    15
100
AcDbLine
 10
4.749857630531447
 20
7.028266861873063
 30
0.0
 11
4.749857630531447
 21
7.00418077060279
 31
0.0
  0
LINE
  5
1D8
330
1F
100
AcDbEntity
  8
0
  6
Continuous
 62
     7
370
    15
100
AcDbLine
 10
4.870065783333159
 20
7.036385863262821
 30
0.0
 11
4.976131800511142
 21
7.06480212149226
 31
0.0
  0
LINE
  5
1D9
330
1F
100
AcDbEntity
  8
0
  6
Continuous
 62
     7
370
    15
100
AcDbLine
 10
4.976131800511142
 20
7.06480212149226
 30
0.0
 11
4.976131800511142
 21
7.088888212762532
 31
0.0
  0
LINE
  5
1DA
330
1F
100
AcDbEntity
  8
0
  6
Continuous
 62
     7
370
    15
100
AcDbLine
 10
4.976131800511142
 20
7.088888212762532
 30
0.0
 11
4.870065783333159
 21
7.060471954533094
 31
0.0
  0
LINE
  5
1DB
330
1F
100
AcDbEntity
  8
0
  6
Continuous
 62
     7
370
    15
100
AcDbLine
 10
4.870065783333159
 20
7.060471954533094
 30
0.0
 11
4.870065783333159
 21
7.036385863262821
 31
0.0
  0
LINE
  5
1DC
330
1F
100
AcDbEntity
  8
0
  6
Continuous
 62
     7
370
    15
100
AcDbLine
 10
4.990273936134872
 20
7.068590955922853
 30
0.0
 11
5.096339953312856
 21
7.097007214152291
 31
0.0
  0
LINE
  5
1DD
330
1F
100
AcDbEntity
  8
0
  6
Continuous
 62
     7
370
    15
100
AcDbLine
 10
5.096339953312856
 20
7.097007214152291
 30
0.0
 11
5.096339953312856
 21
7.121093305422563
 31
0.0
  0
LINE
  5
1DE
330
1F
100
AcDbEntity
  8
0
  6
Continuous
 62
     7
370
    15
100
AcDbLine
 10
5.096339953312856
 20
7.121093305422563
 30
0.0
 11
4.990273936134872
 21
7.092677047193124
 31
0.0
  0
LINE
  5
1DF
330
1F
100
AcDbEntity
  8
0
  6
Continuous
 62
     7
370
    15
100
AcDbLine
 10
4.990273936134872
 20
7.092677047193124
 30
0.0
 11
4.990273936134872
 21
7.068590955922853
 31
0.0
  0
LINE
  5
1E0
330
1F
100
AcDbEntity
  8
0
  6
Continuous
 62
     7
370
    15
100
AcDbLine
 10
5.110482088936587
 20
7.100796048582884
 30
0.0
 11
5.216548106114569
 21
7.129212306812322
 31
0.0
  0
LINE
  5
1E1
330
1F
100
AcDbEntity
  8
0
  6
Continuous
 62
     7
370
    15
100
AcDbLine
 10
5.216548106114569
 20
7.129212306812322
 30
0.0
 11
5.216548106114569
 21
7.153298398082594
 31
0.0
  0
LINE
  5
1E2
330
1F
100
AcDbEntity
  8
0
  6
Continuous
 62
     7
370
    15
100
AcDbLine
 10
5.216548106114569
 20
7.153298398082594
 30
0.0
 11
5.110482088936587
 21
7.124882139853155
 31
0.0
  0
LINE
  5
1E3
330
1F
100
AcDbEntity
  8
0
  6
Continuous
 62
     7
370
    15
100
AcDbLine
 10
5.110482088936587
 20
7.124882139853155
 30
0.0
 11
5.110482088936587
 21
7.100796048582884
 31
0.0
  0
LINE
  5
1E4
330
1F
100
AcDbEntity
  8
0
  6
Continuous
 62
     7
370
    15
100
AcDbLine
 10
4.749857630531447
 20
6.966606468221165
 30
0.0
 11
4.855923647709428
 21
6.995022726450605
 31
0.0
  0
LINE
  5
1E5
330
1F
100
AcDbEntity
  8
0
  6
Continuous
 62
     7
370
    15
100
AcDbLine
 10
4.855923647709428
 20
6.995022726450605
 30
0.0
 11
4.855923647709428
 21
7.019108817720876
 31
0.0
  0
LINE
  5
1E6
330
1F
100
AcDbEntity
  8
0
  6
Continuous
 62
     7
370
    15
100
AcDbLine
 10
4.855923647709428
 20
7.019108817720876
 30
0.0
 11
4.749857630531447
 21
6.990692559491438
 31
0.0
  0
LINE
  5
1E7
330
1F
100
AcDbEntity
  8
0
  6
Continuous
 62
     7
370
    15
100
AcDbLine
 10
4.749857630531447
 20
6.990692559491438
 30
0.0
 11
4.749857630531447
 21
6.966606468221165
 31
0.0
  0
LINE
  5
1E8
330
1F
100
AcDbEntity
  8
0
  6
Continuous
 62
     7
370
    15
100
AcDbLine
 10
4.87006578333316
 20
6.998811560881196
 30
0.0
 11
4.976131800511142
 21
7.027227819110636
 31
0.0
  0
LINE
  5
1E9
330
1F
100
AcDbEntity
  8
0
  6
Continuous
 62
     7
370
    15
100
AcDbLine
 10
4.976131800511142
 20
7.027227819110636
 30
0.0
 11
4.976131800511142
 21
7.051313910380908
 31
0.0
  0
LINE
  5
1EA
330
1F
100
AcDbEntity
  8
0
  6
Continuous
 62
     7
370
    15
100
AcDbLine
 10
4.976131800511142
 20
7.051313910380908
 30
0.0
 11
4.87006578333316
 21
7.022897652151469
 31
0.0
  0
LINE
  5
1EB
330
1F
100
AcDbEntity
  8
0
  6
Continuous
 62
     7
370
    15
100
AcDbLine
 10
4.87006578333316
 20
7.022897652151469
 30
0.0
 11
4.87006578333316
 21
6.998811560881196
 31
0.0
  0
LINE
  5
1EC
330
1F
100
AcDbEntity
  8
0
  6
Continuous
 62
     7
370
    15
100
AcDbLine
 10
4.990273936134873
 20
7.031016653541228
 30
0.0
 11
5.096339953312856
 21
7.059432911770667
 31
0.0
  0
LINE
  5
1ED
330
1F
100
AcDbEntity
  8
0
  6
Continuous
 62
     7
370
    15
100
AcDbLine
 10
5.096339953312856
 20
7.059432911770667
 30
0.0
 11
5.096339953312856
 21
7.083519003040939
 31
0.0
  0
LINE
  5
1EE
330
1F
100
AcDbEntity
  8
0
  6
Continuous
 62
     7
370
    15
100
AcDbLine
 10
5.096339953312856
 20
7.083519003040939
 30
0.0
 11
4.990273936134873
 21
7.0551027448115
 31
0.0
  0
LINE
  5
1EF
330
1F
100
AcDbEntity
  8
0
  6
Continuous
 62
     7
370
    15
100
AcDbLine
 10
4.990273936134873
 20
7.0551027448115
 30
0.0
 11
4.990273936134873
 21
7.031016653541228
 31
0.0
  0
LINE
  5
1F0
330
1F
100
AcDbEntity
  8
0
  6
Continuous
 62
     7
370
    15
100
AcDbLine
 10
5.110482088936587
 20
7.063221746201259
 30
0.0
 11
5.216548106114569
 21
7.091638004430699
 31
0.0
  0
LINE
  5
1F1
330
1F
100
AcDbEntity
  8
0
  6
Continuous
 62
     7
370
    15
100
AcDbLine
 10
5.216548106114569
 20
7.091638004430699
 30
0.0
 11
5.216548106114569
 21
7.11572409570097
 31
0.0
  0
LINE
  5
1F2
330
1F
100
AcDbEntity
  8
0
  6
Continuous
 62
     7
370
    15
100
AcDbLine
 10
5.216548106114569
 20
7.11572409570097
 30
0.0
 11
5.110482088936587
 21
7.087307837471532
 31
0.0
  0
LINE
  5
1F3
330
1F
100
AcDbEntity
  8
0
  6
Continuous
 62
     7
370
    15
100
AcDbLine
 10
5.110482088936587
 20
7.087307837471532
 30
0.0
 11
5.110482088936587
 21
7.063221746201259
 31
0.0
  0
LINE
  5
1F4
330
1F
100
AcDbEntity
  8
0
  6
Continuous
 62
     7
370
    15
100
AcDbLine
 10
4.749857630531447
 20
6.929032165839541
 30
0.0
 11
4.855923647709429
 21
6.957448424068981
 31
0.0
  0
LINE
  5
1F5
330
1F
100
AcDbEntity
  8
0
  6
Continuous
 62
     7
370
    15
100
AcDbLine
 10
4.855923647709429
 20
6.957448424068981
 30
0.0
 11
4.855923647709429
 21
6.981534515339253
 31
0.0
  0
LINE
  5
1F6
330
1F
100
AcDbEntity
  8
0
  6
Continuous
 62
     7
370
    15
100
AcDbLine
 10
4.855923647709429
 20
6.981534515339253
 30
0.0
 11
4.749857630531447
 21
6.953118257109814
 31
0.0
  0
LINE
  5
1F7
330
1F
100
AcDbEntity
  8
0
  6
Continuous
 62
     7
370
    15
100
AcDbLine
 10
4.749857630531447
 20
6.953118257109814
 30
0.0
 11
4.749857630531447
 21
6.929032165839541
 31
0.0
  0
LINE
  5
1F8
330
1F
100
AcDbEntity
  8
0
  6
Continuous
 62
     7
370
    15
100
AcDbLine
 10
4.870065783333161
 20
6.961237258499573
 30
0.0
 11
4.976131800511143
 21
6.989653516729012
 31
0.0
  0
LINE
  5
1F9
330
1F
100
AcDbEntity
  8
0
  6
Continuous
 62
     7
370
    15
100
AcDbLine
 10
4.976131800511143
 20
6.989653516729012
 30
0.0
 11
4.976131800511143
 21
7.013739607999283
 31
0.0
  0
LINE
  5
1FA
330
1F
100
AcDbEntity
  8
0
  6
Continuous
 62
     7
370
    15
100
AcDbLine
 10
4.976131800511143
 20
7.013739607999283
 30
0.0
 11
4.870065783333161
 21
6.985323349769844
 31
0.0
  0
LINE
  5
1FB
330
1F
100
AcDbEntity
  8
0
  6
Continuous
 62
     7
370
    15
100
AcDbLine
 10
4.870065783333161
 20
6.985323349769844
 30
0.0
 11
4.870065783333161
 21
6.961237258499573
 31
0.0
  0
LINE
  5
1FC
330
1F
100
AcDbEntity
  8
0
  6
Continuous
 62
     7
370
    15
100
AcDbLine
 10
4.990273936134873
 20
6.993442351159604
 30
0.0
 11
5.096339953312856
 21
7.021858609389044
 31
0.0
  0
LINE
  5
1FD
330
1F
100
AcDbEntity
  8
0
  6
Continuous
 62
     7
370
    15
100
AcDbLine
 10
5.096339953312856
 20
7.021858609389044
 30
0.0
 11
5.096339953312856
 21
7.045944700659314
 31
0.0
  0
LINE
  5
1FE
330
1F
100
AcDbEntity
  8
0
  6
Continuous
 62
     7
370
    15
100
AcDbLine
 10
5.096339953312856
 20
7.045944700659314
 30
0.0
 11
4.990273936134873
 21
7.017528442429876
 31
0.0
  0
LINE
  5
1FF
330
1F
100
AcDbEntity
  8
0
  6
Continuous
 62
     7
370
    15
100
AcDbLine
 10
4.990273936134873
 20
7.017528442429876
 30
0.0
 11
4.990273936134873
 21
6.993442351159604
 31
0.0
  0
LINE
  5
200
330
1F
100
AcDbEntity
  8
0
  6
Continuous
 62
     7
370
    15
100
AcDbLine
 10
5.110482088936587
 20
7.025647443819634
 30
0.0
 11
5.216548106114569
 21
7.054063702049074
 31
0.0
  0
LINE
  5
201
330
1F
100
AcDbEntity
  8
0
  6
Continuous
 62
     7
370
    15
100
AcDbLine
 10
5.216548106114569
 20
7.054063702049074
 30
0.0
 11
5.216548106114569
 21
7.078149793319346
 31
0.0
  0
LINE
  5
202
330
1F
100
AcDbEntity
  8
0
  6
Continuous
 62
     7
370
    15
100
AcDbLine
 10
5.216548106114569
 20
7.078149793319346
 30
0.0
 11
5.110482088936587
 21
7.049733535089907
 31
0.0
  0
LINE
  5
203
330
1F
100
AcDbEntity
  8
0
  6
Continuous
 62
     7
370
    15
100
AcDbLine
 10
5.110482088936587
 20
7.049733535089907
 30
0.0
 11
5.110482088936587
 21
7.025647443819634
 31
0.0
  0
LINE
  5
204
330
1F
100
AcDbEntity
  8
0
  6
Continuous
 62
     7
370
    15
100
AcDbLine
 10
4.749857630531447
 20
6.891457863457916
 30
0.0
 11
4.85592364770943
 21
6.919874121687356
 31
0.0
  0
LINE
  5
205
330
1F
100
AcDbEntity
  8
0
  6
Continuous
 62
     7
370
    15
100
AcDbLine
 10
4.85592364770943
 20
6.919874121687356
 30
0.0
 11
4.85592364770943
 21
6.943960212957628
 31
0.0
  0
LINE
  5
206
330
1F
100
AcDbEntity
  8
0
  6
Continuous
 62
     7
370
    15
100
AcDbLine
 10
4.85592364770943
 20
6.943960212957628
 30
0.0
 11
4.749857630531447
 21
6.915543954728189
 31
0.0
  0
LINE
  5
207
330
1F
100
AcDbEntity
  8
0
  6
Continuous
 62
     7
370
    15
100
AcDbLine
 10
4.749857630531447
 20
6.915543954728189
 30
0.0
 11
4.749857630531447
 21
6.891457863457916
 31
0.0
  0
LINE
  5
208
330
1F
100
AcDbEntity
  8
0
  6
Continuous
 62
     7
370
    15
100
AcDbLine
 10
4.870065783333161
 20
6.923662956117948
 30
0.0
 11
4.976131800511143
 21
6.952079214347387
 31
0.0
  0
LINE
  5
209
330
1F
100
AcDbEntity
  8
0
  6
Continuous
 62
     7
370
    15
100
AcDbLine
 10
4.976131800511143
 20
6.952079214347387
 30
0.0
 11
4.976131800511143
 21
6.976165305617659
 31
0.0
  0
LINE
  5
20A
330
1F
100
AcDbEntity
  8
0
  6
Continuous
 62
     7
370
    15
100
AcDbLine
 10
4.976131800511143
 20
6.976165305617659
 30
0.0
 11
4.870065783333161
 21
6.947749047388219
 31
0.0
  0
LINE
  5
20B
330
1F
100
AcDbEntity
  8
0
  6
Continuous
 62
     7
370
    15
100
AcDbLine
 10
4.870065783333161
 20
6.947749047388219
 30
0.0
 11
4.870065783333161
 21
6.923662956117948
 31
0.0
  0
LINE
  5
20C
330
1F
100
AcDbEntity
  8
0
  6
Continuous
 62
     7
370
    15
100
AcDbLine
 10
4.990273936134873
 20
6.955868048777979
 30
0.0
 11
5.096339953312856
 21
6.984284307007419
 31
0.0
  0
LINE
  5
20D
330
1F
100
AcDbEntity
  8
0
  6
Continuous
 62
     7
370
    15
100
AcDbLine
 10
5.096339953312856
 20
6.984284307007419
 30
0.0
 11
5.096339953312856
 21
7.00837039827769
 31
0.0
  0
LINE
  5
20E
330
1F
100
AcDbEntity
  8
0
  6
Continuous
 62
     7
370
    15
100
AcDbLine
 10
5.096339953312856
 20
7.00837039827769
 30
0.0
 11
4.990273936134873
 21
6.979954140048251
 31
0.0
  0
LINE
  5
20F
330
1F
100
AcDbEntity
  8
0
  6
Continuous
 62
     7
370
    15
100
AcDbLine
 10
4.990273936134873
 20
6.979954140048251
 30
0.0
 11
4.990273936134873
 21
6.955868048777979
 31
0.0
  0
LINE
  5
210
330
1F
100
AcDbEntity
  8
0
  6
Continuous
 62
     7
370
    15
100
AcDbLine
 10
5.110482088936587
 20
6.98807314143801
 30
0.0
 11
5.216548106114569
 21
7.01648939966745
 31
0.0
  0
LINE
  5
211
330
1F
100
AcDbEntity
  8
0
  6
Continuous
 62
     7
370
    15
100
AcDbLine
 10
5.216548106114569
 20
7.01648939966745
 30
0.0
 11
5.216548106114569
 21
7.040575490937722
 31
0.0
  0
LINE
  5
212
330
1F
100
AcDbEntity
  8
0
  6
Continuous
 62
     7
370
    15
100
AcDbLine
 10
5.216548106114569
 20
7.040575490937722
 30
0.0
 11
5.110482088936587
 21
7.012159232708282
 31
0.0
  0
LINE
  5
213
330
1F
100
AcDbEntity
  8
0
  6
Continuous
 62
     7
370
    15
100
AcDbLine
 10
5.110482088936587
 20
7.012159232708282
 30
0.0
 11
5.110482088936587
 21
6.98807314143801
 31
0.0
  0
LINE
  5
214
330
1F
100
AcDbEntity
  8
0
  6
Continuous
 62
     7
370
    15
100
AcDbLine
 10
4.749857630531447
 20
6.853883561076291
 30
0.0
 11
4.85592364770943
 21
6.882299819305732
 31
0.0
  0
LINE
  5
215
330
1F
100
AcDbEntity
  8
0
  6
Continuous
 62
     7
370
    15
100
AcDbLine
 10
4.85592364770943
 20
6.882299819305732
 30
0.0
 11
4.85592364770943
 21
6.906385910576004
 31
0.0
  0
LINE
  5
216
330
1F
100
AcDbEntity
  8
0
  6
Continuous
 62
     7
370
    15
100
AcDbLine
 10
4.85592364770943
 20
6.906385910576004
 30
0.0
 11
4.749857630531447
 21
6.877969652346564
 31
0.0
  0
LINE
  5
217
330
1F
100
AcDbEntity
  8
0
  6
Continuous
 62
     7
370
    15
100
AcDbLine
 10
4.749857630531447
 20
6.877969652346564
 30
0.0
 11
4.749857630531447
 21
6.853883561076291
 31
0.0
  0
LINE
  5
218
330
1F
100
AcDbEntity
  8
0
  6
Continuous
 62
     7
370
    15
100
AcDbLine
 10
4.870065783333161
 20
6.886088653736323
 30
0.0
 11
4.976131800511143
 21
6.914504911965764
 31
0.0
  0
LINE
  5
219
330
1F
100
AcDbEntity
  8
0
  6
Continuous
 62
     7
370
    15
100
AcDbLine
 10
4.976131800511143
 20
6.914504911965764
 30
0.0
 11
4.976131800511143
 21
6.938591003236035
 31
0.0
  0
LINE
  5
21A
330
1F
100
AcDbEntity
  8
0
  6
Continuous
 62
     7
370
    15
100
AcDbLine
 10
4.976131800511143
 20
6.938591003236035
 30
0.0
 11
4.870065783333161
 21
6.910174745006596
 31
0.0
  0
LINE
  5
21B
330
1F
100
AcDbEntity
  8
0
  6
Continuous
 62
     7
370
    15
100
AcDbLine
 10
4.870065783333161
 20
6.910174745006596
 30
0.0
 11
4.870065783333161
 21
6.886088653736323
 31
0.0
  0
LINE
  5
21C
330
1F
100
AcDbEntity
  8
0
  6
Continuous
 62
     7
370
    15
100
AcDbLine
 10
4.990273936134874
 20
6.918293746396354
 30
0.0
 11
5.096339953312856
 21
6.946710004625794
 31
0.0
  0
LINE
  5
21D
330
1F
100
AcDbEntity
  8
0
  6
Continuous
 62
     7
370
    15
100
AcDbLine
 10
5.096339953312856
 20
6.946710004625794
 30
0.0
 11
5.096339953312856
 21
6.970796095896067
 31
0.0
  0
LINE
  5
21E
330
1F
100
AcDbEntity
  8
0
  6
Continuous
 62
     7
370
    15
100
AcDbLine
 10
5.096339953312856
 20
6.970796095896067
 30
0.0
 11
4.990273936134874
 21
6.942379837666627
 31
0.0
  0
LINE
  5
21F
330
1F
100
AcDbEntity
  8
0
  6
Continuous
 62
     7
370
    15
100
AcDbLine
 10
4.990273936134874
 20
6.942379837666627
 30
0.0
 11
4.990273936134874
 21
6.918293746396354
 31
0.0
  0
LINE
  5
220
330
1F
100
AcDbEntity
  8
0
  6
Continuous
 62
     7
370
    15
100
AcDbLine
 10
5.110482088936588
 20
6.950498839056384
 30
0.0
 11
5.216548106114569
 21
6.978915097285825
 31
0.0
  0
LINE
  5
221
330
1F
100
AcDbEntity
  8
0
  6
Continuous
 62
     7
370
    15
100
AcDbLine
 10
5.216548106114569
 20
6.978915097285825
 30
0.0
 11
5.216548106114569
 21
7.003001188556098
 31
0.0
  0
LINE
  5
222
330
1F
100
AcDbEntity
  8
0
  6
Continuous
 62
     7
370
    15
100
AcDbLine
 10
5.216548106114569
 20
7.003001188556098
 30
0.0
 11
5.110482088936588
 21
6.974584930326657
 31
0.0
  0
LINE
  5
223
330
1F
100
AcDbEntity
  8
0
  6
Continuous
 62
     7
370
    15
100
AcDbLine
 10
5.110482088936588
 20
6.974584930326657
 30
0.0
 11
5.110482088936588
 21
6.950498839056384
 31
0.0
  0
LINE
  5
224
330
1F
100
AcDbEntity
  8
0
  6
Continuous
 62
     7
370
    15
100
AcDbLine
 10
4.749857630531447
 20
6.816309258694668
 30
0.0
 11
4.85592364770943
 21
6.844725516924107
 31
0.0
  0
LINE
  5
225
330
1F
100
AcDbEntity
  8
0
  6
Continuous
 62
     7
370
    15
100
AcDbLine
 10
4.85592364770943
 20
6.844725516924107
 30
0.0
 11
4.85592364770943
 21
6.868811608194379
 31
0.0
  0
LINE
  5
226
330
1F
100
AcDbEntity
  8
0
  6
Continuous
 62
     7
370
    15
100
AcDbLine
 10
4.85592364770943
 20
6.868811608194379
 30
0.0
 11
4.749857630531447
 21
6.840395349964939
 31
0.0
  0
LINE
  5
227
330
1F
100
AcDbEntity
  8
0
  6
Continuous
 62
     7
370
    15
100
AcDbLine
 10
4.749857630531447
 20
6.840395349964939
 30
0.0
 11
4.749857630531447
 21
6.816309258694668
 31
0.0
  0
LINE
  5
228
330
1F
100
AcDbEntity
  8
0
  6
Continuous
 62
     7
370
    15
100
AcDbLine
 10
4.870065783333161
 20
6.848514351354699
 30
0.0
 11
4.976131800511143
 21
6.876930609584139
 31
0.0
  0
LINE
  5
229
330
1F
100
AcDbEntity
  8
0
  6
Continuous
 62
     7
370
    15
100
AcDbLine
 10
4.976131800511143
 20
6.876930609584139
 30
0.0
 11
4.976131800511143
 21
6.90101670085441
 31
0.0
  0
LINE
  5
22A
330
1F
100
AcDbEntity
  8
0
  6
Continuous
 62
     7
370
    15
100
AcDbLine
 10
4.976131800511143
 20
6.90101670085441
 30
0.0
 11
4.870065783333161
 21
6.872600442624971
 31
0.0
  0
LINE
  5
22B
330
1F
100
AcDbEntity
  8
0
  6
Continuous
 62
     7
370
    15
100
AcDbLine
 10
4.870065783333161
 20
6.872600442624971
 30
0.0
 11
4.870065783333161
 21
6.848514351354699
 31
0.0
  0
LINE
  5
22C
330
1F
100
AcDbEntity
  8
0
  6
Continuous
 62
     7
370
    15
100
AcDbLine
 10
4.990273936134874
 20
6.880719444014729
 30
0.0
 11
5.096339953312857
 21
6.909135702244169
 31
0.0
  0
LINE
  5
22D
330
1F
100
AcDbEntity
  8
0
  6
Continuous
 62
     7
370
    15
100
AcDbLine
 10
5.096339953312857
 20
6.909135702244169
 30
0.0
 11
5.096339953312857
 21
6.933221793514442
 31
0.0
  0
LINE
  5
22E
330
1F
100
AcDbEntity
  8
0
  6
Continuous
 62
     7
370
    15
100
AcDbLine
 10
5.096339953312857
 20
6.933221793514442
 30
0.0
 11
4.990273936134874
 21
6.904805535285002
 31
0.0
  0
LINE
  5
22F
330
1F
100
AcDbEntity
  8
0
  6
Continuous
 62
     7
370
    15
100
AcDbLine
 10
4.990273936134874
 20
6.904805535285002
 30
0.0
 11
4.990273936134874
 21
6.880719444014729
 31
0.0
  0
LINE
  5
230
330
1F
100
AcDbEntity
  8
0
  6
Continuous
 62
     7
370
    15
100
AcDbLine
 10
5.110482088936588
 20
6.912924536674761
 30
0.0
 11
5.216548106114569
 21
6.9413407949042
 31
0.0
  0
LINE
  5
231
330
1F
100
AcDbEntity
  8
0
  6
Continuous
 62
     7
370
    15
100
AcDbLine
 10
5.216548106114569
 20
6.9413407949042
 30
0.0
 11
5.216548106114569
 21
6.965426886174473
 31
0.0
  0
LINE
  5
232
330
1F
100
AcDbEntity
  8
0
  6
Continuous
 62
     7
370
    15
100
AcDbLine
 10
5.216548106114569
 20
6.965426886174473
 30
0.0
 11
5.110482088936588
 21
6.937010627945034
 31
0.0
  0
LINE
  5
233
330
1F
100
AcDbEntity
  8
0
  6
Continuous
 62
     7
370
    15
100
AcDbLine
 10
5.110482088936588
 20
6.937010627945034
 30
0.0
 11
5.110482088936588
 21
6.912924536674761
 31
0.0
  0
LINE
  5
234
330
1F
100
AcDbEntity
  8
0
  6
Continuous
 62
     7
370
    15
100
AcDbLine
 10
4.749857630531448
 20
6.778734956313043
 30
0.0
 11
4.85592364770943
 21
6.807151214542482
 31
0.0
  0
LINE
  5
235
330
1F
100
AcDbEntity
  8
0
  6
Continuous
 62
     7
370
    15
100
AcDbLine
 10
4.85592364770943
 20
6.807151214542482
 30
0.0
 11
4.85592364770943
 21
6.831237305812754
 31
0.0
  0
LINE
  5
236
330
1F
100
AcDbEntity
  8
0
  6
Continuous
 62
     7
370
    15
100
AcDbLine
 10
4.85592364770943
 20
6.831237305812754
 30
0.0
 11
4.749857630531448
 21
6.802821047583314
 31
0.0
  0
LINE
  5
237
330
1F
100
AcDbEntity
  8
0
  6
Continuous
 62
     7
370
    15
100
AcDbLine
 10
4.749857630531448
 20
6.802821047583314
 30
0.0
 11
4.749857630531448
 21
6.778734956313043
 31
0.0
  0
LINE
  5
238
330
1F
100
AcDbEntity
  8
0
  6
Continuous
 62
     7
370
    15
100
AcDbLine
 10
4.870065783333162
 20
6.810940048973074
 30
0.0
 11
4.976131800511144
 21
6.839356307202514
 31
0.0
  0
LINE
  5
239
330
1F
100
AcDbEntity
  8
0
  6
Continuous
 62
     7
370
    15
100
AcDbLine
 10
4.976131800511144
 20
6.839356307202514
 30
0.0
 11
4.976131800511144
 21
6.863442398472785
 31
0.0
  0
LINE
  5
23A
330
1F
100
AcDbEntity
  8
0
  6
Continuous
 62
     7
370
    15
100
AcDbLine
 10
4.976131800511144
 20
6.863442398472785
 30
0.0
 11
4.870065783333162
 21
6.835026140243346
 31
0.0
  0
LINE
  5
23B
330
1F
100
AcDbEntity
  8
0
  6
Continuous
 62
     7
370
    15
100
AcDbLine
 10
4.870065783333162
 20
6.835026140243346
 30
0.0
 11
4.870065783333162
 21
6.810940048973074
 31
0.0
  0
LINE
  5
23C
330
1F
100
AcDbEntity
  8
0
  6
Continuous
 62
     7
370
    15
100
AcDbLine
 10
4.990273936134874
 20
6.843145141633106
 30
0.0
 11
5.096339953312857
 21
6.871561399862545
 31
0.0
  0
LINE
  5
23D
330
1F
100
AcDbEntity
  8
0
  6
Continuous
 62
     7
370
    15
100
AcDbLine
 10
5.096339953312857
 20
6.871561399862545
 30
0.0
 11
5.096339953312857
 21
6.895647491132817
 31
0.0
  0
LINE
  5
23E
330
1F
100
AcDbEntity
  8
0
  6
Continuous
 62
     7
370
    15
100
AcDbLine
 10
5.096339953312857
 20
6.895647491132817
 30
0.0
 11
4.990273936134874
 21
6.867231232903377
 31
0.0
  0
LINE
  5
23F
330
1F
100
AcDbEntity
  8
0
  6
Continuous
 62
     7
370
    15
100
AcDbLine
 10
4.990273936134874
 20
6.867231232903377
 30
0.0
 11
4.990273936134874
 21
6.843145141633106
 31
0.0
  0
LINE
  5
240
330
1F
100
AcDbEntity
  8
0
  6
Continuous
 62
     7
370
    15
100
AcDbLine
 10
5.110482088936588
 20
6.875350234293137
 30
0.0
 11
5.216548106114569
 21
6.903766492522577
 31
0.0
  0
LINE
  5
241
330
1F
100
AcDbEntity
  8
0
  6
Continuous
 62
     7
370
    15
100
AcDbLine
 10
5.216548106114569
 20
6.903766492522577
 30
0.0
 11
5.216548106114569
 21
6.927852583792848
 31
0.0
  0
LINE
  5
242
330
1F
100
AcDbEntity
  8
0
  6
Continuous
 62
     7
370
    15
100
AcDbLine
 10
5.216548106114569
 20
6.927852583792848
 30
0.0
 11
5.110482088936588
 21
6.899436325563409
 31
0.0
  0
LINE
  5
243
330
1F
100
AcDbEntity
  8
0
  6
Continuous
 62
     7
370
    15
100
AcDbLine
 10
5.110482088936588
 20
6.899436325563409
 30
0.0
 11
5.110482088936588
 21
6.875350234293137
 31
0.0
  0
LINE
  5
244
330
1F
100
AcDbEntity
  8
0
  6
Continuous
 62
     7
370
    15
100
AcDbLine
 10
4.629649477729732
 20
7.047124282706008
 30
0.0
 11
4.735715494907715
 21
7.075540540935447
 31
0.0
  0
LINE
  5
245
330
1F
100
AcDbEntity
  8
0
  6
Continuous
 62
     7
370
    15
100
AcDbLine
 10
4.735715494907715
 20
7.075540540935447
 30
0.0
 11
4.735715494907715
 21
7.099626632205719
 31
0.0
  0
LINE
  5
246
330
1F
100
AcDbEntity
  8
0
  6
Continuous
 62
     7
370
    15
100
AcDbLine
 10
4.735715494907715
 20
7.099626632205719
 30
0.0
 11
4.629649477729732
 21
7.071210373976279
 31
0.0
  0
LINE
  5
247
330
1F
100
AcDbEntity
  8
0
  6
Continuous
 62
     7
370
    15
100
AcDbLine
 10
4.629649477729732
 20
7.071210373976279
 30
0.0
 11
4.629649477729732
 21
7.047124282706008
 31
0.0
  0
LINE
  5
248
330
1F
100
AcDbEntity
  8
0
  6
Continuous
 62
     7
370
    15
100
AcDbLine
 10
4.629649477729733
 20
7.009549980324383
 30
0.0
 11
4.735715494907715
 21
7.037966238553823
 31
0.0
  0
LINE
  5
249
330
1F
100
AcDbEntity
  8
0
  6
Continuous
 62
     7
370
    15
100
AcDbLine
 10
4.735715494907715
 20
7.037966238553823
 30
0.0
 11
4.735715494907715
 21
7.062052329824095
 31
0.0
  0
LINE
  5
24A
330
1F
100
AcDbEntity
  8
0
  6
Continuous
 62
     7
370
    15
100
AcDbLine
 10
4.735715494907715
 20
7.062052329824095
 30
0.0
 11
4.629649477729733
 21
7.033636071594655
 31
0.0
  0
LINE
  5
24B
330
1F
100
AcDbEntity
  8
0
  6
Continuous
 62
     7
370
    15
100
AcDbLine
 10
4.629649477729733
 20
7.033636071594655
 30
0.0
 11
4.629649477729733
 21
7.009549980324383
 31
0.0
  0
LINE
  5
24C
330
1F
100
AcDbEntity
  8
0
  6
Continuous
 62
     7
370
    15
100
AcDbLine
 10
4.629649477729733
 20
6.971975677942758
 30
0.0
 11
4.735715494907715
 21
7.000391936172198
 31
0.0
  0
LINE
  5
24D
330
1F
100
AcDbEntity
  8
0
  6
Continuous
 62
     7
370
    15
100
AcDbLine
 10
4.735715494907715
 20
7.000391936172198
 30
0.0
 11
4.735715494907715
 21
7.02447802744247
 31
0.0
  0
LINE
  5
24E
330
1F
100
AcDbEntity
  8
0
  6
Continuous
 62
     7
370
    15
100
AcDbLine
 10
4.735715494907715
 20
7.02447802744247
 30
0.0
 11
4.629649477729733
 21
6.996061769213031
 31
0.0
  0
LINE
  5
24F
330
1F
100
AcDbEntity
  8
0
  6
Continuous
 62
     7
370
    15
100
AcDbLine
 10
4.629649477729733
 20
6.996061769213031
 30
0.0
 11
4.629649477729733
 21
6.971975677942758
 31
0.0
  0
LINE
  5
250
330
1F
100
AcDbEntity
  8
0
  6
Continuous
 62
     7
370
    15
100
AcDbLine
 10
4.629649477729733
 20
6.934401375561135
 30
0.0
 11
4.735715494907716
 21
6.962817633790574
 31
0.0
  0
LINE
  5
251
330
1F
100
AcDbEntity
  8
0
  6
Continuous
 62
     7
370
    15
100
AcDbLine
 10
4.735715494907716
 20
6.962817633790574
 30
0.0
 11
4.735715494907716
 21
6.986903725060845
 31
0.0
  0
LINE
  5
252
330
1F
100
AcDbEntity
  8
0
  6
Continuous
 62
     7
370
    15
100
AcDbLine
 10
4.735715494907716
 20
6.986903725060845
 30
0.0
 11
4.629649477729733
 21
6.958487466831406
 31
0.0
  0
LINE
  5
253
330
1F
100
AcDbEntity
  8
0
  6
Continuous
 62
     7
370
    15
100
AcDbLine
 10
4.629649477729733
 20
6.958487466831406
 30
0.0
 11
4.629649477729733
 21
6.934401375561135
 31
0.0
  0
LINE
  5
254
330
1F
100
AcDbEntity
  8
0
  6
Continuous
 62
     7
370
    15
100
AcDbLine
 10
4.629649477729733
 20
6.89682707317951
 30
0.0
 11
4.735715494907716
 21
6.925243331408949
 31
0.0
  0
LINE
  5
255
330
1F
100
AcDbEntity
  8
0
  6
Continuous
 62
     7
370
    15
100
AcDbLine
 10
4.735715494907716
 20
6.925243331408949
 30
0.0
 11
4.735715494907716
 21
6.949329422679221
 31
0.0
  0
LINE
  5
256
330
1F
100
AcDbEntity
  8
0
  6
Continuous
 62
     7
370
    15
100
AcDbLine
 10
4.735715494907716
 20
6.949329422679221
 30
0.0
 11
4.629649477729733
 21
6.920913164449783
 31
0.0
  0
LINE
  5
257
330
1F
100
AcDbEntity
  8
0
  6
Continuous
 62
     7
370
    15
100
AcDbLine
 10
4.629649477729733
 20
6.920913164449783
 30
0.0
 11
4.629649477729733
 21
6.89682707317951
 31
0.0
  0
LINE
  5
258
330
1F
100
AcDbEntity
  8
0
  6
Continuous
 62
     7
370
    15
100
AcDbLine
 10
4.629649477729734
 20
6.859252770797885
 30
0.0
 11
4.735715494907716
 21
6.887669029027324
 31
0.0
  0
LINE
  5
259
330
1F
100
AcDbEntity
  8
0
  6
Continuous
 62
     7
370
    15
100
AcDbLine
 10
4.735715494907716
 20
6.887669029027324
 30
0.0
 11
4.735715494907716
 21
6.911755120297597
 31
0.0
  0
LINE
  5
25A
330
1F
100
AcDbEntity
  8
0
  6
Continuous
 62
     7
370
    15
100
AcDbLine
 10
4.735715494907716
 20
6.911755120297597
 30
0.0
 11
4.629649477729734
 21
6.883338862068158
 31
0.0
  0
LINE
  5
25B
330
1F
100
AcDbEntity
  8
0
  6
Continuous
 62
     7
370
    15
100
AcDbLine
 10
4.629649477729734
 20
6.883338862068158
 30
0.0
 11
4.629649477729734
 21
6.859252770797885
 31
0.0
  0
LINE
  5
25C
330
1F
100
AcDbEntity
  8
0
  6
Continuous
 62
     7
370
    15
100
AcDbLine
 10
4.629649477729734
 20
6.82167846841626
 30
0.0
 11
4.735715494907716
 21
6.850094726645701
 31
0.0
  0
LINE
  5
25D
330
1F
100
AcDbEntity
  8
0
  6
Continuous
 62
     7
370
    15
100
AcDbLine
 10
4.735715494907716
 20
6.850094726645701
 30
0.0
 11
4.735715494907716
 21
6.874180817915972
 31
0.0
  0
LINE
  5
25E
330
1F
100
AcDbEntity
  8
0
  6
Continuous
 62
     7
370
    15
100
AcDbLine
 10
4.735715494907716
 20
6.874180817915972
 30
0.0
 11
4.629649477729734
 21
6.845764559686533
 31
0.0
  0
LINE
  5
25F
330
1F
100
AcDbEntity
  8
0
  6
Continuous
 62
     7
370
    15
100
AcDbLine
 10
4.629649477729734
 20
6.845764559686533
 30
0.0
 11
4.629649477729734
 21
6.82167846841626
 31
0.0
  0
LINE
  5
260
330
1F
100
AcDbEntity
  8
0
  6
Continuous
 62
     7
370
    15
100
AcDbLine
 10
4.629649477729735
 20
6.784104166034636
 30
0.0
 11
4.735715494907717
 21
6.812520424264076
 31
0.0
  0
LINE
  5
261
330
1F
100
AcDbEntity
  8
0
  6
Continuous
 62
     7
370
    15
100
AcDbLine
 10
4.735715494907717
 20
6.812520424264076
 30
0.0
 11
4.735715494907717
 21
6.836606515534349
 31
0.0
  0
LINE
  5
262
330
1F
100
AcDbEntity
  8
0
  6
Continuous
 62
     7
370
    15
100
AcDbLine
 10
4.735715494907717
 20
6.836606515534349
 30
0.0
 11
4.629649477729735
 21
6.808190257304909
 31
0.0
  0
LINE
  5
263
330
1F
100
AcDbEntity
  8
0
  6
Continuous
 62
     7
370
    15
100
AcDbLine
 10
4.629649477729735
 20
6.808190257304909
 30
0.0
 11
4.629649477729735
 21
6.784104166034636
 31
0.0
  0
LINE
  5
264
330
1F
100
AcDbEntity
  8
0
  6
Continuous
 62
     7
370
    15
100
AcDbLine
 10
4.629649477729735
 20
6.746529863653011
 30
0.0
 11
4.735715494907717
 21
6.774946121882451
 31
0.0
  0
LINE
  5
265
330
1F
100
AcDbEntity
  8
0
  6
Continuous
 62
     7
370
    15
100
AcDbLine
 10
4.735715494907717
 20
6.774946121882451
 30
0.0
 11
4.735715494907717
 21
6.799032213152724
 31
0.0
  0
LINE
  5
266
330
1F
100
AcDbEntity
  8
0
  6
Continuous
 62
     7
370
    15
100
AcDbLine
 10
4.735715494907717
 20
6.799032213152724
 30
0.0
 11
4.629649477729735
 21
6.770615954923284
 31
0.0
  0
LINE
  5
267
330
1F
100
AcDbEntity
  8
0
  6
Continuous
 62
     7
370
    15
100
AcDbLine
 10
4.629649477729735
 20
6.770615954923284
 30
0.0
 11
4.629649477729735
 21
6.746529863653011
 31
0.0
  0
LINE
  5
268
330
1F
100
AcDbEntity
  8
0
  6
Continuous
 62
     7
370
    15
100
AcDbLine
 10
4.6208106429649
 20
6.72103919451443
 30
0.0
 11
4.611971808200069
 21
6.72340721603355
 31
0.0
  0
LINE
  5
269
330
1F
100
AcDbEntity
  8
0
  6
Continuous
 62
     7
370
    15
100
AcDbLine
 10
4.629649477729732
 20
7.089434628125871
 30
0.0
 11
4.726876660142883
 21
7.115482864836192
 31
0.0
  0
LINE
  5
26A
330
1F
100
AcDbEntity
  8
0
  6
Continuous
 62
     7
370
    15
100
AcDbLine
 10
4.726876660142883
 20
7.115482864836192
 30
0.0
 11
4.735715494907715
 21
7.11311484331707
 31
0.0
  0
LINE
  5
26B
330
1F
100
AcDbEntity
  8
0
  6
Continuous
 62
     7
370
    15
100
AcDbLine
 10
4.726876660142883
 20
7.115482864836192
 30
0.0
 11
4.726876660142883
 21
7.134832913068223
 31
0.0
  0
LINE
  5
26C
330
1F
100
AcDbEntity
  8
0
  6
Continuous
 62
     7
370
    15
100
AcDbLine
 10
4.629649477729732
 20
7.051860325744247
 30
0.0
 11
4.726876660142883
 21
7.077908562454567
 31
0.0
  0
LINE
  5
26D
330
1F
100
AcDbEntity
  8
0
  6
Continuous
 62
     7
370
    15
100
AcDbLine
 10
4.726876660142883
 20
7.077908562454567
 30
0.0
 11
4.735715494907715
 21
7.075540540935447
 31
0.0
  0
LINE
  5
26E
330
1F
100
AcDbEntity
  8
0
  6
Continuous
 62
     7
370
    15
100
AcDbLine
 10
4.726876660142883
 20
7.077908562454567
 30
0.0
 11
4.726876660142883
 21
7.097258610686599
 31
0.0
  0
LINE
  5
26F
330
1F
100
AcDbEntity
  8
0
  6
Continuous
 62
     7
370
    15
100
AcDbLine
 10
4.629649477729733
 20
7.014286023362624
 30
0.0
 11
4.726876660142883
 21
7.040334260072943
 31
0.0
  0
LINE
  5
270
330
1F
100
AcDbEntity
  8
0
  6
Continuous
 62
     7
370
    15
100
AcDbLine
 10
4.726876660142883
 20
7.040334260072943
 30
0.0
 11
4.735715494907715
 21
7.037966238553823
 31
0.0
  0
LINE
  5
271
330
1F
100
AcDbEntity
  8
0
  6
Continuous
 62
     7
370
    15
100
AcDbLine
 10
4.726876660142883
 20
7.040334260072943
 30
0.0
 11
4.726876660142883
 21
7.059684308304975
 31
0.0
  0
LINE
  5
272
330
1F
100
AcDbEntity
  8
0
  6
Continuous
 62
     7
370
    15
100
AcDbLine
 10
4.629649477729733
 20
6.976711720980999
 30
0.0
 11
4.726876660142884
 21
7.002759957691318
 31
0.0
  0
LINE
  5
273
330
1F
100
AcDbEntity
  8
0
  6
Continuous
 62
     7
370
    15
100
AcDbLine
 10
4.726876660142884
 20
7.002759957691318
 30
0.0
 11
4.735715494907715
 21
7.000391936172198
 31
0.0
  0
LINE
  5
274
330
1F
100
AcDbEntity
  8
0
  6
Continuous
 62
     7
370
    15
100
AcDbLine
 10
4.726876660142884
 20
7.002759957691318
 30
0.0
 11
4.726876660142884
 21
7.022110005923351
 31
0.0
  0
LINE
  5
275
330
1F
100
AcDbEntity
  8
0
  6
Continuous
 62
     7
370
    15
100
AcDbLine
 10
4.629649477729733
 20
6.939137418599374
 30
0.0
 11
4.726876660142884
 21
6.965185655309693
 31
0.0
  0
LINE
  5
276
330
1F
100
AcDbEntity
  8
0
  6
Continuous
 62
     7
370
    15
100
AcDbLine
 10
4.726876660142884
 20
6.965185655309693
 30
0.0
 11
4.735715494907716
 21
6.962817633790574
 31
0.0
  0
LINE
  5
277
330
1F
100
AcDbEntity
  8
0
  6
Continuous
 62
     7
370
    15
100
AcDbLine
 10
4.726876660142884
 20
6.965185655309693
 30
0.0
 11
4.726876660142884
 21
6.984535703541726
 31
0.0
  0
LINE
  5
278
330
1F
100
AcDbEntity
  8
0
  6
Continuous
 62
     7
370
    15
100
AcDbLine
 10
4.629649477729733
 20
6.90156311621775
 30
0.0
 11
4.726876660142885
 21
6.92761135292807
 31
0.0
  0
LINE
  5
279
330
1F
100
AcDbEntity
  8
0
  6
Continuous
 62
     7
370
    15
100
AcDbLine
 10
4.726876660142885
 20
6.92761135292807
 30
0.0
 11
4.735715494907716
 21
6.925243331408949
 31
0.0
  0
LINE
  5
27A
330
1F
100
AcDbEntity
  8
0
  6
Continuous
 62
     7
370
    15
100
AcDbLine
 10
4.726876660142885
 20
6.92761135292807
 30
0.0
 11
4.726876660142885
 21
6.946961401160101
 31
0.0
  0
LINE
  5
27B
330
1F
100
AcDbEntity
  8
0
  6
Continuous
 62
     7
370
    15
100
AcDbLine
 10
4.629649477729734
 20
6.863988813836125
 30
0.0
 11
4.726876660142885
 21
6.890037050546445
 31
0.0
  0
LINE
  5
27C
330
1F
100
AcDbEntity
  8
0
  6
Continuous
 62
     7
370
    15
100
AcDbLine
 10
4.726876660142885
 20
6.890037050546445
 30
0.0
 11
4.735715494907716
 21
6.887669029027324
 31
0.0
  0
LINE
  5
27D
330
1F
100
AcDbEntity
  8
0
  6
Continuous
 62
     7
370
    15
100
AcDbLine
 10
4.726876660142885
 20
6.890037050546445
 30
0.0
 11
4.726876660142885
 21
6.909387098778477
 31
0.0
  0
LINE
  5
27E
330
1F
100
AcDbEntity
  8
0
  6
Continuous
 62
     7
370
    15
100
AcDbLine
 10
4.629649477729734
 20
6.8264145114545
 30
0.0
 11
4.726876660142885
 21
6.85246274816482
 31
0.0
  0
LINE
  5
27F
330
1F
100
AcDbEntity
  8
0
  6
Continuous
 62
     7
370
    15
100
AcDbLine
 10
4.726876660142885
 20
6.85246274816482
 30
0.0
 11
4.735715494907716
 21
6.850094726645701
 31
0.0
  0
LINE
  5
280
330
1F
100
AcDbEntity
  8
0
  6
Continuous
 62
     7
370
    15
100
AcDbLine
 10
4.726876660142885
 20
6.85246274816482
 30
0.0
 11
4.726876660142885
 21
6.871812796396852
 31
0.0
  0
LINE
  5
281
330
1F
100
AcDbEntity
  8
0
  6
Continuous
 62
     7
370
    15
100
AcDbLine
 10
4.629649477729735
 20
6.788840209072877
 30
0.0
 11
4.726876660142885
 21
6.814888445783196
 31
0.0
  0
LINE
  5
282
330
1F
100
AcDbEntity
  8
0
  6
Continuous
 62
     7
370
    15
100
AcDbLine
 10
4.726876660142885
 20
6.814888445783196
 30
0.0
 11
4.735715494907717
 21
6.812520424264076
 31
0.0
  0
LINE
  5
283
330
1F
100
AcDbEntity
  8
0
  6
Continuous
 62
     7
370
    15
100
AcDbLine
 10
4.726876660142885
 20
6.814888445783196
 30
0.0
 11
4.726876660142885
 21
6.834238494015229
 31
0.0
  0
LINE
  5
284
330
1F
100
AcDbEntity
  8
0
  6
Continuous
 62
     7
370
    15
100
AcDbLine
 10
4.629649477729735
 20
6.751265906691252
 30
0.0
 11
4.726876660142885
 21
6.777314143401572
 31
0.0
  0
LINE
  5
285
330
1F
100
AcDbEntity
  8
0
  6
Continuous
 62
     7
370
    15
100
AcDbLine
 10
4.726876660142885
 20
6.777314143401572
 30
0.0
 11
4.735715494907717
 21
6.774946121882451
 31
0.0
  0
LINE
  5
286
330
1F
100
AcDbEntity
  8
0
  6
Continuous
 62
     7
370
    15
100
AcDbLine
 10
4.726876660142885
 20
6.777314143401572
 30
0.0
 11
4.726876660142885
 21
6.796664191633603
 31
0.0
  0
LINE
  5
287
330
1F
100
AcDbEntity
  8
0
  6
Continuous
 62
     7
370
    15
100
AcDbLine
 10
4.749857630531446
 20
7.121639720785903
 30
0.0
 11
4.847084812944596
 21
7.147687957496223
 31
0.0
  0
LINE
  5
288
330
1F
100
AcDbEntity
  8
0
  6
Continuous
 62
     7
370
    15
100
AcDbLine
 10
4.847084812944596
 20
7.147687957496223
 30
0.0
 11
4.855923647709428
 21
7.145319935977102
 31
0.0
  0
LINE
  5
289
330
1F
100
AcDbEntity
  8
0
  6
Continuous
 62
     7
370
    15
100
AcDbLine
 10
4.847084812944596
 20
7.147687957496223
 30
0.0
 11
4.847084812944596
 21
7.167038005728254
 31
0.0
  0
LINE
  5
28A
330
1F
100
AcDbEntity
  8
0
  6
Continuous
 62
     7
370
    15
100
AcDbLine
 10
4.749857630531446
 20
7.084065418404279
 30
0.0
 11
4.847084812944596
 21
7.110113655114598
 31
0.0
  0
LINE
  5
28B
330
1F
100
AcDbEntity
  8
0
  6
Continuous
 62
     7
370
    15
100
AcDbLine
 10
4.847084812944596
 20
7.110113655114598
 30
0.0
 11
4.855923647709428
 21
7.107745633595478
 31
0.0
  0
LINE
  5
28C
330
1F
100
AcDbEntity
  8
0
  6
Continuous
 62
     7
370
    15
100
AcDbLine
 10
4.847084812944596
 20
7.110113655114598
 30
0.0
 11
4.847084812944596
 21
7.129463703346631
 31
0.0
  0
LINE
  5
28D
330
1F
100
AcDbEntity
  8
0
  6
Continuous
 62
     7
370
    15
100
AcDbLine
 10
4.749857630531446
 20
7.046491116022655
 30
0.0
 11
4.847084812944596
 21
7.072539352732974
 31
0.0
  0
LINE
  5
28E
330
1F
100
AcDbEntity
  8
0
  6
Continuous
 62
     7
370
    15
100
AcDbLine
 10
4.847084812944596
 20
7.072539352732974
 30
0.0
 11
4.855923647709428
 21
7.070171331213853
 31
0.0
  0
LINE
  5
28F
330
1F
100
AcDbEntity
  8
0
  6
Continuous
 62
     7
370
    15
100
AcDbLine
 10
4.847084812944596
 20
7.072539352732974
 30
0.0
 11
4.847084812944596
 21
7.091889400965007
 31
0.0
  0
LINE
  5
290
330
1F
100
AcDbEntity
  8
0
  6
Continuous
 62
     7
370
    15
100
AcDbLine
 10
4.749857630531447
 20
7.008916813641029
 30
0.0
 11
4.847084812944596
 21
7.034965050351348
 31
0.0
  0
LINE
  5
291
330
1F
100
AcDbEntity
  8
0
  6
Continuous
 62
     7
370
    15
100
AcDbLine
 10
4.847084812944596
 20
7.034965050351348
 30
0.0
 11
4.855923647709428
 21
7.032597028832229
 31
0.0
  0
LINE
  5
292
330
1F
100
AcDbEntity
  8
0
  6
Continuous
 62
     7
370
    15
100
AcDbLine
 10
4.847084812944596
 20
7.034965050351348
 30
0.0
 11
4.847084812944596
 21
7.054315098583382
 31
0.0
  0
LINE
  5
293
330
1F
100
AcDbEntity
  8
0
  6
Continuous
 62
     7
370
    15
100
AcDbLine
 10
4.749857630531447
 20
6.971342511259405
 30
0.0
 11
4.847084812944597
 21
6.997390747969725
 31
0.0
  0
LINE
  5
294
330
1F
100
AcDbEntity
  8
0
  6
Continuous
 62
     7
370
    15
100
AcDbLine
 10
4.847084812944597
 20
6.997390747969725
 30
0.0
 11
4.855923647709428
 21
6.995022726450605
 31
0.0
  0
LINE
  5
295
330
1F
100
AcDbEntity
  8
0
  6
Continuous
 62
     7
370
    15
100
AcDbLine
 10
4.847084812944597
 20
6.997390747969725
 30
0.0
 11
4.847084812944597
 21
7.016740796201757
 31
0.0
  0
LINE
  5
296
330
1F
100
AcDbEntity
  8
0
  6
Continuous
 62
     7
370
    15
100
AcDbLine
 10
4.749857630531447
 20
6.933768208877781
 30
0.0
 11
4.847084812944598
 21
6.959816445588101
 31
0.0
  0
LINE
  5
297
330
1F
100
AcDbEntity
  8
0
  6
Continuous
 62
     7
370
    15
100
AcDbLine
 10
4.847084812944598
 20
6.959816445588101
 30
0.0
 11
4.855923647709429
 21
6.957448424068981
 31
0.0
  0
LINE
  5
298
330
1F
100
AcDbEntity
  8
0
  6
Continuous
 62
     7
370
    15
100
AcDbLine
 10
4.847084812944598
 20
6.959816445588101
 30
0.0
 11
4.847084812944598
 21
6.979166493820132
 31
0.0
  0
LINE
  5
299
330
1F
100
AcDbEntity
  8
0
  6
Continuous
 62
     7
370
    15
100
AcDbLine
 10
4.749857630531447
 20
6.896193906496157
 30
0.0
 11
4.847084812944598
 21
6.922242143206476
 31
0.0
  0
LINE
  5
29A
330
1F
100
AcDbEntity
  8
0
  6
Continuous
 62
     7
370
    15
100
AcDbLine
 10
4.847084812944598
 20
6.922242143206476
 30
0.0
 11
4.85592364770943
 21
6.919874121687356
 31
0.0
  0
LINE
  5
29B
330
1F
100
AcDbEntity
  8
0
  6
Continuous
 62
     7
370
    15
100
AcDbLine
 10
4.847084812944598
 20
6.922242143206476
 30
0.0
 11
4.847084812944598
 21
6.941592191438507
 31
0.0
  0
LINE
  5
29C
330
1F
100
AcDbEntity
  8
0
  6
Continuous
 62
     7
370
    15
100
AcDbLine
 10
4.749857630531447
 20
6.858619604114532
 30
0.0
 11
4.847084812944598
 21
6.884667840824851
 31
0.0
  0
LINE
  5
29D
330
1F
100
AcDbEntity
  8
0
  6
Continuous
 62
     7
370
    15
100
AcDbLine
 10
4.847084812944598
 20
6.884667840824851
 30
0.0
 11
4.85592364770943
 21
6.882299819305732
 31
0.0
  0
LINE
  5
29E
330
1F
100
AcDbEntity
  8
0
  6
Continuous
 62
     7
370
    15
100
AcDbLine
 10
4.847084812944598
 20
6.884667840824851
 30
0.0
 11
4.847084812944598
 21
6.904017889056884
 31
0.0
  0
LINE
  5
29F
330
1F
100
AcDbEntity
  8
0
  6
Continuous
 62
     7
370
    15
100
AcDbLine
 10
4.749857630531448
 20
6.821045301732908
 30
0.0
 11
4.847084812944598
 21
6.847093538443226
 31
0.0
  0
LINE
  5
2A0
330
1F
100
AcDbEntity
  8
0
  6
Continuous
 62
     7
370
    15
100
AcDbLine
 10
4.847084812944598
 20
6.847093538443226
 30
0.0
 11
4.85592364770943
 21
6.844725516924107
 31
0.0
  0
LINE
  5
2A1
330
1F
100
AcDbEntity
  8
0
  6
Continuous
 62
     7
370
    15
100
AcDbLine
 10
4.847084812944598
 20
6.847093538443226
 30
0.0
 11
4.847084812944598
 21
6.866443586675258
 31
0.0
  0
LINE
  5
2A2
330
1F
100
AcDbEntity
  8
0
  6
Continuous
 62
     7
370
    15
100
AcDbLine
 10
4.749857630531448
 20
6.783470999351283
 30
0.0
 11
4.847084812944599
 21
6.809519236061602
 31
0.0
  0
LINE
  5
2A3
330
1F
100
AcDbEntity
  8
0
  6
Continuous
 62
     7
370
    15
100
AcDbLine
 10
4.847084812944599
 20
6.809519236061602
 30
0.0
 11
4.85592364770943
 21
6.807151214542482
 31
0.0
  0
LINE
  5
2A4
330
1F
100
AcDbEntity
  8
0
  6
Continuous
 62
     7
370
    15
100
AcDbLine
 10
4.847084812944599
 20
6.809519236061602
 30
0.0
 11
4.847084812944599
 21
6.828869284293634
 31
0.0
  0
LINE
  5
2A5
330
1F
100
AcDbEntity
  8
0
  6
Continuous
 62
     7
370
    15
100
AcDbLine
 10
4.870065783333159
 20
7.153844813445934
 30
0.0
 11
4.910335825687505
 21
7.164633602851794
 31
0.0
  0
LINE
  5
2A6
330
1F
100
AcDbEntity
  8
0
  6
Continuous
 62
     7
370
    15
100
AcDbLine
 10
4.96729296574631
 20
7.179893050156253
 30
0.0
 11
4.976131800511141
 21
7.177525028637133
 31
0.0
  0
LINE
  5
2A7
330
1F
100
AcDbEntity
  8
0
  6
Continuous
 62
     7
370
    15
100
AcDbLine
 10
4.910335825687505
 20
7.164633602851794
 30
0.0
 11
4.96729296574631
 21
7.179893050156253
 31
0.0
  0
LINE
  5
2A8
330
1F
100
AcDbEntity
  8
0
  6
Continuous
 62
     7
370
    15
100
AcDbLine
 10
4.910335825687505
 20
7.164633602851794
 30
0.0
 11
4.930617973950003
 21
7.189417462758943
 31
0.0
  0
LINE
  5
2A9
330
1F
100
AcDbEntity
  8
0
  6
Continuous
 62
     7
370
    15
100
AcDbLine
 10
4.870065783333159
 20
7.11627051106431
 30
0.0
 11
4.870951553223394
 21
7.116507818607313
 31
0.0
  0
LINE
  5
2AA
330
1F
100
AcDbEntity
  8
0
  6
Continuous
 62
     7
370
    15
100
AcDbLine
 10
4.96729296574631
 20
7.142318747774629
 30
0.0
 11
4.976131800511142
 21
7.139950726255509
 31
0.0
  0
LINE
  5
2AB
330
1F
100
AcDbEntity
  8
0
  6
Continuous
 62
     7
370
    15
100
AcDbLine
 10
4.870951553223394
 20
7.116507818607313
 30
0.0
 11
4.96729296574631
 21
7.142318747774629
 31
0.0
  0
LINE
  5
2AC
330
1F
100
AcDbEntity
  8
0
  6
Continuous
 62
     7
370
    15
100
AcDbLine
 10
4.870951553223394
 20
7.116507818607313
 30
0.0
 11
4.891233701485891
 21
7.141291678514464
 31
0.0
  0
LINE
  5
2AD
330
1F
100
AcDbEntity
  8
0
  6
Continuous
 62
     7
370
    15
100
AcDbLine
 10
6.676716584320872
 20
7.642680793192204
 30
0.0
 11
6.782782601498854
 21
7.614264534962765
 31
0.0
  0
LINE
  5
2AE
330
1F
100
AcDbEntity
  8
0
  6
Continuous
 62
     7
370
    15
100
AcDbLine
 10
6.676716584320872
 20
7.642680793192204
 30
0.0
 11
5.230690241738298
 21
7.255274354724297
 31
0.0
  0
LINE
  5
2AF
330
1F
100
AcDbEntity
  8
0
  6
Continuous
 62
     7
370
    15
100
AcDbLine
 10
5.207709271349735
 20
7.249117498774585
 30
0.0
 11
5.110482088936585
 21
7.223069262064265
 31
0.0
  0
LINE
  5
2B0
330
1F
100
AcDbEntity
  8
0
  6
Continuous
 62
     7
370
    15
100
AcDbLine
 10
5.087501118548022
 20
7.216912406114553
 30
0.0
 11
4.990273936134872
 21
7.190864169404235
 31
0.0
  0
LINE
  5
2B1
330
1F
100
AcDbEntity
  8
0
  6
Continuous
 62
     7
370
    15
100
AcDbLine
 10
4.96729296574631
 20
7.184707313454522
 30
0.0
 11
4.915381994090772
 21
7.170799790434877
 31
0.0
  0
LINE
  5
2B2
330
1F
100
AcDbEntity
  8
0
  6
Continuous
 62
     7
370
    15
100
AcDbLine
 10
4.870065783333159
 20
7.078696208682686
 30
0.0
 11
4.96729296574631
 21
7.104744445393006
 31
0.0
  0
LINE
  5
2B3
330
1F
100
AcDbEntity
  8
0
  6
Continuous
 62
     7
370
    15
100
AcDbLine
 10
4.96729296574631
 20
7.104744445393006
 30
0.0
 11
4.976131800511142
 21
7.102376423873885
 31
0.0
  0
LINE
  5
2B4
330
1F
100
AcDbEntity
  8
0
  6
Continuous
 62
     7
370
    15
100
AcDbLine
 10
4.96729296574631
 20
7.104744445393006
 30
0.0
 11
4.96729296574631
 21
7.124094493625037
 31
0.0
  0
LINE
  5
2B5
330
1F
100
AcDbEntity
  8
0
  6
Continuous
 62
     7
370
    15
100
AcDbLine
 10
4.870065783333159
 20
7.041121906301061
 30
0.0
 11
4.96729296574631
 21
7.06717014301138
 31
0.0
  0
LINE
  5
2B6
330
1F
100
AcDbEntity
  8
0
  6
Continuous
 62
     7
370
    15
100
AcDbLine
 10
4.96729296574631
 20
7.06717014301138
 30
0.0
 11
4.976131800511142
 21
7.06480212149226
 31
0.0
  0
LINE
  5
2B7
330
1F
100
AcDbEntity
  8
0
  6
Continuous
 62
     7
370
    15
100
AcDbLine
 10
4.96729296574631
 20
7.06717014301138
 30
0.0
 11
4.96729296574631
 21
7.086520191243412
 31
0.0
  0
LINE
  5
2B8
330
1F
100
AcDbEntity
  8
0
  6
Continuous
 62
     7
370
    15
100
AcDbLine
 10
4.87006578333316
 20
7.003547603919437
 30
0.0
 11
4.96729296574631
 21
7.029595840629756
 31
0.0
  0
LINE
  5
2B9
330
1F
100
AcDbEntity
  8
0
  6
Continuous
 62
     7
370
    15
100
AcDbLine
 10
4.96729296574631
 20
7.029595840629756
 30
0.0
 11
4.976131800511142
 21
7.027227819110636
 31
0.0
  0
LINE
  5
2BA
330
1F
100
AcDbEntity
  8
0
  6
Continuous
 62
     7
370
    15
100
AcDbLine
 10
4.96729296574631
 20
7.029595840629756
 30
0.0
 11
4.96729296574631
 21
7.048945888861789
 31
0.0
  0
LINE
  5
2BB
330
1F
100
AcDbEntity
  8
0
  6
Continuous
 62
     7
370
    15
100
AcDbLine
 10
4.870065783333161
 20
6.965973301537813
 30
0.0
 11
4.96729296574631
 21
6.992021538248131
 31
0.0
  0
LINE
  5
2BC
330
1F
100
AcDbEntity
  8
0
  6
Continuous
 62
     7
370
    15
100
AcDbLine
 10
4.96729296574631
 20
6.992021538248131
 30
0.0
 11
4.976131800511143
 21
6.989653516729012
 31
0.0
  0
LINE
  5
2BD
330
1F
100
AcDbEntity
  8
0
  6
Continuous
 62
     7
370
    15
100
AcDbLine
 10
4.96729296574631
 20
6.992021538248131
 30
0.0
 11
4.96729296574631
 21
7.011371586480164
 31
0.0
  0
LINE
  5
2BE
330
1F
100
AcDbEntity
  8
0
  6
Continuous
 62
     7
370
    15
100
AcDbLine
 10
4.870065783333161
 20
6.928398999156188
 30
0.0
 11
4.96729296574631
 21
6.954447235866506
 31
0.0
  0
LINE
  5
2BF
330
1F
100
AcDbEntity
  8
0
  6
Continuous
 62
     7
370
    15
100
AcDbLine
 10
4.96729296574631
 20
6.954447235866506
 30
0.0
 11
4.976131800511143
 21
6.952079214347387
 31
0.0
  0
LINE
  5
2C0
330
1F
100
AcDbEntity
  8
0
  6
Continuous
 62
     7
370
    15
100
AcDbLine
 10
4.96729296574631
 20
6.954447235866506
 30
0.0
 11
4.96729296574631
 21
6.973797284098539
 31
0.0
  0
LINE
  5
2C1
330
1F
100
AcDbEntity
  8
0
  6
Continuous
 62
     7
370
    15
100
AcDbLine
 10
4.870065783333161
 20
6.890824696774563
 30
0.0
 11
4.96729296574631
 21
6.916872933484883
 31
0.0
  0
LINE
  5
2C2
330
1F
100
AcDbEntity
  8
0
  6
Continuous
 62
     7
370
    15
100
AcDbLine
 10
4.96729296574631
 20
6.916872933484883
 30
0.0
 11
4.976131800511143
 21
6.914504911965764
 31
0.0
  0
LINE
  5
2C3
330
1F
100
AcDbEntity
  8
0
  6
Continuous
 62
     7
370
    15
100
AcDbLine
 10
4.96729296574631
 20
6.916872933484883
 30
0.0
 11
4.96729296574631
 21
6.936222981716915
 31
0.0
  0
LINE
  5
2C4
330
1F
100
AcDbEntity
  8
0
  6
Continuous
 62
     7
370
    15
100
AcDbLine
 10
4.870065783333161
 20
6.853250394392938
 30
0.0
 11
4.967292965746311
 21
6.879298631103258
 31
0.0
  0
LINE
  5
2C5
330
1F
100
AcDbEntity
  8
0
  6
Continuous
 62
     7
370
    15
100
AcDbLine
 10
4.967292965746311
 20
6.879298631103258
 30
0.0
 11
4.976131800511143
 21
6.876930609584139
 31
0.0
  0
LINE
  5
2C6
330
1F
100
AcDbEntity
  8
0
  6
Continuous
 62
     7
370
    15
100
AcDbLine
 10
4.967292965746311
 20
6.879298631103258
 30
0.0
 11
4.967292965746311
 21
6.89864867933529
 31
0.0
  0
LINE
  5
2C7
330
1F
100
AcDbEntity
  8
0
  6
Continuous
 62
     7
370
    15
100
AcDbLine
 10
4.870065783333162
 20
6.815676092011315
 30
0.0
 11
4.967292965746311
 21
6.841724328721634
 31
0.0
  0
LINE
  5
2C8
330
1F
100
AcDbEntity
  8
0
  6
Continuous
 62
     7
370
    15
100
AcDbLine
 10
4.967292965746311
 20
6.841724328721634
 30
0.0
 11
4.976131800511144
 21
6.839356307202514
 31
0.0
  0
LINE
  5
2C9
330
1F
100
AcDbEntity
  8
0
  6
Continuous
 62
     7
370
    15
100
AcDbLine
 10
4.96729296574631
 20
7.179893050156253
 30
0.0
 11
4.96729296574631
 21
7.199243098388286
 31
0.0
  0
LINE
  5
2CA
330
1F
100
AcDbEntity
  8
0
  6
Continuous
 62
     7
370
    15
100
AcDbLine
 10
4.967292965746311
 20
6.841724328721634
 30
0.0
 11
4.967292965746311
 21
6.861074376953665
 31
0.0
  0
LINE
  5
2CB
330
1F
100
AcDbEntity
  8
0
  6
Continuous
 62
     7
370
    15
100
AcDbLine
 10
4.96729296574631
 20
7.142318747774629
 30
0.0
 11
4.96729296574631
 21
7.161668796006662
 31
0.0
  0
LINE
  5
2CC
330
1F
100
AcDbEntity
  8
0
  6
Continuous
 62
     7
370
    15
100
AcDbLine
 10
5.087501118548022
 20
7.212098142816285
 30
0.0
 11
5.096339953312854
 21
7.209730121297164
 31
0.0
  0
LINE
  5
2CD
330
1F
100
AcDbEntity
  8
0
  6
Continuous
 62
     7
370
    15
100
AcDbLine
 10
4.990273936134872
 20
7.186049906105965
 30
0.0
 11
5.087501118548022
 21
7.212098142816285
 31
0.0
  0
LINE
  5
2CE
330
1F
100
AcDbEntity
  8
0
  6
Continuous
 62
     7
370
    15
100
AcDbLine
 10
5.087501118548022
 20
7.174523840434661
 30
0.0
 11
5.096339953312854
 21
7.17215581891554
 31
0.0
  0
LINE
  5
2CF
330
1F
100
AcDbEntity
  8
0
  6
Continuous
 62
     7
370
    15
100
AcDbLine
 10
4.990273936134872
 20
7.148475603724341
 30
0.0
 11
5.087501118548022
 21
7.174523840434661
 31
0.0
  0
LINE
  5
2D0
330
1F
100
AcDbEntity
  8
0
  6
Continuous
 62
     7
370
    15
100
AcDbLine
 10
4.990273936134872
 20
7.110901301342718
 30
0.0
 11
5.087501118548024
 21
7.136949538053036
 31
0.0
  0
LINE
  5
2D1
330
1F
100
AcDbEntity
  8
0
  6
Continuous
 62
     7
370
    15
100
AcDbLine
 10
5.087501118548024
 20
7.136949538053036
 30
0.0
 11
5.096339953312854
 21
7.134581516533916
 31
0.0
  0
LINE
  5
2D2
330
1F
100
AcDbEntity
  8
0
  6
Continuous
 62
     7
370
    15
100
AcDbLine
 10
5.087501118548024
 20
7.136949538053036
 30
0.0
 11
5.087501118548024
 21
7.156299586285068
 31
0.0
  0
LINE
  5
2D3
330
1F
100
AcDbEntity
  8
0
  6
Continuous
 62
     7
370
    15
100
AcDbLine
 10
4.990273936134872
 20
7.073326998961092
 30
0.0
 11
5.087501118548024
 21
7.099375235671411
 31
0.0
  0
LINE
  5
2D4
330
1F
100
AcDbEntity
  8
0
  6
Continuous
 62
     7
370
    15
100
AcDbLine
 10
5.087501118548024
 20
7.099375235671411
 30
0.0
 11
5.096339953312856
 21
7.097007214152291
 31
0.0
  0
LINE
  5
2D5
330
1F
100
AcDbEntity
  8
0
  6
Continuous
 62
     7
370
    15
100
AcDbLine
 10
5.087501118548024
 20
7.099375235671411
 30
0.0
 11
5.087501118548024
 21
7.118725283903444
 31
0.0
  0
LINE
  5
2D6
330
1F
100
AcDbEntity
  8
0
  6
Continuous
 62
     7
370
    15
100
AcDbLine
 10
4.990273936134873
 20
7.035752696579468
 30
0.0
 11
5.087501118548024
 21
7.061800933289787
 31
0.0
  0
LINE
  5
2D7
330
1F
100
AcDbEntity
  8
0
  6
Continuous
 62
     7
370
    15
100
AcDbLine
 10
5.087501118548024
 20
7.061800933289787
 30
0.0
 11
5.096339953312856
 21
7.059432911770667
 31
0.0
  0
LINE
  5
2D8
330
1F
100
AcDbEntity
  8
0
  6
Continuous
 62
     7
370
    15
100
AcDbLine
 10
5.087501118548024
 20
7.061800933289787
 30
0.0
 11
5.087501118548024
 21
7.08115098152182
 31
0.0
  0
LINE
  5
2D9
330
1F
100
AcDbEntity
  8
0
  6
Continuous
 62
     7
370
    15
100
AcDbLine
 10
4.990273936134873
 20
6.998178394197844
 30
0.0
 11
5.087501118548024
 21
7.024226630908163
 31
0.0
  0
LINE
  5
2DA
330
1F
100
AcDbEntity
  8
0
  6
Continuous
 62
     7
370
    15
100
AcDbLine
 10
5.087501118548024
 20
7.024226630908163
 30
0.0
 11
5.096339953312856
 21
7.021858609389044
 31
0.0
  0
LINE
  5
2DB
330
1F
100
AcDbEntity
  8
0
  6
Continuous
 62
     7
370
    15
100
AcDbLine
 10
5.087501118548024
 20
7.024226630908163
 30
0.0
 11
5.087501118548024
 21
7.043576679140195
 31
0.0
  0
LINE
  5
2DC
330
1F
100
AcDbEntity
  8
0
  6
Continuous
 62
     7
370
    15
100
AcDbLine
 10
4.990273936134873
 20
6.960604091816218
 30
0.0
 11
5.087501118548024
 21
6.986652328526538
 31
0.0
  0
LINE
  5
2DD
330
1F
100
AcDbEntity
  8
0
  6
Continuous
 62
     7
370
    15
100
AcDbLine
 10
5.087501118548024
 20
6.986652328526538
 30
0.0
 11
5.096339953312856
 21
6.984284307007419
 31
0.0
  0
LINE
  5
2DE
330
1F
100
AcDbEntity
  8
0
  6
Continuous
 62
     7
370
    15
100
AcDbLine
 10
5.087501118548024
 20
6.986652328526538
 30
0.0
 11
5.087501118548024
 21
7.00600237675857
 31
0.0
  0
LINE
  5
2DF
330
1F
100
AcDbEntity
  8
0
  6
Continuous
 62
     7
370
    15
100
AcDbLine
 10
4.990273936134874
 20
6.923029789434595
 30
0.0
 11
5.087501118548025
 21
6.949078026144914
 31
0.0
  0
LINE
  5
2E0
330
1F
100
AcDbEntity
  8
0
  6
Continuous
 62
     7
370
    15
100
AcDbLine
 10
5.087501118548025
 20
6.949078026144914
 30
0.0
 11
5.096339953312856
 21
6.946710004625794
 31
0.0
  0
LINE
  5
2E1
330
1F
100
AcDbEntity
  8
0
  6
Continuous
 62
     7
370
    15
100
AcDbLine
 10
5.087501118548025
 20
6.949078026144914
 30
0.0
 11
5.087501118548025
 21
6.968428074376946
 31
0.0
  0
LINE
  5
2E2
330
1F
100
AcDbEntity
  8
0
  6
Continuous
 62
     7
370
    15
100
AcDbLine
 10
4.990273936134874
 20
6.88545548705297
 30
0.0
 11
5.087501118548025
 21
6.911503723763289
 31
0.0
  0
LINE
  5
2E3
330
1F
100
AcDbEntity
  8
0
  6
Continuous
 62
     7
370
    15
100
AcDbLine
 10
5.087501118548025
 20
6.911503723763289
 30
0.0
 11
5.096339953312857
 21
6.909135702244169
 31
0.0
  0
LINE
  5
2E4
330
1F
100
AcDbEntity
  8
0
  6
Continuous
 62
     7
370
    15
100
AcDbLine
 10
5.087501118548025
 20
6.911503723763289
 30
0.0
 11
5.087501118548025
 21
6.93085377199532
 31
0.0
  0
LINE
  5
2E5
330
1F
100
AcDbEntity
  8
0
  6
Continuous
 62
     7
370
    15
100
AcDbLine
 10
4.990273936134874
 20
6.847881184671345
 30
0.0
 11
5.087501118548025
 21
6.873929421381665
 31
0.0
  0
LINE
  5
2E6
330
1F
100
AcDbEntity
  8
0
  6
Continuous
 62
     7
370
    15
100
AcDbLine
 10
5.087501118548025
 20
6.873929421381665
 30
0.0
 11
5.096339953312857
 21
6.871561399862545
 31
0.0
  0
LINE
  5
2E7
330
1F
100
AcDbEntity
  8
0
  6
Continuous
 62
     7
370
    15
100
AcDbLine
 10
5.087501118548022
 20
7.212098142816285
 30
0.0
 11
5.087501118548022
 21
7.231448191048317
 31
0.0
  0
LINE
  5
2E8
330
1F
100
AcDbEntity
  8
0
  6
Continuous
 62
     7
370
    15
100
AcDbLine
 10
5.087501118548025
 20
6.873929421381665
 30
0.0
 11
5.087501118548025
 21
6.893279469613697
 31
0.0
  0
LINE
  5
2E9
330
1F
100
AcDbEntity
  8
0
  6
Continuous
 62
     7
370
    15
100
AcDbLine
 10
5.087501118548022
 20
7.174523840434661
 30
0.0
 11
5.087501118548022
 21
7.193873888666693
 31
0.0
  0
LINE
  5
2EA
330
1F
100
AcDbEntity
  8
0
  6
Continuous
 62
     7
370
    15
100
AcDbLine
 10
5.207709271349735
 20
7.244303235476316
 30
0.0
 11
5.216548106114568
 21
7.241935213957196
 31
0.0
  0
LINE
  5
2EB
330
1F
100
AcDbEntity
  8
0
  6
Continuous
 62
     7
370
    15
100
AcDbLine
 10
5.110482088936585
 20
7.218254998765996
 30
0.0
 11
5.207709271349735
 21
7.244303235476316
 31
0.0
  0
LINE
  5
2EC
330
1F
100
AcDbEntity
  8
0
  6
Continuous
 62
     7
370
    15
100
AcDbLine
 10
5.207709271349735
 20
7.206728933094692
 30
0.0
 11
5.216548106114568
 21
7.204360911575571
 31
0.0
  0
LINE
  5
2ED
330
1F
100
AcDbEntity
  8
0
  6
Continuous
 62
     7
370
    15
100
AcDbLine
 10
5.110482088936585
 20
7.180680696384372
 30
0.0
 11
5.207709271349735
 21
7.206728933094692
 31
0.0
  0
LINE
  5
2EE
330
1F
100
AcDbEntity
  8
0
  6
Continuous
 62
     7
370
    15
100
AcDbLine
 10
5.110482088936587
 20
7.143106394002748
 30
0.0
 11
5.207709271349736
 21
7.169154630713067
 31
0.0
  0
LINE
  5
2EF
330
1F
100
AcDbEntity
  8
0
  6
Continuous
 62
     7
370
    15
100
AcDbLine
 10
5.207709271349736
 20
7.169154630713067
 30
0.0
 11
5.216548106114568
 21
7.166786609193947
 31
0.0
  0
LINE
  5
2F0
330
1F
100
AcDbEntity
  8
0
  6
Continuous
 62
     7
370
    15
100
AcDbLine
 10
5.207709271349736
 20
7.169154630713067
 30
0.0
 11
5.207709271349736
 21
7.1885046789451
 31
0.0
  0
LINE
  5
2F1
330
1F
100
AcDbEntity
  8
0
  6
Continuous
 62
     7
370
    15
100
AcDbLine
 10
5.110482088936587
 20
7.105532091621123
 30
0.0
 11
5.207709271349736
 21
7.131580328331442
 31
0.0
  0
LINE
  5
2F2
330
1F
100
AcDbEntity
  8
0
  6
Continuous
 62
     7
370
    15
100
AcDbLine
 10
5.207709271349736
 20
7.131580328331442
 30
0.0
 11
5.216548106114569
 21
7.129212306812322
 31
0.0
  0
LINE
  5
2F3
330
1F
100
AcDbEntity
  8
0
  6
Continuous
 62
     7
370
    15
100
AcDbLine
 10
5.207709271349736
 20
7.131580328331442
 30
0.0
 11
5.207709271349736
 21
7.150930376563475
 31
0.0
  0
LINE
  5
2F4
330
1F
100
AcDbEntity
  8
0
  6
Continuous
 62
     7
370
    15
100
AcDbLine
 10
5.110482088936587
 20
7.067957789239499
 30
0.0
 11
5.207709271349736
 21
7.094006025949818
 31
0.0
  0
LINE
  5
2F5
330
1F
100
AcDbEntity
  8
0
  6
Continuous
 62
     7
370
    15
100
AcDbLine
 10
5.207709271349736
 20
7.094006025949818
 30
0.0
 11
5.216548106114569
 21
7.091638004430699
 31
0.0
  0
LINE
  5
2F6
330
1F
100
AcDbEntity
  8
0
  6
Continuous
 62
     7
370
    15
100
AcDbLine
 10
5.207709271349736
 20
7.094006025949818
 30
0.0
 11
5.207709271349736
 21
7.11335607418185
 31
0.0
  0
LINE
  5
2F7
330
1F
100
AcDbEntity
  8
0
  6
Continuous
 62
     7
370
    15
100
AcDbLine
 10
5.110482088936587
 20
7.030383486857876
 30
0.0
 11
5.207709271349737
 21
7.056431723568194
 31
0.0
  0
LINE
  5
2F8
330
1F
100
AcDbEntity
  8
0
  6
Continuous
 62
     7
370
    15
100
AcDbLine
 10
5.207709271349737
 20
7.056431723568194
 30
0.0
 11
5.216548106114569
 21
7.054063702049074
 31
0.0
  0
LINE
  5
2F9
330
1F
100
AcDbEntity
  8
0
  6
Continuous
 62
     7
370
    15
100
AcDbLine
 10
5.207709271349737
 20
7.056431723568194
 30
0.0
 11
5.207709271349737
 21
7.075781771800225
 31
0.0
  0
LINE
  5
2FA
330
1F
100
AcDbEntity
  8
0
  6
Continuous
 62
     7
370
    15
100
AcDbLine
 10
5.110482088936587
 20
6.99280918447625
 30
0.0
 11
5.207709271349737
 21
7.018857421186569
 31
0.0
  0
LINE
  5
2FB
330
1F
100
AcDbEntity
  8
0
  6
Continuous
 62
     7
370
    15
100
AcDbLine
 10
5.207709271349737
 20
7.018857421186569
 30
0.0
 11
5.216548106114569
 21
7.01648939966745
 31
0.0
  0
LINE
  5
2FC
330
1F
100
AcDbEntity
  8
0
  6
Continuous
 62
     7
370
    15
100
AcDbLine
 10
5.207709271349737
 20
7.018857421186569
 30
0.0
 11
5.207709271349737
 21
7.038207469418602
 31
0.0
  0
LINE
  5
2FD
330
1F
100
AcDbEntity
  8
0
  6
Continuous
 62
     7
370
    15
100
AcDbLine
 10
5.110482088936588
 20
6.955234882094625
 30
0.0
 11
5.207709271349737
 21
6.981283118804945
 31
0.0
  0
LINE
  5
2FE
330
1F
100
AcDbEntity
  8
0
  6
Continuous
 62
     7
370
    15
100
AcDbLine
 10
5.207709271349737
 20
6.981283118804945
 30
0.0
 11
5.216548106114569
 21
6.978915097285825
 31
0.0
  0
LINE
  5
2FF
330
1F
100
AcDbEntity
  8
0
  6
Continuous
 62
     7
370
    15
100
AcDbLine
 10
5.207709271349737
 20
6.981283118804945
 30
0.0
 11
5.207709271349737
 21
7.000633167036978
 31
0.0
  0
LINE
  5
300
330
1F
100
AcDbEntity
  8
0
  6
Continuous
 62
     7
370
    15
100
AcDbLine
 10
5.110482088936588
 20
6.917660579713001
 30
0.0
 11
5.207709271349737
 21
6.943708816423321
 31
0.0
  0
LINE
  5
301
330
1F
100
AcDbEntity
  8
0
  6
Continuous
 62
     7
370
    15
100
AcDbLine
 10
5.207709271349737
 20
6.943708816423321
 30
0.0
 11
5.216548106114569
 21
6.9413407949042
 31
0.0
  0
LINE
  5
302
330
1F
100
AcDbEntity
  8
0
  6
Continuous
 62
     7
370
    15
100
AcDbLine
 10
5.207709271349737
 20
6.943708816423321
 30
0.0
 11
5.207709271349737
 21
6.963058864655352
 31
0.0
  0
LINE
  5
303
330
1F
100
AcDbEntity
  8
0
  6
Continuous
 62
     7
370
    15
100
AcDbLine
 10
5.110482088936588
 20
6.880086277331376
 30
0.0
 11
5.207709271349739
 21
6.906134514041696
 31
0.0
  0
LINE
  5
304
330
1F
100
AcDbEntity
  8
0
  6
Continuous
 62
     7
370
    15
100
AcDbLine
 10
5.207709271349739
 20
6.906134514041696
 30
0.0
 11
5.216548106114569
 21
6.903766492522577
 31
0.0
  0
LINE
  5
305
330
1F
100
AcDbEntity
  8
0
  6
Continuous
 62
     7
370
    15
100
AcDbLine
 10
5.207709271349735
 20
7.244303235476316
 30
0.0
 11
5.207709271349735
 21
7.263653283708348
 31
0.0
  0
LINE
  5
306
330
1F
100
AcDbEntity
  8
0
  6
Continuous
 62
     7
370
    15
100
AcDbLine
 10
5.207709271349739
 20
6.906134514041696
 30
0.0
 11
5.207709271349739
 21
6.925484562273728
 31
0.0
  0
LINE
  5
307
330
1F
100
AcDbEntity
  8
0
  6
Continuous
 62
     7
370
    15
100
AcDbLine
 10
5.207709271349735
 20
7.206728933094692
 30
0.0
 11
5.207709271349735
 21
7.226078981326724
 31
0.0
  0
LINE
  5
308
330
1F
100
AcDbEntity
  8
0
  6
Continuous
 62
     7
370
    15
100
AcDbLine
 10
6.76510493196919
 20
9.742252048499583
 30
0.0
 11
6.835815610087845
 21
9.723307876346625
 31
0.0
  0
LINE
  5
30A
330
1F
100
AcDbEntity
  8
0
  6
Continuous
 62
     7
370
    15
100
AcDbLine
 10
6.271601745600626
 20
6.234735541454913
 30
0.0
 11
6.306957084659953
 21
6.225263455378434
 31
0.0
  0
LWPOLYLINE
  5
30B
330
1F
100
AcDbEntity
  8
0
  6
Continuous
 62
     7
370
    15
100
AcDbPolyline
 90
       10
 70
   128
 43
0.0
 10
6.271601745600626
 20
6.253679713607873
 10
6.265999482445504
 20
6.251891000850824
 10
6.261641695308121
 20
6.24986883268344
 10
6.2586607933455
 20
6.247674651662218
 10
6.257147349755366
 20
6.245375126867179
 10
6.257147349755366
 20
6.243040128195606
 10
6.258660793345499
 20
6.240740603400569
 10
6.261641695308121
 20
6.238546422379347
 10
6.265999482445504
 20
6.236524254211961
 10
6.271601745600626
 20
6.234735541454913
  0
LINE
  5
30C
330
1F
100
AcDbEntity
  8
0
  6
Continuous
 62
     7
370
    15
100
AcDbLine
 10
6.598638631899404
 20
6.341296509815311
 30
0.0
 11
6.271601745600626
 21
6.253679713607873
 31
0.0
  0
ARC
  5
30D
330
1F
100
AcDbEntity
  8
0
  6
Continuous
 62
     7
370
    15
100
AcDbCircle
 10
6.63399397095873
 20
6.189480416483924
 30
0.0
 40
0.1558785623310805
100
AcDbArc
 50
76.89046733397126
 51
103.1095326660281
  0
LINE
  5
30E
330
1F
100
AcDbEntity
  8
0
  6
Continuous
 62
     7
370
    15
100
AcDbLine
 10
6.704704649077386
 20
6.331824423738832
 30
0.0
 11
6.669349310018058
 21
6.341296509815311
 31
0.0
  0
LINE
  5
30F
330
1F
100
AcDbEntity
  8
0
  6
Continuous
 62
     7
370
    15
100
AcDbLine
 10
6.704704649077386
 20
5.597198639995531
 30
0.0
 11
6.704704649077386
 21
6.331824423738832
 31
0.0
  0
LINE
  5
310
330
1F
100
AcDbEntity
  8
0
  6
Continuous
 62
     7
370
    15
100
AcDbLine
 10
6.306957084659953
 20
5.490637671635135
 30
0.0
 11
6.704704649077386
 21
5.597198639995531
 31
0.0
  0
LINE
  5
311
330
1F
100
AcDbEntity
  8
0
  6
Continuous
 62
     7
370
    15
100
AcDbLine
 10
6.306957084659953
 20
5.490637671635135
 30
0.0
 11
6.306957084659953
 21
6.225263455378434
 31
0.0
  0
LINE
  5
312
330
1F
100
AcDbEntity
  8
0
  6
Continuous
 62
     7
370
    15
100
AcDbLine
 10
6.305896424488173
 20
5.490921834217428
 30
0.0
 11
6.306957084659953
 21
5.490637671635135
 31
0.0
  0
ARC
  5
313
330
1F
100
AcDbEntity
  8
0
  6
Continuous
 62
     7
370
    15
100
AcDbCircle
 10
6.178793980569892
 20
6.439832118966545
 30
0.0
 40
0.1558785623311246
100
AcDbArc
 50
256.8904673339758
 51
283.1095326660252
  0
LINE
  5
314
330
1F
100
AcDbEntity
  8
0
  6
Continuous
 62
     7
370
    15
100
AcDbLine
 10
6.470475527809342
 20
6.37563282184255
 30
0.0
 11
6.214149319629219
 21
6.444305445897028
 31
0.0
  0
LWPOLYLINE
  5
315
330
1F
100
AcDbEntity
  8
0
  6
Continuous
 62
     7
370
    15
100
AcDbPolyline
 90
       10
 70
   128
 43
0.0
 10
6.470475527809342
 20
6.356688649689591
 10
6.476077790964464
 20
6.358477362446639
 10
6.480435578101847
 20
6.360499530614024
 10
6.483416480064468
 20
6.362693711635245
 10
6.484929923654602
 20
6.364993236430284
 10
6.484929923654602
 20
6.367328235101857
 10
6.483416480064468
 20
6.369627759896895
 10
6.480435578101847
 20
6.371821940918116
 10
6.476077790964464
 20
6.373844109085502
 10
6.470475527809342
 20
6.37563282184255
  0
LINE
  5
316
330
1F
100
AcDbEntity
  8
0
  6
Continuous
 62
     7
370
    15
100
AcDbLine
 10
6.214149319629219
 20
6.288016025635112
 30
0.0
 11
6.470475527809342
 21
6.356688649689591
 31
0.0
  0
LINE
  5
317
330
1F
100
AcDbEntity
  8
0
  6
Continuous
 62
     7
370
    15
100
AcDbLine
 10
5.88711243333044
 20
6.356688649689591
 30
0.0
 11
6.143438641510564
 21
6.288016025635112
 31
0.0
  0
LWPOLYLINE
  5
318
330
1F
100
AcDbEntity
  8
0
  6
Continuous
 62
     7
370
    15
100
AcDbPolyline
 90
       10
 70
   128
 43
0.0
 10
5.88711243333044
 20
6.37563282184255
 10
5.881510170175319
 20
6.373844109085502
 10
5.877152383037936
 20
6.371821940918116
 10
5.874171481075314
 20
6.369627759896895
 10
5.87265803748518
 20
6.367328235101857
 10
5.87265803748518
 20
6.364993236430284
 10
5.874171481075316
 20
6.362693711635245
 10
5.877152383037936
 20
6.360499530614024
 10
5.881510170175319
 20
6.358477362446639
 10
5.88711243333044
 20
6.356688649689591
  0
LINE
  5
319
330
1F
100
AcDbEntity
  8
0
  6
Continuous
 62
     7
370
    15
100
AcDbLine
 10
6.143438641510564
 20
6.444305445897029
 30
0.0
 11
5.88711243333044
 21
6.37563282184255
 31
0.0
  0
ARC
  5
31A
330
1F
100
AcDbEntity
  8
0
  6
Continuous
 62
     7
370
    15
100
AcDbCircle
 10
6.178793980569889
 20
6.292489352565618
 30
0.0
 40
0.1558785623311034
100
AcDbArc
 50
76.89046733397254
 51
103.1095326660255
  0
LINE
  5
31B
330
1F
100
AcDbEntity
  8
0
  6
Continuous
 62
     7
370
    15
100
AcDbLine
 10
6.002017285273255
 20
6.501137962355907
 30
0.0
 11
5.745691077093131
 21
6.569810586410386
 31
0.0
  0
LWPOLYLINE
  5
31C
330
1F
100
AcDbEntity
  8
0
  6
Continuous
 62
     7
370
    15
100
AcDbPolyline
 90
       10
 70
   128
 43
0.0
 10
6.002017285273254
 20
6.482193790202948
 10
6.007619548428376
 20
6.483982502959996
 10
6.011977335565759
 20
6.48600467112738
 10
6.01495823752838
 20
6.488198852148603
 10
6.016471681118514
 20
6.490498376943641
 10
6.016471681118514
 20
6.492833375615214
 10
6.01495823752838
 20
6.495132900410252
 10
6.011977335565759
 20
6.497327081431474
 10
6.007619548428377
 20
6.499349249598859
 10
6.002017285273255
 20
6.501137962355907
  0
LINE
  5
31D
330
1F
100
AcDbEntity
  8
0
  6
Continuous
 62
     7
370
    15
100
AcDbLine
 10
5.74569107709313
 20
6.413521166148469
 30
0.0
 11
6.002017285273254
 21
6.482193790202948
 31
0.0
  0
ARC
  5
31E
330
1F
100
AcDbEntity
  8
0
  6
Continuous
 62
     7
370
    15
100
AcDbCircle
 10
5.710335738033804
 20
6.565337259479881
 30
0.0
 40
0.1558785623311045
100
AcDbArc
 50
256.8904673339745
 51
283.1095326660268
  0
LINE
  5
31F
330
1F
100
AcDbEntity
  8
0
  6
Continuous
 62
     7
370
    15
100
AcDbLine
 10
5.418654190794353
 20
6.482193790202948
 30
0.0
 11
5.674980398974477
 21
6.413521166148469
 31
0.0
  0
LWPOLYLINE
  5
320
330
1F
100
AcDbEntity
  8
0
  6
Continuous
 62
     7
370
    15
100
AcDbPolyline
 90
       10
 70
   128
 43
0.0
 10
5.418654190794353
 20
6.501137962355907
 10
5.413051927639231
 20
6.499349249598859
 10
5.408694140501848
 20
6.497327081431474
 10
5.405713238539227
 20
6.495132900410252
 10
5.404199794949094
 20
6.492833375615214
 10
5.404199794949094
 20
6.490498376943642
 10
5.405713238539227
 20
6.488198852148603
 10
5.408694140501848
 20
6.486004671127382
 10
5.413051927639231
 20
6.483982502959996
 10
5.418654190794353
 20
6.482193790202948
  0
LINE
  5
321
330
1F
100
AcDbEntity
  8
0
  6
Continuous
 62
     7
370
    15
100
AcDbLine
 10
5.674980398974477
 20
6.569810586410386
 30
0.0
 11
5.418654190794353
 21
6.501137962355907
 31
0.0
  0
ARC
  5
322
330
1F
100
AcDbEntity
  8
0
  6
Continuous
 62
     7
370
    15
100
AcDbCircle
 10
5.710335738033804
 20
6.417994493078952
 30
0.0
 40
0.1558785623311261
100
AcDbArc
 50
76.8904673339755
 51
103.1095326660245
  0
LINE
  5
323
330
1F
100
AcDbEntity
  8
0
  6
Continuous
 62
     7
370
    15
100
AcDbLine
 10
5.61752797300307
 20
6.623091070590585
 30
0.0
 11
5.582172633943742
 21
6.632563156667064
 31
0.0
  0
LWPOLYLINE
  5
324
330
1F
100
AcDbEntity
  8
0
  6
Continuous
 62
     7
370
    15
100
AcDbPolyline
 90
       10
 70
   128
 43
0.0
 10
5.61752797300307
 20
6.604146898437625
 10
5.623130236158192
 20
6.605935611194674
 10
5.627488023295576
 20
6.607957779362058
 10
5.630468925258196
 20
6.610151960383279
 10
5.631982368848331
 20
6.612451485178318
 10
5.63198236884833
 20
6.614786483849892
 10
5.630468925258196
 20
6.617086008644929
 10
5.627488023295576
 20
6.619280189666151
 10
5.623130236158192
 20
6.621302357833536
 10
5.61752797300307
 20
6.623091070590585
  0
LINE
  5
325
330
1F
100
AcDbEntity
  8
0
  6
Continuous
 62
     7
370
    15
100
AcDbLine
 10
5.290491086704292
 20
6.516530102230187
 30
0.0
 11
5.61752797300307
 21
6.604146898437625
 31
0.0
  0
ARC
  5
326
330
1F
100
AcDbEntity
  8
0
  6
Continuous
 62
     7
370
    15
100
AcDbCircle
 10
5.255135747644965
 20
6.66834619556155
 30
0.0
 40
0.1558785623310567
100
AcDbArc
 50
256.89046733397
 51
283.1095326660309
  0
LINE
  5
327
330
1F
100
AcDbEntity
  8
0
  6
Continuous
 62
     7
370
    15
100
AcDbLine
 10
5.18442506952631
 20
6.526002188306667
 30
0.0
 11
5.219780408585637
 21
6.516530102230188
 31
0.0
  0
LINE
  5
32A
330
1F
100
AcDbEntity
  8
0
  6
Continuous
 62
     7
370
    15
100
AcDbLine
 10
5.113360838017062
 20
6.545041081320391
 30
0.0
 11
5.14871617707639
 21
6.535568995243912
 31
0.0
  0
LWPOLYLINE
  5
32B
330
1F
100
AcDbEntity
  8
0
  6
Continuous
 62
     7
370
    15
100
AcDbPolyline
 90
       10
 70
   128
 43
0.0
 10
5.113360838017064
 20
6.563985253473351
 10
5.107758574861942
 20
6.562196540716302
 10
5.103400787724558
 20
6.560174372548918
 10
5.100419885761938
 20
6.557980191527695
 10
5.098906442171804
 20
6.555680666732659
 10
5.098906442171804
 20
6.553345668061084
 10
5.100419885761938
 20
6.551046143266047
 10
5.103400787724558
 20
6.548851962244825
 10
5.10775857486194
 20
6.54682979407744
 10
5.113360838017062
 20
6.545041081320391
  0
LINE
  5
32C
330
1F
100
AcDbEntity
  8
0
  6
Continuous
 62
     7
370
    15
100
AcDbLine
 10
5.440397724315841
 20
6.651602049680789
 30
0.0
 11
5.113360838017064
 21
6.563985253473351
 31
0.0
  0
ARC
  5
32D
330
1F
100
AcDbEntity
  8
0
  6
Continuous
 62
     7
370
    15
100
AcDbCircle
 10
5.475753063375167
 20
6.499785956349419
 30
0.0
 40
0.1558785623310636
100
AcDbArc
 50
76.89046733396914
 51
103.1095326660295
  0
LINE
  5
32E
330
1F
100
AcDbEntity
  8
0
  6
Continuous
 62
     7
370
    15
100
AcDbLine
 10
5.546463741493823
 20
6.642129963604309
 30
0.0
 11
5.511108402434497
 21
6.651602049680788
 31
0.0
  0
LINE
  5
32F
330
1F
100
AcDbEntity
  8
0
  6
Continuous
 62
     7
370
    15
100
AcDbLine
 10
5.31223462022578
 20
6.685938361708028
 30
0.0
 11
5.055908412045656
 21
6.754610985762506
 31
0.0
  0
LWPOLYLINE
  5
330
330
1F
100
AcDbEntity
  8
0
  6
Continuous
 62
     7
370
    15
100
AcDbPolyline
 90
       10
 70
   128
 43
0.0
 10
5.31223462022578
 20
6.666994189555069
 10
5.317836883380901
 20
6.668782902312116
 10
5.322194670518285
 20
6.670805070479502
 10
5.325175572480906
 20
6.672999251500724
 10
5.326689016071039
 20
6.675298776295762
 10
5.326689016071039
 20
6.677633774967334
 10
5.325175572480906
 20
6.679933299762373
 10
5.322194670518285
 20
6.682127480783594
 10
5.317836883380901
 20
6.68414964895098
 10
5.31223462022578
 20
6.685938361708028
  0
LINE
  5
331
330
1F
100
AcDbEntity
  8
0
  6
Continuous
 62
     7
370
    15
100
AcDbLine
 10
5.055908412045657
 20
6.59832156550059
 30
0.0
 11
5.31223462022578
 21
6.666994189555069
 31
0.0
  0
ARC
  5
332
330
1F
100
AcDbEntity
  8
0
  6
Continuous
 62
     7
370
    15
100
AcDbCircle
 10
5.020553072986329
 20
6.750137658832013
 30
0.0
 40
0.1558785623311151
100
AcDbArc
 50
256.890467333975
 51
283.1095326660266
  0
LINE
  5
333
330
1F
100
AcDbEntity
  8
0
  6
Continuous
 62
     7
370
    15
100
AcDbLine
 10
4.728871525746879
 20
6.666994189555069
 30
0.0
 11
4.985197733927001
 21
6.59832156550059
 31
0.0
  0
LWPOLYLINE
  5
334
330
1F
100
AcDbEntity
  8
0
  6
Continuous
 62
     7
370
    15
100
AcDbPolyline
 90
       10
 70
   128
 43
0.0
 10
4.728871525746878
 20
6.685938361708029
 10
4.723269262591756
 20
6.68414964895098
 10
4.718911475454373
 20
6.682127480783594
 10
4.715930573491752
 20
6.679933299762373
 10
4.714417129901618
 20
6.677633774967334
 10
4.714417129901619
 20
6.675298776295762
 10
4.715930573491752
 20
6.672999251500724
 10
4.718911475454373
 20
6.670805070479502
 10
4.723269262591757
 20
6.668782902312117
 10
4.728871525746879
 20
6.666994189555069
  0
LINE
  5
335
330
1F
100
AcDbEntity
  8
0
  6
Continuous
 62
     7
370
    15
100
AcDbLine
 10
4.985197733927001
 20
6.754610985762506
 30
0.0
 11
4.728871525746878
 21
6.685938361708029
 31
0.0
  0
ARC
  5
336
330
1F
100
AcDbEntity
  8
0
  6
Continuous
 62
     7
370
    15
100
AcDbCircle
 10
5.020553072986329
 20
6.602794892431129
 30
0.0
 40
0.155878562331071
100
AcDbArc
 50
76.89046733397076
 51
103.1095326660295
  0
LINE
  5
337
330
1F
100
AcDbEntity
  8
0
  6
Continuous
 62
     7
370
    15
100
AcDbLine
 10
4.13225017912073
 20
6.826835642095665
 30
0.0
 11
4.177647987649243
 21
6.838998216730971
 31
0.0
  0
ARC
  5
338
330
1F
100
AcDbEntity
  8
0
  6
Continuous
 62
     7
370
    15
100
AcDbCircle
 10
4.096894840061402
 20
6.978651735427056
 30
0.0
 40
0.1558785623310839
100
AcDbArc
 50
256.8904673339727
 51
283.1095326660292
  0
LINE
  5
339
330
1F
100
AcDbEntity
  8
0
  6
Continuous
 62
     7
370
    15
100
AcDbLine
 10
4.026184161942747
 20
6.836307728172146
 30
0.0
 11
4.061539501002075
 21
6.826835642095665
 31
0.0
  0
LINE
  5
33C
330
1F
100
AcDbEntity
  8
0
  6
Continuous
 62
     7
370
    15
100
AcDbLine
 10
3.955119930433501
 20
6.855346621185869
 30
0.0
 11
3.990475269492828
 21
6.845874535109389
 31
0.0
  0
LWPOLYLINE
  5
33D
330
1F
100
AcDbEntity
  8
0
  6
Continuous
 62
     7
370
    15
100
AcDbPolyline
 90
       10
 70
   128
 43
0.0
 10
3.955119930433501
 20
6.874290793338829
 10
3.949517667278378
 20
6.872502080581781
 10
3.945159880140995
 20
6.870479912414396
 10
3.942178978178374
 20
6.868285731393173
 10
3.94066553458824
 20
6.865986206598137
 10
3.94066553458824
 20
6.863651207926563
 10
3.942178978178374
 20
6.861351683131524
 10
3.945159880140995
 20
6.859157502110303
 10
3.949517667278378
 20
6.857135333942917
 10
3.955119930433501
 20
6.855346621185869
  0
LINE
  5
33E
330
1F
100
AcDbEntity
  8
0
  6
Continuous
 62
     7
370
    15
100
AcDbLine
 10
4.277130159661591
 20
6.960560892563087
 30
0.0
 11
3.955119930433501
 21
6.874290793338829
 31
0.0
  0
LINE
  5
33F
330
1F
100
AcDbEntity
  8
0
  6
Continuous
 62
     7
370
    15
100
AcDbLine
 10
4.153993712642217
 20
6.996243901573507
 30
0.0
 11
3.897667504462094
 21
7.064916525627984
 31
0.0
  0
LWPOLYLINE
  5
340
330
1F
100
AcDbEntity
  8
0
  6
Continuous
 62
     7
370
    15
100
AcDbPolyline
 90
       10
 70
   128
 43
0.0
 10
4.153993712642217
 20
6.977299729420546
 10
4.159595975797339
 20
6.979088442177594
 10
4.163953762934722
 20
6.98111061034498
 10
4.166934664897343
 20
6.983304791366202
 10
4.168448108487477
 20
6.98560431616124
 10
4.168448108487477
 20
6.987939314832813
 10
4.166934664897343
 20
6.990238839627851
 10
4.163953762934722
 20
6.992433020649072
 10
4.159595975797339
 20
6.994455188816458
 10
4.153993712642217
 20
6.996243901573507
  0
LINE
  5
341
330
1F
100
AcDbEntity
  8
0
  6
Continuous
 62
     7
370
    15
100
AcDbLine
 10
3.897667504462094
 20
6.908627105366068
 30
0.0
 11
4.153993712642217
 21
6.977299729420546
 31
0.0
  0
ARC
  5
342
330
1F
100
AcDbEntity
  8
0
  6
Continuous
 62
     7
370
    15
100
AcDbCircle
 10
3.862312165402766
 20
7.060443198697452
 30
0.0
 40
0.1558785623310769
100
AcDbArc
 50
256.8904673339722
 51
283.1095326660297
  0
LINE
  5
343
330
1F
100
AcDbEntity
  8
0
  6
Continuous
 62
     7
370
    15
100
AcDbLine
 10
3.570630618163316
 20
6.977299729420546
 30
0.0
 11
3.826956826343439
 21
6.908627105366068
 31
0.0
  0
LWPOLYLINE
  5
344
330
1F
100
AcDbEntity
  8
0
  6
Continuous
 62
     7
370
    15
100
AcDbPolyline
 90
       10
 70
   128
 43
0.0
 10
3.570630618163316
 20
6.996243901573507
 10
3.565028355008194
 20
6.994455188816457
 10
3.560670567870811
 20
6.992433020649072
 10
3.55768966590819
 20
6.990238839627851
 10
3.556176222318056
 20
6.987939314832813
 10
3.556176222318056
 20
6.98560431616124
 10
3.55768966590819
 20
6.983304791366202
 10
3.560670567870811
 20
6.98111061034498
 10
3.565028355008194
 20
6.979088442177594
 10
3.570630618163316
 20
6.977299729420546
  0
LINE
  5
345
330
1F
100
AcDbEntity
  8
0
  6
Continuous
 62
     7
370
    15
100
AcDbLine
 10
3.826956826343438
 20
7.064916525627984
 30
0.0
 11
3.570630618163316
 21
6.996243901573507
 31
0.0
  0
ARC
  5
346
330
1F
100
AcDbEntity
  8
0
  6
Continuous
 62
     7
370
    15
100
AcDbCircle
 10
3.862312165402766
 20
6.913100432296642
 30
0.0
 40
0.1558785623310371
100
AcDbArc
 50
76.89046733396771
 51
103.1095326660323
  0
ARC
  5
347
330
1F
100
AcDbEntity
  8
0
  6
Continuous
 62
     7
370
    15
100
AcDbCircle
 10
3.393853922866678
 20
7.185948339210827
 30
0.0
 40
0.1558785623310942
100
AcDbArc
 50
256.8904673339734
 51
283.1095326660283
  0
LINE
  5
348
330
1F
100
AcDbEntity
  8
0
  6
Continuous
 62
     7
370
    15
100
AcDbLine
 10
3.685535470106129
 20
7.121749042086863
 30
0.0
 11
3.429209261926006
 21
7.190421666141341
 31
0.0
  0
LWPOLYLINE
  5
349
330
1F
100
AcDbEntity
  8
0
  6
Continuous
 62
     7
370
    15
100
AcDbPolyline
 90
       10
 70
   128
 43
0.0
 10
3.685535470106129
 20
7.102804869933904
 10
3.691137733261252
 20
7.104593582690952
 10
3.695495520398635
 20
7.106615750858337
 10
3.698476422361255
 20
7.108809931879559
 10
3.699989865951389
 20
7.111109456674597
 10
3.699989865951389
 20
7.113444455346169
 10
3.698476422361256
 20
7.115743980141208
 10
3.695495520398635
 20
7.117938161162429
 10
3.691137733261252
 20
7.119960329329814
 10
3.685535470106129
 20
7.121749042086863
  0
LINE
  5
34A
330
1F
100
AcDbEntity
  8
0
  6
Continuous
 62
     7
370
    15
100
AcDbLine
 10
3.429209261926006
 20
7.034132245879425
 30
0.0
 11
3.685535470106129
 21
7.102804869933904
 31
0.0
  0
LINE
  5
34B
330
1F
100
AcDbEntity
  8
0
  6
Continuous
 62
     7
370
    15
100
AcDbLine
 10
3.102172375627228
 20
7.102804869933904
 30
0.0
 11
3.35849858380735
 21
7.034132245879425
 31
0.0
  0
LWPOLYLINE
  5
34C
330
1F
100
AcDbEntity
  8
0
  6
Continuous
 62
     7
370
    15
100
AcDbPolyline
 90
       10
 70
   128
 43
0.0
 10
3.102172375627228
 20
7.121749042086864
 10
3.096570112472106
 20
7.119960329329815
 10
3.092212325334724
 20
7.117938161162429
 10
3.089231423372102
 20
7.115743980141208
 10
3.087717979781969
 20
7.113444455346169
 10
3.087717979781968
 20
7.111109456674597
 10
3.089231423372102
 20
7.10880993187956
 10
3.092212325334723
 20
7.106615750858338
 10
3.096570112472106
 20
7.104593582690952
 10
3.102172375627228
 20
7.102804869933904
  0
LINE
  5
34D
330
1F
100
AcDbEntity
  8
0
  6
Continuous
 62
     7
370
    15
100
AcDbLine
 10
3.358498583807352
 20
7.190421666141342
 30
0.0
 11
3.102172375627228
 21
7.121749042086864
 31
0.0
  0
ARC
  5
34E
330
1F
100
AcDbEntity
  8
0
  6
Continuous
 62
     7
370
    15
100
AcDbCircle
 10
3.393853922866677
 20
7.038605572809935
 30
0.0
 40
0.1558785623310997
100
AcDbArc
 50
76.89046733397256
 51
103.1095326660261
  0
ARC
  5
34F
330
1F
100
AcDbEntity
  8
0
  6
Continuous
 62
     7
370
    15
100
AcDbCircle
 10
2.938653932477839
 20
7.288957275292493
 30
0.0
 40
0.1558785623310439
100
AcDbArc
 50
256.8904673339693
 51
283.1095326660324
  0
LINE
  5
350
330
1F
100
AcDbEntity
  8
0
  6
Continuous
 62
     7
370
    15
100
AcDbLine
 10
3.301046157835945
 20
7.24370215032154
 30
0.0
 11
3.265690818776618
 21
7.25317423639802
 31
0.0
  0
LWPOLYLINE
  5
351
330
1F
100
AcDbEntity
  8
0
  6
Continuous
 62
     7
370
    15
100
AcDbPolyline
 90
       10
 70
   128
 43
0.0
 10
3.301046157835945
 20
7.224757978168582
 10
3.306648420991067
 20
7.226546690925629
 10
3.31100620812845
 20
7.228568859093014
 10
3.313987110091071
 20
7.230763040114236
 10
3.315500553681205
 20
7.233062564909275
 10
3.315500553681205
 20
7.235397563580847
 10
3.313987110091071
 20
7.237697088375885
 10
3.31100620812845
 20
7.239891269397107
 10
3.306648420991068
 20
7.241913437564493
 10
3.301046157835945
 20
7.24370215032154
  0
LINE
  5
352
330
1F
100
AcDbEntity
  8
0
  6
Continuous
 62
     7
370
    15
100
AcDbLine
 10
2.974009271537167
 20
7.137141181961143
 30
0.0
 11
3.301046157835945
 21
7.224757978168582
 31
0.0
  0
LINE
  5
353
330
1F
100
AcDbEntity
  8
0
  6
Continuous
 62
     7
370
    15
100
AcDbLine
 10
2.867943254359184
 20
7.146613268037622
 30
0.0
 11
2.903298593418512
 21
7.137141181961143
 31
0.0
  0
LWPOLYLINE
  5
355
330
1F
100
AcDbEntity
  8
0
  6
Continuous
 62
     7
370
    15
100
AcDbPolyline
 90
       10
 70
   128
 43
0.0
 10
2.796879022849938
 20
7.184596333204308
 10
2.791276759694816
 20
7.182807620447259
 10
2.786918972557433
 20
7.180785452279874
 10
2.783938070594811
 20
7.178591271258651
 10
2.782424627004678
 20
7.176291746463613
 10
2.782424627004678
 20
7.173956747792041
 10
2.783938070594812
 20
7.171657222997002
 10
2.786918972557433
 20
7.169463041975781
 10
2.791276759694815
 20
7.167440873808397
 10
2.796879022849938
 20
7.165652161051347
  0
LWPOLYLINE
  5
357
330
1F
100
AcDbEntity
  8
0
  6
Continuous
 62
     7
370
    15
100
AcDbPolyline
 90
       10
 70
   128
 43
0.0
 10
2.995752805058654
 20
7.287605269286024
 10
3.001355068213776
 20
7.289393982043073
 10
3.005712855351159
 20
7.291416150210459
 10
3.00869375731378
 20
7.29361033123168
 10
3.010207200903914
 20
7.295909856026717
 10
3.010207200903914
 20
7.29824485469829
 10
3.00869375731378
 20
7.300544379493328
 10
3.00571285535116
 20
7.302738560514551
 10
3.001355068213776
 20
7.304760728681936
 10
2.995752805058654
 20
7.306549441438984
  0
LWPOLYLINE
  5
358
330
1F
100
AcDbEntity
  8
0
  6
Continuous
 62
     7
370
    15
100
AcDbPolyline
 90
       10
 70
   128
 43
0.0
 10
2.412389710579753
 20
7.306549441438984
 10
2.406787447424631
 20
7.304760728681936
 10
2.402429660287248
 20
7.302738560514551
 10
2.399448758324627
 20
7.300544379493329
 10
2.397935314734493
 20
7.298244854698291
 10
2.397935314734493
 20
7.295909856026718
 10
2.399448758324627
 20
7.29361033123168
 10
2.402429660287248
 20
7.291416150210459
 10
2.406787447424632
 20
7.289393982043073
 10
2.412389710579753
 20
7.287605269286024
  0
LWPOLYLINE
  5
359
330
1F
100
AcDbEntity
  8
0
  6
Continuous
 62
     7
370
    15
100
AcDbPolyline
 90
       10
 70
   128
 43
0.0
 10
2.527294562522566
 20
7.413110409799382
 10
2.532896825677688
 20
7.41489912255643
 10
2.537254612815071
 20
7.416921290723816
 10
2.540235514777692
 20
7.419115471745037
 10
2.541748958367826
 20
7.421414996540075
 10
2.541748958367826
 20
7.423749995211648
 10
2.540235514777693
 20
7.426049520006686
 10
2.537254612815072
 20
7.428243701027907
 10
2.532896825677689
 20
7.430265869195292
 10
2.527294562522566
 20
7.432054581952341
  0
LWPOLYLINE
  5
35A
330
1F
100
AcDbEntity
  8
0
  6
Continuous
 62
     7
370
    15
100
AcDbPolyline
 90
       10
 70
   128
 43
0.0
 10
1.943931468043665
 20
7.432054581952342
 10
1.938329204888544
 20
7.430265869195293
 10
1.933971417751161
 20
7.428243701027907
 10
1.93099051578854
 20
7.426049520006686
 10
1.929477072198405
 20
7.423749995211649
 10
1.929477072198405
 20
7.421414996540075
 10
1.930990515788539
 20
7.419115471745037
 10
1.933971417751161
 20
7.416921290723816
 10
1.938329204888543
 20
7.41489912255643
 10
1.943931468043665
 20
7.413110409799382
  0
LWPOLYLINE
  5
35B
330
1F
100
AcDbEntity
  8
0
  6
Continuous
 62
     7
370
    15
100
AcDbPolyline
 90
       10
 70
   128
 43
0.0
 10
2.142805250252382
 20
7.535063518034059
 10
2.148407513407505
 20
7.536852230791107
 10
2.152765300544887
 20
7.538874398958492
 10
2.155746202507508
 20
7.541068579979715
 10
2.157259646097643
 20
7.543368104774753
 10
2.157259646097642
 20
7.545703103446325
 10
2.155746202507509
 20
7.548002628241363
 10
2.152765300544887
 20
7.550196809262585
 10
2.148407513407504
 20
7.552218977429969
 10
2.142805250252382
 20
7.554007690187019
  0
LINE
  5
35D
330
1F
100
AcDbEntity
  8
0
  6
Continuous
 62
     7
370
    15
100
AcDbLine
 10
2.779201353320273
 20
7.141971945860148
 30
0.0
 11
2.779201353320273
 21
6.407346162116849
 31
0.0
  0
LINE
  5
35E
330
1F
100
AcDbEntity
  8
0
  6
Continuous
 62
     7
370
    15
100
AcDbLine
 10
2.8145566923796
 20
7.132499859783669
 30
0.0
 11
2.779201353320273
 21
7.141971945860148
 31
0.0
  0
LINE
  5
35F
330
1F
100
AcDbEntity
  8
0
  6
Continuous
 62
     7
370
    15
100
AcDbLine
 10
3.937088707513242
 20
6.831761126855435
 30
0.0
 11
3.937088707513242
 21
6.545045750695647
 31
0.0
  0
LINE
  5
360
330
1F
100
AcDbEntity
  8
0
  6
Continuous
 62
     7
370
    15
100
AcDbLine
 10
3.972444046572569
 20
6.822289040778954
 30
0.0
 11
3.937088707513242
 21
6.831761126855435
 31
0.0
  0
LINE
  5
361
330
1F
100
AcDbEntity
  8
0
  6
Continuous
 62
     7
370
    15
100
AcDbLine
 10
5.094976061706211
 20
6.521550307850723
 30
0.0
 11
5.094976061706211
 21
5.786924524107422
 31
0.0
  0
LINE
  5
362
330
1F
100
AcDbEntity
  8
0
  6
Continuous
 62
     7
370
    15
100
AcDbLine
 10
5.130331400765539
 20
6.512078221774242
 30
0.0
 11
5.094976061706211
 21
6.521550307850723
 31
0.0
  0
LINE
  5
363
330
1F
100
AcDbEntity
  8
0
  6
Continuous
 62
     7
370
    15
100
AcDbLine
 10
5.673919738802696
 20
5.583646932064521
 30
0.0
 11
5.673919738802696
 21
5.622347028528586
 31
0.0
  0
LINE
  5
364
330
1F
100
AcDbEntity
  8
0
  6
Continuous
 62
     7
370
    15
100
AcDbLine
 10
4.551387723669055
 20
5.884385664992755
 30
0.0
 11
5.673919738802696
 21
5.583646932064521
 31
0.0
  0
LINE
  5
365
330
1F
100
AcDbEntity
  8
0
  6
Continuous
 62
     7
370
    15
100
AcDbLine
 10
5.673919738802696
 20
4.800848965780677
 30
0.0
 11
5.673919738802696
 21
4.849021148321221
 31
0.0
  0
LINE
  5
366
330
1F
100
AcDbEntity
  8
0
  6
Continuous
 62
     7
370
    15
100
AcDbLine
 10
5.13033140076554
 20
4.946482289206554
 30
0.0
 11
5.673919738802696
 21
4.800848965780677
 31
0.0
  0
LINE
  5
367
330
1F
100
AcDbEntity
  8
0
  6
Continuous
 62
     7
370
    15
100
AcDbLine
 10
5.094976061706213
 20
4.221328591539734
 30
0.0
 11
5.112653731235876
 21
4.216592548501494
 31
0.0
  0
LINE
  5
368
330
1F
100
AcDbEntity
  8
0
  6
Continuous
 62
     7
370
    15
100
AcDbLine
 10
5.094976061706213
 20
4.955954375283033
 30
0.0
 11
5.094976061706213
 21
4.221328591539734
 31
0.0
  0
LINE
  5
369
330
1F
100
AcDbEntity
  8
0
  6
Continuous
 62
     7
370
    15
100
AcDbLine
 10
3.97244404657257
 20
5.256693108211267
 30
0.0
 11
5.094976061706213
 21
4.955954375283033
 31
0.0
  0
LINE
  5
36A
330
1F
100
AcDbEntity
  8
0
  6
Continuous
 62
     7
370
    15
100
AcDbLine
 10
3.937088707513242
 20
4.531539410544447
 30
0.0
 11
3.954766377042907
 21
4.526803367506206
 31
0.0
  0
LINE
  5
36B
330
1F
100
AcDbEntity
  8
0
  6
Continuous
 62
     7
370
    15
100
AcDbLine
 10
3.937088707513242
 20
5.266165194287746
 30
0.0
 11
3.937088707513242
 21
4.531539410544447
 31
0.0
  0
LINE
  5
36C
330
1F
100
AcDbEntity
  8
0
  6
Continuous
 62
     7
370
    15
100
AcDbLine
 10
2.814556692379601
 20
5.56690392721598
 30
0.0
 11
3.335637043214429
 21
5.427300742316876
 31
0.0
  0
LINE
  5
36D
330
1F
100
AcDbEntity
  8
0
  6
Continuous
 62
     7
370
    15
100
AcDbLine
 10
3.461069320541736
 20
5.393696048960111
 30
0.0
 11
3.937088707513242
 21
5.266165194287746
 31
0.0
  0
LINE
  5
36E
330
1F
100
AcDbEntity
  8
0
  6
Continuous
 62
     7
370
    15
100
AcDbLine
 10
2.779201353320273
 20
4.84175022954916
 30
0.0
 11
2.796879022849937
 21
4.83701418651092
 31
0.0
  0
LINE
  5
36F
330
1F
100
AcDbEntity
  8
0
  6
Continuous
 62
     7
370
    15
100
AcDbLine
 10
2.779201353320273
 20
5.576376013292459
 30
0.0
 11
2.779201353320273
 21
4.84175022954916
 31
0.0
  0
LINE
  5
370
330
1F
100
AcDbEntity
  8
0
  6
Continuous
 62
     7
370
    15
100
AcDbLine
 10
1.65666933818663
 20
5.877114746220693
 30
0.0
 11
2.779201353320273
 21
5.576376013292459
 31
0.0
  0
LINE
  5
371
330
1F
100
AcDbEntity
  8
0
  6
Continuous
 62
     7
370
    15
100
AcDbLine
 10
1.65666933818663
 20
5.915814842684757
 30
0.0
 11
1.65666933818663
 21
5.877114746220693
 31
0.0
  0
LINE
  5
372
330
1F
100
AcDbEntity
  8
0
  6
Continuous
 62
     7
370
    15
100
AcDbLine
 10
2.200257676223788
 20
6.51427938907866
 30
0.0
 11
2.200257676223788
 21
5.779653605335361
 31
0.0
  0
LINE
  5
373
330
1F
100
AcDbEntity
  8
0
  6
Continuous
 62
     7
370
    15
100
AcDbLine
 10
1.65666933818663
 20
6.659912712504537
 30
0.0
 11
2.200257676223788
 21
6.51427938907866
 31
0.0
  0
LINE
  5
374
330
1F
100
AcDbEntity
  8
0
  6
Continuous
 62
     7
370
    15
100
AcDbLine
 10
1.65666933818663
 20
6.698612808968603
 30
0.0
 11
1.65666933818663
 21
6.659912712504537
 31
0.0
  0
LINE
  5
375
330
1F
100
AcDbEntity
  8
0
  6
Continuous
 62
     7
370
    15
100
AcDbLine
 10
3.358145030416757
 20
5.837602988637761
 30
0.0
 11
3.358145030416757
 21
6.204068570073947
 31
0.0
  0
LINE
  5
376
330
1F
100
AcDbEntity
  8
0
  6
Continuous
 62
     7
370
    15
100
AcDbLine
 10
3.358145030416757
 20
6.204068570073947
 30
0.0
 11
2.235613015283115
 21
6.504807303002181
 31
0.0
  0
LINE
  5
377
330
1F
100
AcDbEntity
  8
0
  6
Continuous
 62
     7
370
    15
100
AcDbLine
 10
4.516032384609728
 20
5.159231967325934
 30
0.0
 11
4.516032384609728
 21
5.893857751069234
 31
0.0
  0
LINE
  5
378
330
1F
100
AcDbEntity
  8
0
  6
Continuous
 62
     7
370
    15
100
AcDbLine
 10
4.516032384609728
 20
5.893857751069234
 30
0.0
 11
3.986484535560096
 21
6.035729472321743
 31
0.0
  0
LINE
  5
379
330
1F
100
AcDbEntity
  8
0
  6
Continuous
 62
     7
370
    15
100
AcDbLine
 10
3.604117299840493
 20
6.138169880642653
 30
0.0
 11
3.393500369476085
 21
6.194596483997467
 31
0.0
  0
LINE
  5
37A
330
1F
100
AcDbEntity
  8
0
  6
Continuous
 62
     7
370
    15
100
AcDbLine
 10
5.746145382714085
 20
5.602996980296554
 30
0.0
 11
5.673919738802696
 21
5.583646932064521
 31
0.0
  0
LINE
  5
37B
330
1F
100
AcDbEntity
  8
0
  6
Continuous
 62
     7
370
    15
100
AcDbLine
 10
6.177733320398114
 20
4.983998374911057
 30
0.0
 11
5.673919738802696
 21
4.849021148321221
 31
0.0
  0
LINE
  5
37C
330
1F
100
AcDbEntity
  8
0
  6
Continuous
 62
     7
370
    15
100
AcDbLine
 10
6.177733320398114
 20
4.935826192370513
 30
0.0
 11
6.177733320398114
 21
4.983998374911057
 31
0.0
  0
LINE
  5
37D
330
1F
100
AcDbEntity
  8
0
  6
Continuous
 62
     7
370
    15
100
AcDbLine
 10
6.177733320398114
 20
4.935826192370513
 30
0.0
 11
5.673919738802696
 21
4.800848965780677
 31
0.0
  0
LINE
  5
380
330
1F
100
AcDbEntity
  8
0
  6
Continuous
 62
     7
370
    15
100
AcDbLine
 10
5.634144982360955
 20
6.64705544836408
 30
0.0
 11
5.598789643301628
 21
6.656527534440559
 31
0.0
  0
LINE
  5
385
330
1F
100
AcDbEntity
  8
0
  6
Continuous
 62
     7
370
    15
100
AcDbLine
 10
3.318370273975016
 20
7.267477086373506
 30
0.0
 11
3.283014934915689
 21
7.276949172449984
 31
0.0
  0
LINE
  5
386
330
1F
100
AcDbEntity
  8
0
  6
Continuous
 62
     8
370
    15
100
AcDbLine
 10
4.450643937853128
 20
7.180598010002547
 30
0.0
 11
4.452791930062564
 21
7.183222758491282
 31
0.0
  0
LINE
  5
387
330
1F
100
AcDbEntity
  8
0
  6
Continuous
 62
     8
370
    15
100
AcDbLine
 10
1.364987790947181
 20
6.785417853017895
 30
0.0
 11
1.364987790947181
 21
6.804362025170854
 31
0.0
  0
LINE
  5
388
330
1F
100
AcDbEntity
  8
0
  6
Continuous
 62
     8
370
    15
100
AcDbLine
 10
1.621313999127304
 20
6.716745228963416
 30
0.0
 11
1.621313999127304
 21
6.873034649225332
 31
0.0
  0
LINE
  5
389
330
1F
100
AcDbEntity
  8
0
  6
Continuous
 62
     8
370
    15
100
AcDbLine
 10
1.563861573155898
 20
6.907370961252571
 30
0.0
 11
1.563861573155898
 21
6.926315133405532
 31
0.0
  0
LINE
  5
38A
330
1F
100
AcDbEntity
  8
0
  6
Continuous
 62
     8
370
    15
100
AcDbLine
 10
5.112653731235877
 20
6.56379194478879
 30
0.0
 11
5.112653731235877
 21
6.564174695194881
 31
0.0
  0
LINE
  5
38B
330
1F
100
AcDbEntity
  8
0
  6
Continuous
 62
     8
370
    15
100
AcDbLine
 10
5.439690617534655
 20
6.651412607959259
 30
0.0
 11
5.439690617534655
 21
6.651791491402319
 31
0.0
  0
LINE
  5
38C
330
1F
100
AcDbEntity
  8
0
  6
Continuous
 62
     8
370
    15
100
AcDbLine
 10
5.51040129565331
 20
6.651787776144423
 30
0.0
 11
5.51040129565331
 21
6.651791491402319
 31
0.0
  0
LINE
  5
38D
330
1F
100
AcDbEntity
  8
0
  6
Continuous
 62
     8
370
    15
100
AcDbLine
 10
4.728164418965692
 20
6.685745053023467
 30
0.0
 11
4.728164418965692
 21
6.686127803429559
 31
0.0
  0
LINE
  5
38E
330
1F
100
AcDbEntity
  8
0
  6
Continuous
 62
     8
370
    15
100
AcDbLine
 10
5.05520130526447
 20
6.754796712226141
 30
0.0
 11
5.05520130526447
 21
6.754800427484036
 31
0.0
  0
LINE
  5
38F
330
1F
100
AcDbEntity
  8
0
  6
Continuous
 62
     8
370
    15
100
AcDbLine
 10
4.984490627145814
 20
6.754421544040977
 30
0.0
 11
4.984490627145814
 21
6.754800427484036
 31
0.0
  0
LINE
  5
390
330
1F
100
AcDbEntity
  8
0
  6
Continuous
 62
     8
370
    15
100
AcDbLine
 10
6.270541085428846
 20
6.253386758284828
 30
0.0
 11
6.270541085428846
 21
6.253963876190168
 31
0.0
  0
LINE
  5
391
330
1F
100
AcDbEntity
  8
0
  6
Continuous
 62
     8
370
    15
100
AcDbLine
 10
6.597577971727624
 20
6.341012347233015
 30
0.0
 11
6.597577971727624
 21
6.341580672397606
 31
0.0
  0
LINE
  5
392
330
1F
100
AcDbEntity
  8
0
  6
Continuous
 62
     8
370
    15
100
AcDbLine
 10
6.66828864984628
 20
6.341572392303896
 30
0.0
 11
6.66828864984628
 21
6.341580672397606
 31
0.0
  0
LINE
  5
393
330
1F
100
AcDbEntity
  8
0
  6
Continuous
 62
     8
370
    15
100
AcDbLine
 10
5.886051773158661
 20
6.375339866519506
 30
0.0
 11
5.886051773158661
 21
6.375916984424845
 31
0.0
  0
LINE
  5
394
330
1F
100
AcDbEntity
  8
0
  6
Continuous
 62
     8
370
    15
100
AcDbLine
 10
6.21308865945744
 20
6.444581328385613
 30
0.0
 11
6.21308865945744
 21
6.444589608479323
 31
0.0
  0
LINE
  5
395
330
1F
100
AcDbEntity
  8
0
  6
Continuous
 62
     8
370
    15
100
AcDbLine
 10
6.142377981338784
 20
6.444021283314734
 30
0.0
 11
6.142377981338784
 21
6.444589608479323
 31
0.0
  0
LINE
  5
396
330
1F
100
AcDbEntity
  8
0
  6
Continuous
 62
     8
370
    15
100
AcDbLine
 10
5.417593530622575
 20
6.500845007032863
 30
0.0
 11
5.417593530622575
 21
6.501422124938202
 31
0.0
  0
LINE
  5
397
330
1F
100
AcDbEntity
  8
0
  6
Continuous
 62
     8
370
    15
100
AcDbLine
 10
5.744630416921353
 20
6.57008646889897
 30
0.0
 11
5.744630416921353
 21
6.57009474899268
 31
0.0
  0
LINE
  5
398
330
1F
100
AcDbEntity
  8
0
  6
Continuous
 62
     8
370
    15
100
AcDbLine
 10
5.673919738802696
 20
6.569526423828091
 30
0.0
 11
5.673919738802696
 21
6.57009474899268
 31
0.0
  0
LINE
  5
399
330
1F
100
AcDbEntity
  8
0
  6
Continuous
 62
     8
370
    15
100
AcDbLine
 10
3.954766377042908
 20
6.874195115652878
 30
0.0
 11
3.954766377042908
 21
6.874385514199594
 31
0.0
  0
LINE
  5
39A
330
1F
100
AcDbEntity
  8
0
  6
Continuous
 62
     8
370
    15
100
AcDbLine
 10
3.570277064772723
 20
6.996148223887556
 30
0.0
 11
3.570277064772723
 21
6.996338622434271
 31
0.0
  0
LINE
  5
39B
330
1F
100
AcDbEntity
  8
0
  6
Continuous
 62
     8
370
    15
100
AcDbLine
 10
3.897313951071501
 20
7.065010308612472
 30
0.0
 11
3.897313951071501
 21
7.065011246488749
 31
0.0
  0
LINE
  5
39C
330
1F
100
AcDbEntity
  8
0
  6
Continuous
 62
     8
370
    15
100
AcDbLine
 10
3.826603272952845
 20
7.06482180476722
 30
0.0
 11
3.826603272952845
 21
7.06501124648875
 31
0.0
  0
LINE
  5
39D
330
1F
100
AcDbEntity
  8
0
  6
Continuous
 62
     8
370
    15
100
AcDbLine
 10
3.101818822236635
 20
7.121653364400913
 30
0.0
 11
3.101818822236635
 21
7.121843762947629
 31
0.0
  0
LINE
  5
39E
330
1F
100
AcDbEntity
  8
0
  6
Continuous
 62
     8
370
    15
100
AcDbLine
 10
3.428855708535413
 20
7.19051544912583
 30
0.0
 11
3.428855708535413
 21
7.190516387002107
 31
0.0
  0
LINE
  5
39F
330
1F
100
AcDbEntity
  8
0
  6
Continuous
 62
     8
370
    15
100
AcDbLine
 10
3.358145030416758
 20
7.190326945280577
 30
0.0
 11
3.358145030416758
 21
7.190516387002107
 31
0.0
  0
LINE
  5
3A0
330
1F
100
AcDbEntity
  8
0
  6
Continuous
 62
     8
370
    15
100
AcDbLine
 10
6.018634294631139
 20
4.979262331872818
 30
0.0
 11
6.018634294631139
 21
5.529994189282907
 31
0.0
  0
LINE
  5
3A1
330
1F
100
AcDbEntity
  8
0
  6
Continuous
 62
     8
370
    15
100
AcDbLine
 10
6.089344972749795
 20
4.979262331872818
 30
0.0
 11
6.089344972749795
 21
5.511050017129948
 31
0.0
  0
LINE
  5
3A2
330
1F
100
AcDbEntity
  8
0
  6
Continuous
 62
     8
370
    15
100
AcDbLine
 10
6.270541085428846
 20
4.66942377146952
 30
0.0
 11
6.270541085428846
 21
4.68836794362248
 31
0.0
  0
LINE
  5
3A3
330
1F
100
AcDbEntity
  8
0
  6
Continuous
 62
     8
370
    15
100
AcDbLine
 10
6.469414867637563
 20
4.791376879704197
 30
0.0
 11
6.469414867637563
 21
4.810321051857156
 31
0.0
  0
LINE
  5
3A4
330
1F
100
AcDbEntity
  8
0
  6
Continuous
 62
     8
370
    15
100
AcDbLine
 10
5.886051773158661
 20
4.791376879704197
 30
0.0
 11
5.886051773158661
 21
4.810321051857156
 31
0.0
  0
LINE
  5
3A5
330
1F
100
AcDbEntity
  8
0
  6
Continuous
 62
     8
370
    15
100
AcDbLine
 10
6.21308865945744
 20
4.722704255649718
 30
0.0
 11
6.21308865945744
 21
4.878993675911635
 31
0.0
  0
LINE
  5
3A6
330
1F
100
AcDbEntity
  8
0
  6
Continuous
 62
     8
370
    15
100
AcDbLine
 10
6.142377981338785
 20
4.722704255649719
 30
0.0
 11
6.142377981338785
 21
4.878993675911635
 31
0.0
  0
TEXT
  5
3AE
330
1F
100
AcDbEntity
  8
0
100
AcDbText
 10
2.632082884333513
 20
3.239155766544069
 30
0.0
 40
0.25
  1
USP  HTWM
100
AcDbText
  0
TEXT
  5
3AF
330
1F
100
AcDbEntity
  8
0
100
AcDbText
 10
1.713223624048112
 20
2.723404741786421
 30
0.0
 40
0.25
  1
SIMPSON  HTSM
100
AcDbText
  0
ENDSEC
  0
SECTION
  2
OBJECTS
  0
DICTIONARY
  5
C
330
0
100
AcDbDictionary
281
     1
  3
ACAD_COLOR
350
3AB
  3
ACAD_GROUP
350
D
  3
ACAD_LAYOUT
350
1A
  3
ACAD_MATERIAL
350
3AA
  3
ACAD_MLINESTYLE
350
17
  3
ACAD_PLOTSETTINGS
350
19
  3
ACAD_PLOTSTYLENAME
350
E
  3
ASE_INDEX_DICTIONARY
350
3B1
  0
DICTIONARY
  5
3AB
102
{ACAD_REACTORS
330
C
102
}
330
C
100
AcDbDictionary
281
     1
  0
DICTIONARY
  5
D
102
{ACAD_REACTORS
330
C
102
}
330
C
100
AcDbDictionary
281
     1
  0
DICTIONARY
  5
1A
102
{ACAD_REACTORS
330
C
102
}
330
C
100
AcDbDictionary
281
     1
  3
Layout1
350
1E
  3
Layout2
350
26
  3
Model
350
22
  0
DICTIONARY
  5
3AA
102
{ACAD_REACTORS
330
C
102
}
330
C
100
AcDbDictionary
281
     1
  0
DICTIONARY
  5
17
102
{ACAD_REACTORS
330
C
102
}
330
C
100
AcDbDictionary
281
     1
  3
Standard
350
18
  0
DICTIONARY
  5
19
102
{ACAD_REACTORS
330
C
102
}
330
C
100
AcDbDictionary
281
     1
  0
ACDBDICTIONARYWDFLT
  5
E
102
{ACAD_REACTORS
330
C
102
}
330
C
100
AcDbDictionary
281
     1
  3
Normal
350
F
100
AcDbDictionaryWithDefault
340
F
  0
DICTIONARY
  5
3B1
102
{ACAD_REACTORS
330
C
102
}
330
C
100
AcDbDictionary
281
     1
  3
ASEBlockHierarchyIndexRecord
350
3B3
1001
DCO15
1040
1789533032.303
  0
LAYOUT
  5
1E
102
{ACAD_REACTORS
330
1A
102
}
330
1A
100
AcDbPlotSettings
  1

  2
none_device
  4

  6

 40
0.0
 41
0.0
 42
0.0
 43
0.0
 44
0.0
 45
0.0
 46
0.0
 47
0.0
 48
0.0
 49
0.0
140
0.0
141
0.0
142
1.0
143
1.0
 70
   688
 72
     0
 73
     0
 74
     5
  7

 75
    16
147
1.0
 76
     0
 77
     2
 78
   300
148
0.0
149
0.0
100
AcDbLayout
  1
Layout1
 70
     1
 71
     1
 10
0.0
 20
0.0
 11
12.0
 21
9.0
 12
0.0
 22
0.0
 32
0.0
 14
1.000000000000000E+20
 24
1.000000000000000E+20
 34
1.000000000000000E+20
 15
-1.000000000000000E+20
 25
-1.000000000000000E+20
 35
-1.000000000000000E+20
146
0.0
 13
0.0
 23
0.0
 33
0.0
 16
1.0
 26
0.0
 36
0.0
 17
0.0
 27
1.0
 37
0.0
 76
     0
330
1B
  0
LAYOUT
  5
26
102
{ACAD_REACTORS
330
1A
102
}
330
1A
100
AcDbPlotSettings
  1

  2
none_device
  4

  6

 40
0.0
 41
0.0
 42
0.0
 43
0.0
 44
0.0
 45
0.0
 46
0.0
 47
0.0
 48
0.0
 49
0.0
140
0.0
141
0.0
142
1.0
143
1.0
 70
   688
 72
     0
 73
     0
 74
     5
  7

 75
    16
147
1.0
 76
     0
 77
     2
 78
   300
148
0.0
149
0.0
100
AcDbLayout
  1
Layout2
 70
     1
 71
     2
 10
0.0
 20
0.0
 11
0.0
 21
0.0
 12
0.0
 22
0.0
 32
0.0
 14
0.0
 24
0.0
 34
0.0
 15
0.0
 25
0.0
 35
0.0
146
0.0
 13
0.0
 23
0.0
 33
0.0
 16
1.0
 26
0.0
 36
0.0
 17
0.0
 27
1.0
 37
0.0
 76
     0
330
23
  0
LAYOUT
  5
22
102
{ACAD_REACTORS
330
1A
102
}
330
1A
100
AcDbPlotSettings
  1

  2
none_device
  4

  6

 40
0.0
 41
0.0
 42
0.0
 43
0.0
 44
0.0
 45
0.0
 46
0.0
 47
0.0
 48
0.0
 49
0.0
140
0.0
141
0.0
142
1.0
143
1.0
 70
  1712
 72
     0
 73
     0
 74
     0
  7

 75
     0
147
1.0
 76
     0
 77
     2
 78
   300
148
0.0
149
0.0
100
AcDbLayout
  1
Model
 70
     1
 71
     0
 10
0.0
 20
0.0
 11
8.5
 21
11.0
 12
0.0
 22
0.0
 32
0.0
 14
0.0
 24
0.0
 34
0.0
 15
8.5
 25
11.0
 35
0.0
146
0.0
 13
0.0
 23
0.0
 33
0.0
 16
1.0
 26
0.0
 36
0.0
 17
0.0
 27
1.0
 37
0.0
 76
     0
330
1F
  0
MLINESTYLE
  5
18
102
{ACAD_REACTORS
330
17
102
}
330
17
100
AcDbMlineStyle
  2
STANDARD
 70
     0
  3

 62
   256
 51
90.0
 52
90.0
 71
     2
 49
0.5
 62
   256
  6
BYLAYER
 49
-0.5
 62
   256
  6
BYLAYER
  0
ACDBPLACEHOLDER
  5
F
102
{ACAD_REACTORS
330
E
102
}
330
E
  0
XRECORD
  5
3B3
102
{ACAD_REACTORS
330
3B1
102
}
330
3B1
100
AcDbXrecord
280
     1
  0
ENDSEC
  0
EOF
