  0
SECTION
  2
HEADER
  9
$ACADVER
  1
AC1018
  9
$ACADMAINTVER
 70
     0
  9
$DWGCODEPAGE
  3
ANSI_1252
  9
$INSBASE
 10
0.0
 20
0.0
 30
0.0
  9
$EXTMIN
 10
2.46410254642843
 20
2.087338787817699
 30
0.0
  9
$EXTMAX
 10
6.70583513533641
 20
10.54140927065612
 30
0.0
  9
$LIMMIN
 10
0.0
 20
0.0
  9
$LIMMAX
 10
8.5
 20
11.0
  9
$ORTHOMODE
 70
     0
  9
$REGENMODE
 70
     1
  9
$FILLMODE
 70
     1
  9
$QTEXTMODE
 70
     0
  9
$MIRRTEXT
 70
     1
  9
$LTSCALE
 40
1.0
  9
$ATTMODE
 70
     1
  9
$TEXTSIZE
 40
0.25
  9
$TRACEWID
 40
0.05
  9
$TEXTSTYLE
  7
Standard
  9
$CLAYER
  8
0
  9
$CELTYPE
  6
ByLayer
  9
$CECOLOR
 62
   256
  9
$CELTSCALE
 40
1.0
  9
$DISPSILH
 70
     0
  9
$DIMSCALE
 40
1.0
  9
$DIMASZ
 40
0.156
  9
$DIMEXO
 40
0.05
  9
$DIMDLI
 40
0.38
  9
$DIMRND
 40
0.0
  9
$DIMDLE
 40
0.0
  9
$DIMEXE
 40
0.125
  9
$DIMTP
 40
0.0
  9
$DIMTM
 40
0.0
  9
$DIMTXT
 40
0.125
  9
$DIMCEN
 40
0.09
  9
$DIMTSZ
 40
0.0
  9
$DIMTOL
 70
     0
  9
$DIMLIM
 70
     0
  9
$DIMTIH
 70
     1
  9
$DIMTOH
 70
     1
  9
$DIMSE1
 70
     0
  9
$DIMSE2
 70
     0
  9
$DIMTAD
 70
     0
  9
$DIMZIN
 70
     0
  9
$DIMBLK
  1

  9
$DIMASO
 70
     1
  9
$DIMSHO
 70
     1
  9
$DIMPOST
  1

  9
$DIMAPOST
  1

  9
$DIMALT
 70
     0
  9
$DIMALTD
 70
     2
  9
$DIMALTF
 40
25.4
  9
$DIMLFAC
 40
12.0
  9
$DIMTOFL
 70
     0
  9
$DIMTVP
 40
0.0
  9
$DIMTIX
 70
     0
  9
$DIMSOXD
 70
     0
  9
$DIMSAH
 70
     0
  9
$DIMBLK1
  1

  9
$DIMBLK2
  1

  9
$DIMSTYLE
  2
Standard
  9
$DIMCLRD
 70
     0
  9
$DIMCLRE
 70
     0
  9
$DIMCLRT
 70
     0
  9
$DIMTFAC
 40
1.0
  9
$DIMGAP
 40
0.06
  9
$DIMJUST
 70
     0
  9
$DIMSD1
 70
     0
  9
$DIMSD2
 70
     0
  9
$DIMTOLJ
 70
     1
  9
$DIMTZIN
 70
     0
  9
$DIMALTZ
 70
     0
  9
$DIMALTTZ
 70
     0
  9
$DIMUPT
 70
     0
  9
$DIMDEC
 70
     3
  9
$DIMTDEC
 70
     3
  9
$DIMALTU
 70
     2
  9
$DIMALTTD
 70
     2
  9
$DIMTXSTY
  7
Standard
  9
$DIMAUNIT
 70
     0
  9
$DIMADEC
 70
     0
  9
$DIMALTRND
 40
0.0
  9
$DIMAZIN
 70
     0
  9
$DIMDSEP
 70
    46
  9
$DIMATFIT
 70
     3
  9
$DIMFRAC
 70
     0
  9
$DIMLDRBLK
  1

  9
$DIMLUNIT
 70
     2
  9
$DIMLWD
 70
    -2
  9
$DIMLWE
 70
    -2
  9
$DIMTMOVE
 70
     0
  9
$LUNITS
 70
     2
  9
$LUPREC
 70
     3
  9
$SKETCHINC
 40
0.1
  9
$FILLETRAD
 40
0.5
  9
$AUNITS
 70
     0
  9
$AUPREC
 70
     0
  9
$MENU
  1
.
  9
$ELEVATION
 40
0.0
  9
$PELEVATION
 40
0.0
  9
$THICKNESS
 40
0.0
  9
$LIMCHECK
 70
     0
  9
$CHAMFERA
 40
0.5
  9
$CHAMFERB
 40
0.5
  9
$CHAMFERC
 40
1.0
  9
$CHAMFERD
 40
0.0
  9
$SKPOLY
 70
     0
  9
$TDCREATE
 40
2456540.584168334
  9
$TDUCREATE
 40
2456540.792501666
  9
$TDUPDATE
 40
2456540.584857107
  9
$TDUUPDATE
 40
2456540.793190440
  9
$TDINDWG
 40
0.0005641204
  9
$TDUSRTIMER
 40
0.0005641204
  9
$USRTIMER
 70
     1
  9
$ANGBASE
 50
0.0
  9
$ANGDIR
 70
     0
  9
$PDMODE
 70
     0
  9
$PDSIZE
 40
-1.0
  9
$PLINEWID
 40
0.0
  9
$SPLFRAME
 70
     0
  9
$SPLINETYPE
 70
     6
  9
$SPLINESEGS
 70
     8
  9
$HANDSEED
  5
1A7
  9
$SURFTAB1
 70
     6
  9
$SURFTAB2
 70
     6
  9
$SURFTYPE
 70
     6
  9
$SURFU
 70
     6
  9
$SURFV
 70
     6
  9
$UCSBASE
  2

  9
$UCSNAME
  2

  9
$UCSORG
 10
0.0
 20
0.0
 30
0.0
  9
$UCSXDIR
 10
1.0
 20
0.0
 30
0.0
  9
$UCSYDIR
 10
0.0
 20
1.0
 30
0.0
  9
$UCSORTHOREF
  2

  9
$UCSORTHOVIEW
 70
     0
  9
$UCSORGTOP
 10
0.0
 20
0.0
 30
0.0
  9
$UCSORGBOTTOM
 10
0.0
 20
0.0
 30
0.0
  9
$UCSORGLEFT
 10
0.0
 20
0.0
 30
0.0
  9
$UCSORGRIGHT
 10
0.0
 20
0.0
 30
0.0
  9
$UCSORGFRONT
 10
0.0
 20
0.0
 30
0.0
  9
$UCSORGBACK
 10
0.0
 20
0.0
 30
0.0
  9
$PUCSBASE
  2

  9
$PUCSNAME
  2

  9
$PUCSORG
 10
0.0
 20
0.0
 30
0.0
  9
$PUCSXDIR
 10
1.0
 20
0.0
 30
0.0
  9
$PUCSYDIR
 10
0.0
 20
1.0
 30
0.0
  9
$PUCSORTHOREF
  2

  9
$PUCSORTHOVIEW
 70
     0
  9
$PUCSORGTOP
 10
0.0
 20
0.0
 30
0.0
  9
$PUCSORGBOTTOM
 10
0.0
 20
0.0
 30
0.0
  9
$PUCSORGLEFT
 10
0.0
 20
0.0
 30
0.0
  9
$PUCSORGRIGHT
 10
0.0
 20
0.0
 30
0.0
  9
$PUCSORGFRONT
 10
0.0
 20
0.0
 30
0.0
  9
$PUCSORGBACK
 10
0.0
 20
0.0
 30
0.0
  9
$USERI1
 70
     0
  9
$USERI2
 70
     0
  9
$USERI3
 70
     0
  9
$USERI4
 70
     0
  9
$USERI5
 70
     0
  9
$USERR1
 40
0.0
  9
$USERR2
 40
0.0
  9
$USERR3
 40
0.0
  9
$USERR4
 40
0.0
  9
$USERR5
 40
0.0
  9
$WORLDVIEW
 70
     1
  9
$SHADEDGE
 70
     3
  9
$SHADEDIF
 70
    70
  9
$TILEMODE
 70
     1
  9
$MAXACTVP
 70
    64
  9
$PINSBASE
 10
0.0
 20
0.0
 30
0.0
  9
$PLIMCHECK
 70
     0
  9
$PEXTMIN
 10
1.000000000000000E+20
 20
1.000000000000000E+20
 30
1.000000000000000E+20
  9
$PEXTMAX
 10
-1.000000000000000E+20
 20
-1.000000000000000E+20
 30
-1.000000000000000E+20
  9
$PLIMMIN
 10
0.0
 20
0.0
  9
$PLIMMAX
 10
12.0
 20
9.0
  9
$UNITMODE
 70
     0
  9
$VISRETAIN
 70
     1
  9
$PLINEGEN
 70
     0
  9
$PSLTSCALE
 70
     1
  9
$TREEDEPTH
 70
  3020
  9
$CMLSTYLE
  2
Standard
  9
$CMLJUST
 70
     0
  9
$CMLSCALE
 40
1.0
  9
$PROXYGRAPHICS
 70
     1
  9
$MEASUREMENT
 70
     0
  9
$CELWEIGHT
370
    -1
  9
$ENDCAPS
280
     0
  9
$JOINSTYLE
280
     0
  9
$LWDISPLAY
290
     1
  9
$INSUNITS
 70
     1
  9
$HYPERLINKBASE
  1

  9
$STYLESHEET
  1

  9
$XEDIT
290
     1
  9
$CEPSNTYPE
380
     0
  9
$PSTYLEMODE
290
     1
  9
$FINGERPRINTGUID
  2
{1BE00123-E246-419F-A209-753AA8263E1B}
  9
$VERSIONGUID
  2
{89F39AB9-461E-4E5F-8CD9-76A84A029E83}
  9
$EXTNAMES
290
     1
  9
$PSVPSCALE
 40
0.0
  9
$OLESTARTUP
290
     0
  9
$SORTENTS
280
   127
  9
$INDEXCTL
280
     0
  9
$HIDETEXT
280
     0
  9
$XCLIPFRAME
290
     0
  9
$HALOGAP
280
     0
  9
$OBSCOLOR
 70
   257
  9
$OBSLTYPE
280
     0
  9
$INTERSECTIONDISPLAY
280
     0
  9
$INTERSECTIONCOLOR
 70
   257
  9
$DIMASSOC
280
     1
  9
$PROJECTNAME
  1

  0
ENDSEC
  0
SECTION
  2
CLASSES
  0
CLASS
  1
ACDBDICTIONARYWDFLT
  2
AcDbDictionaryWithDefault
  3
ObjectDBX Classes
 90
        0
 91
        1
280
     0
281
     0
  0
CLASS
  1
VISUALSTYLE
  2
AcDbVisualStyle
  3
ObjectDBX Classes
 90
     4095
 91
        0
280
     0
281
     0
  0
CLASS
  1
MATERIAL
  2
AcDbMaterial
  3
ObjectDBX Classes
 90
        0
 91
        0
280
     0
281
     0
  0
ENDSEC
  0
SECTION
  2
TABLES
  0
TABLE
  2
VPORT
  5
8
330
0
100
AcDbSymbolTable
 70
     3
  0
VPORT
  5
1A6
330
8
100
AcDbSymbolTableRecord
100
AcDbViewportTableRecord
  2
*Active
 70
     0
 10
0.0
 20
0.0
 11
1.0
 21
1.0
 12
5.315374940053748
 22
6.161906209459441
 13
0.0
 23
0.0
 14
0.5
 24
0.5
 15
0.5
 25
0.5
 16
0.0
 26
0.0
 36
1.0
 17
0.0
 27
0.0
 37
0.0
 40
10.93995300907641
 41
2.144329896907216
 42
50.0
 43
0.0
 44
0.0
 50
0.0
 51
0.0
 71
     0
 72
  2000
 73
     1
 74
     3
 75
     0
 76
     0
 77
     0
 78
     0
281
     0
 65
     1
110
0.0
120
0.0
130
0.0
111
1.0
121
0.0
131
0.0
112
0.0
122
1.0
132
0.0
 79
     0
146
0.0
  0
ENDTAB
  0
TABLE
  2
LTYPE
  5
5
330
0
100
AcDbSymbolTable
 70
     6
  0
LTYPE
  5
14
330
5
100
AcDbSymbolTableRecord
100
AcDbLinetypeTableRecord
  2
ByBlock
 70
     0
  3

 72
    65
 73
     0
 40
0.0
  0
LTYPE
  5
15
330
5
100
AcDbSymbolTableRecord
100
AcDbLinetypeTableRecord
  2
ByLayer
 70
     0
  3

 72
    65
 73
     0
 40
0.0
  0
LTYPE
  5
16
330
5
100
AcDbSymbolTableRecord
100
AcDbLinetypeTableRecord
  2
Continuous
 70
     0
  3
Solid line
 72
    65
 73
     0
 40
0.0
  0
LTYPE
  5
3F
330
5
100
AcDbSymbolTableRecord
100
AcDbLinetypeTableRecord
  2
HIDDEN
 70
     0
  3
Hidden __ __ __ __ __ __ __ __ __ __ __ __ __ __
 72
    65
 73
     2
 40
0.075
 49
0.05
 74
     0
 49
-0.025
 74
     0
  0
LTYPE
  5
40
330
5
100
AcDbSymbolTableRecord
100
AcDbLinetypeTableRecord
  2
PHANTOM
 70
     0
  3
Phantom ______  __  __  ______  __  __  ______
 72
    65
 73
     6
 40
0.5
 49
0.25
 74
     0
 49
-0.05
 74
     0
 49
0.05
 74
     0
 49
-0.05
 74
     0
 49
0.05
 74
     0
 49
-0.05
 74
     0
  0
LTYPE
  5
41
330
5
100
AcDbSymbolTableRecord
100
AcDbLinetypeTableRecord
  2
CENTER
 70
     0
  3
Center ____ _ ____ _ ____ _ ____ _ ____ _ ____
 72
    65
 73
     4
 40
0.4
 49
0.25
 74
     0
 49
-0.05
 74
     0
 49
0.05
 74
     0
 49
-0.05
 74
     0
  0
LTYPE
  5
42
330
5
100
AcDbSymbolTableRecord
100
AcDbLinetypeTableRecord
  2
CENTERX2
 70
     0
  3
Center (2x) ________  __  ________  __  _____
 72
    65
 73
     4
 40
0.8
 49
0.5
 74
     0
 49
-0.1
 74
     0
 49
0.1
 74
     0
 49
-0.1
 74
     0
  0
LTYPE
  5
43
330
5
100
AcDbSymbolTableRecord
100
AcDbLinetypeTableRecord
  2
DOT2
 70
     0
  3
Dot (.5x) ........................................
 72
    65
 73
     2
 40
0.025
 49
0.0
 74
     0
 49
-0.025
 74
     0
  0
ENDTAB
  0
TABLE
  2
LAYER
  5
2
330
0
100
AcDbSymbolTable
 70
     7
  0
LAYER
  5
10
330
2
100
AcDbSymbolTableRecord
100
AcDbLayerTableRecord
  2
0
 70
     0
 62
     7
  6
Continuous
370
    -3
390
F
  0
LAYER
  5
44
330
2
100
AcDbSymbolTableRecord
100
AcDbLayerTableRecord
  2
SLD-0
 70
     0
 62
   179
  6
Continuous
370
    -3
390
F
  0
LAYER
  5
45
330
2
100
AcDbSymbolTableRecord
100
AcDbLayerTableRecord
  2
SLD-DEFPOINTS
 70
     0
 62
   179
  6
Continuous
370
    -3
390
F
  0
LAYER
  5
46
330
2
100
AcDbSymbolTableRecord
100
AcDbLayerTableRecord
  2
OBJ
 70
     0
 62
   179
  6
Continuous
370
    -3
390
F
  0
LAYER
  5
47
330
2
100
AcDbSymbolTableRecord
100
AcDbLayerTableRecord
  2
FORMAT
 70
     0
 62
     7
  6
Continuous
370
    -3
390
F
  0
LAYER
  5
48
330
2
100
AcDbSymbolTableRecord
100
AcDbLayerTableRecord
  2
TOLERANCES
 70
     0
 62
     7
  6
Continuous
370
    -3
390
F
  0
LAYER
  5
49
330
2
100
AcDbSymbolTableRecord
100
AcDbLayerTableRecord
  2
QTY-BLANK-SIZE-1
 70
     0
 62
     7
  6
Continuous
370
    -3
390
F
  0
ENDTAB
  0
TABLE
  2
STYLE
  5
3
330
0
100
AcDbSymbolTable
 70
     2
  0
STYLE
  5
11
330
3
100
AcDbSymbolTableRecord
100
AcDbTextStyleTableRecord
  2
Standard
 70
     0
 40
0.0
 41
1.0
 50
0.0
 71
     0
 42
0.25
  3
txt
  4

  0
STYLE
  5
19C
330
3
100
AcDbSymbolTableRecord
100
AcDbTextStyleTableRecord
  2
SLDTEXTSTYLE0
 70
     0
 40
0.0
 41
0.7
 50
0.0
 71
     0
 42
0.2
  3
TXT
  4

  0
ENDTAB
  0
TABLE
  2
VIEW
  5
6
330
0
100
AcDbSymbolTable
 70
     0
  0
ENDTAB
  0
TABLE
  2
UCS
  5
7
330
0
100
AcDbSymbolTable
 70
     0
  0
ENDTAB
  0
TABLE
  2
APPID
  5
9
330
0
100
AcDbSymbolTable
 70
     1
  0
APPID
  5
12
330
9
100
AcDbSymbolTableRecord
100
AcDbRegAppTableRecord
  2
ACAD
 70
     0
  0
ENDTAB
  0
TABLE
  2
DIMSTYLE
  5
A
330
0
100
AcDbSymbolTable
 70
     1
100
AcDbDimStyleTable
 71
     0
  0
DIMSTYLE
105
27
330
A
100
AcDbSymbolTableRecord
100
AcDbDimStyleTableRecord
  2
Standard
 70
     0
340
11
  0
ENDTAB
  0
TABLE
  2
BLOCK_RECORD
  5
1
330
0
100
AcDbSymbolTable
 70
     1
  0
BLOCK_RECORD
  5
1F
330
1
100
AcDbSymbolTableRecord
100
AcDbBlockTableRecord
  2
*Model_Space
340
22
  0
BLOCK_RECORD
  5
1B
330
1
100
AcDbSymbolTableRecord
100
AcDbBlockTableRecord
  2
*Paper_Space
340
1E
  0
BLOCK_RECORD
  5
23
330
1
100
AcDbSymbolTableRecord
100
AcDbBlockTableRecord
  2
*Paper_Space0
340
26
  0
ENDTAB
  0
ENDSEC
  0
SECTION
  2
BLOCKS
  0
BLOCK
  5
20
330
1F
100
AcDbEntity
  8
0
100
AcDbBlockBegin
  2
*Model_Space
 70
     0
 10
0.0
 20
0.0
 30
0.0
  3
*Model_Space
  1

  0
ENDBLK
  5
21
330
1F
100
AcDbEntity
  8
0
100
AcDbBlockEnd
  0
BLOCK
  5
1C
330
1B
100
AcDbEntity
 67
     1
  8
0
100
AcDbBlockBegin
  2
*Paper_Space
 70
     0
 10
0.0
 20
0.0
 30
0.0
  3
*Paper_Space
  1

  0
ENDBLK
  5
1D
330
1B
100
AcDbEntity
 67
     1
  8
0
100
AcDbBlockEnd
  0
BLOCK
  5
24
330
23
100
AcDbEntity
  8
0
100
AcDbBlockBegin
  2
*Paper_Space0
 70
     0
 10
0.0
 20
0.0
 30
0.0
  3
*Paper_Space0
  1

  0
ENDBLK
  5
25
330
23
100
AcDbEntity
  8
0
100
AcDbBlockEnd
  0
ENDSEC
  0
SECTION
  2
ENTITIES
  0
LINE
  5
4A
330
1F
100
AcDbEntity
  8
0
  6
Continuous
 62
     7
370
    15
100
AcDbLine
 10
3.841472509900453
 20
5.846294257364627
 30
0.0
 11
3.834047861331084
 21
5.844305111956668
 31
0.0
  0
LINE
  5
4B
330
1F
100
AcDbEntity
  8
0
  6
Continuous
 62
     7
370
    15
100
AcDbLine
 10
3.850221903713867
 20
5.783934129555325
 30
0.0
 11
3.857646552283238
 21
5.785923274963285
 31
0.0
  0
LINE
  5
4C
330
1F
100
AcDbEntity
  8
0
  6
Continuous
 62
     7
370
    15
100
AcDbLine
 10
3.753084162023978
 20
5.219649936695719
 30
0.0
 11
3.745659513454608
 21
5.21766079128776
 31
0.0
  0
LINE
  5
4D
330
1F
100
AcDbEntity
  8
0
  6
Continuous
 62
     7
370
    15
100
AcDbLine
 10
3.761833553244697
 20
5.15728980958103
 30
0.0
 11
3.769258201814067
 21
5.159278954988989
 31
0.0
  0
LINE
  5
4E
330
1F
100
AcDbEntity
  8
0
  6
Continuous
 62
     7
370
    15
100
AcDbLine
 10
3.859150180512827
 20
5.26349195988411
 30
0.0
 11
3.851725531943457
 21
5.26150281447615
 31
0.0
  0
LINE
  5
4F
330
1F
100
AcDbEntity
  8
0
  6
Continuous
 62
     7
370
    15
100
AcDbLine
 10
3.867899571733546
 20
5.20113183276942
 30
0.0
 11
3.875324220302916
 21
5.20312097817738
 31
0.0
  0
LINE
  5
50
330
1F
100
AcDbEntity
  8
0
  6
Continuous
 62
     7
370
    15
100
AcDbLine
 10
3.770761830043656
 20
5.022225293401617
 30
0.0
 11
3.763337181474287
 21
5.020236147993657
 31
0.0
  0
LINE
  5
51
330
1F
100
AcDbEntity
  8
0
  6
Continuous
 62
     7
370
    15
100
AcDbLine
 10
3.77951122385707
 20
4.959865165592317
 30
0.0
 11
3.786935872426441
 21
4.961854311000275
 31
0.0
  0
LINE
  5
52
330
1F
100
AcDbEntity
  8
0
  6
Continuous
 62
     7
370
    15
100
AcDbLine
 10
3.753084162023978
 20
4.448895081883107
 30
0.0
 11
3.745659513454608
 21
4.446905936475149
 31
0.0
  0
LINE
  5
53
330
1F
100
AcDbEntity
  8
0
  6
Continuous
 62
     7
370
    15
100
AcDbLine
 10
3.761833553244697
 20
4.386534954768419
 30
0.0
 11
3.769258201814067
 21
4.388524100176378
 31
0.0
  0
LINE
  5
54
330
1F
100
AcDbEntity
  8
0
  6
Continuous
 62
     7
370
    15
100
AcDbLine
 10
3.841472509900453
 20
4.690161749060212
 30
0.0
 11
3.834047861331084
 21
4.688172603652254
 31
0.0
  0
LINE
  5
55
330
1F
100
AcDbEntity
  8
0
  6
Continuous
 62
     7
370
    15
100
AcDbLine
 10
3.850221903713867
 20
4.62780184733641
 30
0.0
 11
3.857646552283238
 21
4.629790992744369
 31
0.0
  0
LINE
  5
56
330
1F
100
AcDbEntity
  8
0
  6
Continuous
 62
     7
370
    15
100
AcDbLine
 10
3.841472509900453
 20
4.304784321653906
 30
0.0
 11
3.834047861331084
 21
4.302795176245948
 31
0.0
  0
LINE
  5
57
330
1F
100
AcDbEntity
  8
0
  6
Continuous
 62
     7
370
    15
100
AcDbLine
 10
3.850221903713867
 20
4.242424193844606
 30
0.0
 11
3.857646552283238
 21
4.244413339252565
 31
0.0
  0
LINE
  5
58
330
1F
100
AcDbEntity
  8
0
  6
Continuous
 62
     7
370
    15
100
AcDbLine
 10
3.836381315272713
 20
7.667621904300616
 30
0.0
 11
3.843805932729745
 21
7.665632767227997
 31
0.0
  0
LINE
  5
59
330
1F
100
AcDbEntity
  8
0
  6
Continuous
 62
     7
370
    15
100
AcDbLine
 10
3.859979993261393
 20
7.726003697970245
 30
0.0
 11
3.852555375804362
 21
7.727992835042864
 31
0.0
  0
LINE
  5
5A
330
1F
100
AcDbEntity
  8
0
  6
Continuous
 62
     7
370
    15
100
AcDbLine
 10
3.770761830043656
 20
4.251470212503508
 30
0.0
 11
3.763337181474287
 21
4.249481067095549
 31
0.0
  0
LINE
  5
5B
330
1F
100
AcDbEntity
  8
0
  6
Continuous
 62
     7
370
    15
100
AcDbLine
 10
3.77951122385707
 20
4.189110310779707
 30
0.0
 11
3.786935872426441
 21
4.191099456187664
 31
0.0
  0
LINE
  5
5C
330
1F
100
AcDbEntity
  8
0
  6
Continuous
 62
     7
370
    15
100
AcDbLine
 10
3.859150180512827
 20
4.492737105071499
 30
0.0
 11
3.851725531943457
 21
4.49074795966354
 31
0.0
  0
LINE
  5
5D
330
1F
100
AcDbEntity
  8
0
  6
Continuous
 62
     7
370
    15
100
AcDbLine
 10
3.867899571733546
 20
4.43037697795681
 30
0.0
 11
3.875324220302916
 21
4.432366123364769
 31
0.0
  0
LINE
  5
5E
330
1F
100
AcDbEntity
  8
0
  6
Continuous
 62
     7
370
    15
100
AcDbLine
 10
3.765670643194001
 20
8.034055217693504
 30
0.0
 11
3.773095260651032
 21
8.032066080620886
 31
0.0
  0
LINE
  5
5F
330
1F
100
AcDbEntity
  8
0
  6
Continuous
 62
     7
370
    15
100
AcDbLine
 10
3.78926932118268
 20
8.092436954841758
 30
0.0
 11
3.781844703725649
 21
8.094426091914378
 31
0.0
  0
LINE
  5
60
330
1F
100
AcDbEntity
  8
0
  6
Continuous
 62
     7
370
    15
100
AcDbLine
 10
3.871736672053629
 20
7.990213197283559
 30
0.0
 11
3.87916128951066
 21
7.98822406021094
 31
0.0
  0
LINE
  5
61
330
1F
100
AcDbEntity
  8
0
  6
Continuous
 62
     7
370
    15
100
AcDbLine
 10
3.895335350042309
 20
8.048595047474563
 30
0.0
 11
3.887910732585278
 21
8.050584184547181
 31
0.0
  0
LINE
  5
62
330
1F
100
AcDbEntity
  8
0
  6
Continuous
 62
     7
370
    15
100
AcDbLine
 10
3.854059014404731
 20
8.17816587113146
 30
0.0
 11
3.861483631861762
 21
8.176176734058842
 31
0.0
  0
LINE
  5
63
330
1F
100
AcDbEntity
  8
0
  6
Continuous
 62
     7
370
    15
100
AcDbLine
 10
3.877657650910292
 20
8.236547710208677
 30
0.0
 11
3.870233033453261
 21
8.238536847281297
 31
0.0
  0
LINE
  5
64
330
1F
100
AcDbEntity
  8
0
  6
Continuous
 62
     7
370
    15
100
AcDbLine
 10
3.765670643194001
 20
8.419432645099808
 30
0.0
 11
3.773095260651032
 21
8.41744350802719
 31
0.0
  0
LINE
  5
65
330
1F
100
AcDbEntity
  8
0
  6
Continuous
 62
     7
370
    15
100
AcDbLine
 10
3.78926932118268
 20
8.477814495290813
 30
0.0
 11
3.781844703725649
 21
8.479803632363431
 31
0.0
  0
LINE
  5
66
330
1F
100
AcDbEntity
  8
0
  6
Continuous
 62
     7
370
    15
100
AcDbLine
 10
3.783348342326018
 20
8.231479982365694
 30
0.0
 11
3.790772959783049
 21
8.229490845293074
 31
0.0
  0
LINE
  5
67
330
1F
100
AcDbEntity
  8
0
  6
Continuous
 62
     7
370
    15
100
AcDbLine
 10
3.806946978831579
 20
8.289861821442912
 30
0.0
 11
3.799522361374548
 21
8.29185095851553
 31
0.0
  0
LINE
  5
68
330
1F
100
AcDbEntity
  8
0
  6
Continuous
 62
     7
370
    15
100
AcDbLine
 10
3.801025999974917
 20
7.838795529012677
 30
0.0
 11
3.808450617431947
 21
7.836806391940059
 31
0.0
  0
LINE
  5
69
330
1F
100
AcDbEntity
  8
0
  6
Continuous
 62
     7
370
    15
100
AcDbLine
 10
3.824624636480477
 20
7.897177311568521
 30
0.0
 11
3.817200019023447
 21
7.899166448641141
 31
0.0
  0
LINE
  5
6A
330
1F
100
AcDbEntity
  8
0
  6
Continuous
 62
     7
370
    15
100
AcDbLine
 10
3.770761830043656
 20
4.636847639909813
 30
0.0
 11
3.763337181474287
 21
4.634858494501855
 31
0.0
  0
LINE
  5
6B
330
1F
100
AcDbEntity
  8
0
  6
Continuous
 62
     7
370
    15
100
AcDbLine
 10
3.77951122385707
 20
4.574487738186012
 30
0.0
 11
3.786935872426441
 21
4.57647688359397
 31
0.0
  0
LINE
  5
6C
330
1F
100
AcDbEntity
  8
0
  6
Continuous
 62
     7
370
    15
100
AcDbLine
 10
3.841472509900453
 20
5.075539402552014
 30
0.0
 11
3.834047861331084
 21
5.073550257144057
 31
0.0
  0
LINE
  5
6D
330
1F
100
AcDbEntity
  8
0
  6
Continuous
 62
     7
370
    15
100
AcDbLine
 10
3.850221903713867
 20
5.013179274742715
 30
0.0
 11
3.857646552283238
 21
5.015168420150674
 31
0.0
  0
LINE
  5
6E
330
1F
100
AcDbEntity
  8
0
  6
Continuous
 62
     7
370
    15
100
AcDbLine
 10
3.770761830043656
 20
5.407602720807922
 30
0.0
 11
3.763337181474287
 21
5.405613575399963
 31
0.0
  0
LINE
  5
6F
330
1F
100
AcDbEntity
  8
0
  6
Continuous
 62
     7
370
    15
100
AcDbLine
 10
3.77951122385707
 20
5.345242592998622
 30
0.0
 11
3.786935872426441
 21
5.347231738406581
 31
0.0
  0
LINE
  5
70
330
1F
100
AcDbEntity
  8
0
  6
Continuous
 62
     7
370
    15
100
AcDbLine
 10
3.854059014404731
 20
8.563543298537766
 30
0.0
 11
3.861483631861762
 21
8.561554161465146
 31
0.0
  0
LINE
  5
71
330
1F
100
AcDbEntity
  8
0
  6
Continuous
 62
     7
370
    15
100
AcDbLine
 10
3.877657650910292
 20
8.621925137614983
 30
0.0
 11
3.870233033453261
 21
8.623914274687603
 31
0.0
  0
LINE
  5
72
330
1F
100
AcDbEntity
  8
0
  6
Continuous
 62
     7
370
    15
100
AcDbLine
 10
3.859060576976622
 20
8.768860882013457
 30
0.0
 11
3.855348252691938
 21
8.776627235411273
 31
0.0
  0
LINE
  5
73
330
1F
100
AcDbEntity
  8
0
  6
Continuous
 62
     7
370
    15
100
AcDbLine
 10
3.79895924618824
 20
8.749673046282191
 30
0.0
 11
3.802671528989806
 21
8.741906794813338
 31
0.0
  0
LINE
  5
74
330
1F
100
AcDbEntity
  8
0
  6
Continuous
 62
     7
370
    15
100
AcDbLine
 10
3.703514090925916
 20
8.735700875212895
 30
0.0
 11
3.699801766641232
 21
8.743467115567963
 31
0.0
  0
LINE
  5
75
330
1F
100
AcDbEntity
  8
0
  6
Continuous
 62
     7
370
    15
100
AcDbLine
 10
3.643412757544839
 20
8.716512927133491
 30
0.0
 11
3.647125040346406
 21
8.708746675664638
 31
0.0
  0
LINE
  5
76
330
1F
100
AcDbEntity
  8
0
  6
Continuous
 62
     7
370
    15
100
AcDbLine
 10
3.786848407863539
 20
8.64992388106879
 30
0.0
 11
3.783136083578854
 21
8.657690121423858
 31
0.0
  0
LINE
  5
77
330
1F
100
AcDbEntity
  8
0
  6
Continuous
 62
     7
370
    15
100
AcDbLine
 10
3.726747079667852
 20
8.630735931600163
 30
0.0
 11
3.730459362469418
 21
8.62296968013131
 31
0.0
  0
LINE
  5
78
330
1F
100
AcDbEntity
  8
0
  6
Continuous
 62
     7
370
    15
100
AcDbLine
 10
3.77572625485361
 20
8.854637877546787
 30
0.0
 11
3.772013930568924
 21
8.862404230944603
 31
0.0
  0
LINE
  5
79
330
1F
100
AcDbEntity
  8
0
  6
Continuous
 62
     7
370
    15
100
AcDbLine
 10
3.715624879989413
 20
8.835450031396346
 30
0.0
 11
3.719337204274099
 21
8.827683791041279
 31
0.0
  0
LINE
  5
7A
330
1F
100
AcDbEntity
  8
0
  6
Continuous
 62
     7
370
    15
100
AcDbLine
 10
3.871736672053629
 20
8.375590624689865
 30
0.0
 11
3.87916128951066
 21
8.373601487617245
 31
0.0
  0
LINE
  5
7B
330
1F
100
AcDbEntity
  8
0
  6
Continuous
 62
     7
370
    15
100
AcDbLine
 10
3.895335350042309
 20
8.433972474880867
 30
0.0
 11
3.887910732585278
 21
8.435961611953487
 31
0.0
  0
LINE
  5
7C
330
1F
100
AcDbEntity
  8
0
  6
Continuous
 62
     7
370
    15
100
AcDbLine
 10
3.859150180512827
 20
5.648869500333164
 30
0.0
 11
3.851725531943457
 21
5.646880354925205
 31
0.0
  0
LINE
  5
7D
330
1F
100
AcDbEntity
  8
0
  6
Continuous
 62
     7
370
    15
100
AcDbLine
 10
3.867899571733546
 20
5.586509373218475
 30
0.0
 11
3.875324220302916
 21
5.588498518626434
 31
0.0
  0
LINE
  5
7E
330
1F
100
AcDbEntity
  8
0
  6
Continuous
 62
     7
370
    15
100
AcDbLine
 10
3.753084162023978
 20
5.990404904551079
 30
0.0
 11
3.745659513454608
 21
5.988415759143119
 31
0.0
  0
LINE
  5
7F
330
1F
100
AcDbEntity
  8
0
  6
Continuous
 62
     7
370
    15
100
AcDbLine
 10
3.761833553244697
 20
5.928044777436389
 30
0.0
 11
3.769258201814067
 21
5.930033922844349
 31
0.0
  0
LINE
  5
80
330
1F
100
AcDbEntity
  8
0
  6
Continuous
 62
     7
370
    15
100
AcDbLine
 10
3.859150180512827
 20
6.034246927739469
 30
0.0
 11
3.851725531943457
 21
6.03225778233151
 31
0.0
  0
LINE
  5
81
330
1F
100
AcDbEntity
  8
0
  6
Continuous
 62
     7
370
    15
100
AcDbLine
 10
3.867899571733546
 20
5.971886800624781
 30
0.0
 11
3.875324220302916
 21
5.973875946032739
 31
0.0
  0
LINE
  5
82
330
1F
100
AcDbEntity
  8
0
  6
Continuous
 62
     7
370
    15
100
AcDbLine
 10
3.841472509900453
 20
5.460916716915572
 30
0.0
 11
3.834047861331084
 21
5.458927571507612
 31
0.0
  0
LINE
  5
83
330
1F
100
AcDbEntity
  8
0
  6
Continuous
 62
     7
370
    15
100
AcDbLine
 10
3.850221903713867
 20
5.398556702149021
 30
0.0
 11
3.857646552283238
 21
5.400545847556979
 31
0.0
  0
LINE
  5
84
330
1F
100
AcDbEntity
  8
0
  6
Continuous
 62
     7
370
    15
100
AcDbLine
 10
3.859150180512827
 20
4.878114532477805
 30
0.0
 11
3.851725531943457
 21
4.876125387069846
 31
0.0
  0
LINE
  5
85
330
1F
100
AcDbEntity
  8
0
  6
Continuous
 62
     7
370
    15
100
AcDbLine
 10
3.867899571733546
 20
4.815754405363115
 30
0.0
 11
3.875324220302916
 21
4.817743550771074
 31
0.0
  0
LINE
  5
86
330
1F
100
AcDbEntity
  8
0
  6
Continuous
 62
     7
370
    15
100
AcDbLine
 10
3.770761830043656
 20
5.792980148214228
 30
0.0
 11
3.763337181474287
 21
5.790991002806268
 31
0.0
  0
LINE
  5
87
330
1F
100
AcDbEntity
  8
0
  6
Continuous
 62
     7
370
    15
100
AcDbLine
 10
3.77951122385707
 20
5.730620020404928
 30
0.0
 11
3.786935872426441
 21
5.732609165812887
 31
0.0
  0
LINE
  5
88
330
1F
100
AcDbEntity
  8
0
  6
Continuous
 62
     7
370
    15
100
AcDbLine
 10
3.753084162023978
 20
4.834272509289412
 30
0.0
 11
3.745659513454608
 21
4.832283363881455
 31
0.0
  0
LINE
  5
89
330
1F
100
AcDbEntity
  8
0
  6
Continuous
 62
     7
370
    15
100
AcDbLine
 10
3.761833553244697
 20
4.771912382174725
 30
0.0
 11
3.769258201814067
 21
4.773901527582682
 31
0.0
  0
LINE
  5
8A
330
1F
100
AcDbEntity
  8
0
  6
Continuous
 62
     7
370
    15
100
AcDbLine
 10
3.823794839936254
 20
6.35683821638109
 30
0.0
 11
3.816370191366885
 21
6.354849070973132
 31
0.0
  0
LINE
  5
8B
330
1F
100
AcDbEntity
  8
0
  6
Continuous
 62
     7
370
    15
100
AcDbLine
 10
3.832544233101495
 20
6.294478088745442
 30
0.0
 11
3.839968881670865
 21
6.296467234153402
 31
0.0
  0
LINE
  5
8C
330
1F
100
AcDbEntity
  8
0
  6
Continuous
 62
     7
370
    15
100
AcDbLine
 10
3.788439500656029
 20
6.185664598094186
 30
0.0
 11
3.78101485208666
 21
6.183675452686227
 31
0.0
  0
LINE
  5
8D
330
1F
100
AcDbEntity
  8
0
  6
Continuous
 62
     7
370
    15
100
AcDbLine
 10
3.79718889382127
 20
6.123304526979914
 30
0.0
 11
3.80461354239064
 21
6.125293672387871
 31
0.0
  0
LINE
  5
8E
330
1F
100
AcDbEntity
  8
0
  6
Continuous
 62
     7
370
    15
100
AcDbLine
 10
3.753084162023978
 20
5.605027477144773
 30
0.0
 11
3.745659513454608
 21
5.603038331736814
 31
0.0
  0
LINE
  5
8F
330
1F
100
AcDbEntity
  8
0
  6
Continuous
 62
     7
370
    15
100
AcDbLine
 10
3.761833553244697
 20
5.542667350030084
 30
0.0
 11
3.769258201814067
 21
5.544656495438044
 31
0.0
  0
LINE
  5
90
330
1F
100
AcDbEntity
  8
0
  6
Continuous
 62
     7
370
    15
100
AcDbLine
 10
3.721239599352135
 20
8.553269765958821
 30
0.0
 11
3.723336944346093
 21
8.547928819740301
 31
0.0
  0
LINE
  5
91
330
1F
100
AcDbEntity
  8
0
  6
Continuous
 62
     7
370
    15
100
AcDbLine
 10
3.791074573167706
 20
8.905435033325197
 30
0.0
 11
3.757422720652637
 21
8.869947092167668
 31
0.0
  0
LINE
  5
92
330
1F
100
AcDbEntity
  8
0
  6
Continuous
 62
     7
370
    15
100
AcDbLine
 10
3.71866985497419
 20
8.829079967784162
 30
0.0
 11
3.614297872229365
 21
8.719013480967202
 31
0.0
  0
SPLINE
  5
93
330
1F
100
AcDbEntity
  8
0
  6
Continuous
 62
     7
370
    15
100
AcDbSpline
210
0.0
220
0.0
230
1.0
 70
     8
 71
     3
 72
    11
 73
     7
 74
     0
 42
0.0000000001
 43
0.0000000001
 40
0.0
 40
0.0
 40
0.0
 40
0.0
 40
0.020157744318573
 40
0.3219724035872291
 40
0.6497833051421879
 40
1.0
 40
1.0
 40
1.0
 40
1.0
 10
3.622631291478191
 20
8.711037310354265
 30
0.0
 10
3.622618764013438
 20
8.711039065771378
 30
0.0
 10
3.622418667322374
 20
8.711067104417866
 30
0.0
 10
3.622756385053625
 20
8.71044525360201
 30
0.0
 10
3.623582186900133
 20
8.708994464374944
 30
0.0
 10
3.624565301063594
 20
8.707159181268186
 30
0.0
 10
3.625073101918333
 20
8.706211215747051
 30
0.0
  0
LINE
  5
94
330
1F
100
AcDbEntity
  8
0
  6
Continuous
 62
     7
370
    15
100
AcDbLine
 10
3.93017788214015
 20
6.554093578394014
 30
0.0
 11
3.93017788214015
 21
7.473738592448564
 31
0.0
  0
LWPOLYLINE
  5
95
330
1F
100
AcDbEntity
  8
0
  6
Continuous
 62
     7
370
    15
100
AcDbPolyline
 90
       12
 70
   128
 43
0.0
 10
3.834047861331084
 20
5.844305111956668
 10
3.838424861847221
 20
5.844793741385863
 10
3.845010459896048
 20
5.843200759693142
 10
3.851340553046558
 20
5.839023795520454
 10
3.856852679471559
 20
5.832633971968396
 10
3.861057066138453
 20
5.824599075742525
 10
3.863580131637179
 20
5.815633015559243
 10
3.864197696009362
 20
5.806532438260461
 10
3.862854877089077
 20
5.798106059655005
 10
3.859671001067014
 20
5.791102584163233
 10
3.854928962070556
 20
5.786144260297907
 10
3.850221903713867
 20
5.783934129555325
  0
LWPOLYLINE
  5
96
330
1F
100
AcDbEntity
  8
0
  6
Continuous
 62
     7
370
    15
100
AcDbPolyline
 90
       21
 70
   128
 43
0.0
 10
3.82166927799538
 20
5.808060063694203
 10
3.825168232563131
 20
5.799349948706787
 10
3.83025878549888
 20
5.79206698888425
 10
3.836442640285498
 20
5.786924140502772
 10
3.843114479145227
 20
5.784424850944587
 10
3.849621212600181
 20
5.784813837474904
 10
3.855325919217954
 20
5.788052835384206
 10
3.859670181775421
 20
5.793824923392387
 10
3.86222875163829
 20
5.801564982514222
 10
3.862751179663323
 20
5.810515577030826
 10
3.861186327536051
 20
5.819800308855018
 10
3.857687371671953
 20
5.828510424189738
 10
3.852596817439857
 20
5.835793384359583
 10
3.846412962653238
 20
5.840936232741061
 10
3.839741123793509
 20
5.843435522299245
 10
3.833234390338555
 20
5.843046535768928
 10
3.827529686313478
 20
5.839807537165013
 10
3.82318542375601
 20
5.834035449156834
 10
3.820626853893142
 20
5.826295390034997
 10
3.820104425868109
 20
5.817344795518393
 10
3.82166927799538
 20
5.808060063694203
  0
LWPOLYLINE
  5
97
330
1F
100
AcDbEntity
  8
0
  6
Continuous
 62
     7
370
    15
100
AcDbPolyline
 90
       12
 70
   128
 43
0.0
 10
3.857646552283238
 20
5.785923274963285
 10
3.862353610639926
 20
5.788133405705866
 10
3.867095649636384
 20
5.793091729571192
 10
3.870279525658446
 20
5.800095205062964
 10
3.871622344578732
 20
5.80852158366842
 10
3.871004780206549
 20
5.817622160967202
 10
3.868481714707823
 20
5.826588221150483
 10
3.864277328040929
 20
5.834623117376356
 10
3.858765201615928
 20
5.841012940928413
 10
3.852435108465418
 20
5.8451899051011
 10
3.845849510416591
 20
5.846782886793821
 10
3.841472509900453
 20
5.846294257364627
  0
LWPOLYLINE
  5
98
330
1F
100
AcDbEntity
  8
0
  6
Continuous
 62
     7
370
    15
100
AcDbPolyline
 90
       12
 70
   128
 43
0.0
 10
3.745659513454608
 20
5.21766079128776
 10
3.750036511378051
 20
5.218149647497064
 10
3.756622112019573
 20
5.216556665109732
 10
3.762952202577388
 20
5.212379475546157
 10
3.768464331595084
 20
5.205989651299489
 10
3.772668715669283
 20
5.197954755768229
 10
3.775191783760704
 20
5.188988694890335
 10
3.775809345540192
 20
5.179888344371664
 10
3.774466531805296
 20
5.171461964376984
 10
3.771282653190538
 20
5.164458263494325
 10
3.76654061419408
 20
5.159500052671748
 10
3.761833553244697
 20
5.15728980958103
  0
LWPOLYLINE
  5
99
330
1F
100
AcDbEntity
  8
0
  6
Continuous
 62
     7
370
    15
100
AcDbPolyline
 90
       21
 70
   128
 43
0.0
 10
3.733280930118905
 20
5.181415856068043
 10
3.736779885983003
 20
5.172705627690574
 10
3.741870440215099
 20
5.16542266752073
 10
3.748054292409023
 20
5.160279932876612
 10
3.754726131268752
 20
5.157780530275679
 10
3.761232867316401
 20
5.158169516111383
 10
3.766937571341479
 20
5.161408627758047
 10
3.771281831306251
 20
5.167180603418089
 10
3.77384040116912
 20
5.174920662539926
 10
3.774362829194154
 20
5.183871370099279
 10
3.772797977066881
 20
5.19315610192347
 10
3.769299023795478
 20
5.20186610352083
 10
3.764208469563381
 20
5.209149063690673
 10
3.758024614776763
 20
5.214292025114901
 10
3.751352775917034
 20
5.216791201630337
 10
3.744846045054775
 20
5.216402214405408
 10
3.739141338437002
 20
5.213163329538853
 10
3.734797075879535
 20
5.207391128487926
 10
3.732238506016666
 20
5.199651069366089
 10
3.731716077991633
 20
5.190700587892235
 10
3.733280930118905
 20
5.181415856068043
  0
LWPOLYLINE
  5
9A
330
1F
100
AcDbEntity
  8
0
  6
Continuous
 62
     7
370
    15
100
AcDbPolyline
 90
       12
 70
   128
 43
0.0
 10
3.769258201814067
 20
5.159278954988989
 10
3.77396526276345
 20
5.161489198079707
 10
3.778707301759908
 20
5.166447408902284
 10
3.781891180374666
 20
5.173451109784942
 10
3.783233994109561
 20
5.181877489779622
 10
3.782616432330073
 20
5.190977840298293
 10
3.780093364238653
 20
5.199943901176188
 10
3.775888980164454
 20
5.207978796707448
 10
3.770376851146758
 20
5.214368620954116
 10
3.764046760588943
 20
5.21854581051769
 10
3.757461159947421
 20
5.220138792905023
 10
3.753084162023978
 20
5.219649936695719
  0
LWPOLYLINE
  5
9B
330
1F
100
AcDbEntity
  8
0
  6
Continuous
 62
     7
370
    15
100
AcDbPolyline
 90
       12
 70
   128
 43
0.0
 10
3.851725531943457
 20
5.26150281447615
 10
3.8561025298669
 20
5.261991557642706
 10
3.862688130508421
 20
5.260398575255375
 10
3.869018221066236
 20
5.256221611777298
 10
3.874530347491238
 20
5.24983178822524
 10
3.878734734158132
 20
5.241796891999369
 10
3.881257799656857
 20
5.232830831816087
 10
3.88187536402904
 20
5.223730254517304
 10
3.880532550294145
 20
5.215303874522625
 10
3.877348669086692
 20
5.208300287377327
 10
3.872606630090233
 20
5.203342076554751
 10
3.867899571733546
 20
5.20113183276942
  0
LWPOLYLINE
  5
9C
330
1F
100
AcDbEntity
  8
0
  6
Continuous
 62
     7
370
    15
100
AcDbPolyline
 90
       21
 70
   128
 43
0.0
 10
3.839346948607753
 20
5.225257879256434
 10
3.842845901879157
 20
5.216547651573576
 10
3.847936456111253
 20
5.209264691403732
 10
3.854120310897871
 20
5.204121956065003
 10
3.8607921497576
 20
5.201622553464069
 10
3.867298880619859
 20
5.202011540688998
 10
3.873003587237633
 20
5.20525065164105
 10
3.8773478497951
 20
5.211022626606481
 10
3.879906419657968
 20
5.218762798771066
 10
3.880428847683002
 20
5.22771328024492
 10
3.87886399555573
 20
5.236998012069112
 10
3.875365039691631
 20
5.245708240446582
 10
3.870274485459535
 20
5.252991200616425
 10
3.864090633265611
 20
5.258133935260543
 10
3.857418794405882
 20
5.260633224818728
 10
3.850912058358234
 20
5.260244352025772
 10
3.845207354333155
 20
5.257005353421856
 10
3.840863094368383
 20
5.251233264719065
 10
3.838304524505515
 20
5.243493092554481
 10
3.837782096480481
 20
5.234542611080626
 10
3.839346948607753
 20
5.225257879256434
  0
LWPOLYLINE
  5
9D
330
1F
100
AcDbEntity
  8
0
  6
Continuous
 62
     7
370
    15
100
AcDbPolyline
 90
       12
 70
   128
 43
0.0
 10
3.875324220302916
 20
5.20312097817738
 10
3.880031278659604
 20
5.20533122196271
 10
3.884773317656062
 20
5.210289432785286
 10
3.887957198863515
 20
5.217293019930584
 10
3.88930001259841
 20
5.225719399925264
 10
3.888682448226227
 20
5.234819977224045
 10
3.886159382727501
 20
5.243786037407327
 10
3.881954996060608
 20
5.251820933633199
 10
3.876442869635606
 20
5.258210757185256
 10
3.870112779077791
 20
5.262387720663332
 10
3.863527178436269
 20
5.263980703050665
 10
3.859150180512827
 20
5.26349195988411
  0
LWPOLYLINE
  5
9E
330
1F
100
AcDbEntity
  8
0
  6
Continuous
 62
     7
370
    15
100
AcDbPolyline
 90
       12
 70
   128
 43
0.0
 10
3.763337181474287
 20
5.020236147993657
 10
3.767714184583119
 20
5.020724776728241
 10
3.774299782631946
 20
5.01913179503552
 10
3.780629873189761
 20
5.014954831557445
 10
3.78614200091111
 20
5.008565007658082
 10
3.790346386281656
 20
5.000530111779515
 10
3.792869453076729
 20
4.991564051248928
 10
3.793487016152564
 20
4.982463474297452
 10
3.792144201121321
 20
4.974037094650078
 10
3.788960322506564
 20
4.967033619852918
 10
3.784218284806454
 20
4.962075182597538
 10
3.77951122385707
 20
4.959865165592317
  0
LWPOLYLINE
  5
9F
330
1F
100
AcDbEntity
  8
0
  6
Continuous
 62
     7
370
    15
100
AcDbPolyline
 90
       21
 70
   128
 43
0.0
 10
3.750958598138582
 20
4.983990986688444
 10
3.754457554002681
 20
4.975280984396472
 10
3.759548108234777
 20
4.967998024226628
 10
3.765731963021396
 20
4.962855062802401
 10
3.772403801881125
 20
4.960355886286966
 10
3.778910535336078
 20
4.960744872817283
 10
3.784615240657504
 20
4.963983758031142
 10
3.788959500622277
 20
4.969755959776684
 10
3.791518071781493
 20
4.977496018551214
 10
3.792040499806526
 20
4.986446500025067
 10
3.790475647679254
 20
4.995731231849259
 10
3.786976693111503
 20
5.004441459879422
 10
3.781886140175755
 20
5.011724419701961
 10
3.775702285389136
 20
5.01686715504069
 10
3.769030446529407
 20
5.019366557641624
 10
3.762523713074453
 20
5.018977571111306
 10
3.75681900645668
 20
5.015738460159254
 10
3.752474743899213
 20
5.009966485193824
 10
3.749916174036345
 20
5.002226426071988
 10
3.749393746011311
 20
4.993275718512636
 10
3.750958598138582
 20
4.983990986688444
  0
LWPOLYLINE
  5
A0
330
1F
100
AcDbEntity
  8
0
  6
Continuous
 62
     7
370
    15
100
AcDbPolyline
 90
       12
 70
   128
 43
0.0
 10
3.786935872426441
 20
4.961854311000275
 10
3.791642933375823
 20
4.964064328005497
 10
3.796384971075934
 20
4.969022765260876
 10
3.799568849690691
 20
4.976026240058037
 10
3.800911664721935
 20
4.98445261970541
 10
3.800294101646099
 20
4.993553196656885
 10
3.797771034851026
 20
5.002519257187474
 10
3.79356664948048
 20
5.010554153066041
 10
3.78805452175913
 20
5.016943976965403
 10
3.781724431201316
 20
5.021120940443478
 10
3.775138833152489
 20
5.022713922136199
 10
3.770761830043656
 20
5.022225293401617
  0
LWPOLYLINE
  5
A1
330
1F
100
AcDbEntity
  8
0
  6
Continuous
 62
     7
370
    15
100
AcDbPolyline
 90
       12
 70
   128
 43
0.0
 10
3.745659513454608
 20
4.446905936475149
 10
3.750036511378051
 20
4.447394566598956
 10
3.756622112019573
 20
4.445801584211623
 10
3.762952202577388
 20
4.441624620733548
 10
3.768464331595084
 20
4.435234796486879
 10
3.772668715669283
 20
4.427199900955618
 10
3.775191783760704
 20
4.418233840077724
 10
3.775809345540192
 20
4.409133263473554
 10
3.774466531805296
 20
4.400706883478875
 10
3.771282653190538
 20
4.393703408681715
 10
3.76654061419408
 20
4.38874497177364
 10
3.761833553244697
 20
4.386534954768419
  0
LWPOLYLINE
  5
A2
330
1F
100
AcDbEntity
  8
0
  6
Continuous
 62
     7
370
    15
100
AcDbPolyline
 90
       21
 70
   128
 43
0.0
 10
3.733280930118905
 20
4.410661001255433
 10
3.736779885983003
 20
4.401950772877963
 10
3.741870440215099
 20
4.39466781270812
 10
3.748054292409023
 20
4.389525078064001
 10
3.754726131268752
 20
4.387025675463068
 10
3.761232867316401
 20
4.387414661298773
 10
3.766937571341479
 20
4.390653546859939
 10
3.771281831306251
 20
4.396425748605479
 10
3.77384040116912
 20
4.404165807727315
 10
3.774362829194154
 20
4.41311628920117
 10
3.772797977066881
 20
4.422401021025361
 10
3.769299023795478
 20
4.431111248708219
 10
3.764208469563381
 20
4.438394208878063
 10
3.758024614776763
 20
4.443536944216792
 10
3.751352775917034
 20
4.446036346817726
 10
3.744846045054775
 20
4.445647359592798
 10
3.739141338437002
 20
4.442408474726244
 10
3.734797075879535
 20
4.436636273675315
 10
3.732238506016666
 20
4.428896214553478
 10
3.731716077991633
 20
4.419945733079624
 10
3.733280930118905
 20
4.410661001255433
  0
LWPOLYLINE
  5
A3
330
1F
100
AcDbEntity
  8
0
  6
Continuous
 62
     7
370
    15
100
AcDbPolyline
 90
       12
 70
   128
 43
0.0
 10
3.769258201814067
 20
4.388524100176378
 10
3.77396526276345
 20
4.390734117181598
 10
3.778707301759908
 20
4.395692554089673
 10
3.781891180374666
 20
4.402696028886833
 10
3.783233994109561
 20
4.411122408881513
 10
3.782616432330073
 20
4.420222985485683
 10
3.780093364238653
 20
4.429189046363577
 10
3.775888980164454
 20
4.437223941894838
 10
3.770376851146758
 20
4.443613766141505
 10
3.764046760588943
 20
4.447790729619581
 10
3.757461159947421
 20
4.449383712006914
 10
3.753084162023978
 20
4.448895081883107
  0
LWPOLYLINE
  5
A4
330
1F
100
AcDbEntity
  8
0
  6
Continuous
 62
     7
370
    15
100
AcDbPolyline
 90
       12
 70
   128
 43
0.0
 10
3.834047861331084
 20
4.688172603652254
 10
3.838424861847221
 20
4.688661459166946
 10
3.845010459896048
 20
4.687068477474226
 10
3.851340553046558
 20
4.682891513301537
 10
3.856852679471559
 20
4.676501689749481
 10
3.861057066138453
 20
4.668466793523609
 10
3.863580131637179
 20
4.659500733340327
 10
3.864197696009362
 20
4.650400156041546
 10
3.862854877089077
 20
4.641973777436088
 10
3.859671001067014
 20
4.634970301944317
 10
3.854928962070556
 20
4.630011865036243
 10
3.850221903713867
 20
4.62780184733641
  0
LWPOLYLINE
  5
A5
330
1F
100
AcDbEntity
  8
0
  6
Continuous
 62
     7
370
    15
100
AcDbPolyline
 90
       21
 70
   128
 43
0.0
 10
3.82166927799538
 20
4.651927668432537
 10
3.825168232563131
 20
4.643217440402373
 10
3.83025878549888
 20
4.635934480579835
 10
3.836442640285498
 20
4.630791745241106
 10
3.843114479145227
 20
4.628292568725671
 10
3.849621212600181
 20
4.628681329170489
 10
3.855325919217954
 20
4.631920440122542
 10
3.859670181775421
 20
4.637692415087972
 10
3.86222875163829
 20
4.645432700295306
 10
3.862751179663323
 20
4.65438318176916
 10
3.861186327536051
 20
4.663667913593352
 10
3.857687371671953
 20
4.672378141970822
 10
3.852596817439857
 20
4.679661102140666
 10
3.846412962653238
 20
4.684803837479394
 10
3.839741123793509
 20
4.687303013994831
 10
3.833234390338555
 20
4.686914253550011
 10
3.827529686313478
 20
4.683675141903347
 10
3.82318542375601
 20
4.677903166937917
 10
3.820626853893142
 20
4.670162881730583
 10
3.820104425868109
 20
4.661212400256729
 10
3.82166927799538
 20
4.651927668432537
  0
LWPOLYLINE
  5
A6
330
1F
100
AcDbEntity
  8
0
  6
Continuous
 62
     7
370
    15
100
AcDbPolyline
 90
       12
 70
   128
 43
0.0
 10
3.857646552283238
 20
4.629790992744369
 10
3.862353610639926
 20
4.6320010104442
 10
3.867095649636384
 20
4.636959447352276
 10
3.870279525658446
 20
4.643962922844047
 10
3.871622344578732
 20
4.652389301449504
 10
3.871004780206549
 20
4.661489878748285
 10
3.868481714707823
 20
4.670455938931567
 10
3.864277328040929
 20
4.67849083515744
 10
3.858765201615928
 20
4.684880658709496
 10
3.852435108465418
 20
4.689057622882184
 10
3.845849510416591
 20
4.690650604574906
 10
3.841472509900453
 20
4.690161749060212
  0
LWPOLYLINE
  5
A7
330
1F
100
AcDbEntity
  8
0
  6
Continuous
 62
     7
370
    15
100
AcDbPolyline
 90
       12
 70
   128
 43
0.0
 10
3.834047861331084
 20
4.302795176245948
 10
3.838424861847221
 20
4.303284031760642
 10
3.845010459896048
 20
4.30169105006792
 10
3.851340553046558
 20
4.297514085895232
 10
3.856852679471559
 20
4.291124262343176
 10
3.861057066138453
 20
4.283089140031806
 10
3.863580131637179
 20
4.274123079848523
 10
3.864197696009362
 20
4.265022728635241
 10
3.862854877089077
 20
4.256596350029783
 10
3.859671001067014
 20
4.249592648452513
 10
3.854928962070556
 20
4.244634437629937
 10
3.850221903713867
 20
4.242424193844606
  0
LWPOLYLINE
  5
A8
330
1F
100
AcDbEntity
  8
0
  6
Continuous
 62
     7
370
    15
100
AcDbPolyline
 90
       21
 70
   128
 43
0.0
 10
3.82166927799538
 20
4.266550241026232
 10
3.825168232563131
 20
4.257840012996067
 10
3.83025878549888
 20
4.25055705317353
 10
3.836442640285498
 20
4.2454143178348
 10
3.843114479145227
 20
4.242915141319365
 10
3.849621212600181
 20
4.243303901764184
 10
3.855325919217954
 20
4.246543012716236
 10
3.859670181775421
 20
4.252314987681667
 10
3.86222875163829
 20
4.260055272889001
 10
3.862751179663323
 20
4.269005754362855
 10
3.861186327536051
 20
4.278290486187047
 10
3.857687371671953
 20
4.287000714564516
 10
3.852596817439857
 20
4.294283448648862
 10
3.846412962653238
 20
4.299426410073089
 10
3.839741123793509
 20
4.301925586588525
 10
3.833234390338555
 20
4.301536826143706
 10
3.827529686313478
 20
4.298297714497042
 10
3.82318542375601
 20
4.292525513446113
 10
3.820626853893142
 20
4.284785454324278
 10
3.820104425868109
 20
4.275834972850423
 10
3.82166927799538
 20
4.266550241026232
  0
LWPOLYLINE
  5
A9
330
1F
100
AcDbEntity
  8
0
  6
Continuous
 62
     7
370
    15
100
AcDbPolyline
 90
       12
 70
   128
 43
0.0
 10
3.857646552283238
 20
4.244413339252565
 10
3.862353610639926
 20
4.246623583037895
 10
3.867095649636384
 20
4.251581793860472
 10
3.870279525658446
 20
4.258585495437742
 10
3.871622344578732
 20
4.267011874043198
 10
3.871004780206549
 20
4.276112225256481
 10
3.868481714707823
 20
4.285078285439763
 10
3.864277328040929
 20
4.293113407751134
 10
3.858765201615928
 20
4.299503231303191
 10
3.852435108465418
 20
4.303680195475878
 10
3.845849510416591
 20
4.3052731771686
 10
3.841472509900453
 20
4.304784321653906
  0
LWPOLYLINE
  5
AA
330
1F
100
AcDbEntity
  8
0
  6
Continuous
 62
     7
370
    15
100
AcDbPolyline
 90
       13
 70
   128
 43
0.0
 10
3.843805932729745
 20
7.665632767227997
 10
3.843046252378583
 20
7.665858746391426
 10
3.837470838270747
 20
7.669143630946606
 10
3.833176879179988
 20
7.674798687955572
 10
3.830545936831309
 20
7.682321476356222
 10
3.829811768598095
 20
7.691043461830848
 10
3.831039585942805
 20
7.700189742100791
 10
3.834120371229724
 20
7.708947554320867
 10
3.838780294392888
 20
7.716538771370503
 10
3.844605353908537
 20
7.72228890304011
 10
3.851077923422618
 20
7.725687021735755
 10
3.857622922461798
 20
7.726431140605654
 10
3.859979993261393
 20
7.726003697970245
  0
LWPOLYLINE
  5
AB
330
1F
100
AcDbEntity
  8
0
  6
Continuous
 62
     7
370
    15
100
AcDbPolyline
 90
       21
 70
   128
 43
0.0
 10
3.867717414174326
 20
7.67906043183446
 10
3.87165378878264
 20
7.687489147751551
 10
3.873724999411873
 20
7.696714652915091
 10
3.873728401027599
 20
7.705833874998768
 10
3.871663620281752
 20
7.713954128431231
 10
3.867732762928213
 20
7.720280608531477
 10
3.862320584892119
 20
7.724193995975687
 10
3.855956908564398
 20
7.725311208989493
 10
3.849264644454142
 20
7.723522855703687
 10
3.84289889397049
 20
7.719004105897622
 10
3.83748273355501
 20
7.712197204251703
 10
3.833546400429814
 20
7.703768442927025
 10
3.831475148317462
 20
7.694542926649698
 10
3.831471746701737
 20
7.685423761087394
 10
3.833536568930703
 20
7.677303462247345
 10
3.837467426284241
 20
7.670977038668473
 10
3.842879562837216
 20
7.667063640110477
 10
3.849243239164937
 20
7.665946427096669
 10
3.855935503275193
 20
7.667734723861101
 10
3.862301253758846
 20
7.672253530188542
 10
3.867717414174326
 20
7.67906043183446
  0
LWPOLYLINE
  5
AC
330
1F
100
AcDbEntity
  8
0
  6
Continuous
 62
     7
370
    15
100
AcDbPolyline
 90
       13
 70
   128
 43
0.0
 10
3.852555375804362
 20
7.727992835042864
 10
3.850198305004767
 20
7.728420277678274
 10
3.843653305965587
 20
7.727676158808375
 10
3.837180736451506
 20
7.72427804011273
 10
3.831355676935856
 20
7.718527908443122
 10
3.826695753772693
 20
7.710936691393487
 10
3.823614968485773
 20
7.70217887917341
 10
3.822387151141064
 20
7.693032598903468
 10
3.823121319374278
 20
7.684310613428841
 10
3.825752261722957
 20
7.67678782502819
 10
3.830046220813716
 20
7.671132768019225
 10
3.835621634921552
 20
7.667847883464045
 10
3.836381315272713
 20
7.667621904300616
  0
LWPOLYLINE
  5
AD
330
1F
100
AcDbEntity
  8
0
  6
Continuous
 62
     7
370
    15
100
AcDbPolyline
 90
       12
 70
   128
 43
0.0
 10
3.763337181474287
 20
4.249481067095549
 10
3.767714184583119
 20
4.249969921915631
 10
3.774299782631946
 20
4.24837694022291
 10
3.780629873189761
 20
4.244199976744834
 10
3.78614200091111
 20
4.237810152845471
 10
3.790346386281656
 20
4.229775030881407
 10
3.792869453076729
 20
4.220808970350819
 10
3.793487016152564
 20
4.211708619484841
 10
3.792144201121321
 20
4.203282239837467
 10
3.788960322506564
 20
4.196278538954809
 10
3.784218284806454
 20
4.191320327784926
 10
3.77951122385707
 20
4.189110310779707
  0
LWPOLYLINE
  5
AE
330
1F
100
AcDbEntity
  8
0
  6
Continuous
 62
     7
370
    15
100
AcDbPolyline
 90
       21
 70
   128
 43
0.0
 10
3.750958598138582
 20
4.213236131875833
 10
3.754457554002681
 20
4.204525903498362
 10
3.759548108234777
 20
4.197242943328519
 10
3.765731963021396
 20
4.19210020798979
 10
3.772403801881125
 20
4.189601031474354
 10
3.778910535336078
 20
4.189989791919174
 10
3.784615240657504
 20
4.193228903218531
 10
3.788959500622277
 20
4.199000878878574
 10
3.791518071781493
 20
4.206741163738602
 10
3.792040499806526
 20
4.215691645212456
 10
3.790475647679254
 20
4.224976377036648
 10
3.786976693111503
 20
4.233686605066812
 10
3.781886140175755
 20
4.240969338803851
 10
3.775702285389136
 20
4.246112300228079
 10
3.769030446529407
 20
4.248611476743515
 10
3.762523713074453
 20
4.248222716298696
 10
3.75681900645668
 20
4.244983605346643
 10
3.752474743899213
 20
4.239211630381213
 10
3.749916174036345
 20
4.231471345173878
 10
3.749393746011311
 20
4.222520863700024
 10
3.750958598138582
 20
4.213236131875833
  0
LWPOLYLINE
  5
AF
330
1F
100
AcDbEntity
  8
0
  6
Continuous
 62
     7
370
    15
100
AcDbPolyline
 90
       12
 70
   128
 43
0.0
 10
3.786935872426441
 20
4.191099456187664
 10
3.791642933375823
 20
4.193309473192885
 10
3.796384971075934
 20
4.198267684362767
 10
3.799568849690691
 20
4.205271385245426
 10
3.800911664721935
 20
4.213697764892799
 10
3.800294101646099
 20
4.222798115758776
 10
3.797771034851026
 20
4.231764176289365
 10
3.79356664948048
 20
4.23979929825343
 10
3.78805452175913
 20
4.246189122152792
 10
3.781724431201316
 20
4.250366085630869
 10
3.775138833152489
 20
4.251959067323589
 10
3.770761830043656
 20
4.251470212503508
  0
LWPOLYLINE
  5
B0
330
1F
100
AcDbEntity
  8
0
  6
Continuous
 62
     7
370
    15
100
AcDbPolyline
 90
       12
 70
   128
 43
0.0
 10
3.851725531943457
 20
4.49074795966354
 10
3.8561025298669
 20
4.491236589787346
 10
3.862688130508421
 20
4.489643607400014
 10
3.869018221066236
 20
4.485466643921938
 10
3.874530347491238
 20
4.479076820369882
 10
3.878734734158132
 20
4.471041924144009
 10
3.881257799656857
 20
4.462075863960727
 10
3.88187536402904
 20
4.452975286661946
 10
3.880532550294145
 20
4.444548906667266
 10
3.877348669086692
 20
4.437545432564717
 10
3.872606630090233
 20
4.432586995656643
 10
3.867899571733546
 20
4.43037697795681
  0
LWPOLYLINE
  5
B1
330
1F
100
AcDbEntity
  8
0
  6
Continuous
 62
     7
370
    15
100
AcDbPolyline
 90
       21
 70
   128
 43
0.0
 10
3.839346948607753
 20
4.454502798358325
 10
3.842845901879157
 20
4.445792796760966
 10
3.847936456111253
 20
4.438509836591122
 10
3.854120310897871
 20
4.433367101252392
 10
3.8607921497576
 20
4.430867698651459
 10
3.867298880619859
 20
4.431256685876387
 10
3.873003587237633
 20
4.434495570742941
 10
3.8773478497951
 20
4.44026777179387
 10
3.879906419657968
 20
4.448007830915706
 10
3.880428847683002
 20
4.45695831238956
 10
3.87886399555573
 20
4.466243044213753
 10
3.875365039691631
 20
4.474953272591222
 10
3.870274485459535
 20
4.482236232761066
 10
3.864090633265611
 20
4.487378967405184
 10
3.857418794405882
 20
4.489878370006117
 10
3.850912058358234
 20
4.489489384170411
 10
3.845207354333155
 20
4.486250498609246
 10
3.840863094368383
 20
4.480478296863705
 10
3.838304524505515
 20
4.472738237741869
 10
3.837782096480481
 20
4.463787756268016
 10
3.839346948607753
 20
4.454502798358325
  0
LWPOLYLINE
  5
B2
330
1F
100
AcDbEntity
  8
0
  6
Continuous
 62
     7
370
    15
100
AcDbPolyline
 90
       12
 70
   128
 43
0.0
 10
3.875324220302916
 20
4.432366123364769
 10
3.880031278659604
 20
4.4345761410646
 10
3.884773317656062
 20
4.439534577972676
 10
3.887957198863515
 20
4.446538052075224
 10
3.88930001259841
 20
4.454964432069904
 10
3.888682448226227
 20
4.464065009368685
 10
3.886159382727501
 20
4.473031069551967
 10
3.881954996060608
 20
4.481065965777839
 10
3.876442869635606
 20
4.487455789329897
 10
3.870112779077791
 20
4.491632752807973
 10
3.863527178436269
 20
4.493225735195305
 10
3.859150180512827
 20
4.492737105071499
  0
LWPOLYLINE
  5
B3
330
1F
100
AcDbEntity
  8
0
  6
Continuous
 62
     7
370
    15
100
AcDbPolyline
 90
       13
 70
   128
 43
0.0
 10
3.773095260651032
 20
8.032066080620886
 10
3.77233558029987
 20
8.03229200326294
 10
3.766760166192034
 20
8.035576944339494
 10
3.762466207101275
 20
8.041232057869834
 10
3.759835264752596
 20
8.048754789749111
 10
3.759101096519382
 20
8.057476718702362
 10
3.760328913864092
 20
8.066622998972304
 10
3.763409699151011
 20
8.075380811192381
 10
3.768069622314175
 20
8.08297208476339
 10
3.773894681829824
 20
8.088722272954374
 10
3.780367251343906
 20
8.092120335128642
 10
3.786912250383085
 20
8.092864453998542
 10
3.78926932118268
 20
8.092436954841758
  0
LWPOLYLINE
  5
B4
330
1F
100
AcDbEntity
  8
0
  6
Continuous
 62
     7
370
    15
100
AcDbPolyline
 90
       21
 70
   128
 43
0.0
 10
3.797006742095613
 20
8.045493688705974
 10
3.800943075220809
 20
8.053922393509278
 10
3.80301432733316
 20
8.063147909786604
 10
3.803017728948886
 20
8.072267188391657
 10
3.800952948203039
 20
8.080387441824118
 10
3.7970220908495
 20
8.086713865402989
 10
3.791609912813406
 20
8.090627309368574
 10
3.785246236485685
 20
8.091744522382382
 10
3.778553972375429
 20
8.089956112575201
 10
3.772188221891777
 20
8.085437362769136
 10
3.766772061476297
 20
8.078630461123216
 10
3.762835728351101
 20
8.070201756319912
 10
3.760764476238749
 20
8.060976240042585
 10
3.760761074623023
 20
8.051857074480283
 10
3.762825855368871
 20
8.043736708005072
 10
3.766756754205528
 20
8.037410295539986
 10
3.772168890758503
 20
8.033496953503364
 10
3.778532567086224
 20
8.032379740489558
 10
3.78522483119648
 20
8.034168037253989
 10
3.791590581680133
 20
8.038686787060054
 10
3.797006742095613
 20
8.045493688705974
  0
LWPOLYLINE
  5
B5
330
1F
100
AcDbEntity
  8
0
  6
Continuous
 62
     7
370
    15
100
AcDbPolyline
 90
       13
 70
   128
 43
0.0
 10
3.781844703725649
 20
8.094426091914378
 10
3.779487632926054
 20
8.094853591071162
 10
3.772942633886874
 20
8.094109472201262
 10
3.766470064372793
 20
8.090711410026992
 10
3.760645004857144
 20
8.08496122183601
 10
3.75598508169398
 20
8.077369948264999
 10
3.752904296407061
 20
8.068612136044924
 10
3.751676479062351
 20
8.05946585577498
 10
3.752410647295566
 20
8.050743926821729
 10
3.755041589644244
 20
8.043221194942454
 10
3.759335548735003
 20
8.037566081412114
 10
3.76491096284284
 20
8.03428114033556
 10
3.765670643194001
 20
8.034055217693504
  0
LWPOLYLINE
  5
B6
330
1F
100
AcDbEntity
  8
0
  6
Continuous
 62
     7
370
    15
100
AcDbPolyline
 90
       13
 70
   128
 43
0.0
 10
3.87916128951066
 20
7.98822406021094
 10
3.878401609159499
 20
7.988449982852995
 10
3.872826153568544
 20
7.991734912815763
 10
3.868532235960904
 20
7.997389980938515
 10
3.865901252129106
 20
8.00491275822538
 10
3.865167083895892
 20
8.013634743700006
 10
3.86639494272372
 20
8.02278097856236
 10
3.869475686527521
 20
8.03153877966865
 10
3.874135609690684
 20
8.039130053239659
 10
3.879960669206334
 20
8.044880241430643
 10
3.886433280203534
 20
8.048278314718698
 10
3.892978279242713
 20
8.049022433588598
 10
3.895335350042309
 20
8.048595047474563
  0
LWPOLYLINE
  5
B7
330
1F
100
AcDbEntity
  8
0
  6
Continuous
 62
     7
370
    15
100
AcDbPolyline
 90
       21
 70
   128
 43
0.0
 10
3.903072770955242
 20
8.001651724817403
 10
3.907009104080437
 20
8.010080429620709
 10
3.909080356192789
 20
8.019305945898034
 10
3.909083757808515
 20
8.028425167981712
 10
3.907018935579549
 20
8.036545410300387
 10
3.90308807822601
 20
8.04287183387926
 10
3.897675941673035
 20
8.046785288958631
 10
3.891312265345314
 20
8.047902501972437
 10
3.884620001235058
 20
8.046114205208004
 10
3.878254250751405
 20
8.04159534235919
 10
3.872838090335925
 20
8.034788440713271
 10
3.868901715727611
 20
8.026359724796181
 10
3.866830505098378
 20
8.017134219632641
 10
3.866827103482652
 20
8.008014997548963
 10
3.8688918842285
 20
7.999894744116502
 10
3.872822741582038
 20
7.993568264016255
 10
3.878234919618132
 20
7.98965493309342
 10
3.884598595945853
 20
7.988537720079613
 10
3.891290860056109
 20
7.990326016844044
 10
3.897656610539761
 20
7.994844766650111
 10
3.903072770955242
 20
8.001651724817403
  0
LWPOLYLINE
  5
B8
330
1F
100
AcDbEntity
  8
0
  6
Continuous
 62
     7
370
    15
100
AcDbPolyline
 90
       13
 70
   128
 43
0.0
 10
3.887910732585278
 20
8.050584184547181
 10
3.885553661785682
 20
8.051011570661218
 10
3.879008662746503
 20
8.050267451791317
 10
3.872536051749303
 20
8.046869378503263
 10
3.866710992233654
 20
8.041119190312279
 10
3.86205106907049
 20
8.033527916741268
 10
3.85897032526669
 20
8.024770115634979
 10
3.857742466438861
 20
8.015623880772626
 10
3.858476634672075
 20
8.006901895297998
 10
3.861107618503873
 20
7.999379118011134
 10
3.865401536111513
 20
7.993724049888382
 10
3.870976991702468
 20
7.990439119925614
 10
3.871736672053629
 20
7.990213197283559
  0
LWPOLYLINE
  5
B9
330
1F
100
AcDbEntity
  8
0
  6
Continuous
 62
     7
370
    15
100
AcDbPolyline
 90
       13
 70
   128
 43
0.0
 10
3.861483631861762
 20
8.176176734058842
 10
3.860723910027482
 20
8.17640264558711
 10
3.855148495919646
 20
8.179687586663664
 10
3.850854536828887
 20
8.185342700194004
 10
3.848223594480207
 20
8.192865432073281
 10
3.847489426246993
 20
8.201587474069281
 10
3.848717285074822
 20
8.210733652410262
 10
3.851798028878623
 20
8.2194915665593
 10
3.856457952041786
 20
8.227082727087561
 10
3.862283011557435
 20
8.232832915278544
 10
3.868755581071517
 20
8.236230977452812
 10
3.875300621593815
 20
8.236975107436499
 10
3.877657650910292
 20
8.236547710208677
  0
LWPOLYLINE
  5
BA
330
1F
100
AcDbEntity
  8
0
  6
Continuous
 62
     7
370
    15
100
AcDbPolyline
 90
       21
 70
   128
 43
0.0
 10
3.885395071823224
 20
8.189604331030144
 10
3.889331446431539
 20
8.198033159989984
 10
3.89140269854389
 20
8.20725867626731
 10
3.891406100159617
 20
8.216377841829613
 10
3.88934127793065
 20
8.224498084148288
 10
3.885410420577111
 20
8.23082462076991
 10
3.879998242541018
 20
8.234737951692745
 10
3.873634607696415
 20
8.235855175820338
 10
3.866942343586159
 20
8.234066879055907
 10
3.860576551619388
 20
8.229548005093306
 10
3.855160432687027
 20
8.222741114561173
 10
3.851224058078712
 20
8.214312398644082
 10
3.849152805966361
 20
8.205086882366757
 10
3.849149445833754
 20
8.195967727918239
 10
3.851214226579601
 20
8.187847474485778
 10
3.85514508393314
 20
8.181520937864156
 10
3.860557261969233
 20
8.17760760694132
 10
3.866920896813836
 20
8.176490382813728
 10
3.873613160924092
 20
8.178278679578159
 10
3.879978952890863
 20
8.182797440498012
 10
3.885395071823224
 20
8.189604331030144
  0
LWPOLYLINE
  5
BB
330
1F
100
AcDbEntity
  8
0
  6
Continuous
 62
     7
370
    15
100
AcDbPolyline
 90
       13
 70
   128
 43
0.0
 10
3.870233033453261
 20
8.238536847281297
 10
3.867876004136784
 20
8.238964244509119
 10
3.861330963614486
 20
8.238220114525432
 10
3.854858394100405
 20
8.234822052351164
 10
3.849033334584756
 20
8.22907186416018
 10
3.844373411421591
 20
8.22148070363192
 10
3.841292667617791
 20
8.21272278948288
 10
3.840064808789962
 20
8.203576611141901
 10
3.840798977023176
 20
8.194854569145901
 10
3.843429919371856
 20
8.187331837266624
 10
3.847723878462615
 20
8.181676723736282
 10
3.853299292570451
 20
8.17839178265973
 10
3.854059014404731
 20
8.17816587113146
  0
LWPOLYLINE
  5
BC
330
1F
100
AcDbEntity
  8
0
  6
Continuous
 62
     7
370
    15
100
AcDbPolyline
 90
       13
 70
   128
 43
0.0
 10
3.773095260651032
 20
8.41744350802719
 10
3.77233558029987
 20
8.417669430669246
 10
3.766760166192034
 20
8.4209543717458
 10
3.762466207101275
 20
8.42660948527614
 10
3.759835264752596
 20
8.434132217155415
 10
3.759101096519382
 20
8.442854259151417
 10
3.760328913864092
 20
8.45200042637861
 10
3.763409699151011
 20
8.460758351641434
 10
3.768069622314175
 20
8.468349512169696
 10
3.773894681829824
 20
8.474099700360678
 10
3.780367251343906
 20
8.477497762534948
 10
3.786912250383085
 20
8.478241881404848
 10
3.78926932118268
 20
8.477814495290813
  0
LWPOLYLINE
  5
BD
330
1F
100
AcDbEntity
  8
0
  6
Continuous
 62
     7
370
    15
100
AcDbPolyline
 90
       21
 70
   128
 43
0.0
 10
3.797006742095613
 20
8.430871229155028
 10
3.800943075220809
 20
8.439299933958332
 10
3.80301432733316
 20
8.448525450235658
 10
3.803017728948886
 20
8.457644615797962
 10
3.800952948203039
 20
8.465764869230424
 10
3.7970220908495
 20
8.472091405852044
 10
3.791609912813406
 20
8.47600473677488
 10
3.785246236485685
 20
8.477121949788687
 10
3.778553972375429
 20
8.475333653024256
 10
3.772188221891777
 20
8.47081490321819
 10
3.766772061476297
 20
8.464007888529522
 10
3.762835728351101
 20
8.455579183726218
 10
3.760764476238749
 20
8.446353667448891
 10
3.760761074623023
 20
8.437234501886587
 10
3.762825855368871
 20
8.429114248454126
 10
3.766756754205528
 20
8.422787722946292
 10
3.772168890758503
 20
8.41887438090967
 10
3.778532567086224
 20
8.417757167895864
 10
3.78522483119648
 20
8.419545464660295
 10
3.791590581680133
 20
8.42406421446636
 10
3.797006742095613
 20
8.430871229155028
  0
LWPOLYLINE
  5
BE
330
1F
100
AcDbEntity
  8
0
  6
Continuous
 62
     7
370
    15
100
AcDbPolyline
 90
       13
 70
   128
 43
0.0
 10
3.781844703725649
 20
8.479803632363431
 10
3.779487632926054
 20
8.480231018477468
 10
3.772942633886874
 20
8.479486899607566
 10
3.766470064372793
 20
8.476088837433296
 10
3.760645004857144
 20
8.470338649242314
 10
3.75598508169398
 20
8.462747488714054
 10
3.752904296407061
 20
8.453989563451228
 10
3.751676479062351
 20
8.444843396224035
 10
3.752410647295566
 20
8.436121354228035
 10
3.755041589644244
 20
8.428598622348758
 10
3.759335548735003
 20
8.422943508818418
 10
3.76491096284284
 20
8.419658567741864
 10
3.765670643194001
 20
8.419432645099808
  0
LWPOLYLINE
  5
BF
330
1F
100
AcDbEntity
  8
0
  6
Continuous
 62
     7
370
    15
100
AcDbPolyline
 90
       13
 70
   128
 43
0.0
 10
3.790772959783049
 20
8.229490845293074
 10
3.790013237948769
 20
8.229716756821344
 10
3.784437823840933
 20
8.233001697897897
 10
3.780143864750173
 20
8.238656811428239
 10
3.777512922401494
 20
8.246179543307516
 10
3.77677875416828
 20
8.254901472260765
 10
3.778006612996109
 20
8.264047763644494
 10
3.78108735679991
 20
8.272805677793535
 10
3.785747279963073
 20
8.280396838321795
 10
3.791572339478723
 20
8.286147026512777
 10
3.798044908992804
 20
8.289545088687047
 10
3.804589949515102
 20
8.290289218670732
 10
3.806946978831579
 20
8.289861821442912
  0
LWPOLYLINE
  5
C0
330
1F
100
AcDbEntity
  8
0
  6
Continuous
 62
     7
370
    15
100
AcDbPolyline
 90
       21
 70
   128
 43
0.0
 10
3.814684399744511
 20
8.242918442264379
 10
3.818620774352826
 20
8.251347271224217
 10
3.820692026465177
 20
8.260572787501544
 10
3.820695386597785
 20
8.26969194195006
 10
3.818630605851937
 20
8.277812195382523
 10
3.814699748498398
 20
8.284138618961394
 10
3.809287570462305
 20
8.288052062926979
 10
3.802923894134584
 20
8.289169275940786
 10
3.796231671507446
 20
8.28738099029014
 10
3.789865879540675
 20
8.282862116327541
 10
3.784449760608314
 20
8.276055225795406
 10
3.780513385999999
 20
8.267626509878317
 10
3.778442133887649
 20
8.258400993600989
 10
3.778438732271922
 20
8.249281828038686
 10
3.780503554500888
 20
8.241161585720011
 10
3.784434411854427
 20
8.234835049098389
 10
3.789846548407402
 20
8.230921707061769
 10
3.796210224735123
 20
8.229804494047963
 10
3.802902488845379
 20
8.231592790812394
 10
3.809268239329032
 20
8.236111540618459
 10
3.814684399744511
 20
8.242918442264379
  0
LWPOLYLINE
  5
C1
330
1F
100
AcDbEntity
  8
0
  6
Continuous
 62
     7
370
    15
100
AcDbPolyline
 90
       13
 70
   128
 43
0.0
 10
3.799522361374548
 20
8.29185095851553
 10
3.797165332058071
 20
8.292278355743352
 10
3.790620291535773
 20
8.291534225759665
 10
3.784147722021692
 20
8.288136163585397
 10
3.778322662506043
 20
8.282385975394413
 10
3.773662739342879
 20
8.274794814866154
 10
3.770581995539078
 20
8.266036900717114
 10
3.769354136711249
 20
8.256890609333385
 10
3.770088304944464
 20
8.248168680380134
 10
3.772719247293143
 20
8.240645948500857
 10
3.777013206383902
 20
8.234990834970517
 10
3.782588620491738
 20
8.231705893893963
 10
3.783348342326018
 20
8.231479982365694
  0
LWPOLYLINE
  5
C2
330
1F
100
AcDbEntity
  8
0
  6
Continuous
 62
     7
370
    15
100
AcDbPolyline
 90
       13
 70
   128
 43
0.0
 10
3.808450617431947
 20
7.836806391940059
 10
3.807690937080786
 20
7.837032314582113
 10
3.802115481489831
 20
7.840317244544881
 10
3.797821522399073
 20
7.845972301553847
 10
3.795190580050393
 20
7.853495033433124
 10
3.794456411817179
 20
7.862217075429124
 10
3.795684270645008
 20
7.871363310291478
 10
3.798765014448808
 20
7.880121167919143
 10
3.803424937611972
 20
7.887712384968779
 10
3.809249997127621
 20
7.893462516638386
 10
3.815722608124821
 20
7.896860646447816
 10
3.822267607164
 20
7.897604765317716
 10
3.824624636480477
 20
7.897177311568521
  0
LWPOLYLINE
  5
C3
330
1F
100
AcDbEntity
  8
0
  6
Continuous
 62
     7
370
    15
100
AcDbPolyline
 90
       21
 70
   128
 43
0.0
 10
3.83236205739341
 20
7.850233988911361
 10
3.836298432001724
 20
7.858662761349826
 10
3.838369684114076
 20
7.867888277627153
 10
3.838373085729802
 20
7.877007499710831
 10
3.836308263500836
 20
7.885127742029506
 10
3.832377406147297
 20
7.891454222129753
 10
3.826965269594323
 20
7.895367564166375
 10
3.820601593266601
 20
7.896484777180181
 10
3.813909329156345
 20
7.894696480415749
 10
3.807543578672692
 20
7.890177730609684
 10
3.802127418257212
 20
7.883370772442391
 10
3.798191043648898
 20
7.8749420565253
 10
3.796119791536546
 20
7.865716540247974
 10
3.796116431403939
 20
7.856597329278081
 10
3.798181212149787
 20
7.848477075845621
 10
3.802112069503325
 20
7.842150595745374
 10
3.807524247539419
 20
7.838237264822538
 10
3.813887923867141
 20
7.837120051808732
 10
3.820580146494278
 20
7.838908337459376
 10
3.826945938461049
 20
7.843427098379229
 10
3.83236205739341
 20
7.850233988911361
  0
LWPOLYLINE
  5
C4
330
1F
100
AcDbEntity
  8
0
  6
Continuous
 62
     7
370
    15
100
AcDbPolyline
 90
       13
 70
   128
 43
0.0
 10
3.817200019023447
 20
7.899166448641141
 10
3.81484298970697
 20
7.899593902390336
 10
3.80829799066779
 20
7.898849783520436
 10
3.80182537967059
 20
7.895451653711005
 10
3.796000320154941
 20
7.889701522041398
 10
3.791340396991778
 20
7.882110304991763
 10
3.788259653187977
 20
7.873352447364097
 10
3.787031794360148
 20
7.864206212501744
 10
3.787765962593362
 20
7.855484170505743
 10
3.790396904942041
 20
7.847961438626466
 10
3.7946908640328
 20
7.8423063816175
 10
3.800266319623755
 20
7.839021451654732
 10
3.801025999974917
 20
7.838795529012677
  0
LWPOLYLINE
  5
C5
330
1F
100
AcDbEntity
  8
0
  6
Continuous
 62
     7
370
    15
100
AcDbPolyline
 90
       12
 70
   128
 43
0.0
 10
3.763337181474287
 20
4.634858494501855
 10
3.767714184583119
 20
4.635347349321937
 10
3.774299782631946
 20
4.633754367629215
 10
3.780629873189761
 20
4.629577404151139
 10
3.78614200091111
 20
4.623187580251777
 10
3.790346386281656
 20
4.61515268437321
 10
3.792869453076729
 20
4.606186623842623
 10
3.793487016152564
 20
4.597086046891146
 10
3.792144201121321
 20
4.588659667243772
 10
3.788960322506564
 20
4.581656192446613
 10
3.784218284806454
 20
4.576697755191232
 10
3.77951122385707
 20
4.574487738186012
  0
LWPOLYLINE
  5
C6
330
1F
100
AcDbEntity
  8
0
  6
Continuous
 62
     7
370
    15
100
AcDbPolyline
 90
       21
 70
   128
 43
0.0
 10
3.750958598138582
 20
4.598613559282138
 10
3.754457554002681
 20
4.589903330904668
 10
3.759548108234777
 20
4.582620596820323
 10
3.765731963021396
 20
4.577477635396096
 10
3.772403801881125
 20
4.57497845888066
 10
3.778910535336078
 20
4.575367219325479
 10
3.784615240657504
 20
4.578606330624836
 10
3.788959500622277
 20
4.584378306284879
 10
3.791518071781493
 20
4.592118591144908
 10
3.792040499806526
 20
4.601069072618761
 10
3.790475647679254
 20
4.610353804442953
 10
3.786976693111503
 20
4.619064032473117
 10
3.781886140175755
 20
4.626346992295656
 10
3.775702285389136
 20
4.631489727634384
 10
3.769030446529407
 20
4.63398890414982
 10
3.762523713074453
 20
4.633600143705001
 10
3.75681900645668
 20
4.630361032752949
 10
3.752474743899213
 20
4.624589057787519
 10
3.749916174036345
 20
4.616848772580184
 10
3.749393746011311
 20
4.607898291106329
 10
3.750958598138582
 20
4.598613559282138
  0
LWPOLYLINE
  5
C7
330
1F
100
AcDbEntity
  8
0
  6
Continuous
 62
     7
370
    15
100
AcDbPolyline
 90
       12
 70
   128
 43
0.0
 10
3.786935872426441
 20
4.57647688359397
 10
3.791642933375823
 20
4.57868690059919
 10
3.796384971075934
 20
4.583645337854571
 10
3.799568849690691
 20
4.590648812651731
 10
3.800911664721935
 20
4.599075192299105
 10
3.800294101646099
 20
4.60817576925058
 10
3.797771034851026
 20
4.617141829781169
 10
3.79356664948048
 20
4.625176725659735
 10
3.78805452175913
 20
4.631566549559098
 10
3.781724431201316
 20
4.635743513037174
 10
3.775138833152489
 20
4.637336494729894
 10
3.770761830043656
 20
4.636847639909813
  0
LWPOLYLINE
  5
C8
330
1F
100
AcDbEntity
  8
0
  6
Continuous
 62
     7
370
    15
100
AcDbPolyline
 90
       12
 70
   128
 43
0.0
 10
3.834047861331084
 20
5.073550257144057
 10
3.838424861847221
 20
5.074038886573251
 10
3.845010459896048
 20
5.072445904880531
 10
3.851340553046558
 20
5.068268940707842
 10
3.856852679471559
 20
5.061879117155785
 10
3.861057066138453
 20
5.053844220929914
 10
3.863580131637179
 20
5.044878160746632
 10
3.864197696009362
 20
5.03577758344785
 10
3.862854877089077
 20
5.027351204842394
 10
3.859671001067014
 20
5.020347729350622
 10
3.854928962070556
 20
5.015389292442548
 10
3.850221903713867
 20
5.013179274742715
  0
LWPOLYLINE
  5
C9
330
1F
100
AcDbEntity
  8
0
  6
Continuous
 62
     7
370
    15
100
AcDbPolyline
 90
       21
 70
   128
 43
0.0
 10
3.82166927799538
 20
5.037305095838841
 10
3.825168232563131
 20
5.028595093894176
 10
3.83025878549888
 20
5.021312134071639
 10
3.836442640285498
 20
5.01616917264741
 10
3.843114479145227
 20
5.013669996131976
 10
3.849621212600181
 20
5.014058756576794
 10
3.855325919217954
 20
5.017297867528847
 10
3.859670181775421
 20
5.023070068579776
 10
3.86222875163829
 20
5.030810127701611
 10
3.862751179663323
 20
5.039760609175466
 10
3.861186327536051
 20
5.049045340999657
 10
3.857687371671953
 20
5.057755569377127
 10
3.852596817439857
 20
5.065038529546971
 10
3.846412962653238
 20
5.070181264885699
 10
3.839741123793509
 20
5.072680667486634
 10
3.833234390338555
 20
5.072291680956316
 10
3.827529686313478
 20
5.069052569309653
 10
3.82318542375601
 20
5.063280594344223
 10
3.820626853893142
 20
5.055540309136889
 10
3.820104425868109
 20
5.046589827663034
 10
3.82166927799538
 20
5.037305095838841
  0
LWPOLYLINE
  5
CA
330
1F
100
AcDbEntity
  8
0
  6
Continuous
 62
     7
370
    15
100
AcDbPolyline
 90
       12
 70
   128
 43
0.0
 10
3.857646552283238
 20
5.015168420150674
 10
3.862353610639926
 20
5.017378437850505
 10
3.867095649636384
 20
5.022336874758581
 10
3.870279525658446
 20
5.029340350250353
 10
3.871622344578732
 20
5.037766728855809
 10
3.871004780206549
 20
5.04686730615459
 10
3.868481714707823
 20
5.055833366337872
 10
3.864277328040929
 20
5.063868262563745
 10
3.858765201615928
 20
5.070258086115801
 10
3.852435108465418
 20
5.074435050288489
 10
3.845849510416591
 20
5.076028031981211
 10
3.841472509900453
 20
5.075539402552014
  0
LWPOLYLINE
  5
CB
330
1F
100
AcDbEntity
  8
0
  6
Continuous
 62
     7
370
    15
100
AcDbPolyline
 90
       12
 70
   128
 43
0.0
 10
3.763337181474287
 20
5.405613575399963
 10
3.767714184583119
 20
5.406102204134548
 10
3.774299782631946
 20
5.404509222441826
 10
3.780629873189761
 20
5.40033225896375
 10
3.78614200091111
 20
5.393942435064388
 10
3.790346386281656
 20
5.38590753918582
 10
3.792869453076729
 20
5.376941478655233
 10
3.793487016152564
 20
5.367840901703758
 10
3.792144201121321
 20
5.359414522056384
 10
3.788960322506564
 20
5.352411047259223
 10
3.784218284806454
 20
5.347452723046592
 10
3.77951122385707
 20
5.345242592998622
  0
LWPOLYLINE
  5
CC
330
1F
100
AcDbEntity
  8
0
  6
Continuous
 62
     7
370
    15
100
AcDbPolyline
 90
       21
 70
   128
 43
0.0
 10
3.750958598138582
 20
5.369368527137498
 10
3.754457554002681
 20
5.360658298760028
 10
3.759548108234777
 20
5.353375451632934
 10
3.765731963021396
 20
5.348232603251456
 10
3.772403801881125
 20
5.345733313693271
 10
3.778910535336078
 20
5.346122187180839
 10
3.784615240657504
 20
5.349361298480197
 10
3.788959500622277
 20
5.355133274140239
 10
3.791518071781493
 20
5.362873445957519
 10
3.792040499806526
 20
5.371823927431372
 10
3.790475647679254
 20
5.381108772298314
 10
3.786976693111503
 20
5.389818887285728
 10
3.781886140175755
 20
5.397101847108267
 10
3.775702285389136
 20
5.402244695489744
 10
3.769030446529407
 20
5.40474387200518
 10
3.762523713074453
 20
5.404354998517612
 10
3.75681900645668
 20
5.401116000608308
 10
3.752474743899213
 20
5.39534391260013
 10
3.749916174036345
 20
5.387603740435544
 10
3.749393746011311
 20
5.37865325896169
 10
3.750958598138582
 20
5.369368527137498
  0
LWPOLYLINE
  5
CD
330
1F
100
AcDbEntity
  8
0
  6
Continuous
 62
     7
370
    15
100
AcDbPolyline
 90
       12
 70
   128
 43
0.0
 10
3.786935872426441
 20
5.347231738406581
 10
3.791642933375823
 20
5.349441868454551
 10
3.796384971075934
 20
5.354400192667182
 10
3.799568849690691
 20
5.361403667464342
 10
3.800911664721935
 20
5.369830047111715
 10
3.800294101646099
 20
5.378930624063191
 10
3.797771034851026
 20
5.38789668459378
 10
3.79356664948048
 20
5.395931580472345
 10
3.78805452175913
 20
5.402321404371709
 10
3.781724431201316
 20
5.406498367849784
 10
3.775138833152489
 20
5.408091349542505
 10
3.770761830043656
 20
5.407602720807922
  0
LWPOLYLINE
  5
CE
330
1F
100
AcDbEntity
  8
0
  6
Continuous
 62
     7
370
    15
100
AcDbPolyline
 90
       13
 70
   128
 43
0.0
 10
3.861483631861762
 20
8.561554161465146
 10
3.860723910027482
 20
8.561780186036164
 10
3.855148495919646
 20
8.565065014069968
 10
3.850854536828887
 20
8.57072012760031
 10
3.848223594480207
 20
8.578242859479587
 10
3.847489426246993
 20
8.586964901475587
 10
3.848717285074822
 20
8.596111192859316
 10
3.851798028878623
 20
8.604868993965606
 10
3.856457952041786
 20
8.612460267536617
 10
3.862283011557435
 20
8.61821034268485
 10
3.868755581071517
 20
8.621608404859118
 10
3.875300621593815
 20
8.622352534842805
 10
3.877657650910292
 20
8.621925137614983
  0
LWPOLYLINE
  5
CF
330
1F
100
AcDbEntity
  8
0
  6
Continuous
 62
     7
370
    15
100
AcDbPolyline
 90
       21
 70
   128
 43
0.0
 10
3.885395071823224
 20
8.574981871479199
 10
3.889331446431539
 20
8.583410587396288
 10
3.89140269854389
 20
8.592636103673616
 10
3.891406100159617
 20
8.601755269235919
 10
3.88934127793065
 20
8.609875624597343
 10
3.885410420577111
 20
8.616202048176214
 10
3.879998242541018
 20
8.620115379099051
 10
3.873634607696415
 20
8.621232603226644
 10
3.866942343586159
 20
8.619444306462211
 10
3.860576551619388
 20
8.614925545542361
 10
3.855160432687027
 20
8.608118655010228
 10
3.851224058078712
 20
8.599689826050388
 10
3.849152805966361
 20
8.590464309773061
 10
3.849149445833754
 20
8.581345155324545
 10
3.851214226579601
 20
8.573224901892084
 10
3.85514508393314
 20
8.566898478313211
 10
3.860557261969233
 20
8.562985034347626
 10
3.866920896813836
 20
8.561867810220032
 10
3.873613160924092
 20
8.563656106984465
 10
3.879978952890863
 20
8.568174980947066
 10
3.885395071823224
 20
8.574981871479199
  0
LWPOLYLINE
  5
D0
330
1F
100
AcDbEntity
  8
0
  6
Continuous
 62
     7
370
    15
100
AcDbPolyline
 90
       13
 70
   128
 43
0.0
 10
3.870233033453261
 20
8.623914274687603
 10
3.867876004136784
 20
8.624341671915424
 10
3.861330963614486
 20
8.623597541931738
 10
3.854858394100405
 20
8.620199479757468
 10
3.849033334584756
 20
8.614449404609235
 10
3.844373411421591
 20
8.606858131038224
 10
3.841292667617791
 20
8.598100329931934
 10
3.840064808789962
 20
8.588954038548205
 10
3.840798977023176
 20
8.580231996552205
 10
3.843429919371856
 20
8.57270926467293
 10
3.847723878462615
 20
8.56705415114259
 10
3.853299292570451
 20
8.563769323108784
 10
3.854059014404731
 20
8.563543298537766
  0
LWPOLYLINE
  5
D1
330
1F
100
AcDbEntity
  8
0
  6
Continuous
 62
     7
370
    15
100
AcDbPolyline
 90
       12
 70
   128
 43
0.0
 10
3.855348252691938
 20
8.776627235411273
 10
3.856197562506253
 20
8.773995737403984
 10
3.855882565630453
 20
8.76820272675909
 10
3.85301486875307
 20
8.761960765469627
 10
3.847849318227911
 20
8.755824525591339
 10
3.840844852166973
 20
8.750339220435892
 10
3.832623893652707
 20
8.745992139875106
 10
3.823916913735379
 20
8.743169622664742
 10
3.815497499981667
 20
8.742122517984393
 10
3.808113782286894
 20
8.742943736038389
 10
3.802421883581993
 20
8.745560440109475
 10
3.79895924618824
 20
8.749673046282191
  0
LWPOLYLINE
  5
D2
330
1F
100
AcDbEntity
  8
0
  6
Continuous
 62
     7
370
    15
100
AcDbPolyline
 90
       21
 70
   128
 43
0.0
 10
3.804012206344093
 20
8.768057490293223
 10
3.799943915418589
 20
8.761695740068399
 10
3.79850446416619
 20
8.755548725660661
 10
3.799834791482383
 20
8.750218296681365
 10
3.803804705192096
 20
8.746226014418951
 10
3.810025575883992
 20
8.743962830602107
 10
3.817888446933
 20
8.743650245701273
 10
3.826623676854103
 20
8.745318762403263
 10
3.835376163752549
 20
8.748805248715399
 10
3.843289187891961
 20
8.753768280204324
 10
3.849588171296206
 20
8.759721969825259
 10
3.853656503704828
 20
8.766083731163869
 10
3.855095910881414
 20
8.772230735152433
 10
3.853765583565221
 20
8.777561277174477
 10
3.849795669855509
 20
8.781553559436892
 10
3.843574799163612
 20
8.783816743253735
 10
3.835711930707299
 20
8.784129327459959
 10
3.826976698193501
 20
8.782460698409829
 10
3.818224211295055
 20
8.778974325140444
 10
3.81031118845199
 20
8.774011293304212
 10
3.804012206344093
 20
8.768057490293223
  0
LWPOLYLINE
  5
D3
330
1F
100
AcDbEntity
  8
0
  6
Continuous
 62
     7
370
    15
100
AcDbPolyline
 90
       12
 70
   128
 43
0.0
 10
3.802671528989806
 20
8.741906794813338
 10
3.806134207866678
 20
8.737794086711659
 10
3.811826106571579
 20
8.735177495683323
 10
3.819209782783234
 20
8.734356153472791
 10
3.827629196536945
 20
8.735403371195889
 10
3.836336217937391
 20
8.738225786477288
 10
3.844557176451658
 20
8.742572867038074
 10
3.851561642512596
 20
8.748058285236272
 10
3.856727193037755
 20
8.754194525114559
 10
3.85959484843202
 20
8.760436475290237
 10
3.859909845307819
 20
8.766229485935131
 10
3.859060576976622
 20
8.768860882013457
  0
LWPOLYLINE
  5
D4
330
1F
100
AcDbEntity
  8
0
  6
Continuous
 62
     7
370
    15
100
AcDbPolyline
 90
       12
 70
   128
 43
0.0
 10
3.699801766641232
 20
8.743467115567963
 10
3.700651073862851
 20
8.740835731298034
 10
3.700336076987053
 20
8.73504272065314
 10
3.697468382702364
 20
8.728800758669065
 10
3.692302832177206
 20
8.722664405748027
 10
3.685298366116267
 20
8.717179100592581
 10
3.677077407602001
 20
8.712832020031793
 10
3.668370427684673
 20
8.71000950282143
 10
3.659951013930962
 20
8.708962398141082
 10
3.652567298828883
 20
8.709783615500468
 10
3.646875394938592
 20
8.712400320960774
 10
3.643412757544839
 20
8.716512927133491
  0
LWPOLYLINE
  5
D5
330
1F
100
AcDbEntity
  8
0
  6
Continuous
 62
     7
370
    15
100
AcDbPolyline
 90
       21
 70
   128
 43
0.0
 10
3.648465717700692
 20
8.734897371144523
 10
3.644397426775188
 20
8.728535620919698
 10
3.642957978115484
 20
8.722388718860099
 10
3.644288305431677
 20
8.717058176838053
 10
3.64825821914139
 20
8.71306589457564
 10
3.654479089833286
 20
8.710802710758796
 10
3.662341955696904
 20
8.710490127247185
 10
3.671077190803397
 20
8.712158642559952
 10
3.679829677701843
 20
8.715645128872088
 10
3.68774269924856
 20
8.720608161055624
 10
3.694041682652805
 20
8.726561963719307
 10
3.698109973578309
 20
8.732923713944131
 10
3.699549424830708
 20
8.73907061530912
 10
3.698219097514515
 20
8.744401157331164
 10
3.694249183804803
 20
8.748393439593579
 10
3.688028313112906
 20
8.750656623410423
 10
3.680165442063898
 20
8.750969208311259
 10
3.671430212142795
 20
8.749300691609267
 10
3.662677725244348
 20
8.745814205297133
 10
3.654764701104936
 20
8.740851173808206
 10
3.648465717700692
 20
8.734897371144523
  0
LWPOLYLINE
  5
D6
330
1F
100
AcDbEntity
  8
0
  6
Continuous
 62
     7
370
    15
100
AcDbPolyline
 90
       12
 70
   128
 43
0.0
 10
3.647125040346406
 20
8.708746675664638
 10
3.650587719223277
 20
8.704634080605707
 10
3.656279623113568
 20
8.702017375145398
 10
3.663663296732527
 20
8.701196146672227
 10
3.67208271048624
 20
8.702243251352577
 10
3.680789731886685
 20
8.705065779676726
 10
3.689010690400952
 20
8.709412747194763
 10
3.69601515646189
 20
8.714898165392959
 10
3.701180706987049
 20
8.721034405271248
 10
3.704048359788619
 20
8.727276356141537
 10
3.704363356664418
 20
8.73306936678643
 10
3.703514090925916
 20
8.735700875212895
  0
LWPOLYLINE
  5
D7
330
1F
100
AcDbEntity
  8
0
  6
Continuous
 62
     7
370
    15
100
AcDbPolyline
 90
       12
 70
   128
 43
0.0
 10
3.783136083578854
 20
8.657690121423858
 10
3.783985398578559
 20
8.655058735070094
 10
3.78367039651737
 20
8.649265725814423
 10
3.780802699639987
 20
8.643023764524958
 10
3.775637149114828
 20
8.636887411603922
 10
3.768632724537009
 20
8.631402117562261
 10
3.760411766022742
 20
8.627055037001474
 10
3.751704749807686
 20
8.624232507288102
 10
3.743285336053974
 20
8.623185402607752
 10
3.735901657249625
 20
8.624006632470148
 10
3.730209717061605
 20
8.626623325427447
 10
3.726747079667852
 20
8.630735931600163
  0
LWPOLYLINE
  5
D8
330
1F
100
AcDbEntity
  8
0
  6
Continuous
 62
     7
370
    15
100
AcDbPolyline
 90
       21
 70
   128
 43
0.0
 10
3.731800081306824
 20
8.64912038672498
 10
3.727731748898201
 20
8.64275862538637
 10
3.726292295053107
 20
8.636611724715992
 10
3.727622627554689
 20
8.631281181304725
 10
3.731592536079013
 20
8.627288900431533
 10
3.737813411956299
 20
8.625025715225467
 10
3.745676277819917
 20
8.624713131713855
 10
3.75441151292641
 20
8.626381647026622
 10
3.763163994639466
 20
8.629868134727981
 10
3.771077023964268
 20
8.634831164827685
 10
3.777376007368512
 20
8.640784967491367
 10
3.781444339777135
 20
8.647146728829978
 10
3.78288378325145
 20
8.653293632278801
 10
3.781553414452138
 20
8.658624163187059
 10
3.777583500742426
 20
8.662616445449474
 10
3.771362671533648
 20
8.664879640380103
 10
3.763499764186911
 20
8.665192212777931
 10
3.754764570563536
 20
8.663523708578948
 10
3.746012042181972
 20
8.660037211153028
 10
3.738099023227949
 20
8.655074178274876
 10
3.731800081306824
 20
8.64912038672498
  0
LWPOLYLINE
  5
D9
330
1F
100
AcDbEntity
  8
0
  6
Continuous
 62
     7
370
    15
100
AcDbPolyline
 90
       12
 70
   128
 43
0.0
 10
3.730459362469418
 20
8.62296968013131
 10
3.73392204134629
 20
8.618857085072379
 10
3.739613940051191
 20
8.616240381001293
 10
3.74699766033866
 20
8.615419162252685
 10
3.755417032609252
 20
8.616466255819249
 10
3.764124048824309
 20
8.619288785532621
 10
3.772345007338575
 20
8.623635753050658
 10
3.779349473399513
 20
8.629121171248854
 10
3.784515023924672
 20
8.635257411127142
 10
3.787382720802056
 20
8.641499372416607
 10
3.787697722863244
 20
8.647292381672276
 10
3.786848407863539
 20
8.64992388106879
  0
LWPOLYLINE
  5
DA
330
1F
100
AcDbEntity
  8
0
  6
Continuous
 62
     7
370
    15
100
AcDbPolyline
 90
       12
 70
   128
 43
0.0
 10
3.772013930568924
 20
8.862404230944603
 10
3.77286324038324
 20
8.859772732937312
 10
3.772548243507441
 20
8.85397972229242
 10
3.769680551815447
 20
8.847737759613732
 10
3.764515001290288
 20
8.841601519735444
 10
3.75751053522935
 20
8.836116214579996
 10
3.749289576715084
 20
8.831769134019211
 10
3.740582555314637
 20
8.828946605695062
 10
3.732163183044044
 20
8.827899512128499
 10
3.724779467941966
 20
8.828720729487884
 10
3.719087558866285
 20
8.831337436337415
 10
3.715624879989413
 20
8.835450031396346
  0
LWPOLYLINE
  5
DB
330
1F
100
AcDbEntity
  8
0
  6
Continuous
 62
     7
370
    15
100
AcDbPolyline
 90
       21
 70
   128
 43
0.0
 10
3.720677886813775
 20
8.85383448513194
 10
3.716609554405153
 20
8.84747272379333
 10
3.715170142043177
 20
8.841325721193989
 10
3.716500474544759
 20
8.83599529082547
 10
3.720470388254473
 20
8.832003008563056
 10
3.72669121746325
 20
8.829739813632427
 10
3.734554124809987
 20
8.829427241234601
 10
3.743289313247972
 20
8.831095746822805
 10
3.752041846814926
 20
8.834582242859504
 10
3.759954865768948
 20
8.839545275737652
 10
3.766253849173193
 20
8.845498965358586
 10
3.770322140098697
 20
8.851860715583413
 10
3.771761588758401
 20
8.858007730685761
 10
3.770431261442208
 20
8.863338272707807
 10
3.766461347732496
 20
8.867330554970219
 10
3.760240482225989
 20
8.86959373739784
 10
3.752377605991591
 20
8.869906323687899
 10
3.743642381255878
 20
8.868237692553936
 10
3.734889889172042
 20
8.864751320673772
 10
3.72697687021802
 20
8.859788287795623
 10
3.720677886813775
 20
8.85383448513194
  0
LWPOLYLINE
  5
DC
330
1F
100
AcDbEntity
  8
0
  6
Continuous
 62
     7
370
    15
100
AcDbPolyline
 90
       12
 70
   128
 43
0.0
 10
3.719337204274099
 20
8.827683791041279
 10
3.722799841667851
 20
8.823571071825814
 10
3.728491792226651
 20
8.820954489132816
 10
3.735875465845611
 20
8.820133147616894
 10
3.744294879599323
 20
8.821180365339994
 10
3.753001900999768
 20
8.824002780621395
 10
3.761222859514036
 20
8.82834986118218
 10
3.768227284091854
 20
8.833835268266591
 10
3.773392876100132
 20
8.839971519258666
 10
3.776260526309007
 20
8.846213470823567
 10
3.776575523184806
 20
8.852006481468459
 10
3.77572625485361
 20
8.854637877546787
  0
LWPOLYLINE
  5
DD
330
1F
100
AcDbEntity
  8
0
  6
Continuous
 62
     7
370
    15
100
AcDbPolyline
 90
       13
 70
   128
 43
0.0
 10
3.87916128951066
 20
8.373601487617245
 10
3.878401609159499
 20
8.3738274102593
 10
3.872826153568544
 20
8.377112340222069
 10
3.868532235960904
 20
8.382767464866194
 10
3.865901252129106
 20
8.390290185631684
 10
3.865167083895892
 20
8.399012227627686
 10
3.86639494272372
 20
8.408158405968665
 10
3.869475686527521
 20
8.416916320117705
 10
3.874135609690684
 20
8.424507480645965
 10
3.879960669206334
 20
8.430257668836947
 10
3.886433280203534
 20
8.433655742125003
 10
3.892978279242713
 20
8.434399860994904
 10
3.895335350042309
 20
8.433972474880867
  0
LWPOLYLINE
  5
DE
330
1F
100
AcDbEntity
  8
0
  6
Continuous
 62
     7
370
    15
100
AcDbPolyline
 90
       21
 70
   128
 43
0.0
 10
3.903072770955242
 20
8.387029208745083
 10
3.907009104080437
 20
8.395457913548387
 10
3.909080356192789
 20
8.404683429825714
 10
3.909083757808515
 20
8.413802595388018
 10
3.907018935579549
 20
8.421922837706693
 10
3.90308807822601
 20
8.428249374328313
 10
3.897675941673035
 20
8.432162716364935
 10
3.891312265345314
 20
8.433279929378743
 10
3.884620001235058
 20
8.43149163261431
 10
3.878254250751405
 20
8.426972882808245
 10
3.872838090335925
 20
8.420165981162327
 10
3.868901715727611
 20
8.411737152202487
 10
3.866830505098378
 20
8.402511647038947
 10
3.866827103482652
 20
8.393392481476642
 10
3.8688918842285
 20
8.385272228044181
 10
3.872822741582038
 20
8.378945691422561
 10
3.878234919618132
 20
8.375032360499725
 10
3.884598595945853
 20
8.373915147485918
 10
3.891290860056109
 20
8.375703444250349
 10
3.897656610539761
 20
8.380222194056415
 10
3.903072770955242
 20
8.387029208745083
  0
LWPOLYLINE
  5
DF
330
1F
100
AcDbEntity
  8
0
  6
Continuous
 62
     7
370
    15
100
AcDbPolyline
 90
       13
 70
   128
 43
0.0
 10
3.887910732585278
 20
8.435961611953487
 10
3.885553661785682
 20
8.436388998067522
 10
3.879008662746503
 20
8.435644879197623
 10
3.872536051749303
 20
8.432246805909567
 10
3.866710992233654
 20
8.426496617718585
 10
3.86205106907049
 20
8.418905457190323
 10
3.85897032526669
 20
8.410147543041285
 10
3.857742466438861
 20
8.401001364700304
 10
3.858476634672075
 20
8.392279322704304
 10
3.861107618503873
 20
8.384756601938812
 10
3.865401536111513
 20
8.379101477294687
 10
3.870976991702468
 20
8.37581654733192
 10
3.871736672053629
 20
8.375590624689865
  0
LWPOLYLINE
  5
E0
330
1F
100
AcDbEntity
  8
0
  6
Continuous
 62
     7
370
    15
100
AcDbPolyline
 90
       12
 70
   128
 43
0.0
 10
3.851725531943457
 20
5.646880354925205
 10
3.8561025298669
 20
5.647368985049012
 10
3.862688130508421
 20
5.645776002661679
 10
3.869018221066236
 20
5.641599039183603
 10
3.874530347491238
 20
5.635209215631546
 10
3.878734734158132
 20
5.627174319405674
 10
3.881257799656857
 20
5.618208259222392
 10
3.88187536402904
 20
5.60910768192361
 10
3.880532550294145
 20
5.60068130192893
 10
3.877348669086692
 20
5.593677827826383
 10
3.872606630090233
 20
5.588719503961057
 10
3.867899571733546
 20
5.586509373218475
  0
LWPOLYLINE
  5
E1
330
1F
100
AcDbEntity
  8
0
  6
Continuous
 62
     7
370
    15
100
AcDbPolyline
 90
       21
 70
   128
 43
0.0
 10
3.839346948607753
 20
5.61063530666274
 10
3.842845901879157
 20
5.601925078979881
 10
3.847936456111253
 20
5.594642231852787
 10
3.854120310897871
 20
5.589499383471309
 10
3.8607921497576
 20
5.587000093913124
 10
3.867298880619859
 20
5.587388968095304
 10
3.873003587237633
 20
5.590628079047355
 10
3.8773478497951
 20
5.596400167055536
 10
3.879906419657968
 20
5.604140226177372
 10
3.880428847683002
 20
5.613090707651227
 10
3.87886399555573
 20
5.622375552518167
 10
3.875365039691631
 20
5.631085667852888
 10
3.870274485459535
 20
5.638368628022732
 10
3.864090633265611
 20
5.643511475709598
 10
3.857418794405882
 20
5.646010652225033
 10
3.850912058358234
 20
5.645621779432077
 10
3.845207354333155
 20
5.642382780828162
 10
3.840863094368383
 20
5.636610692125371
 10
3.838304524505515
 20
5.628870519960786
 10
3.837782096480481
 20
5.619920038486932
 10
3.839346948607753
 20
5.61063530666274
  0
LWPOLYLINE
  5
E2
330
1F
100
AcDbEntity
  8
0
  6
Continuous
 62
     7
370
    15
100
AcDbPolyline
 90
       12
 70
   128
 43
0.0
 10
3.875324220302916
 20
5.588498518626434
 10
3.880031278659604
 20
5.590708649369014
 10
3.884773317656062
 20
5.59566697323434
 10
3.887957198863515
 20
5.60267044733689
 10
3.88930001259841
 20
5.611096827331569
 10
3.888682448226227
 20
5.620197404630351
 10
3.886159382727501
 20
5.629163464813633
 10
3.881954996060608
 20
5.637198361039505
 10
3.876442869635606
 20
5.643588184591562
 10
3.870112779077791
 20
5.647765148069638
 10
3.863527178436269
 20
5.64935813045697
 10
3.859150180512827
 20
5.648869500333164
  0
LWPOLYLINE
  5
E3
330
1F
100
AcDbEntity
  8
0
  6
Continuous
 62
     7
370
    15
100
AcDbPolyline
 90
       12
 70
   128
 43
0.0
 10
3.745659513454608
 20
5.988415759143119
 10
3.750036511378051
 20
5.988904502309675
 10
3.756622112019573
 20
5.987311519922343
 10
3.762952202577388
 20
5.983134443401517
 10
3.768464331595084
 20
5.97674461915485
 10
3.772668715669283
 20
5.968709723623588
 10
3.775191783760704
 20
5.959743662745695
 10
3.775809345540192
 20
5.950643199184273
 10
3.774466531805296
 20
5.942216819189595
 10
3.771282653190538
 20
5.935213231349685
 10
3.76654061419408
 20
5.930254907484359
 10
3.761833553244697
 20
5.928044777436389
  0
LWPOLYLINE
  5
E4
330
1F
100
AcDbEntity
  8
0
  6
Continuous
 62
     7
370
    15
100
AcDbPolyline
 90
       21
 70
   128
 43
0.0
 10
3.733280930118905
 20
5.952170710880654
 10
3.736779885983003
 20
5.943460595545934
 10
3.741870440215099
 20
5.93617763537609
 10
3.748054292409023
 20
5.931034787689223
 10
3.754726131268752
 20
5.928535498131038
 10
3.761232867316401
 20
5.928924483966745
 10
3.766937571341479
 20
5.932163482570659
 10
3.771281831306251
 20
5.937935571273451
 10
3.77384040116912
 20
5.945675743438036
 10
3.774362829194154
 20
5.95462622491189
 10
3.772797977066881
 20
5.963910956736081
 10
3.769299023795478
 20
5.972621071376191
 10
3.764208469563381
 20
5.979904031546034
 10
3.758024614776763
 20
5.985046879927512
 10
3.751352775917034
 20
5.987546169485697
 10
3.744846045054775
 20
5.987157295303518
 10
3.739141338437002
 20
5.983918184351464
 10
3.734797075879535
 20
5.978146096343285
 10
3.732238506016666
 20
5.97040603722145
 10
3.731716077991633
 20
5.961455442704846
 10
3.733280930118905
 20
5.952170710880654
  0
LWPOLYLINE
  5
E5
330
1F
100
AcDbEntity
  8
0
  6
Continuous
 62
     7
370
    15
100
AcDbPolyline
 90
       12
 70
   128
 43
0.0
 10
3.769258201814067
 20
5.930033922844349
 10
3.77396526276345
 20
5.932244052892318
 10
3.778707301759908
 20
5.937202376757643
 10
3.781891180374666
 20
5.944205964597553
 10
3.783233994109561
 20
5.952632344592233
 10
3.782616432330073
 20
5.961732808153654
 10
3.780093364238653
 20
5.970698869031547
 10
3.775888980164454
 20
5.978733764562808
 10
3.770376851146758
 20
5.985123588809477
 10
3.764046760588943
 20
5.989300665330302
 10
3.757461159947421
 20
5.990893647717634
 10
3.753084162023978
 20
5.990404904551079
  0
LWPOLYLINE
  5
E6
330
1F
100
AcDbEntity
  8
0
  6
Continuous
 62
     7
370
    15
100
AcDbPolyline
 90
       12
 70
   128
 43
0.0
 10
3.851725531943457
 20
6.03225778233151
 10
3.8561025298669
 20
6.032746525498067
 10
3.862688130508421
 20
6.031153543110733
 10
3.869018221066236
 20
6.026976466589908
 10
3.874530347491238
 20
6.020586643037852
 10
3.878734734158132
 20
6.01255174681198
 10
3.881257799656857
 20
6.003585686628697
 10
3.88187536402904
 20
5.994485222372666
 10
3.880532550294145
 20
5.986058842377985
 10
3.877348669086692
 20
5.979055255232688
 10
3.872606630090233
 20
5.974096931367362
 10
3.867899571733546
 20
5.971886800624781
  0
LWPOLYLINE
  5
E7
330
1F
100
AcDbEntity
  8
0
  6
Continuous
 62
     7
370
    15
100
AcDbPolyline
 90
       21
 70
   128
 43
0.0
 10
3.839346948607753
 20
5.996012734069045
 10
3.842845901879157
 20
5.987302619428936
 10
3.847936456111253
 20
5.980019659259093
 10
3.854120310897871
 20
5.974876810877614
 10
3.8607921497576
 20
5.972377521319429
 10
3.867298880619859
 20
5.972766508544359
 10
3.873003587237633
 20
5.976005506453661
 10
3.8773478497951
 20
5.981777594461841
 10
3.879906419657968
 20
5.989517653583677
 10
3.880428847683002
 20
5.99846824810028
 10
3.87886399555573
 20
6.007752979924472
 10
3.875365039691631
 20
6.016463095259193
 10
3.870274485459535
 20
6.023746055429036
 10
3.864090633265611
 20
6.028888903115903
 10
3.857418794405882
 20
6.031388192674088
 10
3.850912058358234
 20
6.030999206838383
 10
3.845207354333155
 20
6.027760208234468
 10
3.840863094368383
 20
6.021988119531676
 10
3.838304524505515
 20
6.01424806040984
 10
3.837782096480481
 20
6.005297465893237
 10
3.839346948607753
 20
5.996012734069045
  0
LWPOLYLINE
  5
E8
330
1F
100
AcDbEntity
  8
0
  6
Continuous
 62
     7
370
    15
100
AcDbPolyline
 90
       12
 70
   128
 43
0.0
 10
3.875324220302916
 20
5.973875946032739
 10
3.880031278659604
 20
5.976086076775321
 10
3.884773317656062
 20
5.981044400640647
 10
3.887957198863515
 20
5.988047987785944
 10
3.88930001259841
 20
5.996474367780623
 10
3.888682448226227
 20
6.005574832036656
 10
3.886159382727501
 20
6.014540892219938
 10
3.881954996060608
 20
6.02257578844581
 10
3.876442869635606
 20
6.028965611997867
 10
3.870112779077791
 20
6.033142688518692
 10
3.863527178436269
 20
6.034735670906025
 10
3.859150180512827
 20
6.034246927739469
  0
LWPOLYLINE
  5
E9
330
1F
100
AcDbEntity
  8
0
  6
Continuous
 62
     7
370
    15
100
AcDbPolyline
 90
       12
 70
   128
 43
0.0
 10
3.834047861331084
 20
5.458927571507612
 10
3.838424861847221
 20
5.459416313979557
 10
3.845010459896048
 20
5.457823332286836
 10
3.851340553046558
 20
5.453646368114148
 10
3.856852679471559
 20
5.447256544562092
 10
3.861057066138453
 20
5.43922164833622
 10
3.863580131637179
 20
5.430255588152938
 10
3.864197696009362
 20
5.421155010854155
 10
3.862854877089077
 20
5.4127286322487
 10
3.859671001067014
 20
5.405725156756927
 10
3.854928962070556
 20
5.400766832891601
 10
3.850221903713867
 20
5.398556702149021
  0
LWPOLYLINE
  5
EA
330
1F
100
AcDbEntity
  8
0
  6
Continuous
 62
     7
370
    15
100
AcDbPolyline
 90
       21
 70
   128
 43
0.0
 10
3.82166927799538
 20
5.422682636287897
 10
3.825168232563131
 20
5.413972408257732
 10
3.83025878549888
 20
5.406689561477944
 10
3.836442640285498
 20
5.401546713096466
 10
3.843114479145227
 20
5.399047423538282
 10
3.849621212600181
 20
5.399436297025848
 10
3.855325919217954
 20
5.402675294935153
 10
3.859670181775421
 20
5.408447382943332
 10
3.86222875163829
 20
5.416187555107917
 10
3.862751179663323
 20
5.42513803658177
 10
3.861186327536051
 20
5.434422881448711
 10
3.857687371671953
 20
5.443132996783432
 10
3.852596817439857
 20
5.450415956953276
 10
3.846412962653238
 20
5.455558692292005
 10
3.839741123793509
 20
5.458057981850189
 10
3.833234390338555
 20
5.457669108362622
 10
3.827529686313478
 20
5.454430109758708
 10
3.82318542375601
 20
5.448658021750527
 10
3.820626853893142
 20
5.440917849585942
 10
3.820104425868109
 20
5.431967368112088
 10
3.82166927799538
 20
5.422682636287897
  0
LWPOLYLINE
  5
EB
330
1F
100
AcDbEntity
  8
0
  6
Continuous
 62
     7
370
    15
100
AcDbPolyline
 90
       12
 70
   128
 43
0.0
 10
3.857646552283238
 20
5.400545847556979
 10
3.862353610639926
 20
5.402755978299561
 10
3.867095649636384
 20
5.407714302164887
 10
3.870279525658446
 20
5.414717777656657
 10
3.871622344578732
 20
5.423144156262114
 10
3.871004780206549
 20
5.432244733560896
 10
3.868481714707823
 20
5.441210793744177
 10
3.864277328040929
 20
5.44924568997005
 10
3.858765201615928
 20
5.455635513522107
 10
3.852435108465418
 20
5.459812477694795
 10
3.845849510416591
 20
5.461405459387516
 10
3.841472509900453
 20
5.460916716915572
  0
LWPOLYLINE
  5
EC
330
1F
100
AcDbEntity
  8
0
  6
Continuous
 62
     7
370
    15
100
AcDbPolyline
 90
       12
 70
   128
 43
0.0
 10
3.851725531943457
 20
4.876125387069846
 10
3.8561025298669
 20
4.876614017193652
 10
3.862688130508421
 20
4.875021034806319
 10
3.869018221066236
 20
4.870844071328243
 10
3.874530347491238
 20
4.864454247776187
 10
3.878734734158132
 20
4.856419351550314
 10
3.881257799656857
 20
4.847453291367032
 10
3.88187536402904
 20
4.838352714068251
 10
3.880532550294145
 20
4.829926334073571
 10
3.877348669086692
 20
4.822922859971023
 10
3.872606630090233
 20
4.817964649148446
 10
3.867899571733546
 20
4.815754405363115
  0
LWPOLYLINE
  5
ED
330
1F
100
AcDbEntity
  8
0
  6
Continuous
 62
     7
370
    15
100
AcDbPolyline
 90
       21
 70
   128
 43
0.0
 10
3.839346948607753
 20
4.839880451850129
 10
3.842845901879157
 20
4.831170224167271
 10
3.847936456111253
 20
4.823887263997428
 10
3.854120310897871
 20
4.818744528658698
 10
3.8607921497576
 20
4.816245126057764
 10
3.867298880619859
 20
4.816634113282693
 10
3.873003587237633
 20
4.819873224234745
 10
3.8773478497951
 20
4.825645199200176
 10
3.879906419657968
 20
4.833385258322012
 10
3.880428847683002
 20
4.842335739795866
 10
3.87886399555573
 20
4.851620697705556
 10
3.875365039691631
 20
4.860330699997528
 10
3.870274485459535
 20
4.867613660167371
 10
3.864090633265611
 20
4.872756620896987
 10
3.857418794405882
 20
4.875255797412422
 10
3.850912058358234
 20
4.874866811576717
 10
3.845207354333155
 20
4.871627926015551
 10
3.840863094368383
 20
4.865855724270011
 10
3.838304524505515
 20
4.858115665148175
 10
3.837782096480481
 20
4.849165183674321
 10
3.839346948607753
 20
4.839880451850129
  0
LWPOLYLINE
  5
EE
330
1F
100
AcDbEntity
  8
0
  6
Continuous
 62
     7
370
    15
100
AcDbPolyline
 90
       12
 70
   128
 43
0.0
 10
3.875324220302916
 20
4.817743550771074
 10
3.880031278659604
 20
4.819953794556404
 10
3.884773317656062
 20
4.824912005378981
 10
3.887957198863515
 20
4.83191547948153
 10
3.88930001259841
 20
4.840341859476209
 10
3.888682448226227
 20
4.849442436774991
 10
3.886159382727501
 20
4.858408496958273
 10
3.881954996060608
 20
4.866443393184145
 10
3.876442869635606
 20
4.872833216736202
 10
3.870112779077791
 20
4.877010180214278
 10
3.863527178436269
 20
4.87860316260161
 10
3.859150180512827
 20
4.878114532477805
  0
LWPOLYLINE
  5
EF
330
1F
100
AcDbEntity
  8
0
  6
Continuous
 62
     7
370
    15
100
AcDbPolyline
 90
       12
 70
   128
 43
0.0
 10
3.763337181474287
 20
5.790991002806268
 10
3.767714184583119
 20
5.791479744583601
 10
3.774299782631946
 20
5.789886649848131
 10
3.780629873189761
 20
5.785709686370054
 10
3.78614200091111
 20
5.779319862470693
 10
3.790346386281656
 20
5.771284966592126
 10
3.792869453076729
 20
5.762318906061539
 10
3.793487016152564
 20
5.753218442152812
 10
3.792144201121321
 20
5.744791949462689
 10
3.788960322506564
 20
5.737788474665528
 10
3.784218284806454
 20
5.732830150452897
 10
3.77951122385707
 20
5.730620020404928
  0
LWPOLYLINE
  5
F0
330
1F
100
AcDbEntity
  8
0
  6
Continuous
 62
     7
370
    15
100
AcDbPolyline
 90
       21
 70
   128
 43
0.0
 10
3.750958598138582
 20
5.754745954543803
 10
3.754457554002681
 20
5.746035839209083
 10
3.759548108234777
 20
5.738752879039239
 10
3.765731963021396
 20
5.733610030657761
 10
3.772403801881125
 20
5.731110741099576
 10
3.778910535336078
 20
5.731499727629894
 10
3.784615240657504
 20
5.734738725886503
 10
3.788959500622277
 20
5.740510814589295
 10
3.791518071781493
 20
5.748250873363823
 10
3.792040499806526
 20
5.757201467880427
 10
3.790475647679254
 20
5.766486199704619
 10
3.786976693111503
 20
5.775196314692033
 10
3.781886140175755
 20
5.782479274514572
 10
3.775702285389136
 20
5.78762212289605
 10
3.769030446529407
 20
5.790121412454234
 10
3.762523713074453
 20
5.789732425923918
 10
3.75681900645668
 20
5.786493428014614
 10
3.752474743899213
 20
5.780721340006435
 10
3.749916174036345
 20
5.772981280884599
 10
3.749393746011311
 20
5.764030686367996
 10
3.750958598138582
 20
5.754745954543803
  0
LWPOLYLINE
  5
F1
330
1F
100
AcDbEntity
  8
0
  6
Continuous
 62
     7
370
    15
100
AcDbPolyline
 90
       12
 70
   128
 43
0.0
 10
3.786935872426441
 20
5.732609165812887
 10
3.791642933375823
 20
5.734819295860856
 10
3.796384971075934
 20
5.739777620073487
 10
3.799568849690691
 20
5.746781094870648
 10
3.800911664721935
 20
5.755207587560771
 10
3.800294101646099
 20
5.764308051469496
 10
3.797771034851026
 20
5.773274112000085
 10
3.79356664948048
 20
5.781309007878651
 10
3.78805452175913
 20
5.787698831778014
 10
3.781724431201316
 20
5.791875795256091
 10
3.775138833152489
 20
5.79346888999156
 10
3.770761830043656
 20
5.792980148214228
  0
LWPOLYLINE
  5
F2
330
1F
100
AcDbEntity
  8
0
  6
Continuous
 62
     7
370
    15
100
AcDbPolyline
 90
       12
 70
   128
 43
0.0
 10
3.745659513454608
 20
4.832283363881455
 10
3.750036511378051
 20
4.832771994005262
 10
3.756622112019573
 20
4.831179011617929
 10
3.762952202577388
 20
4.827002048139853
 10
3.768464331595084
 20
4.820612223893185
 10
3.772668715669283
 20
4.812577328361924
 10
3.775191783760704
 20
4.80361126748403
 10
3.775809345540192
 20
4.79451069087986
 10
3.774466531805296
 20
4.78608431088518
 10
3.771282653190538
 20
4.77908083608802
 10
3.76654061419408
 20
4.774122625265444
 10
3.761833553244697
 20
4.771912382174725
  0
LWPOLYLINE
  5
F3
330
1F
100
AcDbEntity
  8
0
  6
Continuous
 62
     7
370
    15
100
AcDbPolyline
 90
       21
 70
   128
 43
0.0
 10
3.733280930118905
 20
4.796038428661739
 10
3.736779885983003
 20
4.787328200284268
 10
3.741870440215099
 20
4.780045240114425
 10
3.748054292409023
 20
4.774902505470307
 10
3.754726131268752
 20
4.772403102869374
 10
3.761232867316401
 20
4.772792088705078
 10
3.766937571341479
 20
4.776031200351742
 10
3.771281831306251
 20
4.781803176011784
 10
3.77384040116912
 20
4.789543235133621
 10
3.774362829194154
 20
4.798493716607475
 10
3.772797977066881
 20
4.807778674517165
 10
3.769299023795478
 20
4.816488676114525
 10
3.764208469563381
 20
4.823771636284369
 10
3.758024614776763
 20
4.828914597708595
 10
3.751352775917034
 20
4.831413774224031
 10
3.744846045054775
 20
4.831024786999103
 10
3.739141338437002
 20
4.827785902132548
 10
3.734797075879535
 20
4.82201370108162
 10
3.732238506016666
 20
4.814273641959784
 10
3.731716077991633
 20
4.80532316048593
 10
3.733280930118905
 20
4.796038428661739
  0
LWPOLYLINE
  5
F4
330
1F
100
AcDbEntity
  8
0
  6
Continuous
 62
     7
370
    15
100
AcDbPolyline
 90
       12
 70
   128
 43
0.0
 10
3.769258201814067
 20
4.773901527582682
 10
3.77396526276345
 20
4.776111770673402
 10
3.778707301759908
 20
4.781069981495979
 10
3.781891180374666
 20
4.788073456293139
 10
3.783233994109561
 20
4.796499836287818
 10
3.782616432330073
 20
4.805600412891988
 10
3.780093364238653
 20
4.814566473769883
 10
3.775888980164454
 20
4.822601369301143
 10
3.770376851146758
 20
4.828991193547811
 10
3.764046760588943
 20
4.833168157025887
 10
3.757461159947421
 20
4.834761139413219
 10
3.753084162023978
 20
4.834272509289412
  0
LWPOLYLINE
  5
F5
330
1F
100
AcDbEntity
  8
0
  6
Continuous
 62
     7
370
    15
100
AcDbPolyline
 90
       12
 70
   128
 43
0.0
 10
3.816370191366885
 20
6.354849070973132
 10
3.820747192531196
 20
6.355337756750047
 10
3.827332790580022
 20
6.353744775057327
 10
3.833662882434185
 20
6.349567811231945
 10
3.839175008859186
 20
6.343177931158513
 10
3.84337939552608
 20
6.335143034932641
 10
3.845902461024806
 20
6.326176974749359
 10
3.846520025396989
 20
6.317076453971952
 10
3.845177209069399
 20
6.308650074671884
 10
3.841993330454641
 20
6.30164654335335
 10
3.837251291458183
 20
6.296688219488024
 10
3.832544233101495
 20
6.294478088745442
  0
LWPOLYLINE
  5
F6
330
1F
100
AcDbEntity
  8
0
  6
Continuous
 62
     7
370
    15
100
AcDbPolyline
 90
       21
 70
   128
 43
0.0
 10
3.803991608274246
 20
6.318604022645546
 10
3.807490562436888
 20
6.30989385124529
 10
3.812581116831028
 20
6.302610947553407
 10
3.818764972265821
 20
6.297468098998277
 10
3.825436809829202
 20
6.294968809787398
 10
3.831943541987808
 20
6.295357740143646
 10
3.837648248605581
 20
6.298596794574323
 10
3.841992508570353
 20
6.30436882675574
 10
3.844551081025917
 20
6.312108998225713
 10
3.84507350905095
 20
6.321059479699568
 10
3.843508656923679
 20
6.330344268045134
 10
3.84000970105958
 20
6.33905443990123
 10
3.834919146827484
 20
6.346337343549699
 10
3.828735292040865
 20
6.351480191931176
 10
3.822063455773831
 20
6.353979424273375
 10
3.815556721670704
 20
6.353590550959461
 10
3.809852016025191
 20
6.350351496268302
 10
3.805507754824838
 20
6.344579407896537
 10
3.802949184577116
 20
6.336839292356434
 10
3.802426756227996
 20
6.327888810969406
 10
3.803991608274246
 20
6.318604022645546
  0
LWPOLYLINE
  5
F7
330
1F
100
AcDbEntity
  8
0
  6
Continuous
 62
     7
370
    15
100
AcDbPolyline
 90
       12
 70
   128
 43
0.0
 10
3.839968881670865
 20
6.296467234153402
 10
3.844675940027552
 20
6.298677364895982
 10
3.849417979024011
 20
6.303635688761308
 10
3.852601857638768
 20
6.310639220079843
 10
3.853944673966359
 20
6.319065599379912
 10
3.853327109594176
 20
6.328166120157318
 10
3.85080404409545
 20
6.3371321803406
 10
3.846599657428556
 20
6.345167076566473
 10
3.841087531003555
 20
6.351556956639904
 10
3.834757439149393
 20
6.355733920465286
 10
3.828171841100566
 20
6.357326902158007
 10
3.823794839936254
 20
6.35683821638109
  0
LWPOLYLINE
  5
F8
330
1F
100
AcDbEntity
  8
0
  6
Continuous
 62
     7
370
    15
100
AcDbPolyline
 90
       12
 70
   128
 43
0.0
 10
3.78101485208666
 20
6.183675452686227
 10
3.785391852602797
 20
6.184164138636797
 10
3.791977451947972
 20
6.18257115659677
 10
3.79830754315396
 20
6.178394192945041
 10
3.803819669903048
 20
6.172004369306159
 10
3.808024056083812
 20
6.163969473210525
 10
3.810547123040929
 20
6.155003412636524
 10
3.811164685792677
 20
6.145902835771875
 10
3.809821870437347
 20
6.137476456211327
 10
3.806637992632806
 20
6.130472981197101
 10
3.801895953474305
 20
6.125514657375188
 10
3.79718889382127
 20
6.123304526979914
  0
LWPOLYLINE
  5
F9
330
1F
100
AcDbEntity
  8
0
  6
Continuous
 62
     7
370
    15
100
AcDbPolyline
 90
       21
 70
   128
 43
0.0
 10
3.768636268750956
 20
6.147430460945136
 10
3.772135224615055
 20
6.138720232567667
 10
3.777225776254455
 20
6.131437273092434
 10
3.783409633633769
 20
6.126294537059093
 10
3.790081469900803
 20
6.123795248195521
 10
3.79658820400393
 20
6.124184121509435
 10
3.802292909649443
 20
6.127423119679218
 10
3.806637170748519
 20
6.133195208078118
 10
3.809195741097518
 20
6.140935380112463
 10
3.809718169446639
 20
6.14988586149949
 10
3.808153317319367
 20
6.159170706366431
 10
3.804654363156724
 20
6.167880821245312
 10
3.799563808843606
 20
6.175163781436864
 10
3.793379953408814
 20
6.18030657347062
 10
3.786708115845433
 20
6.182805862681498
 10
3.780201383686826
 20
6.182416932325251
 10
3.774496677069053
 20
6.179177934415948
 10
3.770152414511586
 20
6.173405846407767
 10
3.767593844648717
 20
6.165665674243181
 10
3.767071416623684
 20
6.156715192769328
 10
3.768636268750956
 20
6.147430460945136
  0
LWPOLYLINE
  5
FA
330
1F
100
AcDbEntity
  8
0
  6
Continuous
 62
     7
370
    15
100
AcDbPolyline
 90
       12
 70
   128
 43
0.0
 10
3.80461354239064
 20
6.125293672387871
 10
3.809320602043675
 20
6.127503802783148
 10
3.814062641202177
 20
6.13246212660506
 10
3.817246519006717
 20
6.139465601619286
 10
3.818589334362047
 20
6.147891981179833
 10
3.817971771610298
 20
6.156992558044482
 10
3.815448704653182
 20
6.165958618618484
 10
3.811244318472418
 20
6.173993514714116
 10
3.80573219172333
 20
6.180383338352999
 10
3.799402100517342
 20
6.184560302004729
 10
3.792816501172167
 20
6.186153284044756
 10
3.788439500656029
 20
6.185664598094186
  0
LWPOLYLINE
  5
FB
330
1F
100
AcDbEntity
  8
0
  6
Continuous
 62
     7
370
    15
100
AcDbPolyline
 90
       12
 70
   128
 43
0.0
 10
3.745659513454608
 20
5.603038331736814
 10
3.750036511378051
 20
5.603526961860621
 10
3.756622112019573
 20
5.601933979473288
 10
3.762952202577388
 20
5.597757015995212
 10
3.768464331595084
 20
5.591367191748544
 10
3.772668715669283
 20
5.583332296217283
 10
3.775191783760704
 20
5.57436623533939
 10
3.775809345540192
 20
5.56526565873522
 10
3.774466531805296
 20
5.55683927874054
 10
3.771282653190538
 20
5.549835803943379
 10
3.76654061419408
 20
5.544877480078055
 10
3.761833553244697
 20
5.542667350030084
  0
LWPOLYLINE
  5
FC
330
1F
100
AcDbEntity
  8
0
  6
Continuous
 62
     7
370
    15
100
AcDbPolyline
 90
       21
 70
   128
 43
0.0
 10
3.733280930118905
 20
5.56679328347435
 10
3.736779885983003
 20
5.558083168139629
 10
3.741870440215099
 20
5.550800207969785
 10
3.748054292409023
 20
5.545657360282919
 10
3.754726131268752
 20
5.543158070724733
 10
3.761232867316401
 20
5.543546943517689
 10
3.766937571341479
 20
5.546786055164353
 10
3.771281831306251
 20
5.552558143867146
 10
3.77384040116912
 20
5.560298202988981
 10
3.774362829194154
 20
5.569248797505585
 10
3.772797977066881
 20
5.578533529329775
 10
3.769299023795478
 20
5.587243643969884
 10
3.764208469563381
 20
5.594526604139729
 10
3.758024614776763
 20
5.599669452521207
 10
3.751352775917034
 20
5.602168742079391
 10
3.744846045054775
 20
5.601779754854463
 10
3.739141338437002
 20
5.598540756945159
 10
3.734797075879535
 20
5.59276866893698
 10
3.732238506016666
 20
5.585028496772395
 10
3.731716077991633
 20
5.57607801529854
 10
3.733280930118905
 20
5.56679328347435
  0
LWPOLYLINE
  5
FD
330
1F
100
AcDbEntity
  8
0
  6
Continuous
 62
     7
370
    15
100
AcDbPolyline
 90
       12
 70
   128
 43
0.0
 10
3.769258201814067
 20
5.544656495438044
 10
3.77396526276345
 20
5.546866625486012
 10
3.778707301759908
 20
5.551824949351338
 10
3.781891180374666
 20
5.558828424148499
 10
3.783233994109561
 20
5.567254804143178
 10
3.782616432330073
 20
5.576355380747348
 10
3.780093364238653
 20
5.585321441625242
 10
3.775888980164454
 20
5.593356337156503
 10
3.770376851146758
 20
5.59974616140317
 10
3.764046760588943
 20
5.603923124881247
 10
3.757461159947421
 20
5.60551610726858
 10
3.753084162023978
 20
5.605027477144773
  0
LINE
  5
FE
330
1F
100
AcDbEntity
  8
0
  6
Continuous
 62
     7
370
    15
100
AcDbLine
 10
3.737695226551369
 20
8.523613185237021
 30
0.0
 11
3.914471927489711
 21
8.710034737595016
 31
0.0
  0
SPLINE
  5
FF
330
1F
100
AcDbEntity
  8
0
  6
Continuous
 62
     7
370
    15
100
AcDbSpline
210
0.0
220
0.0
230
1.0
 70
     8
 71
     3
 72
    11
 73
     7
 74
     0
 42
0.0000000001
 43
0.0000000001
 40
0.0
 40
0.0
 40
0.0
 40
0.0
 40
0.2500012080569792
 40
0.500001334411036
 40
0.7499997890438517
 40
1.0
 40
1.0
 40
1.0
 40
1.0
 10
3.737695226551369
 20
8.523613185237021
 30
0.0
 10
3.73688956299756
 20
8.527526627209578
 30
0.0
 10
3.735278239375878
 20
8.535353494222048
 30
0.0
 10
3.729597772120944
 20
8.546765614509952
 30
0.0
 10
3.722871157550662
 20
8.556549592409298
 30
0.0
 10
3.718815395007868
 20
8.560572365712749
 30
0.0
 10
3.716787506613223
 20
8.562583759429786
 30
0.0
  0
LINE
  5
100
330
1F
100
AcDbEntity
  8
0
  6
Continuous
 62
     7
370
    15
100
AcDbLine
 10
3.716787506613223
 20
8.562583759429786
 30
0.0
 11
3.893564207551564
 21
8.749005311787781
 31
0.0
  0
SPLINE
  5
101
330
1F
100
AcDbEntity
  8
0
  6
Continuous
 62
     7
370
    15
100
AcDbSpline
210
0.0
220
0.0
230
1.0
 70
     8
 71
     3
 72
    11
 73
     7
 74
     0
 42
0.0000000001
 43
0.0000000001
 40
0.0
 40
0.0
 40
0.0
 40
0.0
 40
0.2500003430117155
 40
0.500000408631668
 40
0.749998659886927
 40
1.0
 40
1.0
 40
1.0
 40
1.0
 10
3.893564207551564
 20
8.749005311787781
 30
0.0
 10
3.895592101472114
 20
8.746993924500237
 30
0.0
 10
3.899647887063133
 20
8.742971152156917
 30
0.0
 10
3.906374415909443
 20
8.733187073614924
 30
0.0
 10
3.912054966962654
 20
8.721775028939198
 30
0.0
 10
3.913666270662631
 20
8.713948184160431
 30
0.0
 10
3.914471927489711
 20
8.710034737595016
 30
0.0
  0
LINE
  5
102
330
1F
100
AcDbEntity
  8
0
  6
Continuous
 62
     7
370
    15
100
AcDbLine
 10
3.716787506613223
 20
8.562583759429786
 30
0.0
 11
3.620620967696303
 21
8.715525198104229
 31
0.0
  0
LINE
  5
103
330
1F
100
AcDbEntity
  8
0
  6
Continuous
 62
     7
370
    15
100
AcDbLine
 10
3.797397668634644
 20
8.901946750462224
 30
0.0
 11
3.893564207551564
 21
8.749005311787781
 31
0.0
  0
LINE
  5
104
330
1F
100
AcDbEntity
  8
0
  6
Continuous
 62
     7
370
    15
100
AcDbLine
 10
3.914471927489711
 20
8.710034737595016
 30
0.0
 11
3.914471927489711
 21
7.989113817881371
 31
0.0
  0
ARC
  5
105
330
1F
100
AcDbEntity
  8
0
  6
Continuous
 62
     7
370
    15
100
AcDbCircle
 10
3.92038681485777
 20
7.975569863879915
 30
0.0
 40
0.0147791942463174
100
AcDbArc
 50
113.5917558282284
 51
183.3634183231788
  0
LINE
  5
106
330
1F
100
AcDbEntity
  8
0
  6
Continuous
 62
     7
370
    15
100
AcDbLine
 10
3.905633077923702
 20
7.960251115458183
 30
0.0
 11
3.905633077923702
 21
7.974702783116264
 31
0.0
  0
LWPOLYLINE
  5
107
330
1F
100
AcDbEntity
  8
0
  6
Continuous
 62
     7
370
    15
100
AcDbPolyline
 90
        9
 70
   128
 43
0.0
 10
3.914471927489711
 20
7.950576075140739
 10
3.912747557215202
 20
7.950345495794197
 10
3.911089435481118
 20
7.950586588323012
 10
3.909561321840768
 20
7.951290095655626
 10
3.908221914906989
 20
7.952428957118595
 10
3.907122695229979
 20
7.953959426160956
 10
3.906305892624488
 20
7.955822673590953
 10
3.905802909811304
 20
7.957947134799519
 10
3.905633077923702
 20
7.960251115458183
  0
LINE
  5
108
330
1F
100
AcDbEntity
  8
0
  6
Continuous
 62
     7
370
    15
100
AcDbLine
 10
3.914471927489711
 20
7.950576075140739
 30
0.0
 11
3.914471927489711
 21
7.560381415761512
 31
0.0
  0
LINE
  5
109
330
1F
100
AcDbEntity
  8
0
  6
Continuous
 62
     7
370
    15
100
AcDbLine
 10
3.914471927489711
 20
7.560381415761512
 30
0.0
 11
3.921449636939143
 21
7.525806319345776
 31
0.0
  0
LINE
  5
10A
330
1F
100
AcDbEntity
  8
0
  6
Continuous
 62
     7
370
    15
100
AcDbLine
 10
3.921449636939143
 20
7.525806319345776
 30
0.0
 11
3.921449636939143
 21
6.602506152779556
 31
0.0
  0
LINE
  5
10B
330
1F
100
AcDbEntity
  8
0
  6
Continuous
 62
     7
370
    15
100
AcDbLine
 10
3.921449636939143
 20
6.602506152779556
 30
0.0
 11
3.737695226551369
 21
7.513020983867638
 31
0.0
  0
LINE
  5
10C
330
1F
100
AcDbEntity
  8
0
  6
Continuous
 62
     7
370
    15
100
AcDbLine
 10
3.737695226551369
 20
7.513020983867638
 30
0.0
 11
3.737695226551369
 21
7.903215643246867
 31
0.0
  0
ARC
  5
10D
330
1F
100
AcDbEntity
  8
0
  6
Continuous
 62
     7
370
    15
100
AcDbCircle
 10
3.731780334535595
 20
7.916759603499802
 30
0.0
 40
0.0147792018353958
100
AcDbArc
 50
293.5917626409443
 51
3.363611815918522
  0
LINE
  5
10E
330
1F
100
AcDbEntity
  8
0
  6
Continuous
 62
     7
370
    15
100
AcDbLine
 10
3.746534076117378
 20
7.932078402191428
 30
0.0
 11
3.746534076117378
 21
7.917626734533348
 31
0.0
  0
LWPOLYLINE
  5
10F
330
1F
100
AcDbEntity
  8
0
  6
Continuous
 62
     7
370
    15
100
AcDbPolyline
 90
        9
 70
   128
 43
0.0
 10
3.737695226551369
 20
7.941753385987497
 10
3.739419596825879
 20
7.941983965334039
 10
3.741077718559962
 20
7.941742872805225
 10
3.742605832200312
 20
7.941039365472611
 10
3.743945239134091
 20
7.939900504009642
 10
3.745044458811101
 20
7.93837003496728
 10
3.745861261416592
 20
7.936506787537284
 10
3.746364244229776
 20
7.934382382850093
 10
3.746534076117378
 20
7.932078402191428
  0
LINE
  5
110
330
1F
100
AcDbEntity
  8
0
  6
Continuous
 62
     7
370
    15
100
AcDbLine
 10
3.737695226551369
 20
7.941753385987497
 30
0.0
 11
3.737695226551369
 21
8.523613185237021
 31
0.0
  0
LINE
  5
111
330
1F
100
AcDbEntity
  8
0
  6
Continuous
 62
     7
370
    15
100
AcDbLine
 10
3.721239599352135
 20
8.553269765958821
 30
0.0
 11
3.716787506613223
 21
8.562583759429786
 31
0.0
  0
LINE
  5
112
330
1F
100
AcDbEntity
  8
0
  6
Continuous
 62
     7
370
    15
100
AcDbLine
 10
3.726522941192595
 20
8.526606363959242
 30
0.0
 11
3.737695226551369
 21
8.523613185237021
 31
0.0
  0
LINE
  5
113
330
1F
100
AcDbEntity
  8
0
  6
Continuous
 62
     7
370
    15
100
AcDbLine
 10
3.620620967696303
 20
8.715525198104229
 30
0.0
 11
3.62620712593186
 21
8.703838859270003
 31
0.0
  0
LINE
  5
114
330
1F
100
AcDbEntity
  8
0
  6
Continuous
 62
     7
370
    15
100
AcDbLine
 10
3.722373623365661
 20
8.550897296439025
 30
0.0
 11
3.62620712593186
 21
8.703838859270003
 31
0.0
  0
LINE
  5
115
330
1F
100
AcDbEntity
  8
0
  6
Continuous
 62
     7
370
    15
100
AcDbLine
 10
3.737695226551369
 20
7.941753385987497
 30
0.0
 11
3.726522941192595
 21
7.944746564709718
 31
0.0
  0
LINE
  5
116
330
1F
100
AcDbEntity
  8
0
  6
Continuous
 62
     7
370
    15
100
AcDbLine
 10
3.726522941192595
 20
7.944746564709718
 30
0.0
 11
3.726522941192595
 21
8.526606363959242
 31
0.0
  0
LINE
  5
117
330
1F
100
AcDbEntity
  8
0
  6
Continuous
 62
     7
370
    15
100
AcDbLine
 10
3.746534076117378
 20
7.932078402191428
 30
0.0
 11
3.735361790758604
 21
7.93507158091365
 31
0.0
  0
ARC
  5
118
330
1F
100
AcDbEntity
  8
0
  6
Continuous
 62
     7
370
    15
100
AcDbCircle
 10
3.724444279898714
 20
7.935778843648603
 30
0.0
 40
0.0109403959687056
100
AcDbArc
 50
356.2934203716131
 51
42.2409737169309
  0
LINE
  5
119
330
1F
100
AcDbEntity
  8
0
  6
Continuous
 62
     7
370
    15
100
AcDbLine
 10
3.737695226551369
 20
7.903215643246867
 30
0.0
 11
3.726522941192595
 21
7.906208821969087
 31
0.0
  0
LINE
  5
11A
330
1F
100
AcDbEntity
  8
0
  6
Continuous
 62
     7
370
    15
100
AcDbLine
 10
3.735361790758604
 20
7.920619913255569
 30
0.0
 11
3.746534076117378
 21
7.917626734533348
 31
0.0
  0
ARC
  5
11B
330
1F
100
AcDbEntity
  8
0
  6
Continuous
 62
     7
370
    15
100
AcDbCircle
 10
3.720608049176816
 20
7.919752782222025
 30
0.0
 40
0.014779201835401
100
AcDbArc
 50
293.5917626409607
 51
3.363611815910435
  0
LINE
  5
11C
330
1F
100
AcDbEntity
  8
0
  6
Continuous
 62
     7
370
    15
100
AcDbLine
 10
3.726522941192595
 20
7.516014162589859
 30
0.0
 11
3.737695226551369
 21
7.513020983867638
 31
0.0
  0
LINE
  5
11D
330
1F
100
AcDbEntity
  8
0
  6
Continuous
 62
     7
370
    15
100
AcDbLine
 10
3.726522941192595
 20
7.516014162589859
 30
0.0
 11
3.726522941192595
 21
7.906208821969087
 31
0.0
  0
LINE
  5
11E
330
1F
100
AcDbEntity
  8
0
  6
Continuous
 62
     7
370
    15
100
AcDbLine
 10
3.735361790758604
 20
7.93507158091365
 30
0.0
 11
3.735361790758604
 21
7.920619913255569
 31
0.0
  0
SPLINE
  5
11F
330
1F
100
AcDbEntity
  8
0
  6
Continuous
 62
     7
370
    15
100
AcDbSpline
210
0.0
220
0.0
230
1.0
 70
     8
 71
     3
 72
    11
 73
     7
 74
     0
 42
0.0000000001
 43
0.0000000001
 40
0.0
 40
0.0
 40
0.0
 40
0.0
 40
0.2500002870669443
 40
0.5000002176805502
 40
0.7500001649279234
 40
1.0
 40
1.0
 40
1.0
 40
1.0
 10
3.620620967696303
 20
8.715525198104229
 30
0.0
 10
3.618909814299589
 20
8.716873949952232
 30
0.0
 10
3.615487509945944
 20
8.719571451725173
 30
0.0
 10
3.613633768605785
 20
8.719161355300443
 30
0.0
 10
3.614918518481456
 20
8.7160021320751
 30
0.0
 10
3.618829514912202
 20
8.712275933315957
 30
0.0
 10
3.620785012688858
 20
8.710412834354375
 30
0.0
  0
SPLINE
  5
120
330
1F
100
AcDbEntity
  8
0
  6
Continuous
 62
     7
370
    15
100
AcDbSpline
210
0.0
220
0.0
230
1.0
 70
     8
 71
     3
 72
     9
 73
     5
 74
     0
 42
0.0000000001
 43
0.0000000001
 40
0.0
 40
0.0
 40
0.0
 40
0.0
 40
0.4385856744862534
 40
1.0
 40
1.0
 40
1.0
 40
1.0
 10
3.791344254921809
 20
8.905152197796107
 30
0.0
 10
3.791678384230639
 20
8.905380709536174
 30
0.0
 10
3.792440217843241
 20
8.905901729153001
 30
0.0
 10
3.795615192422632
 20
8.903368782819569
 30
0.0
 10
3.797397668634644
 20
8.901946750462224
 30
0.0
  0
SPLINE
  5
121
330
1F
100
AcDbEntity
  8
0
  6
Continuous
 62
     7
370
    15
100
AcDbSpline
210
0.0
220
0.0
230
1.0
 70
     8
 71
     3
 72
     9
 73
     5
 74
     0
 42
0.0000000001
 43
0.0000000001
 40
0.0
 40
0.0
 40
0.0
 40
0.0
 40
0.4503680570702951
 40
1.0
 40
1.0
 40
1.0
 40
1.0
 10
3.744958879137403
 20
8.831963137737519
 30
0.0
 10
3.744584849265253
 20
8.831644020771832
 30
0.0
 10
3.743754351039906
 20
8.830935451501261
 30
0.0
 10
3.74325038102208
 20
8.830226072587768
 30
0.0
 10
3.742973383002004
 20
8.82983617527727
 30
0.0
  0
LINE
  5
122
330
1F
100
AcDbEntity
  8
0
  6
Continuous
 62
     7
370
    15
100
AcDbLine
 10
3.921449636939143
 20
6.602506152779556
 30
0.0
 11
3.910277351580369
 21
6.605499331501778
 31
0.0
  0
LINE
  5
123
330
1F
100
AcDbEntity
  8
0
  6
Continuous
 62
     7
370
    15
100
AcDbLine
 10
3.910277351580369
 20
6.605499331501778
 30
0.0
 11
3.726522941192595
 21
7.516014162589859
 31
0.0
  0
LINE
  5
124
330
1F
100
AcDbEntity
  8
0
  6
Continuous
 62
     7
370
    15
100
AcDbLine
 10
3.914471927489711
 20
7.950576075140739
 30
0.0
 11
3.908451150620445
 21
7.952189107804838
 31
0.0
  0
SPLINE
  5
125
330
1F
100
AcDbEntity
  8
0
  6
Continuous
 62
     7
370
    15
100
AcDbSpline
210
0.0
220
0.0
230
1.0
 70
     8
 71
     3
 72
    11
 73
     7
 74
     0
 42
0.0000000001
 43
0.0000000001
 40
0.0
 40
0.0
 40
0.0
 40
0.0
 40
0.2323847835289917
 40
0.4974841814365413
 40
0.7621481550323919
 40
1.0
 40
1.0
 40
1.0
 40
1.0
 10
3.921449657680703
 20
6.502025868643703
 30
0.0
 10
3.923750939054234
 20
6.509895651933796
 30
0.0
 10
3.928677471088649
 20
6.5267431091498
 30
0.0
 10
3.930787882412611
 20
6.552458016841302
 30
0.0
 10
3.929320044557074
 20
6.578170069547274
 30
0.0
 10
3.923978098222344
 20
6.594687898983224
 30
0.0
 10
3.921449636939143
 20
6.602506152779556
 30
0.0
  0
SPLINE
  5
126
330
1F
100
AcDbEntity
  8
0
  6
Continuous
 62
     7
370
    15
100
AcDbSpline
210
0.0
220
0.0
230
1.0
 70
     8
 71
     3
 72
    10
 73
     6
 74
     0
 42
0.0000000001
 43
0.0000000001
 40
0.0
 40
0.0
 40
0.0
 40
0.0
 40
0.4520769770721259
 40
0.9677953953981488
 40
1.0
 40
1.0
 40
1.0
 40
1.0
 10
3.921449636939143
 20
7.525806319345776
 30
0.0
 10
3.923663557589351
 20
7.517941962424252
 30
0.0
 10
3.928403065062004
 20
7.501106138433142
 30
0.0
 10
3.93087442991325
 20
7.483697241627798
 30
0.0
 10
3.930082366950371
 20
7.474284989411517
 30
0.0
 10
3.93003581282968
 20
7.473731776919335
 30
0.0
  0
SPLINE
  5
127
330
1F
100
AcDbEntity
  8
0
  6
Continuous
 62
     7
370
    15
100
AcDbSpline
210
0.0
220
0.0
230
1.0
 70
     8
 71
     3
 72
    10
 73
     6
 74
     0
 42
0.0000000001
 43
0.0000000001
 40
0.0
 40
0.0
 40
0.0
 40
0.0
 40
0.3175360412350503
 40
0.6795442126244651
 40
1.0
 40
1.0
 40
1.0
 40
1.0
 10
3.91027734120959
 20
6.499032681586141
 30
0.0
 10
3.911642308293687
 20
6.510351121300195
 30
0.0
 10
3.914563411292934
 20
6.53457319125392
 30
0.0
 10
3.914894757271525
 20
6.570080530895249
 30
0.0
 10
3.91175271826059
 20
6.594182214972822
 30
0.0
 10
3.910277351580369
 20
6.605499331501778
 30
0.0
  0
LWPOLYLINE
  5
128
330
1F
100
AcDbEntity
  8
0
  6
Continuous
 62
     7
370
    15
100
AcDbPolyline
 90
       22
 70
   128
 43
0.0
 10
3.792849539883447
 20
4.44673050563063
 10
3.793829679675783
 20
4.437607850755089
 10
3.796683013023347
 20
4.428770576328892
 10
3.801156006772303
 20
4.421003749886565
 10
3.806851215052261
 20
4.41499783041141
 10
3.813262595589018
 20
4.411286302698401
 10
3.819820468087638
 20
4.410199041425249
 10
3.825942136438587
 20
4.411832470748025
 10
3.831083664349026
 20
4.416041571260282
 10
3.834788204067234
 20
4.42245247985496
 10
3.836726592232405
 20
4.430495248148748
 10
3.836726592232405
 20
4.439455694702791
 10
3.834788204067234
 20
4.448537094221091
 10
3.831083664349026
 20
4.456932977080943
 10
3.825942136438587
 20
4.463897021894573
 10
3.819820468087638
 20
4.46881057643151
 10
3.813262595589018
 20
4.471237168196579
 10
3.806851215052261
 20
4.470960999890609
 10
3.801156006772303
 20
4.468006698897219
 10
3.796683013023347
 20
4.462636601375442
 10
3.793829679675783
 20
4.455328206026187
 10
3.792849539883447
 20
4.44673050563063
  0
LINE
  5
129
330
1F
100
AcDbEntity
  8
0
  6
Continuous
 62
     7
370
    15
100
AcDbLine
 10
3.903299621389378
 20
6.464457559688166
 30
0.0
 11
3.91027734120959
 21
6.499032681586141
 31
0.0
  0
LINE
  5
12A
330
1F
100
AcDbEntity
  8
0
  6
Continuous
 62
     7
370
    15
100
AcDbLine
 10
3.903299621389378
 20
6.07426287204825
 30
0.0
 11
3.903299621389378
 21
6.464457559688166
 31
0.0
  0
LWPOLYLINE
  5
12B
330
1F
100
AcDbEntity
  8
0
  6
Continuous
 62
     7
370
    15
100
AcDbPolyline
 90
        9
 70
   128
 43
0.0
 10
3.894460782194149
 20
6.064587885473735
 10
3.89463061926714
 20
6.066891864743176
 10
3.895133602080324
 20
6.069016269430369
 10
3.895950394315036
 20
6.070879576160185
 10
3.897049619177435
 20
6.072410043813324
 10
3.898389026111215
 20
6.073548905276293
 10
3.899917144936954
 20
6.074252411219684
 10
3.901575251114869
 20
6.074493451394793
 10
3.903299621389378
 20
6.07426287204825
  0
LINE
  5
12C
330
1F
100
AcDbEntity
  8
0
  6
Continuous
 62
     7
370
    15
100
AcDbLine
 10
3.894460782194149
 20
6.064587885473735
 30
0.0
 11
3.894460782194149
 21
6.05013616129428
 31
0.0
  0
ARC
  5
12D
330
1F
100
AcDbEntity
  8
0
  6
Continuous
 62
     7
370
    15
100
AcDbCircle
 10
3.909214682080821
 20
6.049269178830388
 30
0.0
 40
0.0147793511514769
100
AcDbArc
 50
176.6369991662553
 51
246.4077766060486
  0
LINE
  5
12E
330
1F
100
AcDbEntity
  8
0
  6
Continuous
 62
     7
370
    15
100
AcDbLine
 10
3.903299621389378
 20
4.164235948009547
 30
0.0
 11
3.903299621389378
 21
6.035725129307619
 31
0.0
  0
LINE
  5
12F
330
1F
100
AcDbEntity
  8
0
  6
Continuous
 62
     7
370
    15
100
AcDbLine
 10
3.87678311417447
 20
4.135210872464805
 30
0.0
 11
3.903299621389378
 21
4.164235948009547
 31
0.0
  0
LINE
  5
130
330
1F
100
AcDbEntity
  8
0
  6
Continuous
 62
     7
370
    15
100
AcDbLine
 10
3.753039427665944
 20
4.168363173679138
 30
0.0
 11
3.87678311417447
 21
4.135210872464805
 31
0.0
  0
LINE
  5
131
330
1F
100
AcDbEntity
  8
0
  6
Continuous
 62
     7
370
    15
100
AcDbLine
 10
3.726522920451037
 20
4.21159637990342
 30
0.0
 11
3.753039427665944
 21
4.168363173679138
 31
0.0
  0
LINE
  5
132
330
1F
100
AcDbEntity
  8
0
  6
Continuous
 62
     7
370
    15
100
AcDbLine
 10
3.726522920451037
 20
6.083085561201493
 30
0.0
 11
3.726522920451037
 21
4.21159637990342
 31
0.0
  0
LWPOLYLINE
  5
133
330
1F
100
AcDbEntity
  8
0
  6
Continuous
 62
     7
370
    15
100
AcDbPolyline
 90
        9
 70
   128
 43
0.0
 10
3.735361759646266
 20
6.09276054777601
 10
3.735191922573274
 20
6.090456568506568
 10
3.73468893976009
 20
6.088332163819376
 10
3.733872147525378
 20
6.086468970132308
 10
3.732772922662979
 20
6.08493850247917
 10
3.7314335157292
 20
6.083799641016201
 10
3.729905396903459
 20
6.08309613507281
 10
3.728247295910935
 20
6.082854980465728
 10
3.726522920451037
 20
6.083085561201493
  0
LINE
  5
134
330
1F
100
AcDbEntity
  8
0
  6
Continuous
 62
     7
370
    15
100
AcDbLine
 10
3.735361759646266
 20
6.09276054777601
 30
0.0
 11
3.735361759646266
 21
6.107212271955464
 31
0.0
  0
ARC
  5
135
330
1F
100
AcDbEntity
  8
0
  6
Continuous
 62
     7
370
    15
100
AcDbCircle
 10
3.720608146423509
 20
6.108079430241342
 30
0.0
 40
0.0147790752964954
100
AcDbArc
 50
356.6362535169509
 51
66.40852225535079
  0
LINE
  5
136
330
1F
100
AcDbEntity
  8
0
  6
Continuous
 62
     7
370
    15
100
AcDbLine
 10
3.726522920451037
 20
6.51181799158204
 30
0.0
 11
3.726522920451037
 21
6.121623303942125
 31
0.0
  0
LINE
  5
137
330
1F
100
AcDbEntity
  8
0
  6
Continuous
 62
     7
370
    15
100
AcDbLine
 10
3.827853226119016
 20
7.013916081735335
 30
0.0
 11
3.726522920451037
 21
6.51181799158204
 31
0.0
  0
LINE
  5
138
330
1F
100
AcDbEntity
  8
0
  6
Continuous
 62
     7
370
    15
100
AcDbLine
 10
3.921449657680703
 20
6.502025868643703
 30
0.0
 11
3.91027734120959
 21
6.499032681586141
 31
0.0
  0
LINE
  5
139
330
1F
100
AcDbEntity
  8
0
  6
Continuous
 62
     7
370
    15
100
AcDbLine
 10
3.903299621389378
 20
6.464457559688166
 30
0.0
 11
3.91447193786049
 21
6.467450746745726
 31
0.0
  0
LINE
  5
13A
330
1F
100
AcDbEntity
  8
0
  6
Continuous
 62
     7
370
    15
100
AcDbLine
 10
3.91447193786049
 20
6.467450746745726
 30
0.0
 11
3.921449657680703
 21
6.502025868643703
 31
0.0
  0
LINE
  5
13B
330
1F
100
AcDbEntity
  8
0
  6
Continuous
 62
     7
370
    15
100
AcDbLine
 10
3.91447193786049
 20
6.077256059105812
 30
0.0
 11
3.903299621389378
 21
6.07426287204825
 31
0.0
  0
LINE
  5
13C
330
1F
100
AcDbEntity
  8
0
  6
Continuous
 62
     7
370
    15
100
AcDbLine
 10
3.91447193786049
 20
6.077256059105812
 30
0.0
 11
3.91447193786049
 21
6.467450746745726
 31
0.0
  0
LINE
  5
13D
330
1F
100
AcDbEntity
  8
0
  6
Continuous
 62
     7
370
    15
100
AcDbLine
 10
3.905633098665262
 20
6.067581072531296
 30
0.0
 11
3.894460782194149
 21
6.064587885473735
 31
0.0
  0
ARC
  5
13E
330
1F
100
AcDbEntity
  8
0
  6
Continuous
 62
     7
370
    15
100
AcDbCircle
 10
3.91680982213244
 20
6.068197799048228
 30
0.0
 40
0.0111937258791908
100
AcDbArc
 50
138.3077194966285
 51
183.158352151641
  0
LINE
  5
13F
330
1F
100
AcDbEntity
  8
0
  6
Continuous
 62
     7
370
    15
100
AcDbLine
 10
3.91447193786049
 20
6.038718316365181
 30
0.0
 11
3.903299621389378
 21
6.035725129307619
 31
0.0
  0
LINE
  5
140
330
1F
100
AcDbEntity
  8
0
  6
Continuous
 62
     7
370
    15
100
AcDbLine
 10
3.894460782194149
 20
6.05013616129428
 30
0.0
 11
3.905633098665262
 21
6.053129348351841
 31
0.0
  0
ARC
  5
141
330
1F
100
AcDbEntity
  8
0
  6
Continuous
 62
     7
370
    15
100
AcDbCircle
 10
3.920386998551933
 20
6.052262365887947
 30
0.0
 40
0.0147793511514754
100
AcDbArc
 50
176.6369991662448
 51
246.407776606046
  0
LINE
  5
142
330
1F
100
AcDbEntity
  8
0
  6
Continuous
 62
     7
370
    15
100
AcDbLine
 10
3.903299621389378
 20
4.164235948009547
 30
0.0
 11
3.91447193786049
 21
4.167229135067107
 31
0.0
  0
LINE
  5
143
330
1F
100
AcDbEntity
  8
0
  6
Continuous
 62
     7
370
    15
100
AcDbLine
 10
3.91447193786049
 20
4.167229135067107
 30
0.0
 11
3.91447193786049
 21
6.038718316365181
 31
0.0
  0
LINE
  5
144
330
1F
100
AcDbEntity
  8
0
  6
Continuous
 62
     7
370
    15
100
AcDbLine
 10
3.905633098665262
 20
6.067581072531296
 30
0.0
 11
3.905633098665262
 21
6.053129348351841
 31
0.0
  0
LINE
  5
145
330
1F
100
AcDbEntity
  8
0
  6
Continuous
 62
     7
370
    15
100
AcDbLine
 10
3.732543697320302
 20
6.084698593865592
 30
0.0
 11
3.726522920451037
 21
6.083085561201493
 31
0.0
  0
ARC
  5
146
330
1F
100
AcDbEntity
  8
0
  6
Continuous
 62
     7
370
    15
100
AcDbCircle
 10
3.838590630719274
 20
4.446467875937174
 30
0.0
 40
0.0347217583626555
100
AcDbArc
 50
174.6195405151472
 51
252.7028921545632
  0
ARC
  5
147
330
1F
100
AcDbEntity
  8
0
  6
Continuous
 62
     7
370
    15
100
AcDbCircle
 10
3.829595743904166
 20
4.451964375061012
 30
0.0
 40
0.0256718597280313
100
AcDbArc
 50
131.0755296234111
 51
185.0072417681056
  0
LINE
  5
148
330
1F
100
AcDbEntity
  8
0
  6
Continuous
 62
     7
370
    15
100
AcDbLine
 10
3.887955430645583
 20
4.138204059522365
 30
0.0
 11
3.87678311417447
 21
4.135210872464805
 31
0.0
  0
LINE
  5
149
330
1F
100
AcDbEntity
  8
0
  6
Continuous
 62
     7
370
    15
100
AcDbLine
 10
3.91447193786049
 20
4.167229135067107
 30
0.0
 11
3.887955430645583
 21
4.138204059522365
 31
0.0
  0
LINE
  5
14A
330
1F
100
AcDbEntity
  8
0
  6
Continuous
 62
     7
370
    15
100
AcDbLine
 10
2.729267628948277
 20
6.547316745953677
 30
0.0
 11
2.941399665925974
 21
6.490484228792407
 31
0.0
  0
LINE
  5
14B
330
1F
100
AcDbEntity
  8
0
  6
Continuous
 62
     7
370
    15
100
AcDbLine
 10
2.729267628948277
 20
7.771054526908022
 30
0.0
 11
2.729267628948277
 21
6.547316745953677
 31
0.0
  0
LINE
  5
14C
330
1F
100
AcDbEntity
  8
0
  6
Continuous
 62
     7
370
    15
100
AcDbLine
 10
2.941399665925974
 20
7.714222009746752
 30
0.0
 11
2.729267628948277
 21
7.771054526908022
 31
0.0
  0
LINE
  5
14D
330
1F
100
AcDbEntity
  8
0
  6
Continuous
 62
     7
370
    15
100
AcDbLine
 10
2.941399665925974
 20
6.490484228792407
 30
0.0
 11
2.941399665925974
 21
7.714222009746752
 31
0.0
  0
LINE
  5
14E
330
1F
100
AcDbEntity
  8
0
  6
Continuous
 62
     7
370
    15
100
AcDbLine
 10
5.568425178545587
 20
10.48457675349485
 30
0.0
 11
5.718685330785903
 21
10.17022727436021
 31
0.0
  0
LINE
  5
14F
330
1F
100
AcDbEntity
  8
0
  6
Continuous
 62
     7
370
    15
100
AcDbLine
 10
5.718685330785903
 20
10.17022727436021
 30
0.0
 11
5.702509154615205
 21
10.08363794156887
 31
0.0
  0
LINE
  5
150
330
1F
100
AcDbEntity
  8
0
  6
Continuous
 62
     7
370
    15
100
AcDbLine
 10
5.702509154615205
 20
10.08363794156887
 30
0.0
 11
5.823249836684213
 21
10.0719051368454
 31
0.0
  0
LINE
  5
151
330
1F
100
AcDbEntity
  8
0
  6
Continuous
 62
     7
370
    15
100
AcDbLine
 10
5.823249836684213
 20
10.0719051368454
 30
0.0
 11
5.807073743479751
 21
9.985315826281642
 31
0.0
  0
LINE
  5
152
330
1F
100
AcDbEntity
  8
0
  6
Continuous
 62
     7
370
    15
100
AcDbLine
 10
5.807073743479751
 20
9.985315826281642
 30
0.0
 11
5.957333895720068
 21
9.670966347147
 31
0.0
  0
LINE
  5
153
330
1F
100
AcDbEntity
  8
0
  6
Continuous
 62
     7
370
    15
100
AcDbLine
 10
2.941399665925974
 20
6.490484228792407
 30
0.0
 11
3.759398686041532
 21
7.353112856345328
 31
0.0
  0
LINE
  5
154
330
1F
100
AcDbEntity
  8
0
  6
Continuous
 62
     7
370
    15
100
AcDbLine
 10
3.921816918100564
 20
7.524392554271832
 30
0.0
 11
5.957333895720068
 21
9.670966347147
 31
0.0
  0
LINE
  5
155
330
1F
100
AcDbEntity
  8
0
  6
Continuous
 62
     7
370
    15
100
AcDbLine
 10
2.941399665925974
 20
7.714222009746752
 30
0.0
 11
3.726923170320974
 21
8.542603330757392
 31
0.0
  0
LINE
  5
156
330
1F
100
AcDbEntity
  8
0
  6
Continuous
 62
     7
370
    15
100
AcDbLine
 10
3.906596720398304
 20
8.732079696752657
 30
0.0
 11
5.568425178545587
 21
10.48457675349485
 31
0.0
  0
LINE
  5
157
330
1F
100
AcDbEntity
  8
0
  6
Continuous
 62
     7
370
    15
100
AcDbLine
 10
5.568425178545587
 20
10.48457675349485
 30
0.0
 11
5.356293141567891
 21
10.54140927065612
 31
0.0
  0
LINE
  5
158
330
1F
100
AcDbEntity
  8
0
  6
Continuous
 62
     7
370
    15
100
AcDbLine
 10
2.729267628948277
 20
7.771054526908022
 30
0.0
 11
3.621657578976546
 21
8.712132824951634
 31
0.0
  0
LINE
  5
159
330
1F
100
AcDbEntity
  8
0
  6
Continuous
 62
     7
370
    15
100
AcDbLine
 10
3.799093550377445
 20
8.899249643285813
 30
0.0
 11
5.356293141567891
 21
10.54140927065612
 31
0.0
  0
LINE
  5
15A
330
1F
100
AcDbEntity
  8
0
  6
Continuous
 62
     7
370
    15
100
AcDbLine
 10
5.823249836684213
 20
10.0719051368454
 30
0.0
 11
5.706176726392992
 21
10.1032703169688
 31
0.0
  0
LINE
  5
15B
330
1F
100
AcDbEntity
  8
0
  6
Continuous
 62
     7
370
    15
100
AcDbLine
 10
3.93134915799419
 20
7.534444867889052
 30
0.0
 11
5.278568524535637
 21
8.955167863884126
 31
0.0
  0
LINE
  5
15C
330
1F
100
AcDbEntity
  8
0
  6
Continuous
 62
     7
370
    15
100
AcDbLine
 10
6.423900504330512
 20
9.262014959327267
 30
0.0
 11
6.423900504330512
 21
8.852551400317036
 31
0.0
  0
LINE
  5
15D
330
1F
100
AcDbEntity
  8
0
  6
Continuous
 62
     7
370
    15
100
AcDbLine
 10
6.423900504330512
 20
8.852551400317036
 30
0.0
 11
6.379706380949825
 21
8.780496033747361
 31
0.0
  0
LINE
  5
15E
330
1F
100
AcDbEntity
  8
0
  6
Continuous
 62
     7
370
    15
100
AcDbLine
 10
6.379706380949825
 20
8.780496033747361
 30
0.0
 11
6.468094793643674
 21
8.683745834430849
 31
0.0
  0
LINE
  5
15F
330
1F
100
AcDbEntity
  8
0
  6
Continuous
 62
     7
370
    15
100
AcDbLine
 10
6.468094793643674
 20
8.683745834430849
 30
0.0
 11
6.423900504330512
 21
8.611690479927407
 31
0.0
  0
LINE
  5
160
330
1F
100
AcDbEntity
  8
0
  6
Continuous
 62
     7
370
    15
100
AcDbLine
 10
6.423900504330512
 20
8.611690479927407
 30
0.0
 11
6.423900504330512
 21
8.202226920917178
 31
0.0
  0
LINE
  5
161
330
1F
100
AcDbEntity
  8
0
  6
Continuous
 62
     7
370
    15
100
AcDbLine
 10
3.93134915799419
 20
7.534444867889052
 30
0.0
 11
6.423900504330512
 21
8.202226920917178
 31
0.0
  0
LINE
  5
162
330
1F
100
AcDbEntity
  8
0
  6
Continuous
 62
     7
370
    15
100
AcDbLine
 10
5.278568524535637
 20
8.955167863884126
 30
0.0
 11
6.423900504330512
 21
9.262014959327267
 31
0.0
  0
LINE
  5
163
330
1F
100
AcDbEntity
  8
0
  6
Continuous
 62
     7
370
    15
100
AcDbLine
 10
6.423900504330512
 20
9.262014959327267
 30
0.0
 11
6.211768467352815
 21
9.318847476488537
 31
0.0
  0
LINE
  5
164
330
1F
100
AcDbEntity
  8
0
  6
Continuous
 62
     7
370
    15
100
AcDbLine
 10
5.423061299536734
 20
9.107544109544313
 30
0.0
 11
6.211768467352815
 21
9.318847476488537
 31
0.0
  0
LINE
  5
165
330
1F
100
AcDbEntity
  8
0
  6
Continuous
 62
     7
370
    15
100
AcDbLine
 10
5.186463732582254
 20
7.198185801998237
 30
0.0
 11
3.93134915799419
 21
7.534444867889052
 31
0.0
  0
LINE
  5
166
330
1F
100
AcDbEntity
  8
0
  6
Continuous
 62
     7
370
    15
100
AcDbLine
 10
2.793874920897788
 20
7.839186787220549
 30
0.0
 11
2.46410254642843
 21
7.927536450941136
 31
0.0
  0
LINE
  5
167
330
1F
100
AcDbEntity
  8
0
  6
Continuous
 62
     7
370
    15
100
AcDbLine
 10
2.46410254642843
 20
7.927536450941136
 30
0.0
 11
2.764622913133739
 21
8.00804917849245
 31
0.0
  0
LINE
  5
168
330
1F
100
AcDbEntity
  8
0
  6
Continuous
 62
     7
370
    15
100
AcDbLine
 10
2.764622913133739
 20
8.00804917849245
 30
0.0
 11
2.764622964987638
 21
8.031729380547155
 31
0.0
  0
LINE
  5
169
330
1F
100
AcDbEntity
  8
0
  6
Continuous
 62
     7
370
    15
100
AcDbLine
 10
2.764622964987638
 20
8.031729380547155
 30
0.0
 11
2.94139964518442
 21
8.031729386104048
 31
0.0
  0
LINE
  5
16A
330
1F
100
AcDbEntity
  8
0
  6
Continuous
 62
     7
370
    15
100
AcDbLine
 10
2.94139964518442
 20
8.031729386104048
 30
0.0
 11
2.941399614072081
 21
8.055409610386325
 31
0.0
  0
LINE
  5
16B
330
1F
100
AcDbEntity
  8
0
  6
Continuous
 62
     7
370
    15
100
AcDbLine
 10
2.941399614072081
 20
8.055409610386325
 30
0.0
 11
3.018497856754836
 21
8.076065081680516
 31
0.0
  0
LINE
  5
16C
330
1F
100
AcDbEntity
  8
0
  6
Continuous
 62
     7
370
    15
100
AcDbLine
 10
5.964281166931214
 20
7.406571688994738
 30
0.0
 11
4.70916659234315
 21
7.742830754885553
 31
0.0
  0
LINE
  5
16D
330
1F
100
AcDbEntity
  8
0
  6
Continuous
 62
     7
370
    15
100
AcDbLine
 10
5.663760800225904
 20
7.326058961443424
 30
0.0
 11
5.964281166931214
 21
7.406571688994738
 31
0.0
  0
LINE
  5
16E
330
1F
100
AcDbEntity
  8
0
  6
Continuous
 62
     7
370
    15
100
AcDbLine
 10
5.575372418644394
 20
7.326058969778764
 30
0.0
 11
5.663760800225904
 21
7.326058961443424
 31
0.0
  0
LINE
  5
16F
330
1F
100
AcDbEntity
  8
0
  6
Continuous
 62
     7
370
    15
100
AcDbLine
 10
5.575372397902835
 20
7.278698543441782
 30
0.0
 11
5.575372418644394
 21
7.326058969778764
 31
0.0
  0
LINE
  5
170
330
1F
100
AcDbEntity
  8
0
  6
Continuous
 62
     7
370
    15
100
AcDbLine
 10
5.486984099287563
 20
7.27869852954955
 30
0.0
 11
5.575372397902835
 21
7.278698543441782
 31
0.0
  0
LINE
  5
171
330
1F
100
AcDbEntity
  8
0
  6
Continuous
 62
     7
370
    15
100
AcDbLine
 10
5.186463732582254
 20
7.198185801998237
 30
0.0
 11
5.486984099287563
 21
7.27869852954955
 31
0.0
  0
LINE
  5
172
330
1F
100
AcDbEntity
  8
0
  6
Continuous
 62
     7
370
    15
100
AcDbLine
 10
5.186463732582254
 20
6.909152717313164
 30
0.0
 11
3.93017788214015
 21
7.245725580950061
 31
0.0
  0
LINE
  5
173
330
1F
100
AcDbEntity
  8
0
  6
Continuous
 62
     7
370
    15
100
AcDbLine
 10
3.772548165726593
 20
7.287956324079829
 30
0.0
 11
3.712793740110308
 21
7.303965195100364
 31
0.0
  0
LINE
  5
174
330
1F
100
AcDbEntity
  8
0
  6
Continuous
 62
     7
370
    15
100
AcDbLine
 10
2.729267618577501
 20
7.56746271285836
 30
0.0
 11
2.46410254642843
 21
7.638503366256064
 31
0.0
  0
LINE
  5
175
330
1F
100
AcDbEntity
  8
0
  6
Continuous
 62
     7
370
    15
100
AcDbLine
 10
2.46410254642843
 20
7.638503366256064
 30
0.0
 11
2.46410254642843
 21
7.927536450941136
 31
0.0
  0
LINE
  5
176
330
1F
100
AcDbEntity
  8
0
  6
Continuous
 62
     7
370
    15
100
AcDbLine
 10
5.186463732582254
 20
6.909152717313164
 30
0.0
 11
5.186463732582254
 21
7.198185801998237
 31
0.0
  0
LINE
  5
177
330
1F
100
AcDbEntity
  8
0
  6
Continuous
 62
     7
370
    15
100
AcDbLine
 10
5.486984099287563
 20
6.989665444864477
 30
0.0
 11
5.186463732582254
 21
6.909152717313164
 31
0.0
  0
LINE
  5
178
330
1F
100
AcDbEntity
  8
0
  6
Continuous
 62
     7
370
    15
100
AcDbLine
 10
5.486984099287563
 20
6.989665444864477
 30
0.0
 11
5.486984099287563
 21
7.27869852954955
 31
0.0
  0
LINE
  5
179
330
1F
100
AcDbEntity
  8
0
  6
Continuous
 62
     7
370
    15
100
AcDbLine
 10
5.575372397902835
 20
6.98966545875671
 30
0.0
 11
5.575372397902835
 21
7.278698543441782
 31
0.0
  0
LINE
  5
17A
330
1F
100
AcDbEntity
  8
0
  6
Continuous
 62
     7
370
    15
100
AcDbLine
 10
5.575372397902835
 20
6.98966545875671
 30
0.0
 11
5.486984099287563
 21
6.989665444864477
 31
0.0
  0
LINE
  5
17B
330
1F
100
AcDbEntity
  8
0
  6
Continuous
 62
     7
370
    15
100
AcDbLine
 10
5.663760800225904
 20
7.037025876758351
 30
0.0
 11
5.663760800225904
 21
7.326058961443424
 31
0.0
  0
LINE
  5
17C
330
1F
100
AcDbEntity
  8
0
  6
Continuous
 62
     7
370
    15
100
AcDbLine
 10
5.663760800225904
 20
7.037025876758351
 30
0.0
 11
5.575372418644394
 21
7.037025885093691
 31
0.0
  0
LINE
  5
17D
330
1F
100
AcDbEntity
  8
0
  6
Continuous
 62
     7
370
    15
100
AcDbLine
 10
5.964281166931214
 20
7.117538604309665
 30
0.0
 11
5.964281166931214
 21
7.406571688994738
 31
0.0
  0
LINE
  5
17E
330
1F
100
AcDbEntity
  8
0
  6
Continuous
 62
     7
370
    15
100
AcDbLine
 10
5.964281166931214
 20
7.117538604309665
 30
0.0
 11
5.663760800225904
 21
7.037025876758351
 31
0.0
  0
LINE
  5
17F
330
1F
100
AcDbEntity
  8
0
  6
Continuous
 62
     7
370
    15
100
AcDbLine
 10
5.663760748372006
 20
7.013345674703646
 30
0.0
 11
5.663760800225904
 21
7.037025876758351
 31
0.0
  0
LINE
  5
180
330
1F
100
AcDbEntity
  8
0
  6
Continuous
 62
     7
370
    15
100
AcDbLine
 10
5.575372449756732
 20
7.013345660811414
 30
0.0
 11
5.663760748372006
 21
7.013345674703646
 31
0.0
  0
LINE
  5
181
330
1F
100
AcDbEntity
  8
0
  6
Continuous
 62
     7
370
    15
100
AcDbLine
 10
5.486984099287563
 20
6.989665444864477
 30
0.0
 11
5.486984099287563
 21
6.700632346049061
 31
0.0
  0
LINE
  5
182
330
1F
100
AcDbEntity
  8
0
  6
Continuous
 62
     7
370
    15
100
AcDbLine
 10
5.486984099287563
 20
6.700632346049061
 30
0.0
 11
5.186463732582254
 21
6.620119618497747
 31
0.0
  0
LINE
  5
183
330
1F
100
AcDbEntity
  8
0
  6
Continuous
 62
     7
370
    15
100
AcDbLine
 10
5.186463732582254
 20
6.909152717313164
 30
0.0
 11
5.186463732582254
 21
6.620119618497747
 31
0.0
  0
LINE
  5
184
330
1F
100
AcDbEntity
  8
0
  6
Continuous
 62
     7
370
    15
100
AcDbLine
 10
5.186463732582254
 20
6.620119618497747
 30
0.0
 11
3.93017788214015
 21
6.956692482134644
 31
0.0
  0
LINE
  5
185
330
1F
100
AcDbEntity
  8
0
  6
Continuous
 62
     7
370
    15
100
AcDbLine
 10
3.82214583573792
 20
6.985635461321552
 30
0.0
 11
3.494238332597205
 21
7.073485505402887
 31
0.0
  0
LINE
  5
186
330
1F
100
AcDbEntity
  8
0
  6
Continuous
 62
     7
370
    15
100
AcDbLine
 10
2.729267618577501
 20
7.278429614042944
 30
0.0
 11
2.46410254642843
 21
7.349470267440647
 31
0.0
  0
LINE
  5
187
330
1F
100
AcDbEntity
  8
0
  6
Continuous
 62
     7
370
    15
100
AcDbLine
 10
2.46410254642843
 20
7.638503366256064
 30
0.0
 11
2.46410254642843
 21
7.349470267440647
 31
0.0
  0
LINE
  5
188
330
1F
100
AcDbEntity
  8
0
  6
Continuous
 62
     7
370
    15
100
AcDbLine
 10
5.663760748372006
 20
7.013345674703646
 30
0.0
 11
5.663760748372006
 21
6.724312575888231
 31
0.0
  0
LINE
  5
189
330
1F
100
AcDbEntity
  8
0
  6
Continuous
 62
     7
370
    15
100
AcDbLine
 10
5.663760748372006
 20
6.724312575888231
 30
0.0
 11
5.486984068175224
 21
6.724312570331338
 31
0.0
  0
LINE
  5
18A
330
1F
100
AcDbEntity
  8
0
  6
Continuous
 62
     7
370
    15
100
AcDbLine
 10
5.964281166931214
 20
7.117538604309665
 30
0.0
 11
5.964281166931214
 21
6.828505505494248
 31
0.0
  0
LINE
  5
18B
330
1F
100
AcDbEntity
  8
0
  6
Continuous
 62
     7
370
    15
100
AcDbLine
 10
5.964281166931214
 20
6.828505505494248
 30
0.0
 11
5.663760800225904
 21
6.747992777942934
 31
0.0
  0
LINE
  5
18C
330
1F
100
AcDbEntity
  8
0
  6
Continuous
 62
     7
370
    15
100
AcDbLine
 10
3.719217121016493
 20
7.013211201549832
 30
0.0
 11
3.82214583573792
 21
6.985635461321552
 31
0.0
  0
LINE
  5
18D
330
1F
100
AcDbEntity
  8
0
  6
Continuous
 62
     7
370
    15
100
AcDbLine
 10
3.93017788214015
 20
6.956692482134644
 30
0.0
 11
3.93134915799419
 21
6.956378684388563
 31
0.0
  0
LINE
  5
18E
330
1F
100
AcDbEntity
  8
0
  6
Continuous
 62
     7
370
    15
100
AcDbLine
 10
4.364452050403255
 20
3.736488090202405
 30
0.0
 11
4.276063699934085
 21
3.592377329278592
 31
0.0
  0
LINE
  5
18F
330
1F
100
AcDbEntity
  8
0
  6
Continuous
 62
     7
370
    15
100
AcDbLine
 10
4.276063699934085
 20
3.592377329278592
 30
0.0
 11
4.2318695246995
 21
3.640752606836311
 31
0.0
  0
LINE
  5
190
330
1F
100
AcDbEntity
  8
0
  6
Continuous
 62
     7
370
    15
100
AcDbLine
 10
4.2318695246995
 20
3.640752606836311
 30
0.0
 11
3.93134915799419
 21
3.560239879284997
 31
0.0
  0
LINE
  5
191
330
1F
100
AcDbEntity
  8
0
  6
Continuous
 62
     7
370
    15
100
AcDbLine
 10
3.93134915799419
 20
6.956378684388563
 30
0.0
 11
3.93134915799419
 21
3.560239879284997
 31
0.0
  0
LINE
  5
192
330
1F
100
AcDbEntity
  8
0
  6
Continuous
 62
     7
370
    15
100
AcDbLine
 10
4.70916659234315
 20
6.747992784512007
 30
0.0
 11
4.70916659234315
 21
3.768625766281498
 31
0.0
  0
LINE
  5
193
330
1F
100
AcDbEntity
  8
0
  6
Continuous
 62
     7
370
    15
100
AcDbLine
 10
4.70916659234315
 20
3.768625766281498
 30
0.0
 11
4.40864622563784
 21
3.688113038730185
 31
0.0
  0
LINE
  5
194
330
1F
100
AcDbEntity
  8
0
  6
Continuous
 62
     7
370
    15
100
AcDbLine
 10
4.40864622563784
 20
3.688113038730185
 30
0.0
 11
4.364452050403255
 21
3.736488090202405
 31
0.0
  0
LINE
  5
195
330
1F
100
AcDbEntity
  8
0
  6
Continuous
 62
     7
370
    15
100
AcDbLine
 10
3.93134915799419
 20
3.560239879284997
 30
0.0
 11
3.719217121016493
 21
3.617072396446268
 31
0.0
  0
LINE
  5
196
330
1F
100
AcDbEntity
  8
0
  6
Continuous
 62
     7
370
    15
100
AcDbLine
 10
3.719217121016493
 20
7.013211201549832
 30
0.0
 11
3.719217121016493
 21
3.617072396446268
 31
0.0
  0
LINE
  5
197
330
1F
100
AcDbEntity
  8
0
  6
Continuous
 62
     7
370
    15
100
AcDbLine
 10
4.276063699934085
 20
3.592377329278592
 30
0.0
 11
4.163684556834761
 21
3.622484943714185
 31
0.0
  0
LINE
  5
198
330
1F
100
AcDbEntity
  8
0
  6
Continuous
 62
     7
370
    15
100
AcDbLine
 10
4.40864622563784
 20
3.688113038730185
 30
0.0
 11
4.345206253089935
 21
3.705109308505873
 31
0.0
  0
LINE
  5
199
330
1F
100
AcDbEntity
  8
0
  6
Continuous
 62
     8
370
    15
100
AcDbLine
 10
3.722963803694169
 20
8.823451777421087
 30
0.0
 11
3.620620967696303
 21
8.715525198104229
 31
0.0
  0
LINE
  5
19A
330
1F
100
AcDbEntity
  8
0
  6
Continuous
 62
     8
370
    15
100
AcDbLine
 10
3.797397668634644
 20
8.901946750462224
 30
0.0
 11
3.765218217931627
 21
8.868011631073461
 31
0.0
  0
LINE
  5
19B
330
1F
100
AcDbEntity
  8
0
  6
Continuous
 62
     8
370
    15
100
AcDbLine
 10
3.91027734120959
 20
6.605499338367516
 30
0.0
 11
3.91027734120959
 21
6.499032681586141
 31
0.0
  0
TEXT
  5
1A3
330
1F
100
AcDbEntity
  8
0
100
AcDbText
 10
3.872501802003078
 20
2.611556065139868
 30
0.0
 40
0.25
  1
USP  HTW
100
AcDbText
  0
TEXT
  5
1A4
330
1F
100
AcDbEntity
  8
0
100
AcDbText
 10
2.954489777868765
 20
2.087338787817699
 30
0.0
 40
0.25
  1
SIMPSON  HTS
100
AcDbText
  0
ENDSEC
  0
SECTION
  2
OBJECTS
  0
DICTIONARY
  5
C
330
0
100
AcDbDictionary
281
     1
  3
ACAD_COLOR
350
1A0
  3
ACAD_GROUP
350
D
  3
ACAD_LAYOUT
350
1A
  3
ACAD_MATERIAL
350
19F
  3
ACAD_MLINESTYLE
350
17
  3
ACAD_PLOTSETTINGS
350
19
  3
ACAD_PLOTSTYLENAME
350
E
  0
DICTIONARY
  5
1A0
102
{ACAD_REACTORS
330
C
102
}
330
C
100
AcDbDictionary
281
     1
  0
DICTIONARY
  5
D
102
{ACAD_REACTORS
330
C
102
}
330
C
100
AcDbDictionary
281
     1
  0
DICTIONARY
  5
1A
102
{ACAD_REACTORS
330
C
102
}
330
C
100
AcDbDictionary
281
     1
  3
Layout1
350
1E
  3
Layout2
350
26
  3
Model
350
22
  0
DICTIONARY
  5
19F
102
{ACAD_REACTORS
330
C
102
}
330
C
100
AcDbDictionary
281
     1
  0
DICTIONARY
  5
17
102
{ACAD_REACTORS
330
C
102
}
330
C
100
AcDbDictionary
281
     1
  3
Standard
350
18
  0
DICTIONARY
  5
19
102
{ACAD_REACTORS
330
C
102
}
330
C
100
AcDbDictionary
281
     1
  0
ACDBDICTIONARYWDFLT
  5
E
102
{ACAD_REACTORS
330
C
102
}
330
C
100
AcDbDictionary
281
     1
  3
Normal
350
F
100
AcDbDictionaryWithDefault
340
F
  0
LAYOUT
  5
1E
102
{ACAD_REACTORS
330
1A
102
}
330
1A
100
AcDbPlotSettings
  1

  2
none_device
  4

  6

 40
0.0
 41
0.0
 42
0.0
 43
0.0
 44
0.0
 45
0.0
 46
0.0
 47
0.0
 48
0.0
 49
0.0
140
0.0
141
0.0
142
1.0
143
1.0
 70
   688
 72
     0
 73
     0
 74
     5
  7

 75
    16
147
1.0
 76
     0
 77
     2
 78
   300
148
0.0
149
0.0
100
AcDbLayout
  1
Layout1
 70
     1
 71
     1
 10
0.0
 20
0.0
 11
12.0
 21
9.0
 12
0.0
 22
0.0
 32
0.0
 14
1.000000000000000E+20
 24
1.000000000000000E+20
 34
1.000000000000000E+20
 15
-1.000000000000000E+20
 25
-1.000000000000000E+20
 35
-1.000000000000000E+20
146
0.0
 13
0.0
 23
0.0
 33
0.0
 16
1.0
 26
0.0
 36
0.0
 17
0.0
 27
1.0
 37
0.0
 76
     0
330
1B
  0
LAYOUT
  5
26
102
{ACAD_REACTORS
330
1A
102
}
330
1A
100
AcDbPlotSettings
  1

  2
none_device
  4

  6

 40
0.0
 41
0.0
 42
0.0
 43
0.0
 44
0.0
 45
0.0
 46
0.0
 47
0.0
 48
0.0
 49
0.0
140
0.0
141
0.0
142
1.0
143
1.0
 70
   688
 72
     0
 73
     0
 74
     5
  7

 75
    16
147
1.0
 76
     0
 77
     2
 78
   300
148
0.0
149
0.0
100
AcDbLayout
  1
Layout2
 70
     1
 71
     2
 10
0.0
 20
0.0
 11
0.0
 21
0.0
 12
0.0
 22
0.0
 32
0.0
 14
0.0
 24
0.0
 34
0.0
 15
0.0
 25
0.0
 35
0.0
146
0.0
 13
0.0
 23
0.0
 33
0.0
 16
1.0
 26
0.0
 36
0.0
 17
0.0
 27
1.0
 37
0.0
 76
     0
330
23
  0
LAYOUT
  5
22
102
{ACAD_REACTORS
330
1A
102
}
330
1A
100
AcDbPlotSettings
  1

  2
none_device
  4

  6

 40
0.0
 41
0.0
 42
0.0
 43
0.0
 44
0.0
 45
0.0
 46
0.0
 47
0.0
 48
0.0
 49
0.0
140
0.0
141
0.0
142
1.0
143
1.0
 70
  1712
 72
     0
 73
     0
 74
     0
  7

 75
     0
147
1.0
 76
     0
 77
     2
 78
   300
148
0.0
149
0.0
100
AcDbLayout
  1
Model
 70
     1
 71
     0
 10
0.0
 20
0.0
 11
8.5
 21
11.0
 12
0.0
 22
0.0
 32
0.0
 14
0.0
 24
0.0
 34
0.0
 15
8.5
 25
11.0
 35
0.0
146
0.0
 13
0.0
 23
0.0
 33
0.0
 16
1.0
 26
0.0
 36
0.0
 17
0.0
 27
1.0
 37
0.0
 76
     0
330
1F
  0
MLINESTYLE
  5
18
102
{ACAD_REACTORS
330
17
102
}
330
17
100
AcDbMlineStyle
  2
STANDARD
 70
     0
  3

 62
   256
 51
90.0
 52
90.0
 71
     2
 49
0.5
 62
   256
  6
BYLAYER
 49
-0.5
 62
   256
  6
BYLAYER
  0
ACDBPLACEHOLDER
  5
F
102
{ACAD_REACTORS
330
E
102
}
330
E
  0
ENDSEC
  0
EOF
