  0
SECTION
  2
HEADER
  9
$ACADVER
  1
AC1018
  9
$ACADMAINTVER
 70
     0
  9
$DWGCODEPAGE
  3
ANSI_1252
  9
$INSBASE
 10
0.0
 20
0.0
 30
0.0
  9
$EXTMIN
 10
1.1200365090854
 20
3.317524670930154
 30
0.0
  9
$EXTMAX
 10
7.766840348214298
 20
10.35898476627146
 30
0.0
  9
$LIMMIN
 10
0.0
 20
0.0
  9
$LIMMAX
 10
8.5
 20
11.0
  9
$ORTHOMODE
 70
     0
  9
$REGENMODE
 70
     1
  9
$FILLMODE
 70
     1
  9
$QTEXTMODE
 70
     0
  9
$MIRRTEXT
 70
     1
  9
$LTSCALE
 40
1.0
  9
$ATTMODE
 70
     1
  9
$TEXTSIZE
 40
0.25
  9
$TRACEWID
 40
0.05
  9
$TEXTSTYLE
  7
Standard
  9
$CLAYER
  8
0
  9
$CELTYPE
  6
ByLayer
  9
$CECOLOR
 62
   256
  9
$CELTSCALE
 40
1.0
  9
$DISPSILH
 70
     0
  9
$DIMSCALE
 40
1.0
  9
$DIMASZ
 40
0.156
  9
$DIMEXO
 40
0.05
  9
$DIMDLI
 40
0.38
  9
$DIMRND
 40
0.0
  9
$DIMDLE
 40
0.0
  9
$DIMEXE
 40
0.125
  9
$DIMTP
 40
0.0
  9
$DIMTM
 40
0.0
  9
$DIMTXT
 40
0.125
  9
$DIMCEN
 40
0.09
  9
$DIMTSZ
 40
0.0
  9
$DIMTOL
 70
     0
  9
$DIMLIM
 70
     0
  9
$DIMTIH
 70
     1
  9
$DIMTOH
 70
     1
  9
$DIMSE1
 70
     0
  9
$DIMSE2
 70
     0
  9
$DIMTAD
 70
     0
  9
$DIMZIN
 70
     0
  9
$DIMBLK
  1

  9
$DIMASO
 70
     1
  9
$DIMSHO
 70
     1
  9
$DIMPOST
  1

  9
$DIMAPOST
  1

  9
$DIMALT
 70
     0
  9
$DIMALTD
 70
     2
  9
$DIMALTF
 40
25.4
  9
$DIMLFAC
 40
24.0
  9
$DIMTOFL
 70
     0
  9
$DIMTVP
 40
0.0
  9
$DIMTIX
 70
     0
  9
$DIMSOXD
 70
     0
  9
$DIMSAH
 70
     0
  9
$DIMBLK1
  1

  9
$DIMBLK2
  1

  9
$DIMSTYLE
  2
Standard
  9
$DIMCLRD
 70
     0
  9
$DIMCLRE
 70
     0
  9
$DIMCLRT
 70
     0
  9
$DIMTFAC
 40
1.0
  9
$DIMGAP
 40
0.06
  9
$DIMJUST
 70
     0
  9
$DIMSD1
 70
     0
  9
$DIMSD2
 70
     0
  9
$DIMTOLJ
 70
     1
  9
$DIMTZIN
 70
     0
  9
$DIMALTZ
 70
     0
  9
$DIMALTTZ
 70
     0
  9
$DIMUPT
 70
     0
  9
$DIMDEC
 70
     3
  9
$DIMTDEC
 70
     3
  9
$DIMALTU
 70
     2
  9
$DIMALTTD
 70
     2
  9
$DIMTXSTY
  7
Standard
  9
$DIMAUNIT
 70
     0
  9
$DIMADEC
 70
     0
  9
$DIMALTRND
 40
0.0
  9
$DIMAZIN
 70
     0
  9
$DIMDSEP
 70
    46
  9
$DIMATFIT
 70
     3
  9
$DIMFRAC
 70
     0
  9
$DIMLDRBLK
  1

  9
$DIMLUNIT
 70
     2
  9
$DIMLWD
 70
    -2
  9
$DIMLWE
 70
    -2
  9
$DIMTMOVE
 70
     0
  9
$LUNITS
 70
     2
  9
$LUPREC
 70
     3
  9
$SKETCHINC
 40
0.1
  9
$FILLETRAD
 40
0.5
  9
$AUNITS
 70
     0
  9
$AUPREC
 70
     0
  9
$MENU
  1
.
  9
$ELEVATION
 40
0.0
  9
$PELEVATION
 40
0.0
  9
$THICKNESS
 40
0.0
  9
$LIMCHECK
 70
     0
  9
$CHAMFERA
 40
0.5
  9
$CHAMFERB
 40
0.5
  9
$CHAMFERC
 40
1.0
  9
$CHAMFERD
 40
0.0
  9
$SKPOLY
 70
     0
  9
$TDCREATE
 40
2456533.451836991
  9
$TDUCREATE
 40
2456533.660170324
  9
$TDUPDATE
 40
2456533.455487466
  9
$TDUUPDATE
 40
2456533.663820799
  9
$TDINDWG
 40
0.0035694792
  9
$TDUSRTIMER
 40
0.0035694792
  9
$USRTIMER
 70
     1
  9
$ANGBASE
 50
0.0
  9
$ANGDIR
 70
     0
  9
$PDMODE
 70
     0
  9
$PDSIZE
 40
-1.0
  9
$PLINEWID
 40
0.0
  9
$SPLFRAME
 70
     0
  9
$SPLINETYPE
 70
     6
  9
$SPLINESEGS
 70
     8
  9
$HANDSEED
  5
3F1
  9
$SURFTAB1
 70
     6
  9
$SURFTAB2
 70
     6
  9
$SURFTYPE
 70
     6
  9
$SURFU
 70
     6
  9
$SURFV
 70
     6
  9
$UCSBASE
  2

  9
$UCSNAME
  2

  9
$UCSORG
 10
0.0
 20
0.0
 30
0.0
  9
$UCSXDIR
 10
1.0
 20
0.0
 30
0.0
  9
$UCSYDIR
 10
0.0
 20
1.0
 30
0.0
  9
$UCSORTHOREF
  2

  9
$UCSORTHOVIEW
 70
     0
  9
$UCSORGTOP
 10
0.0
 20
0.0
 30
0.0
  9
$UCSORGBOTTOM
 10
0.0
 20
0.0
 30
0.0
  9
$UCSORGLEFT
 10
0.0
 20
0.0
 30
0.0
  9
$UCSORGRIGHT
 10
0.0
 20
0.0
 30
0.0
  9
$UCSORGFRONT
 10
0.0
 20
0.0
 30
0.0
  9
$UCSORGBACK
 10
0.0
 20
0.0
 30
0.0
  9
$PUCSBASE
  2

  9
$PUCSNAME
  2

  9
$PUCSORG
 10
0.0
 20
0.0
 30
0.0
  9
$PUCSXDIR
 10
1.0
 20
0.0
 30
0.0
  9
$PUCSYDIR
 10
0.0
 20
1.0
 30
0.0
  9
$PUCSORTHOREF
  2

  9
$PUCSORTHOVIEW
 70
     0
  9
$PUCSORGTOP
 10
0.0
 20
0.0
 30
0.0
  9
$PUCSORGBOTTOM
 10
0.0
 20
0.0
 30
0.0
  9
$PUCSORGLEFT
 10
0.0
 20
0.0
 30
0.0
  9
$PUCSORGRIGHT
 10
0.0
 20
0.0
 30
0.0
  9
$PUCSORGFRONT
 10
0.0
 20
0.0
 30
0.0
  9
$PUCSORGBACK
 10
0.0
 20
0.0
 30
0.0
  9
$USERI1
 70
     0
  9
$USERI2
 70
     0
  9
$USERI3
 70
     0
  9
$USERI4
 70
     0
  9
$USERI5
 70
     0
  9
$USERR1
 40
0.0
  9
$USERR2
 40
0.0
  9
$USERR3
 40
0.0
  9
$USERR4
 40
0.0
  9
$USERR5
 40
0.0
  9
$WORLDVIEW
 70
     1
  9
$SHADEDGE
 70
     3
  9
$SHADEDIF
 70
    70
  9
$TILEMODE
 70
     1
  9
$MAXACTVP
 70
    64
  9
$PINSBASE
 10
0.0
 20
0.0
 30
0.0
  9
$PLIMCHECK
 70
     0
  9
$PEXTMIN
 10
1.000000000000000E+20
 20
1.000000000000000E+20
 30
1.000000000000000E+20
  9
$PEXTMAX
 10
-1.000000000000000E+20
 20
-1.000000000000000E+20
 30
-1.000000000000000E+20
  9
$PLIMMIN
 10
0.0
 20
0.0
  9
$PLIMMAX
 10
12.0
 20
9.0
  9
$UNITMODE
 70
     0
  9
$VISRETAIN
 70
     1
  9
$PLINEGEN
 70
     0
  9
$PSLTSCALE
 70
     1
  9
$TREEDEPTH
 70
  3020
  9
$CMLSTYLE
  2
Standard
  9
$CMLJUST
 70
     0
  9
$CMLSCALE
 40
1.0
  9
$PROXYGRAPHICS
 70
     1
  9
$MEASUREMENT
 70
     0
  9
$CELWEIGHT
370
    -1
  9
$ENDCAPS
280
     0
  9
$JOINSTYLE
280
     0
  9
$LWDISPLAY
290
     1
  9
$INSUNITS
 70
     1
  9
$HYPERLINKBASE
  1

  9
$STYLESHEET
  1

  9
$XEDIT
290
     1
  9
$CEPSNTYPE
380
     0
  9
$PSTYLEMODE
290
     1
  9
$FINGERPRINTGUID
  2
{10C9415D-E652-4CDA-B816-38DB76837A93}
  9
$VERSIONGUID
  2
{1AD39135-8DE8-4979-A4C7-927559E74A1B}
  9
$EXTNAMES
290
     1
  9
$PSVPSCALE
 40
0.0
  9
$OLESTARTUP
290
     0
  9
$SORTENTS
280
   127
  9
$INDEXCTL
280
     0
  9
$HIDETEXT
280
     0
  9
$XCLIPFRAME
290
     0
  9
$HALOGAP
280
     0
  9
$OBSCOLOR
 70
   257
  9
$OBSLTYPE
280
     0
  9
$INTERSECTIONDISPLAY
280
     0
  9
$INTERSECTIONCOLOR
 70
   257
  9
$DIMASSOC
280
     1
  9
$PROJECTNAME
  1

  0
ENDSEC
  0
SECTION
  2
CLASSES
  0
CLASS
  1
ACDBDICTIONARYWDFLT
  2
AcDbDictionaryWithDefault
  3
ObjectDBX Classes
 90
        0
 91
        1
280
     0
281
     0
  0
CLASS
  1
VISUALSTYLE
  2
AcDbVisualStyle
  3
ObjectDBX Classes
 90
     4095
 91
        0
280
     0
281
     0
  0
CLASS
  1
MATERIAL
  2
AcDbMaterial
  3
ObjectDBX Classes
 90
        0
 91
        0
280
     0
281
     0
  0
CLASS
  1
SCALE
  2
AcDbScale
  3
ObjectDBX Classes
 90
     1153
 91
       33
280
     0
281
     0
  0
CLASS
  1
DICTIONARYVAR
  2
AcDbDictionaryVar
  3
ObjectDBX Classes
 90
        0
 91
        1
280
     0
281
     0
  0
CLASS
  1
ACDBPLACEHOLDER
  2
AcDbPlaceHolder
  3
ObjectDBX Classes
 90
        0
 91
        1
280
     0
281
     0
  0
CLASS
  1
LAYOUT
  2
AcDbLayout
  3
ObjectDBX Classes
 90
        0
 91
        3
280
     0
281
     0
  0
ENDSEC
  0
SECTION
  2
TABLES
  0
TABLE
  2
VPORT
  5
8
330
0
100
AcDbSymbolTable
 70
     3
  0
VPORT
  5
3F0
330
8
100
AcDbSymbolTableRecord
100
AcDbViewportTableRecord
  2
*Active
 70
     0
 10
0.0
 20
0.0
 11
1.0
 21
1.0
 12
4.428447775711296
 22
6.284853992084839
 13
0.0
 23
0.0
 14
0.5
 24
0.5
 15
0.5
 25
0.5
 16
0.0
 26
0.0
 36
1.0
 17
0.0
 27
0.0
 37
0.0
 40
10.90377200479043
 41
2.144329896907216
 42
50.0
 43
0.0
 44
0.0
 50
0.0
 51
0.0
 71
     0
 72
  2000
 73
     1
 74
     3
 75
     0
 76
     0
 77
     0
 78
     0
281
     0
 65
     1
110
0.0
120
0.0
130
0.0
111
1.0
121
0.0
131
0.0
112
0.0
122
1.0
132
0.0
 79
     0
146
0.0
  0
ENDTAB
  0
TABLE
  2
LTYPE
  5
5
330
0
100
AcDbSymbolTable
 70
     6
  0
LTYPE
  5
14
330
5
100
AcDbSymbolTableRecord
100
AcDbLinetypeTableRecord
  2
ByBlock
 70
     0
  3

 72
    65
 73
     0
 40
0.0
  0
LTYPE
  5
15
330
5
100
AcDbSymbolTableRecord
100
AcDbLinetypeTableRecord
  2
ByLayer
 70
     0
  3

 72
    65
 73
     0
 40
0.0
  0
LTYPE
  5
16
330
5
100
AcDbSymbolTableRecord
100
AcDbLinetypeTableRecord
  2
Continuous
 70
     0
  3
Solid line
 72
    65
 73
     0
 40
0.0
  0
LTYPE
  5
3F
330
5
100
AcDbSymbolTableRecord
100
AcDbLinetypeTableRecord
  2
HIDDEN
 70
     0
  3
Hidden __ __ __ __ __ __ __ __ __ __ __ __ __ __
 72
    65
 73
     2
 40
0.075
 49
0.05
 74
     0
 49
-0.025
 74
     0
  0
LTYPE
  5
40
330
5
100
AcDbSymbolTableRecord
100
AcDbLinetypeTableRecord
  2
PHANTOM
 70
     0
  3
Phantom ______  __  __  ______  __  __  ______
 72
    65
 73
     6
 40
0.5
 49
0.25
 74
     0
 49
-0.05
 74
     0
 49
0.05
 74
     0
 49
-0.05
 74
     0
 49
0.05
 74
     0
 49
-0.05
 74
     0
  0
LTYPE
  5
41
330
5
100
AcDbSymbolTableRecord
100
AcDbLinetypeTableRecord
  2
CENTER
 70
     0
  3
Center ____ _ ____ _ ____ _ ____ _ ____ _ ____
 72
    65
 73
     4
 40
0.4
 49
0.25
 74
     0
 49
-0.05
 74
     0
 49
0.05
 74
     0
 49
-0.05
 74
     0
  0
LTYPE
  5
42
330
5
100
AcDbSymbolTableRecord
100
AcDbLinetypeTableRecord
  2
CENTERX2
 70
     0
  3
Center (2x) ________  __  ________  __  _____
 72
    65
 73
     4
 40
0.8
 49
0.5
 74
     0
 49
-0.1
 74
     0
 49
0.1
 74
     0
 49
-0.1
 74
     0
  0
LTYPE
  5
43
330
5
100
AcDbSymbolTableRecord
100
AcDbLinetypeTableRecord
  2
DOT2
 70
     0
  3
Dot (.5x) ........................................
 72
    65
 73
     2
 40
0.025
 49
0.0
 74
     0
 49
-0.025
 74
     0
  0
ENDTAB
  0
TABLE
  2
LAYER
  5
2
330
0
100
AcDbSymbolTable
 70
     7
  0
LAYER
  5
10
330
2
100
AcDbSymbolTableRecord
100
AcDbLayerTableRecord
  2
0
 70
     0
 62
     7
  6
Continuous
370
    -3
390
F
  0
LAYER
  5
44
330
2
100
AcDbSymbolTableRecord
100
AcDbLayerTableRecord
  2
SLD-0
 70
     0
 62
   179
  6
Continuous
370
    -3
390
F
  0
LAYER
  5
45
330
2
100
AcDbSymbolTableRecord
100
AcDbLayerTableRecord
  2
SLD-DEFPOINTS
 70
     0
 62
   179
  6
Continuous
370
    -3
390
F
  0
LAYER
  5
46
330
2
100
AcDbSymbolTableRecord
100
AcDbLayerTableRecord
  2
OBJ
 70
     0
 62
   179
  6
Continuous
370
    -3
390
F
  0
LAYER
  5
47
330
2
100
AcDbSymbolTableRecord
100
AcDbLayerTableRecord
  2
FORMAT
 70
     0
 62
     7
  6
Continuous
370
    -3
390
F
  0
LAYER
  5
48
330
2
100
AcDbSymbolTableRecord
100
AcDbLayerTableRecord
  2
TOLERANCES
 70
     0
 62
     7
  6
Continuous
370
    -3
390
F
  0
LAYER
  5
49
330
2
100
AcDbSymbolTableRecord
100
AcDbLayerTableRecord
  2
QTY-BLANK-SIZE-1
 70
     0
 62
     7
  6
Continuous
370
    -3
390
F
  0
ENDTAB
  0
TABLE
  2
STYLE
  5
3
330
0
100
AcDbSymbolTable
 70
     2
  0
STYLE
  5
11
330
3
100
AcDbSymbolTableRecord
100
AcDbTextStyleTableRecord
  2
Standard
 70
     0
 40
0.0
 41
1.0
 50
0.0
 71
     0
 42
0.25
  3
txt
  4

  0
STYLE
  5
3C1
330
3
100
AcDbSymbolTableRecord
100
AcDbTextStyleTableRecord
  2
SLDTEXTSTYLE0
 70
     0
 40
0.0
 41
0.7
 50
0.0
 71
     0
 42
0.2
  3
TXT
  4

  0
ENDTAB
  0
TABLE
  2
VIEW
  5
6
330
0
100
AcDbSymbolTable
 70
     0
  0
ENDTAB
  0
TABLE
  2
UCS
  5
7
330
0
100
AcDbSymbolTable
 70
     0
  0
ENDTAB
  0
TABLE
  2
APPID
  5
9
330
0
100
AcDbSymbolTable
 70
     1
  0
APPID
  5
12
330
9
100
AcDbSymbolTableRecord
100
AcDbRegAppTableRecord
  2
ACAD
 70
     0
  0
ENDTAB
  0
TABLE
  2
DIMSTYLE
  5
A
330
0
100
AcDbSymbolTable
 70
     1
100
AcDbDimStyleTable
 71
     0
  0
DIMSTYLE
105
27
330
A
100
AcDbSymbolTableRecord
100
AcDbDimStyleTableRecord
  2
Standard
 70
     0
340
11
  0
ENDTAB
  0
TABLE
  2
BLOCK_RECORD
  5
1
330
0
100
AcDbSymbolTable
 70
     1
  0
BLOCK_RECORD
  5
1F
330
1
100
AcDbSymbolTableRecord
100
AcDbBlockTableRecord
  2
*Model_Space
340
22
  0
BLOCK_RECORD
  5
1B
330
1
100
AcDbSymbolTableRecord
100
AcDbBlockTableRecord
  2
*Paper_Space
340
1E
  0
BLOCK_RECORD
  5
23
330
1
100
AcDbSymbolTableRecord
100
AcDbBlockTableRecord
  2
*Paper_Space0
340
26
  0
ENDTAB
  0
ENDSEC
  0
SECTION
  2
BLOCKS
  0
BLOCK
  5
20
330
1F
100
AcDbEntity
  8
0
100
AcDbBlockBegin
  2
*Model_Space
 70
     0
 10
0.0
 20
0.0
 30
0.0
  3
*Model_Space
  1

  0
ENDBLK
  5
21
330
1F
100
AcDbEntity
  8
0
100
AcDbBlockEnd
  0
BLOCK
  5
1C
330
1B
100
AcDbEntity
 67
     1
  8
0
100
AcDbBlockBegin
  2
*Paper_Space
 70
     0
 10
0.0
 20
0.0
 30
0.0
  3
*Paper_Space
  1

  0
ENDBLK
  5
1D
330
1B
100
AcDbEntity
 67
     1
  8
0
100
AcDbBlockEnd
  0
BLOCK
  5
24
330
23
100
AcDbEntity
  8
0
100
AcDbBlockBegin
  2
*Paper_Space0
 70
     0
 10
0.0
 20
0.0
 30
0.0
  3
*Paper_Space0
  1

  0
ENDBLK
  5
25
330
23
100
AcDbEntity
  8
0
100
AcDbBlockEnd
  0
ENDSEC
  0
SECTION
  2
ENTITIES
  0
LINE
  5
4A
330
1F
100
AcDbEntity
  8
0
  6
Continuous
 62
     7
370
    15
100
AcDbLine
 10
4.767769960248156
 20
8.139928866023156
 30
0.0
 11
4.767769960248156
 21
8.150045061644499
 31
0.0
  0
LINE
  5
4B
330
1F
100
AcDbEntity
  8
0
  6
Continuous
 62
     7
370
    15
100
AcDbLine
 10
4.702470097262621
 20
8.150045094985857
 30
0.0
 11
4.702470097262621
 21
8.139928899364514
 31
0.0
  0
LINE
  5
4C
330
1F
100
AcDbEntity
  8
0
  6
Continuous
 62
     7
370
    15
100
AcDbLine
 10
4.873836113557138
 20
8.054680137514841
 30
0.0
 11
4.873836113557138
 21
8.064796333136186
 31
0.0
  0
LINE
  5
4D
330
1F
100
AcDbEntity
  8
0
  6
Continuous
 62
     7
370
    15
100
AcDbLine
 10
4.808536126122249
 20
8.064796310908613
 30
0.0
 11
4.808536126122249
 21
8.05468011528727
 31
0.0
  0
LINE
  5
4E
330
1F
100
AcDbEntity
  8
0
  6
Continuous
 62
     7
370
    15
100
AcDbLine
 10
4.555638068461372
 20
8.083096387760138
 30
0.0
 11
4.555638068461372
 21
8.093212583381481
 31
0.0
  0
LINE
  5
4F
330
1F
100
AcDbEntity
  8
0
  6
Continuous
 62
     7
370
    15
100
AcDbLine
 10
4.490338039543365
 20
8.093212572267695
 30
0.0
 11
4.490338039543365
 21
8.083096376646352
 31
0.0
  0
LINE
  5
50
330
1F
100
AcDbEntity
  8
0
  6
Continuous
 62
     7
370
    15
100
AcDbLine
 10
4.661704055837882
 20
7.997847614796679
 30
0.0
 11
4.661704055837882
 21
8.007963810418022
 31
0.0
  0
LINE
  5
51
330
1F
100
AcDbEntity
  8
0
  6
Continuous
 62
     7
370
    15
100
AcDbLine
 10
4.596404068402992
 20
8.007963788190451
 30
0.0
 11
4.596404068402992
 21
7.997847592569107
 31
0.0
  0
LINE
  5
52
330
1F
100
AcDbEntity
  8
0
  6
Continuous
 62
     7
370
    15
100
AcDbLine
 10
4.343506010742116
 20
8.026263865041974
 30
0.0
 11
4.343506010742116
 21
8.036380060663319
 31
0.0
  0
LINE
  5
53
330
1F
100
AcDbEntity
  8
0
  6
Continuous
 62
     7
370
    15
100
AcDbLine
 10
4.278205981824108
 20
8.036380049549531
 30
0.0
 11
4.278205981824108
 21
8.026263853928188
 31
0.0
  0
LINE
  5
54
330
1F
100
AcDbEntity
  8
0
  6
Continuous
 62
     7
370
    15
100
AcDbLine
 10
4.449571998118625
 20
7.941015092078516
 30
0.0
 11
4.449571998118625
 21
7.95113128769986
 31
0.0
  0
LINE
  5
55
330
1F
100
AcDbEntity
  8
0
  6
Continuous
 62
     7
370
    15
100
AcDbLine
 10
4.384272010683735
 20
7.951131265472287
 30
0.0
 11
4.384272010683735
 21
7.941015069850944
 31
0.0
  0
LINE
  5
56
330
1F
100
AcDbEntity
  8
0
  6
Continuous
 62
     7
370
    15
100
AcDbLine
 10
4.131373953022858
 20
7.969431342323812
 30
0.0
 11
4.131373953022858
 21
7.979547537945155
 31
0.0
  0
LINE
  5
57
330
1F
100
AcDbEntity
  8
0
  6
Continuous
 62
     7
370
    15
100
AcDbLine
 10
4.06607392410485
 20
7.979547526831369
 30
0.0
 11
4.06607392410485
 21
7.969431331210026
 31
0.0
  0
LINE
  5
58
330
1F
100
AcDbEntity
  8
0
  6
Continuous
 62
     7
370
    15
100
AcDbLine
 10
4.237439940399368
 20
7.884182569360354
 30
0.0
 11
4.237439940399368
 21
7.894298764981697
 31
0.0
  0
LINE
  5
59
330
1F
100
AcDbEntity
  8
0
  6
Continuous
 62
     7
370
    15
100
AcDbLine
 10
4.172139952964479
 20
7.894298742754125
 30
0.0
 11
4.172139952964479
 21
7.884182547132781
 31
0.0
  0
LINE
  5
5A
330
1F
100
AcDbEntity
  8
0
  6
Continuous
 62
     7
370
    15
100
AcDbLine
 10
3.707109837584344
 20
7.855766296887487
 30
0.0
 11
3.707109837584344
 21
7.86588249250883
 31
0.0
  0
LINE
  5
5B
330
1F
100
AcDbEntity
  8
0
  6
Continuous
 62
     7
370
    15
100
AcDbLine
 10
3.641809808666336
 20
7.865882481395043
 30
0.0
 11
3.641809808666336
 21
7.8557662857737
 31
0.0
  0
LINE
  5
5C
330
1F
100
AcDbEntity
  8
0
  6
Continuous
 62
     7
370
    15
100
AcDbLine
 10
3.813175824960854
 20
7.770517523924028
 30
0.0
 11
3.813175824960854
 21
7.780633719545371
 31
0.0
  0
LINE
  5
5D
330
1F
100
AcDbEntity
  8
0
  6
Continuous
 62
     7
370
    15
100
AcDbLine
 10
3.747875837525964
 20
7.780633697317799
 30
0.0
 11
3.747875837525964
 21
7.770517501696456
 31
0.0
  0
LINE
  5
5E
330
1F
100
AcDbEntity
  8
0
  6
Continuous
 62
     7
370
    15
100
AcDbLine
 10
3.494977779865088
 20
7.798933774169324
 30
0.0
 11
3.494977779865088
 21
7.809049969790667
 31
0.0
  0
LINE
  5
5F
330
1F
100
AcDbEntity
  8
0
  6
Continuous
 62
     7
370
    15
100
AcDbLine
 10
3.429677916879553
 20
7.809050003132025
 30
0.0
 11
3.429677916879553
 21
7.798933807510681
 31
0.0
  0
LINE
  5
60
330
1F
100
AcDbEntity
  8
0
  6
Continuous
 62
     7
370
    15
100
AcDbLine
 10
3.601043767241597
 20
7.713685001205865
 30
0.0
 11
3.601043767241597
 21
7.723801196827208
 31
0.0
  0
LINE
  5
61
330
1F
100
AcDbEntity
  8
0
  6
Continuous
 62
     7
370
    15
100
AcDbLine
 10
3.535743945739182
 20
7.72380121905478
 30
0.0
 11
3.535743945739182
 21
7.713685023433437
 31
0.0
  0
LINE
  5
62
330
1F
100
AcDbEntity
  8
0
  6
Continuous
 62
     7
370
    15
100
AcDbLine
 10
3.28284572214583
 20
7.742101251451161
 30
0.0
 11
3.28284572214583
 21
7.752217447072504
 31
0.0
  0
LINE
  5
63
330
1F
100
AcDbEntity
  8
0
  6
Continuous
 62
     7
370
    15
100
AcDbLine
 10
3.217545859160297
 20
7.752217480413862
 30
0.0
 11
3.217545859160297
 21
7.742101284792519
 31
0.0
  0
LINE
  5
64
330
1F
100
AcDbEntity
  8
0
  6
Continuous
 62
     7
370
    15
100
AcDbLine
 10
3.388911709522339
 20
7.656852478487702
 30
0.0
 11
3.388911709522339
 21
7.666968674109045
 31
0.0
  0
LINE
  5
65
330
1F
100
AcDbEntity
  8
0
  6
Continuous
 62
     7
370
    15
100
AcDbLine
 10
3.323611888019924
 20
7.666968696336618
 30
0.0
 11
3.323611888019924
 21
7.656852500715274
 31
0.0
  0
LINE
  5
66
330
1F
100
AcDbEntity
  8
0
  6
Continuous
 62
     7
370
    15
100
AcDbLine
 10
3.070713664426573
 20
7.685268728732998
 30
0.0
 11
3.070713664426573
 21
7.695384924354341
 31
0.0
  0
LINE
  5
67
330
1F
100
AcDbEntity
  8
0
  6
Continuous
 62
     7
370
    15
100
AcDbLine
 10
3.00541380144104
 20
7.695384957695699
 30
0.0
 11
3.00541380144104
 21
7.685268762074356
 31
0.0
  0
LINE
  5
68
330
1F
100
AcDbEntity
  8
0
  6
Continuous
 62
     7
370
    15
100
AcDbLine
 10
3.176779651803082
 20
7.600019955769539
 30
0.0
 11
3.176779651803082
 21
7.610136151390883
 31
0.0
  0
LINE
  5
69
330
1F
100
AcDbEntity
  8
0
  6
Continuous
 62
     7
370
    15
100
AcDbLine
 10
3.111479830300667
 20
7.610136173618455
 30
0.0
 11
3.111479830300667
 21
7.600019977997112
 31
0.0
  0
LINE
  5
6A
330
1F
100
AcDbEntity
  8
0
  6
Continuous
 62
     7
370
    15
100
AcDbLine
 10
2.964647594083825
 20
7.543187433051377
 30
0.0
 11
2.964647594083825
 21
7.55330362867272
 31
0.0
  0
LINE
  5
6B
330
1F
100
AcDbEntity
  8
0
  6
Continuous
 62
     7
370
    15
100
AcDbLine
 10
2.89934777258141
 20
7.553303650900292
 30
0.0
 11
2.89934777258141
 21
7.543187455278949
 31
0.0
  0
LINE
  5
6C
330
1F
100
AcDbEntity
  8
0
  6
Continuous
 62
     7
370
    15
100
AcDbLine
 10
2.646449548988059
 20
7.571603683296672
 30
0.0
 11
2.646449548988059
 21
7.581719878918016
 31
0.0
  0
LINE
  5
6D
330
1F
100
AcDbEntity
  8
0
  6
Continuous
 62
     7
370
    15
100
AcDbLine
 10
2.581149686002525
 20
7.581719912259373
 30
0.0
 11
2.581149686002525
 21
7.57160371663803
 31
0.0
  0
LINE
  5
6E
330
1F
100
AcDbEntity
  8
0
  6
Continuous
 62
     7
370
    15
100
AcDbLine
 10
2.328251752791003
 20
7.372689953807176
 30
0.0
 11
2.328251752791003
 21
7.382806149428519
 31
0.0
  0
LINE
  5
6F
330
1F
100
AcDbEntity
  8
0
  6
Continuous
 62
     7
370
    15
100
AcDbLine
 10
2.262951599423639
 20
7.382806082745803
 30
0.0
 11
2.262951599423639
 21
7.37268988712446
 31
0.0
  0
LINE
  5
70
330
1F
100
AcDbEntity
  8
0
  6
Continuous
 62
     7
370
    15
100
AcDbLine
 10
2.54038381051026
 20
7.429522476525339
 30
0.0
 11
2.54038381051026
 21
7.439638672146682
 31
0.0
  0
LINE
  5
71
330
1F
100
AcDbEntity
  8
0
  6
Continuous
 62
     7
370
    15
100
AcDbLine
 10
2.475083657142896
 20
7.439638605463966
 30
0.0
 11
2.475083657142896
 21
7.429522409842623
 31
0.0
  0
LINE
  5
72
330
1F
100
AcDbEntity
  8
0
  6
Continuous
 62
     7
370
    15
100
AcDbLine
 10
2.858581606707316
 20
7.628436206014835
 30
0.0
 11
2.858581606707316
 21
7.638552401636178
 31
0.0
  0
LINE
  5
73
330
1F
100
AcDbEntity
  8
0
  6
Continuous
 62
     7
370
    15
100
AcDbLine
 10
2.793281743721782
 20
7.638552434977536
 30
0.0
 11
2.793281743721782
 21
7.628436239356193
 31
0.0
  0
LINE
  5
74
330
1F
100
AcDbEntity
  8
0
  6
Continuous
 62
     7
370
    15
100
AcDbLine
 10
2.752515536364568
 20
7.486354910333214
 30
0.0
 11
2.752515536364568
 21
7.496471105954557
 31
0.0
  0
LINE
  5
75
330
1F
100
AcDbEntity
  8
0
  6
Continuous
 62
     7
370
    15
100
AcDbLine
 10
2.687215714862153
 20
7.496471128182129
 30
0.0
 11
2.687215714862153
 21
7.486354932560786
 31
0.0
  0
LINE
  5
76
330
1F
100
AcDbEntity
  8
0
  6
Continuous
 62
     7
370
    15
100
AcDbLine
 10
2.222185765414494
 20
7.457938726770634
 30
0.0
 11
2.222185765414494
 21
7.468054922391978
 31
0.0
  0
LINE
  5
77
330
1F
100
AcDbEntity
  8
0
  6
Continuous
 62
     7
370
    15
100
AcDbLine
 10
2.156885570564011
 20
7.468054866823048
 30
0.0
 11
2.156885570564011
 21
7.457938671201704
 31
0.0
  0
LINE
  5
78
330
1F
100
AcDbEntity
  8
0
  6
Continuous
 62
     7
370
    15
100
AcDbLine
 10
2.434317823133751
 20
7.514771249488797
 30
0.0
 11
2.434317823133751
 21
7.52488744511014
 31
0.0
  0
LINE
  5
79
330
1F
100
AcDbEntity
  8
0
  6
Continuous
 62
     7
370
    15
100
AcDbLine
 10
2.369017628283268
 20
7.524887389541211
 30
0.0
 11
2.369017628283268
 21
7.514771193919867
 31
0.0
  0
LINE
  5
7A
330
1F
100
AcDbEntity
  8
0
  6
Continuous
 62
     7
370
    15
100
AcDbLine
 10
7.585325279535495
 20
8.053667969141567
 30
0.0
 11
7.443903852411833
 21
8.091556332438724
 31
0.0
  0
LINE
  5
7B
330
1F
100
AcDbEntity
  8
0
  6
Continuous
 62
     7
370
    15
100
AcDbLine
 10
7.418025384080839
 20
7.994962783066205
 30
0.0
 11
7.559446811204499
 21
7.957074419769049
 31
0.0
  0
LWPOLYLINE
  5
7C
330
1F
100
AcDbEntity
  8
0
  6
Continuous
 62
     7
370
    15
100
AcDbPolyline
 90
        9
 70
   128
 43
0.0
 10
4.758207064329874
 20
8.14385980632994
 10
4.750376337512401
 20
8.142311444786241
 10
4.74118998386177
 20
8.141450259741141
 10
4.731464432635406
 20
8.141352791838427
 10
4.722063611261546
 20
8.142027643148416
 10
4.713822865299702
 20
8.143414877023525
 10
4.707474454759629
 20
8.145391219350079
 10
4.703582633020706
 20
8.147781138992902
 10
4.702470097262621
 20
8.150045094985857
  0
LWPOLYLINE
  5
7D
330
1F
100
AcDbEntity
  8
0
  6
Continuous
 62
     7
370
    15
100
AcDbPolyline
 90
        4
 70
   128
 43
0.0
 10
4.767769960248156
 20
8.150045061644499
 10
4.767200894827021
 20
8.148418870257845
 10
4.76398645093193
 20
8.145957744588487
 10
4.758207064329874
 20
8.14385980632994
  0
LWPOLYLINE
  5
7E
330
1F
100
AcDbEntity
  8
0
  6
Continuous
 62
     7
370
    15
100
AcDbPolyline
 90
       22
 70
   128
 43
0.0
 10
4.757499984573113
 20
8.145012704162324
 10
4.76310232122493
 20
8.147046404738125
 10
4.766218242713314
 20
8.149432123369866
 10
4.766571098120237
 20
8.151957953500978
 10
4.764129152859959
 20
8.154399363314075
 10
4.759109819957132
 20
8.156539533959204
 10
4.751958835521253
 20
8.158188230762391
 10
4.743311637963236
 20
8.159198996252488
 10
4.733936702055391
 20
8.159482019925295
 10
4.724666801403874
 20
8.159012106828081
 10
4.716325666294984
 20
8.157831033682203
 10
4.709654517092102
 20
8.156043759082102
 10
4.705246230526446
 20
8.153809121256463
 10
4.703492241305248
 20
8.151325612422217
 10
4.704548484471374
 20
8.148813919026823
 10
4.708321249659879
 20
8.146497239233356
 10
4.714475228823011
 20
8.144581433698832
 10
4.722463508524977
 20
8.143236676713595
 10
4.731576437055662
 20
8.142582497045458
 10
4.741004139490383
 20
8.142676986453539
 10
4.749909030181224
 20
8.143511776257026
 10
4.757499984573113
 20
8.145012704162324
  0
LWPOLYLINE
  5
7F
330
1F
100
AcDbEntity
  8
0
  6
Continuous
 62
     7
370
    15
100
AcDbPolyline
 90
        4
 70
   128
 43
0.0
 10
4.758207064329874
 20
8.133743610708597
 10
4.76398645093193
 20
8.135841548967144
 10
4.767200894827021
 20
8.138302674636502
 10
4.767769960248156
 20
8.139928866023156
  0
LWPOLYLINE
  5
80
330
1F
100
AcDbEntity
  8
0
  6
Continuous
 62
     7
370
    15
100
AcDbPolyline
 90
        9
 70
   128
 43
0.0
 10
4.702470097262621
 20
8.139928899364514
 10
4.703582633020706
 20
8.137664943371559
 10
4.707474454759629
 20
8.135275023728736
 10
4.713822865299702
 20
8.133298681402182
 10
4.722063611261546
 20
8.131911447527073
 10
4.731464432635406
 20
8.131236596217084
 10
4.74118998386177
 20
8.131334064119798
 10
4.750376337512401
 20
8.132195249164897
 10
4.758207064329874
 20
8.133743610708597
  0
LWPOLYLINE
  5
81
330
1F
100
AcDbEntity
  8
0
  6
Continuous
 62
     7
370
    15
100
AcDbPolyline
 90
        9
 70
   128
 43
0.0
 10
4.757499984573113
 20
8.132969694881737
 10
4.749909030181224
 20
8.131468766976439
 10
4.741004139490383
 20
8.130633977172951
 10
4.731576437055662
 20
8.13053948776487
 10
4.722463508524977
 20
8.131193667433008
 10
4.714475228823011
 20
8.132538424418244
 10
4.708321249659879
 20
8.134454229952769
 10
4.704548484471374
 20
8.136770909746234
 10
4.704286435611096
 20
8.13705209964436
  0
LWPOLYLINE
  5
82
330
1F
100
AcDbEntity
  8
0
  6
Continuous
 62
     7
370
    15
100
AcDbPolyline
 90
        9
 70
   128
 43
0.0
 10
4.864273093189502
 20
8.058611022252696
 10
4.856442324888909
 20
8.057062671822782
 10
4.847256137170754
 20
8.056201531232826
 10
4.837530420011916
 20
8.056104018874968
 10
4.828129598638056
 20
8.056778870184958
 10
4.81988889415933
 20
8.058166092946281
 10
4.813540483619258
 20
8.060142435272833
 10
4.809648620397214
 20
8.062532366029444
 10
4.808536126122249
 20
8.064796310908613
  0
LWPOLYLINE
  5
83
330
1F
100
AcDbEntity
  8
0
  6
Continuous
 62
     7
370
    15
100
AcDbPolyline
 90
        4
 70
   128
 43
0.0
 10
4.873836113557138
 20
8.064796333136186
 10
4.87326688220353
 20
8.063170097294388
 10
4.870052438308439
 20
8.060708971625031
 10
4.864273093189502
 20
8.058611022252696
  0
LWPOLYLINE
  5
84
330
1F
100
AcDbEntity
  8
0
  6
Continuous
 62
     7
370
    15
100
AcDbPolyline
 90
       22
 70
   128
 43
0.0
 10
4.863565971949623
 20
8.059763931198865
 10
4.869168350084557
 20
8.061797620660881
 10
4.872284230089824
 20
8.064183350406405
 10
4.872637085496746
 20
8.06670918053752
 10
4.870195306168943
 20
8.06915063480576
 10
4.865175931782997
 20
8.071290772109531
 10
4.858024822897761
 20
8.072939457798932
 10
4.849377666822864
 20
8.073950212175244
 10
4.840002730915019
 20
8.074233235848051
 10
4.830732830263501
 20
8.073763322750837
 10
4.822391653671494
 20
8.072582260718746
 10
4.815720504468612
 20
8.070794986118643
 10
4.811312259386074
 20
8.068560337179219
 10
4.809558270164876
 20
8.066076828344973
 10
4.810614513331002
 20
8.063565134949579
 10
4.814387237036388
 20
8.061248466269899
 10
4.820541257682639
 20
8.059332649621588
 10
4.828529495901486
 20
8.057987903750138
 10
4.83764242443217
 20
8.057333724081999
 10
4.847070126866892
 20
8.057428213490082
 10
4.855975059040852
 20
8.058262992179781
 10
4.863565971949623
 20
8.059763931198865
  0
LWPOLYLINE
  5
85
330
1F
100
AcDbEntity
  8
0
  6
Continuous
 62
     7
370
    15
100
AcDbPolyline
 90
        4
 70
   128
 43
0.0
 10
4.864273093189502
 20
8.048494826631353
 10
4.870052438308439
 20
8.050592776003687
 10
4.87326688220353
 20
8.053053901673044
 10
4.873836113557138
 20
8.054680137514841
  0
LWPOLYLINE
  5
86
330
1F
100
AcDbEntity
  8
0
  6
Continuous
 62
     7
370
    15
100
AcDbPolyline
 90
        9
 70
   128
 43
0.0
 10
4.808536126122249
 20
8.05468011528727
 10
4.809648620397214
 20
8.0524161704081
 10
4.813540483619258
 20
8.05002623965149
 10
4.81988889415933
 20
8.048049897324938
 10
4.828129598638056
 20
8.046662674563615
 10
4.837530420011916
 20
8.045987823253625
 10
4.847256137170754
 20
8.046085335611483
 10
4.856442324888909
 20
8.046946476201439
 10
4.864273093189502
 20
8.048494826631353
  0
LWPOLYLINE
  5
87
330
1F
100
AcDbEntity
  8
0
  6
Continuous
 62
     7
370
    15
100
AcDbPolyline
 90
        9
 70
   128
 43
0.0
 10
4.863565971949623
 20
8.047720921918278
 10
4.855975059040852
 20
8.046219982899193
 10
4.847070126866892
 20
8.045385204209495
 10
4.83764242443217
 20
8.045290714801412
 10
4.828529495901486
 20
8.045944894469549
 10
4.820541257682639
 20
8.047289640341
 10
4.814387237036388
 20
8.049205456989311
 10
4.810614513331002
 20
8.05152212566899
 10
4.810352422987604
 20
8.051803326680902
  0
LWPOLYLINE
  5
88
330
1F
100
AcDbEntity
  8
0
  6
Continuous
 62
     7
370
    15
100
AcDbPolyline
 90
        9
 70
   128
 43
0.0
 10
4.546075006610617
 20
8.087027283611778
 10
4.538244279793143
 20
8.085478922068078
 10
4.529058092074988
 20
8.084617781478122
 10
4.51933237491615
 20
8.084520269120263
 10
4.50993155354229
 20
8.085195120430254
 10
4.501690807580445
 20
8.086582354305361
 10
4.495342562972846
 20
8.088558741087059
 10
4.491450575301448
 20
8.09094861627474
 10
4.490338039543365
 20
8.093212572267695
  0
LWPOLYLINE
  5
89
330
1F
100
AcDbEntity
  8
0
  6
Continuous
 62
     7
370
    15
100
AcDbPolyline
 90
        4
 70
   128
 43
0.0
 10
4.555638068461372
 20
8.093212583381481
 10
4.555068837107763
 20
8.091586347539683
 10
4.551854393212673
 20
8.089125221870325
 10
4.546075006610617
 20
8.087027283611778
  0
LWPOLYLINE
  5
8A
330
1F
100
AcDbEntity
  8
0
  6
Continuous
 62
     7
370
    15
100
AcDbPolyline
 90
       22
 70
   128
 43
0.0
 10
4.545367926853857
 20
8.088180181444162
 10
4.550970263505672
 20
8.090213882019963
 10
4.554086184994057
 20
8.092599600651702
 10
4.55443904040098
 20
8.095125430782816
 10
4.551997261073177
 20
8.097566885051055
 10
4.546977845204112
 20
8.099707033468613
 10
4.539826777801995
 20
8.101355708044229
 10
4.531179580243979
 20
8.102366473534324
 10
4.521804644336134
 20
8.102649497207133
 10
4.512534743684617
 20
8.102179584109919
 10
4.504193608575728
 20
8.100998510964041
 10
4.497522459372846
 20
8.09921123636394
 10
4.49311417280719
 20
8.096976598538299
 10
4.491360183585991
 20
8.094493089704055
 10
4.492416426752117
 20
8.091981396308659
 10
4.496189191940621
 20
8.089664716515194
 10
4.502343171103754
 20
8.087748910980669
 10
4.51033145080572
 20
8.086404153995433
 10
4.519444379336404
 20
8.085749974327296
 10
4.528872081771126
 20
8.085844463735377
 10
4.537777138394441
 20
8.086679297994008
 10
4.545367926853857
 20
8.088180181444162
  0
LWPOLYLINE
  5
8B
330
1F
100
AcDbEntity
  8
0
  6
Continuous
 62
     7
370
    15
100
AcDbPolyline
 90
        4
 70
   128
 43
0.0
 10
4.546075006610617
 20
8.076911087990433
 10
4.551854393212673
 20
8.079009026248982
 10
4.555068837107763
 20
8.08147015191834
 10
4.555638068461372
 20
8.083096387760138
  0
LWPOLYLINE
  5
8C
330
1F
100
AcDbEntity
  8
0
  6
Continuous
 62
     7
370
    15
100
AcDbPolyline
 90
        9
 70
   128
 43
0.0
 10
4.490338039543365
 20
8.083096376646352
 10
4.491450575301448
 20
8.080832420653397
 10
4.495342562972846
 20
8.078442545465716
 10
4.501690807580445
 20
8.076466158684018
 10
4.50993155354229
 20
8.075078924808911
 10
4.51933237491615
 20
8.07440407349892
 10
4.529058092074988
 20
8.074501585856777
 10
4.538244279793143
 20
8.075362726446734
 10
4.546075006610617
 20
8.076911087990433
  0
LWPOLYLINE
  5
8D
330
1F
100
AcDbEntity
  8
0
  6
Continuous
 62
     7
370
    15
100
AcDbPolyline
 90
        9
 70
   128
 43
0.0
 10
4.545367926853857
 20
8.076137172163573
 10
4.537777138394441
 20
8.074636288713419
 10
4.528872081771126
 20
8.073801454454789
 10
4.519444379336404
 20
8.073706965046708
 10
4.51033145080572
 20
8.074361144714846
 10
4.502343171103754
 20
8.07570590170008
 10
4.496189191940621
 20
8.077621707234607
 10
4.492416426752117
 20
8.079938387028072
 10
4.492154377891838
 20
8.080219576926198
  0
LWPOLYLINE
  5
8E
330
1F
100
AcDbEntity
  8
0
  6
Continuous
 62
     7
370
    15
100
AcDbPolyline
 90
        9
 70
   128
 43
0.0
 10
4.652141035470244
 20
8.001778499534532
 10
4.644310433102127
 20
8.000230193559762
 10
4.635124079451497
 20
7.999369008514664
 10
4.625398362292659
 20
7.999271496156805
 10
4.615997540918799
 20
7.999946347466796
 10
4.607756836440072
 20
8.001333570228117
 10
4.601408591832475
 20
8.003309957009815
 10
4.597516562677958
 20
8.005699843311282
 10
4.596404068402992
 20
8.007963788190451
  0
LWPOLYLINE
  5
8F
330
1F
100
AcDbEntity
  8
0
  6
Continuous
 62
     7
370
    15
100
AcDbPolyline
 90
        4
 70
   128
 43
0.0
 10
4.661704055837882
 20
8.007963810418022
 10
4.661134824484273
 20
8.006337574576225
 10
4.657920380589182
 20
8.003876448906867
 10
4.652141035470244
 20
8.001778499534532
  0
LWPOLYLINE
  5
90
330
1F
100
AcDbEntity
  8
0
  6
Continuous
 62
     7
370
    15
100
AcDbPolyline
 90
       22
 70
   128
 43
0.0
 10
4.651433914230366
 20
8.002931408480703
 10
4.6570362923653
 20
8.004965097942719
 10
4.660152172370566
 20
8.007350827688243
 10
4.660505027777489
 20
8.009876657819358
 10
4.658063248449686
 20
8.012318112087598
 10
4.653043874063739
 20
8.014458249391369
 10
4.645892765178505
 20
8.016106935080768
 10
4.637245609103607
 20
8.01711768945708
 10
4.627870673195761
 20
8.017400713129887
 10
4.618600772544245
 20
8.016930800032675
 10
4.610259595952237
 20
8.015749738000582
 10
4.603588446749355
 20
8.01396246340048
 10
4.599180201666817
 20
8.011727814461055
 10
4.597426212445619
 20
8.009244305626811
 10
4.598482455611745
 20
8.006732612231415
 10
4.60225517931713
 20
8.004415943551736
 10
4.608409199963382
 20
8.002500126903425
 10
4.616397438182229
 20
8.001155381031974
 10
4.625510366712914
 20
8.000501201363837
 10
4.634938069147636
 20
8.00059569077192
 10
4.643843167254069
 20
8.001430513916762
 10
4.651433914230366
 20
8.002931408480703
  0
LWPOLYLINE
  5
91
330
1F
100
AcDbEntity
  8
0
  6
Continuous
 62
     7
370
    15
100
AcDbPolyline
 90
        4
 70
   128
 43
0.0
 10
4.652141035470244
 20
7.99166230391319
 10
4.657920380589182
 20
7.993760253285524
 10
4.661134824484273
 20
7.996221378954881
 10
4.661704055837882
 20
7.997847614796679
  0
LWPOLYLINE
  5
92
330
1F
100
AcDbEntity
  8
0
  6
Continuous
 62
     7
370
    15
100
AcDbPolyline
 90
        9
 70
   128
 43
0.0
 10
4.596404068402992
 20
7.997847592569107
 10
4.597516562677958
 20
7.995583647689938
 10
4.601408591832475
 20
7.993193761388471
 10
4.607756836440072
 20
7.991217374606774
 10
4.615997540918799
 20
7.989830151845453
 10
4.625398362292659
 20
7.989155300535462
 10
4.635124079451497
 20
7.98925281289332
 10
4.644310433102127
 20
7.990113997938419
 10
4.652141035470244
 20
7.99166230391319
  0
LWPOLYLINE
  5
93
330
1F
100
AcDbEntity
  8
0
  6
Continuous
 62
     7
370
    15
100
AcDbPolyline
 90
        9
 70
   128
 43
0.0
 10
4.651433914230366
 20
7.990888399200115
 10
4.643843167254069
 20
7.989387504636174
 10
4.634938069147636
 20
7.988552681491332
 10
4.625510366712914
 20
7.988458192083249
 10
4.616397438182229
 20
7.989112371751387
 10
4.608409199963382
 20
7.990457117622836
 10
4.60225517931713
 20
7.992372934271148
 10
4.598482455611745
 20
7.994689602950828
 10
4.598220365268348
 20
7.99497080396274
  0
LWPOLYLINE
  5
94
330
1F
100
AcDbEntity
  8
0
  6
Continuous
 62
     7
370
    15
100
AcDbPolyline
 90
        9
 70
   128
 43
0.0
 10
4.333942948891359
 20
8.030194760893614
 10
4.326112388006361
 20
8.028646443805058
 10
4.316926034355731
 20
8.027785258759958
 10
4.307200317196892
 20
8.027687746402101
 10
4.297799495823033
 20
8.02836259771209
 10
4.289558749861187
 20
8.029749831587199
 10
4.28321050525359
 20
8.031726218368895
 10
4.279318517582192
 20
8.034116093556576
 10
4.278205981824108
 20
8.036380049549531
  0
LWPOLYLINE
  5
95
330
1F
100
AcDbEntity
  8
0
  6
Continuous
 62
     7
370
    15
100
AcDbPolyline
 90
        4
 70
   128
 43
0.0
 10
4.343506010742116
 20
8.036380060663319
 10
4.342936779388507
 20
8.034753824821521
 10
4.339722335493416
 20
8.032292699152163
 10
4.333942948891359
 20
8.030194760893614
  0
LWPOLYLINE
  5
96
330
1F
100
AcDbEntity
  8
0
  6
Continuous
 62
     7
370
    15
100
AcDbPolyline
 90
       22
 70
   128
 43
0.0
 10
4.3332358691346
 20
8.031347658725998
 10
4.338838205786415
 20
8.033381359301799
 10
4.341954127274799
 20
8.03576707793354
 10
4.342306982681723
 20
8.038292908064653
 10
4.33986520335392
 20
8.040734362332893
 10
4.334845787484855
 20
8.042874510750449
 10
4.327694886015213
 20
8.044523229781209
 10
4.319047522524722
 20
8.045533950816162
 10
4.309672586616876
 20
8.045816974488971
 10
4.30040268596536
 20
8.045347061391755
 10
4.292061550856471
 20
8.044165988245879
 10
4.285390401653589
 20
8.042378713645776
 10
4.280982115087932
 20
8.040144075820137
 10
4.279228125866734
 20
8.037660566985891
 10
4.28028436903286
 20
8.035148873590497
 10
4.284057134221364
 20
8.032832193797032
 10
4.290211113384497
 20
8.030916388262506
 10
4.298199393086463
 20
8.029571631277271
 10
4.307312321617148
 20
8.028917451609133
 10
4.316740024051869
 20
8.029011941017214
 10
4.325645080675184
 20
8.029846775275844
 10
4.3332358691346
 20
8.031347658725998
  0
LWPOLYLINE
  5
97
330
1F
100
AcDbEntity
  8
0
  6
Continuous
 62
     7
370
    15
100
AcDbPolyline
 90
        4
 70
   128
 43
0.0
 10
4.333942948891359
 20
8.020078565272271
 10
4.339722335493416
 20
8.02217650353082
 10
4.342936779388507
 20
8.024637629200176
 10
4.343506010742116
 20
8.026263865041974
  0
LWPOLYLINE
  5
98
330
1F
100
AcDbEntity
  8
0
  6
Continuous
 62
     7
370
    15
100
AcDbPolyline
 90
        9
 70
   128
 43
0.0
 10
4.278205981824108
 20
8.026263853928188
 10
4.279318517582192
 20
8.023999897935233
 10
4.28321050525359
 20
8.021610022747552
 10
4.289558749861187
 20
8.019633635965856
 10
4.297799495823033
 20
8.018246402090747
 10
4.307200317196892
 20
8.017571550780758
 10
4.316926034355731
 20
8.017669063138615
 10
4.326112388006361
 20
8.018530248183715
 10
4.333942948891359
 20
8.020078565272271
  0
LWPOLYLINE
  5
99
330
1F
100
AcDbEntity
  8
0
  6
Continuous
 62
     7
370
    15
100
AcDbPolyline
 90
        9
 70
   128
 43
0.0
 10
4.3332358691346
 20
8.019304649445411
 10
4.325645080675184
 20
8.017803765995257
 10
4.316740024051869
 20
8.016968931736627
 10
4.307312321617148
 20
8.016874442328544
 10
4.298199393086463
 20
8.017528621996682
 10
4.290211113384497
 20
8.018873378981918
 10
4.284057134221364
 20
8.020789184516443
 10
4.28028436903286
 20
8.02310586430991
 10
4.280022320172581
 20
8.023387054208034
  0
LWPOLYLINE
  5
9A
330
1F
100
AcDbEntity
  8
0
  6
Continuous
 62
     7
370
    15
100
AcDbPolyline
 90
        9
 70
   128
 43
0.0
 10
4.440008977750987
 20
7.94494597681637
 10
4.43217837538287
 20
7.9433976708416
 10
4.42299202173224
 20
7.942536485796501
 10
4.413266304573402
 20
7.942438973438642
 10
4.403865483199542
 20
7.943113824748633
 10
4.395624778720815
 20
7.944501047509955
 10
4.389276534113218
 20
7.946477434291652
 10
4.385384504958701
 20
7.948867320593119
 10
4.384272010683735
 20
7.951131265472287
  0
LWPOLYLINE
  5
9B
330
1F
100
AcDbEntity
  8
0
  6
Continuous
 62
     7
370
    15
100
AcDbPolyline
 90
        4
 70
   128
 43
0.0
 10
4.449571998118625
 20
7.95113128769986
 10
4.449002766765016
 20
7.949505051858062
 10
4.445788322869925
 20
7.947043926188705
 10
4.440008977750987
 20
7.94494597681637
  0
LWPOLYLINE
  5
9C
330
1F
100
AcDbEntity
  8
0
  6
Continuous
 62
     7
370
    15
100
AcDbPolyline
 90
       22
 70
   128
 43
0.0
 10
4.439301856511109
 20
7.94609888576254
 10
4.444904234646043
 20
7.948132575224555
 10
4.448020280583784
 20
7.950518349425224
 10
4.448372970058232
 20
7.953044135101195
 10
4.445931190730428
 20
7.955485589369434
 10
4.440911816344482
 20
7.957625726673205
 10
4.433760873391722
 20
7.95927445681775
 10
4.425113717316825
 20
7.960285211194062
 10
4.415738615476504
 20
7.960568190411725
 10
4.406468714824987
 20
7.960098277314512
 10
4.39812753823298
 20
7.95891721528242
 10
4.391456554962573
 20
7.957129985137461
 10
4.38704814394756
 20
7.954895291742893
 10
4.385294154726362
 20
7.952411782908647
 10
4.386350397892488
 20
7.949900089513253
 10
4.390123121597873
 20
7.947583420833573
 10
4.396277142244125
 20
7.945667604185262
 10
4.404265380462972
 20
7.944322858313812
 10
4.413378308993658
 20
7.943668678645673
 10
4.422806011428378
 20
7.943763168053756
 10
4.431711109534812
 20
7.944597991198599
 10
4.439301856511109
 20
7.94609888576254
  0
LWPOLYLINE
  5
9D
330
1F
100
AcDbEntity
  8
0
  6
Continuous
 62
     7
370
    15
100
AcDbPolyline
 90
        4
 70
   128
 43
0.0
 10
4.440008977750987
 20
7.934829781195027
 10
4.445788322869925
 20
7.936927730567361
 10
4.449002766765016
 20
7.939388856236718
 10
4.449571998118625
 20
7.941015092078516
  0
LWPOLYLINE
  5
9E
330
1F
100
AcDbEntity
  8
0
  6
Continuous
 62
     7
370
    15
100
AcDbPolyline
 90
        9
 70
   128
 43
0.0
 10
4.384272010683735
 20
7.941015069850944
 10
4.385384504958701
 20
7.938751124971775
 10
4.389276534113218
 20
7.936361238670308
 10
4.395624778720815
 20
7.934384851888611
 10
4.403865483199542
 20
7.93299762912729
 10
4.413266304573402
 20
7.932322777817299
 10
4.42299202173224
 20
7.932420290175157
 10
4.43217837538287
 20
7.933281475220256
 10
4.440008977750987
 20
7.934829781195027
  0
LWPOLYLINE
  5
9F
330
1F
100
AcDbEntity
  8
0
  6
Continuous
 62
     7
370
    15
100
AcDbPolyline
 90
        9
 70
   128
 43
0.0
 10
4.439301856511109
 20
7.934055876481952
 10
4.431711109534812
 20
7.932554981918012
 10
4.422806011428378
 20
7.931720158773169
 10
4.413378308993658
 20
7.931625669365086
 10
4.404265380462972
 20
7.932279849033224
 10
4.396277142244125
 20
7.933624594904674
 10
4.390123121597873
 20
7.935540411552985
 10
4.386350397892488
 20
7.937857080232665
 10
4.386088307549091
 20
7.938138281244577
  0
LWPOLYLINE
  5
A0
330
1F
100
AcDbEntity
  8
0
  6
Continuous
 62
     7
370
    15
100
AcDbPolyline
 90
        9
 70
   128
 43
0.0
 10
4.121811057104578
 20
7.973362282630596
 10
4.113980330287104
 20
7.971813921086896
 10
4.104793976636473
 20
7.970952736041796
 10
4.095068259477636
 20
7.970855223683938
 10
4.085667438103776
 20
7.971530074993928
 10
4.077426692141931
 20
7.972917308869036
 10
4.071078447534333
 20
7.974893695650734
 10
4.067186459862934
 20
7.977283570838414
 10
4.06607392410485
 20
7.979547526831369
  0
LWPOLYLINE
  5
A1
330
1F
100
AcDbEntity
  8
0
  6
Continuous
 62
     7
370
    15
100
AcDbPolyline
 90
        4
 70
   128
 43
0.0
 10
4.131373953022858
 20
7.979547537945155
 10
4.13080472166925
 20
7.977921302103357
 10
4.127590277774159
 20
7.975460176433999
 10
4.121811057104578
 20
7.973362282630596
  0
LWPOLYLINE
  5
A2
330
1F
100
AcDbEntity
  8
0
  6
Continuous
 62
     7
370
    15
100
AcDbPolyline
 90
       22
 70
   128
 43
0.0
 10
4.121103977347817
 20
7.974515180462979
 10
4.126706148067158
 20
7.976548836583637
 10
4.129822235488018
 20
7.97893459967052
 10
4.130174924962465
 20
7.98146038534649
 10
4.127733145634662
 20
7.98390183961473
 10
4.122713729765598
 20
7.986041988032287
 10
4.115562828295955
 20
7.987690707063046
 10
4.106915630737939
 20
7.988701472553143
 10
4.09754052889762
 20
7.988984451770807
 10
4.088270628246102
 20
7.988514538673593
 10
4.079929493137214
 20
7.987333465527715
 10
4.073258509866806
 20
7.985546235382757
 10
4.068850057368675
 20
7.983311553101974
 10
4.067096068147477
 20
7.980828044267729
 10
4.068152311313603
 20
7.978316350872334
 10
4.071925076502107
 20
7.975999671078868
 10
4.07807905566524
 20
7.974083865544344
 10
4.086067335367205
 20
7.972739108559107
 10
4.095180263897891
 20
7.97208492889097
 10
4.104607966332612
 20
7.972179418299051
 10
4.113513022955927
 20
7.973014252557682
 10
4.121103977347817
 20
7.974515180462979
  0
LWPOLYLINE
  5
A3
330
1F
100
AcDbEntity
  8
0
  6
Continuous
 62
     7
370
    15
100
AcDbPolyline
 90
        4
 70
   128
 43
0.0
 10
4.121811057104578
 20
7.963246087009252
 10
4.127590277774159
 20
7.965343980812656
 10
4.13080472166925
 20
7.967805106482014
 10
4.131373953022858
 20
7.969431342323812
  0
LWPOLYLINE
  5
A4
330
1F
100
AcDbEntity
  8
0
  6
Continuous
 62
     7
370
    15
100
AcDbPolyline
 90
        9
 70
   128
 43
0.0
 10
4.06607392410485
 20
7.969431331210026
 10
4.067186459862934
 20
7.967167375217071
 10
4.071078447534333
 20
7.96477750002939
 10
4.077426692141931
 20
7.962801113247693
 10
4.085667438103776
 20
7.961413879372585
 10
4.095068259477636
 20
7.960739028062595
 10
4.104793976636473
 20
7.960836540420452
 10
4.113980330287104
 20
7.961697725465552
 10
4.121811057104578
 20
7.963246087009252
  0
LWPOLYLINE
  5
A5
330
1F
100
AcDbEntity
  8
0
  6
Continuous
 62
     7
370
    15
100
AcDbPolyline
 90
        9
 70
   128
 43
0.0
 10
4.121103977347817
 20
7.962472171182392
 10
4.113513022955927
 20
7.960971243277094
 10
4.104607966332612
 20
7.960136409018464
 10
4.095180263897891
 20
7.960041919610382
 10
4.086067335367205
 20
7.96069609927852
 10
4.07807905566524
 20
7.962040856263755
 10
4.071925076502107
 20
7.963956661798281
 10
4.068152311313603
 20
7.966273341591746
 10
4.067890262453324
 20
7.966554531489872
  0
LWPOLYLINE
  5
A6
330
1F
100
AcDbEntity
  8
0
  6
Continuous
 62
     7
370
    15
100
AcDbPolyline
 90
        9
 70
   128
 43
0.0
 10
4.227877085964205
 20
7.888113498553352
 10
4.220046317663613
 20
7.886565148123438
 10
4.210859964012982
 20
7.885703963078338
 10
4.201134246854145
 20
7.885606450720479
 10
4.191733425480285
 20
7.88628130203047
 10
4.183492886934033
 20
7.887668569246936
 10
4.177144476393961
 20
7.889644911573489
 10
4.173252447239444
 20
7.892034797874956
 10
4.172139952964479
 20
7.894298742754125
  0
LWPOLYLINE
  5
A7
330
1F
100
AcDbEntity
  8
0
  6
Continuous
 62
     7
370
    15
100
AcDbPolyline
 90
        4
 70
   128
 43
0.0
 10
4.237439940399368
 20
7.894298764981697
 10
4.236870709045759
 20
7.8926725291399
 10
4.233656265150668
 20
7.890211403470542
 10
4.227877085964205
 20
7.888113498553352
  0
LWPOLYLINE
  5
A8
330
1F
100
AcDbEntity
  8
0
  6
Continuous
 62
     7
370
    15
100
AcDbPolyline
 90
       22
 70
   128
 43
0.0
 10
4.227169964724327
 20
7.889266407499522
 10
4.232772176926786
 20
7.891300052506392
 10
4.235888222864526
 20
7.893685826707061
 10
4.236240912338975
 20
7.896211612383032
 10
4.233799133011172
 20
7.898653066651272
 10
4.228779758625226
 20
7.900793203955043
 10
4.221628815672465
 20
7.902441934099587
 10
4.212981659597567
 20
7.903452688475899
 10
4.203606557757248
 20
7.903735667693562
 10
4.19433665710573
 20
7.903265754596349
 10
4.185995480513724
 20
7.902084692564257
 10
4.179324497243316
 20
7.900297462419298
 10
4.174916086228303
 20
7.89806276902473
 10
4.173162097007105
 20
7.895579260190485
 10
4.174218506105705
 20
7.893067611250233
 10
4.177991063878617
 20
7.890750898115411
 10
4.184145084524867
 20
7.888835081467099
 10
4.192133322743715
 20
7.887490335595649
 10
4.2012462512744
 20
7.886836155927511
 10
4.210674119641596
 20
7.886930689790737
 10
4.219579051815555
 20
7.887765468480438
 10
4.227169964724327
 20
7.889266407499522
  0
LWPOLYLINE
  5
A9
330
1F
100
AcDbEntity
  8
0
  6
Continuous
 62
     7
370
    15
100
AcDbPolyline
 90
        4
 70
   128
 43
0.0
 10
4.227877085964205
 20
7.877997302932008
 10
4.233656265150668
 20
7.880095207849199
 10
4.236870709045759
 20
7.882556333518556
 10
4.237439940399368
 20
7.884182569360354
  0
LWPOLYLINE
  5
AA
330
1F
100
AcDbEntity
  8
0
  6
Continuous
 62
     7
370
    15
100
AcDbPolyline
 90
        9
 70
   128
 43
0.0
 10
4.172139952964479
 20
7.884182547132781
 10
4.173252447239444
 20
7.881918602253612
 10
4.177144476393961
 20
7.879528715952145
 10
4.183492886934033
 20
7.877552373625593
 10
4.191733425480285
 20
7.876165106409127
 10
4.201134246854145
 20
7.875490255099136
 10
4.210859964012982
 20
7.875587767456995
 10
4.220046317663613
 20
7.876448952502094
 10
4.227877085964205
 20
7.877997302932008
  0
LWPOLYLINE
  5
AB
330
1F
100
AcDbEntity
  8
0
  6
Continuous
 62
     7
370
    15
100
AcDbPolyline
 90
        9
 70
   128
 43
0.0
 10
4.227169964724327
 20
7.877223398218934
 10
4.219579051815555
 20
7.87572245919985
 10
4.210674119641596
 20
7.874887680510149
 10
4.2012462512744
 20
7.874793146646923
 10
4.192133322743715
 20
7.875447326315061
 10
4.184145084524867
 20
7.876792072186511
 10
4.177991063878617
 20
7.878707888834822
 10
4.174218506105705
 20
7.881024601969645
 10
4.173956249829833
 20
7.881305758526414
  0
LWPOLYLINE
  5
AC
330
1F
100
AcDbEntity
  8
0
  6
Continuous
 62
     7
370
    15
100
AcDbPolyline
 90
        9
 70
   128
 43
0.0
 10
3.697546941666063
 20
7.85969723719427
 10
3.68971621484859
 20
7.85814887565057
 10
3.680529861197959
 20
7.85728769060547
 10
3.670804309971596
 20
7.857190222702756
 10
3.661403488597736
 20
7.857865074012747
 10
3.653162742635891
 20
7.859252307887855
 10
3.646814332095819
 20
7.861228650214408
 10
3.64292234442442
 20
7.863618525402088
 10
3.641809808666336
 20
7.865882481395043
  0
LWPOLYLINE
  5
AD
330
1F
100
AcDbEntity
  8
0
  6
Continuous
 62
     7
370
    15
100
AcDbPolyline
 90
        4
 70
   128
 43
0.0
 10
3.707109837584344
 20
7.86588249250883
 10
3.706540606230736
 20
7.864256256667032
 10
3.703326328268119
 20
7.861795175452818
 10
3.697546941666063
 20
7.85969723719427
  0
LWPOLYLINE
  5
AE
330
1F
100
AcDbEntity
  8
0
  6
Continuous
 62
     7
370
    15
100
AcDbPolyline
 90
       22
 70
   128
 43
0.0
 10
3.696839861909303
 20
7.860850135026654
 10
3.702442198561119
 20
7.862883835602456
 10
3.705558120049503
 20
7.865269554234195
 10
3.705910809523952
 20
7.867795339910164
 10
3.703469030196148
 20
7.870236794178405
 10
3.698449614327083
 20
7.872376942595961
 10
3.691298712857442
 20
7.874025661626721
 10
3.682651515299425
 20
7.875036427116818
 10
3.673276413459106
 20
7.875319406334482
 10
3.664006512807588
 20
7.874849493237269
 10
3.655665543631174
 20
7.873668464546534
 10
3.648994394428292
 20
7.871881189946432
 10
3.644585941930162
 20
7.869646507665649
 10
3.642831952708963
 20
7.867162998831403
 10
3.643888361807563
 20
7.864651349891152
 10
3.647661126996067
 20
7.862334670097687
 10
3.653814940226726
 20
7.860418820108018
 10
3.661803219928692
 20
7.859074063122782
 10
3.670916148459377
 20
7.858419883454645
 10
3.680344016826573
 20
7.85851441731787
 10
3.689248907517413
 20
7.859349207121356
 10
3.696839861909303
 20
7.860850135026654
  0
LWPOLYLINE
  5
AF
330
1F
100
AcDbEntity
  8
0
  6
Continuous
 62
     7
370
    15
100
AcDbPolyline
 90
        4
 70
   128
 43
0.0
 10
3.697546941666063
 20
7.849581041572927
 10
3.703326328268119
 20
7.851678979831475
 10
3.706540606230736
 20
7.854140061045688
 10
3.707109837584344
 20
7.855766296887487
  0
LWPOLYLINE
  5
B0
330
1F
100
AcDbEntity
  8
0
  6
Continuous
 62
     7
370
    15
100
AcDbPolyline
 90
        9
 70
   128
 43
0.0
 10
3.641809808666336
 20
7.8557662857737
 10
3.64292234442442
 20
7.853502329780745
 10
3.646814332095819
 20
7.851112454593065
 10
3.653162742635891
 20
7.849136112266511
 10
3.661403488597736
 20
7.847748878391403
 10
3.670804309971596
 20
7.847074027081413
 10
3.680529861197959
 20
7.847171494984127
 10
3.68971621484859
 20
7.848032680029227
 10
3.697546941666063
 20
7.849581041572927
  0
LWPOLYLINE
  5
B1
330
1F
100
AcDbEntity
  8
0
  6
Continuous
 62
     7
370
    15
100
AcDbPolyline
 90
        9
 70
   128
 43
0.0
 10
3.696839861909303
 20
7.848807125746066
 10
3.689248907517413
 20
7.847306197840769
 10
3.680344016826573
 20
7.846471408037282
 10
3.670916148459377
 20
7.846376874174056
 10
3.661803219928692
 20
7.847031053842194
 10
3.653814940226726
 20
7.848375810827429
 10
3.647661126996067
 20
7.850291660817099
 10
3.643888361807563
 20
7.852608340610564
 10
3.643626312947285
 20
7.852889530508691
  0
LWPOLYLINE
  5
B2
330
1F
100
AcDbEntity
  8
0
  6
Continuous
 62
     7
370
    15
100
AcDbPolyline
 90
        9
 70
   128
 43
0.0
 10
3.803612970525691
 20
7.774448453117026
 10
3.795782202225099
 20
7.772900102687112
 10
3.786595848574468
 20
7.772038917642012
 10
3.776870297348105
 20
7.771941449739298
 10
3.767469475974245
 20
7.772616301049288
 10
3.759228771495519
 20
7.77400352381061
 10
3.752880360955447
 20
7.775979866137163
 10
3.74898833180093
 20
7.778369752438631
 10
3.747875837525964
 20
7.780633697317799
  0
LWPOLYLINE
  5
B3
330
1F
100
AcDbEntity
  8
0
  6
Continuous
 62
     7
370
    15
100
AcDbPolyline
 90
        4
 70
   128
 43
0.0
 10
3.813175824960854
 20
7.780633719545371
 10
3.812606593607244
 20
7.779007483703574
 10
3.809392315644629
 20
7.776546402489359
 10
3.803612970525691
 20
7.774448453117026
  0
LWPOLYLINE
  5
B4
330
1F
100
AcDbEntity
  8
0
  6
Continuous
 62
     7
370
    15
100
AcDbPolyline
 90
       22
 70
   128
 43
0.0
 10
3.802905849285812
 20
7.775601362063196
 10
3.808508227420746
 20
7.77763505152521
 10
3.811624107426012
 20
7.780020781270735
 10
3.81197679690046
 20
7.782546566946706
 10
3.809535017572658
 20
7.784988021214946
 10
3.804515643186712
 20
7.787128158518717
 10
3.797364700233951
 20
7.788776888663262
 10
3.788717544159053
 20
7.789787643039573
 10
3.779342442318734
 20
7.790070622257237
 10
3.770072541667216
 20
7.789600709160023
 10
3.761731531007683
 20
7.788419691583075
 10
3.755060381804801
 20
7.786632416982974
 10
3.750651970789788
 20
7.784397723588404
 10
3.748897981568591
 20
7.781914214754159
 10
3.749954390667191
 20
7.779402565813907
 10
3.753727114372577
 20
7.777085897134228
 10
3.759880969086353
 20
7.775170036030774
 10
3.7678692073052
 20
7.773825290159323
 10
3.776982135835886
 20
7.773171110491185
 10
3.786410004203081
 20
7.773265644354411
 10
3.795314936377041
 20
7.774100423044112
 10
3.802905849285812
 20
7.775601362063196
  0
LWPOLYLINE
  5
B5
330
1F
100
AcDbEntity
  8
0
  6
Continuous
 62
     7
370
    15
100
AcDbPolyline
 90
        4
 70
   128
 43
0.0
 10
3.803612970525691
 20
7.764332257495683
 10
3.809392315644629
 20
7.766430206868016
 10
3.812606593607244
 20
7.76889128808223
 10
3.813175824960854
 20
7.770517523924028
  0
LWPOLYLINE
  5
B6
330
1F
100
AcDbEntity
  8
0
  6
Continuous
 62
     7
370
    15
100
AcDbPolyline
 90
        9
 70
   128
 43
0.0
 10
3.747875837525964
 20
7.770517501696456
 10
3.74898833180093
 20
7.768253556817287
 10
3.752880360955447
 20
7.76586367051582
 10
3.759228771495519
 20
7.763887328189267
 10
3.767469475974245
 20
7.762500105427945
 10
3.776870297348105
 20
7.761825254117955
 10
3.786595848574468
 20
7.761922722020669
 10
3.795782202225099
 20
7.762783907065768
 10
3.803612970525691
 20
7.764332257495683
  0
LWPOLYLINE
  5
B7
330
1F
100
AcDbEntity
  8
0
  6
Continuous
 62
     7
370
    15
100
AcDbPolyline
 90
        9
 70
   128
 43
0.0
 10
3.802905849285812
 20
7.763558352782608
 10
3.795314936377041
 20
7.762057413763524
 10
3.786410004203081
 20
7.761222635073824
 10
3.776982135835886
 20
7.761128101210597
 10
3.7678692073052
 20
7.761782280878735
 10
3.759880969086353
 20
7.763127026750185
 10
3.753727114372577
 20
7.765042887853641
 10
3.749954390667191
 20
7.76735955653332
 10
3.749692383290031
 20
7.767640735317661
  0
LWPOLYLINE
  5
B8
330
1F
100
AcDbEntity
  8
0
  6
Continuous
 62
     7
370
    15
100
AcDbPolyline
 90
        9
 70
   128
 43
0.0
 10
3.485414883946806
 20
7.802864714476107
 10
3.477584157129333
 20
7.801316352932407
 10
3.468397803478702
 20
7.800455167887307
 10
3.458672252252339
 20
7.800357699984593
 10
3.449271430878479
 20
7.801032551294584
 10
3.441030684916634
 20
7.802419785169692
 10
3.434682274376562
 20
7.804396127496246
 10
3.430790286705164
 20
7.806786002683926
 10
3.429677916879553
 20
7.809050003132025
  0
LWPOLYLINE
  5
B9
330
1F
100
AcDbEntity
  8
0
  6
Continuous
 62
     7
370
    15
100
AcDbPolyline
 90
        4
 70
   128
 43
0.0
 10
3.494977779865088
 20
7.809049969790667
 10
3.494408714443953
 20
7.807423778404013
 10
3.491194270548862
 20
7.804962652734655
 10
3.485414883946806
 20
7.802864714476107
  0
LWPOLYLINE
  5
BA
330
1F
100
AcDbEntity
  8
0
  6
Continuous
 62
     7
370
    15
100
AcDbPolyline
 90
       22
 70
   128
 43
0.0
 10
3.484707804190046
 20
7.804017612308491
 10
3.490310140841862
 20
7.806051312884293
 10
3.493426062330246
 20
7.808437031516032
 10
3.493778751804695
 20
7.810962817192002
 10
3.491336972476892
 20
7.813404271460242
 10
3.486317722540301
 20
7.815544464332942
 10
3.479166655138184
 20
7.817193138908558
 10
3.470519457580169
 20
7.818203904398655
 10
3.461144355739849
 20
7.818486883616319
 10
3.451874455088332
 20
7.818016970519106
 10
3.443533485911917
 20
7.816835941828371
 10
3.436862336709035
 20
7.815048667228269
 10
3.432453884210904
 20
7.812813984947486
 10
3.43070006092218
 20
7.810330520568385
 10
3.431756304088307
 20
7.807818827172989
 10
3.435529069276811
 20
7.805502147379524
 10
3.441682882507469
 20
7.803586297389855
 10
3.449671328141909
 20
7.802241584859762
 10
3.45878409074012
 20
7.801587360736482
 10
3.468211959107315
 20
7.801681894599707
 10
3.477116849798156
 20
7.802516684403193
 10
3.484707804190046
 20
7.804017612308491
  0
LWPOLYLINE
  5
BB
330
1F
100
AcDbEntity
  8
0
  6
Continuous
 62
     7
370
    15
100
AcDbPolyline
 90
        4
 70
   128
 43
0.0
 10
3.485414883946806
 20
7.792748518854764
 10
3.491194270548862
 20
7.794846457113312
 10
3.494408714443953
 20
7.79730758278267
 10
3.494977779865088
 20
7.798933774169324
  0
LWPOLYLINE
  5
BC
330
1F
100
AcDbEntity
  8
0
  6
Continuous
 62
     7
370
    15
100
AcDbPolyline
 90
        9
 70
   128
 43
0.0
 10
3.429677916879553
 20
7.798933807510681
 10
3.430790286705164
 20
7.796669807062582
 10
3.434682274376562
 20
7.794279931874902
 10
3.441030684916634
 20
7.792303589548349
 10
3.449271430878479
 20
7.790916355673241
 10
3.458672252252339
 20
7.79024150436325
 10
3.468397803478702
 20
7.790338972265964
 10
3.477584157129333
 20
7.791200157311064
 10
3.485414883946806
 20
7.792748518854764
  0
LWPOLYLINE
  5
BD
330
1F
100
AcDbEntity
  8
0
  6
Continuous
 62
     7
370
    15
100
AcDbPolyline
 90
        9
 70
   128
 43
0.0
 10
3.484707804190046
 20
7.791974603027903
 10
3.477116849798156
 20
7.790473675122606
 10
3.468211959107315
 20
7.789638885319119
 10
3.45878409074012
 20
7.789544351455893
 10
3.449671328141909
 20
7.790198575579175
 10
3.441682882507469
 20
7.791543288109267
 10
3.435529069276811
 20
7.793459138098937
 10
3.431756304088307
 20
7.795775817892401
 10
3.43149417226179
 20
7.796056941107813
  0
LWPOLYLINE
  5
BE
330
1F
100
AcDbEntity
  8
0
  6
Continuous
 62
     7
370
    15
100
AcDbPolyline
 90
        9
 70
   128
 43
0.0
 10
3.591481078738908
 20
7.717615974854006
 10
3.583650144505842
 20
7.716067579968949
 10
3.574463956787686
 20
7.715206439378993
 10
3.564738073696374
 20
7.715108882565991
 10
3.555337418254988
 20
7.715783778331125
 10
3.547096547843787
 20
7.717170956637303
 10
3.54074830323619
 20
7.719147343419
 10
3.536856274081673
 20
7.721537229720468
 10
3.535743945739182
 20
7.72380121905478
  0
LWPOLYLINE
  5
BF
330
1F
100
AcDbEntity
  8
0
  6
Continuous
 62
     7
370
    15
100
AcDbPolyline
 90
        4
 70
   128
 43
0.0
 10
3.601043767241597
 20
7.723801196827208
 10
3.600474701820462
 20
7.722175005440554
 10
3.597260257925372
 20
7.719713879771197
 10
3.591481078738908
 20
7.717615974854006
  0
LWPOLYLINE
  5
C0
330
1F
100
AcDbEntity
  8
0
  6
Continuous
 62
     7
370
    15
100
AcDbPolyline
 90
       22
 70
   128
 43
0.0
 10
3.590773957499029
 20
7.718768883800176
 10
3.596376169701489
 20
7.720802528807047
 10
3.599492049706756
 20
7.723188258552573
 10
3.599844905113678
 20
7.725714088683687
 10
3.5974029598534
 20
7.728155498496783
 10
3.592383751399929
 20
7.730295680255697
 10
3.585232642514694
 20
7.731944365945099
 10
3.576585486439796
 20
7.732955120321411
 10
3.567210384599476
 20
7.733238099539074
 10
3.557940649880433
 20
7.732768230897004
 10
3.549599307355952
 20
7.731587124409768
 10
3.542928490018019
 20
7.729799938719954
 10
3.538520079003006
 20
7.727565245325386
 10
3.536766089781808
 20
7.72508173649114
 10
3.53782216701546
 20
7.722569998640601
 10
3.541594890720846
 20
7.720253329960922
 10
3.547748911367096
 20
7.718337513312611
 10
3.555737149585944
 20
7.71699276744116
 10
3.564850078116629
 20
7.716338587773022
 10
3.574277946483825
 20
7.716433121636248
 10
3.583182878657784
 20
7.717267900325949
 10
3.590773957499029
 20
7.718768883800176
  0
LWPOLYLINE
  5
C1
330
1F
100
AcDbEntity
  8
0
  6
Continuous
 62
     7
370
    15
100
AcDbPolyline
 90
        4
 70
   128
 43
0.0
 10
3.591481078738908
 20
7.707499779232663
 10
3.597260257925372
 20
7.709597684149853
 10
3.600474701820462
 20
7.712058809819211
 10
3.601043767241597
 20
7.713685001205865
  0
LWPOLYLINE
  5
C2
330
1F
100
AcDbEntity
  8
0
  6
Continuous
 62
     7
370
    15
100
AcDbPolyline
 90
        9
 70
   128
 43
0.0
 10
3.535743945739182
 20
7.713685023433437
 10
3.536856274081673
 20
7.711421034099124
 10
3.54074830323619
 20
7.709031147797657
 10
3.547096547843787
 20
7.70705476101596
 10
3.555337418254988
 20
7.705667582709782
 10
3.564738073696374
 20
7.704992686944648
 10
3.574463956787686
 20
7.70509024375765
 10
3.583650144505842
 20
7.705951384347605
 10
3.591481078738908
 20
7.707499779232663
  0
LWPOLYLINE
  5
C3
330
1F
100
AcDbEntity
  8
0
  6
Continuous
 62
     7
370
    15
100
AcDbPolyline
 90
        9
 70
   128
 43
0.0
 10
3.590773957499029
 20
7.706725874519589
 10
3.583182878657784
 20
7.705224891045361
 10
3.574277946483825
 20
7.704390112355661
 10
3.564850078116629
 20
7.704295578492434
 10
3.555737149585944
 20
7.704949758160573
 10
3.547748911367096
 20
7.706294504032022
 10
3.541594890720846
 20
7.708210320680334
 10
3.53782216701546
 20
7.710526989360014
 10
3.537560242604537
 20
7.710808234827069
  0
LWPOLYLINE
  5
C4
330
1F
100
AcDbEntity
  8
0
  6
Continuous
 62
     7
370
    15
100
AcDbPolyline
 90
        9
 70
   128
 43
0.0
 10
3.273282992160023
 20
7.746032236213088
 10
3.265452099410075
 20
7.744483830214244
 10
3.25626591169192
 20
7.743622689624289
 10
3.246540028600608
 20
7.743525132811287
 10
3.237139373159222
 20
7.744200028576421
 10
3.228898461264902
 20
7.745587217996385
 10
3.222550216657305
 20
7.747563604778083
 10
3.218658228985906
 20
7.749953479965764
 10
3.217545859160297
 20
7.752217480413862
  0
LWPOLYLINE
  5
C5
330
1F
100
AcDbEntity
  8
0
  6
Continuous
 62
     7
370
    15
100
AcDbPolyline
 90
        4
 70
   128
 43
0.0
 10
3.28284572214583
 20
7.752217447072504
 10
3.282276490792221
 20
7.750591211230706
 10
3.279062212829606
 20
7.748130130016492
 10
3.273282992160023
 20
7.746032236213088
  0
LWPOLYLINE
  5
C6
330
1F
100
AcDbEntity
  8
0
  6
Continuous
 62
     7
370
    15
100
AcDbPolyline
 90
       22
 70
   128
 43
0.0
 10
3.272575912403263
 20
7.747185134045472
 10
3.278178083122604
 20
7.74921879016613
 10
3.281294004610989
 20
7.751604508797869
 10
3.281646860017912
 20
7.754130338928982
 10
3.279205080690109
 20
7.756571793197222
 10
3.274185664821045
 20
7.758711941614779
 10
3.267034763351402
 20
7.760360660645539
 10
3.258387565793386
 20
7.761371426135635
 10
3.249012298020592
 20
7.761654360898156
 10
3.239742397369075
 20
7.761184447800943
 10
3.231401262260185
 20
7.760003374655064
 10
3.224730444922253
 20
7.75821618896525
 10
3.220321992424122
 20
7.755981506684467
 10
3.218568003202924
 20
7.753497997850222
 10
3.219624412301524
 20
7.75098634890997
 10
3.223396845625079
 20
7.748669580206217
 10
3.229550824788212
 20
7.746753774671692
 10
3.237539104490178
 20
7.745409017686456
 10
3.246652033020863
 20
7.744754838018319
 10
3.256079901388059
 20
7.744849371881544
 10
3.264984792078899
 20
7.74568416168503
 10
3.272575912403263
 20
7.747185134045472
  0
LWPOLYLINE
  5
C7
330
1F
100
AcDbEntity
  8
0
  6
Continuous
 62
     7
370
    15
100
AcDbPolyline
 90
        4
 70
   128
 43
0.0
 10
3.273282992160023
 20
7.735916040591745
 10
3.279062212829606
 20
7.738013934395149
 10
3.282276490792221
 20
7.740475015609363
 10
3.28284572214583
 20
7.742101251451161
  0
LWPOLYLINE
  5
C8
330
1F
100
AcDbEntity
  8
0
  6
Continuous
 62
     7
370
    15
100
AcDbPolyline
 90
        9
 70
   128
 43
0.0
 10
3.217545859160297
 20
7.742101284792519
 10
3.218658228985906
 20
7.739837284344421
 10
3.222550216657305
 20
7.73744740915674
 10
3.228898461264902
 20
7.735471022375041
 10
3.237139373159222
 20
7.734083832955078
 10
3.246540028600608
 20
7.733408937189944
 10
3.25626591169192
 20
7.733506494002945
 10
3.265452099410075
 20
7.734367634592901
 10
3.273282992160023
 20
7.735916040591745
  0
LWPOLYLINE
  5
C9
330
1F
100
AcDbEntity
  8
0
  6
Continuous
 62
     7
370
    15
100
AcDbPolyline
 90
        9
 70
   128
 43
0.0
 10
3.272575912403263
 20
7.735142124764885
 10
3.264984792078899
 20
7.733641152404443
 10
3.256079901388059
 20
7.732806362600957
 10
3.246652033020863
 20
7.732711828737731
 10
3.237539104490178
 20
7.733366008405868
 10
3.229550824788212
 20
7.734710765391104
 10
3.223396845625079
 20
7.736626570925629
 10
3.219624412301524
 20
7.738943339629383
 10
3.21936219750877
 20
7.739224485072365
  0
LWPOLYLINE
  5
CA
330
1F
100
AcDbEntity
  8
0
  6
Continuous
 62
     7
370
    15
100
AcDbPolyline
 90
        9
 70
   128
 43
0.0
 10
3.379349021019651
 20
7.660783452135844
 10
3.371518086786585
 20
7.659235057250787
 10
3.362331899068429
 20
7.65837391666083
 10
3.352606015977116
 20
7.658276359847828
 10
3.343205360535731
 20
7.658951255612962
 10
3.334964821989479
 20
7.660338522829428
 10
3.328616245516933
 20
7.662314820700837
 10
3.324724216362415
 20
7.664704707002305
 10
3.323611888019924
 20
7.666968696336618
  0
LWPOLYLINE
  5
CB
330
1F
100
AcDbEntity
  8
0
  6
Continuous
 62
     7
370
    15
100
AcDbPolyline
 90
        4
 70
   128
 43
0.0
 10
3.388911709522339
 20
7.666968674109045
 10
3.388342478168731
 20
7.665342438267248
 10
3.385128200206114
 20
7.662881357053034
 10
3.379349021019651
 20
7.660783452135844
  0
LWPOLYLINE
  5
CC
330
1F
100
AcDbEntity
  8
0
  6
Continuous
 62
     7
370
    15
100
AcDbPolyline
 90
       22
 70
   128
 43
0.0
 10
3.378641899779772
 20
7.661936361082014
 10
3.384244111982233
 20
7.663970006088885
 10
3.387359991987498
 20
7.66635573583441
 10
3.387712847394421
 20
7.668881565965524
 10
3.385271068066618
 20
7.671323020233764
 10
3.380251693680671
 20
7.673463157537535
 10
3.373100750727911
 20
7.67511188768208
 10
3.364453594653014
 20
7.676122642058391
 10
3.35507832688022
 20
7.676405576820912
 10
3.345808426228702
 20
7.675935663723697
 10
3.337467581501643
 20
7.674754690601893
 10
3.330796432298762
 20
7.672967416001791
 10
3.326388021283749
 20
7.670732722607223
 10
3.324634032062551
 20
7.668249213772978
 10
3.325690441161151
 20
7.665737564832726
 10
3.329462833001588
 20
7.663420807242759
 10
3.335616853647839
 20
7.661504990594448
 10
3.343605091866686
 20
7.660160244722997
 10
3.352718020397372
 20
7.659506065054859
 10
3.362145888764568
 20
7.659600598918085
 10
3.371050820938527
 20
7.660435377607786
 10
3.378641899779772
 20
7.661936361082014
  0
LWPOLYLINE
  5
CD
330
1F
100
AcDbEntity
  8
0
  6
Continuous
 62
     7
370
    15
100
AcDbPolyline
 90
        4
 70
   128
 43
0.0
 10
3.379349021019651
 20
7.6506672565145
 10
3.385128200206114
 20
7.652765161431691
 10
3.388342478168731
 20
7.655226242645905
 10
3.388911709522339
 20
7.656852478487702
  0
LWPOLYLINE
  5
CE
330
1F
100
AcDbEntity
  8
0
  6
Continuous
 62
     7
370
    15
100
AcDbPolyline
 90
        9
 70
   128
 43
0.0
 10
3.323611888019924
 20
7.656852500715274
 10
3.324724216362415
 20
7.654588511380962
 10
3.328616245516933
 20
7.652198625079494
 10
3.334964821989479
 20
7.650222327208085
 10
3.343205360535731
 20
7.648835059991619
 10
3.352606015977116
 20
7.648160164226485
 10
3.362331899068429
 20
7.648257721039487
 10
3.371518086786585
 20
7.649118861629443
 10
3.379349021019651
 20
7.6506672565145
  0
LWPOLYLINE
  5
CF
330
1F
100
AcDbEntity
  8
0
  6
Continuous
 62
     7
370
    15
100
AcDbPolyline
 90
        9
 70
   128
 43
0.0
 10
3.378641899779772
 20
7.649893351801426
 10
3.371050820938527
 20
7.648392368327199
 10
3.362145888764568
 20
7.647557589637498
 10
3.352718020397372
 20
7.647463055774272
 10
3.343605091866686
 20
7.64811723544241
 10
3.335616853647839
 20
7.64946198131386
 10
3.329462833001588
 20
7.651377797962171
 10
3.325690441161151
 20
7.653694555552138
 10
3.325428267851517
 20
7.653975689881335
  0
LWPOLYLINE
  5
D0
330
1F
100
AcDbEntity
  8
0
  6
Continuous
 62
     7
370
    15
100
AcDbPolyline
 90
        9
 70
   128
 43
0.0
 10
3.061150934440767
 20
7.689199713494925
 10
3.053320041690819
 20
7.687651307496082
 10
3.044133853972662
 20
7.686790166906126
 10
3.03440797088135
 20
7.686692610093124
 10
3.025007315439965
 20
7.687367505858258
 10
3.016766735410594
 20
7.68875478418851
 10
3.010418158938048
 20
7.69073108205992
 10
3.006526171266649
 20
7.693120957247601
 10
3.00541380144104
 20
7.695384957695699
  0
LWPOLYLINE
  5
D1
330
1F
100
AcDbEntity
  8
0
  6
Continuous
 62
     7
370
    15
100
AcDbPolyline
 90
        4
 70
   128
 43
0.0
 10
3.070713664426573
 20
7.695384924354341
 10
3.070144433072964
 20
7.693758688512543
 10
3.066930155110348
 20
7.69129760729833
 10
3.061150934440767
 20
7.689199713494925
  0
LWPOLYLINE
  5
D2
330
1F
100
AcDbEntity
  8
0
  6
Continuous
 62
     7
370
    15
100
AcDbPolyline
 90
       22
 70
   128
 43
0.0
 10
3.060443854684006
 20
7.690352611327309
 10
3.066046025403347
 20
7.692386267447967
 10
3.069161946891732
 20
7.694771986079707
 10
3.069514802298655
 20
7.69729781621082
 10
3.067073022970852
 20
7.699739270479059
 10
3.062053607101787
 20
7.701879418896616
 10
3.054902705632145
 20
7.703528137927376
 10
3.046255508074129
 20
7.704538903417473
 10
3.036880240301334
 20
7.704821838179993
 10
3.027610339649817
 20
7.70435192508278
 10
3.019269536405877
 20
7.703170940847189
 10
3.012598387202995
 20
7.701383666247087
 10
3.008189934704864
 20
7.699148983966304
 10
3.006435945483666
 20
7.696665475132059
 10
3.007492354582267
 20
7.694153826191807
 10
3.01126511977077
 20
7.691837146398342
 10
3.017418767068955
 20
7.68992125195353
 10
3.025407046770921
 20
7.688576494968293
 10
3.034519975301606
 20
7.687922315300156
 10
3.043947843668801
 20
7.688016849163381
 10
3.052852734359642
 20
7.688851638966868
 10
3.060443854684006
 20
7.690352611327309
  0
LWPOLYLINE
  5
D3
330
1F
100
AcDbEntity
  8
0
  6
Continuous
 62
     7
370
    15
100
AcDbPolyline
 90
        4
 70
   128
 43
0.0
 10
3.061150934440767
 20
7.679083517873582
 10
3.066930155110348
 20
7.681181411676986
 10
3.070144433072964
 20
7.6836424928912
 10
3.070713664426573
 20
7.685268728732998
  0
LWPOLYLINE
  5
D4
330
1F
100
AcDbEntity
  8
0
  6
Continuous
 62
     7
370
    15
100
AcDbPolyline
 90
        9
 70
   128
 43
0.0
 10
3.00541380144104
 20
7.685268762074356
 10
3.006526171266649
 20
7.683004761626258
 10
3.010418158938048
 20
7.680614886438577
 10
3.016766735410594
 20
7.678638588567166
 10
3.025007315439965
 20
7.677251310236915
 10
3.03440797088135
 20
7.676576414471781
 10
3.044133853972662
 20
7.676673971284783
 10
3.053320041690819
 20
7.677535111874738
 10
3.061150934440767
 20
7.679083517873582
  0
LWPOLYLINE
  5
D5
330
1F
100
AcDbEntity
  8
0
  6
Continuous
 62
     7
370
    15
100
AcDbPolyline
 90
        9
 70
   128
 43
0.0
 10
3.060443854684006
 20
7.678309602046722
 10
3.052852734359642
 20
7.67680862968628
 10
3.043947843668801
 20
7.675973839882794
 10
3.034519975301606
 20
7.675879306019568
 10
3.025407046770921
 20
7.676533485687706
 10
3.017418767068955
 20
7.677878242672941
 10
3.01126511977077
 20
7.679794137117754
 10
3.007492354582267
 20
7.68211081691122
 10
3.007230139789513
 20
7.682391962354202
  0
LWPOLYLINE
  5
D6
330
1F
100
AcDbEntity
  8
0
  6
Continuous
 62
     7
370
    15
100
AcDbPolyline
 90
        9
 70
   128
 43
0.0
 10
3.167216963300394
 20
7.603950929417681
 10
3.159386029067328
 20
7.602402534532624
 10
3.150199841349171
 20
7.601541393942667
 10
3.140474290122809
 20
7.601443926039953
 10
3.131073302816474
 20
7.6021187328948
 10
3.122832764270222
 20
7.603506000111265
 10
3.116484187797675
 20
7.605482297982676
 10
3.112592158643159
 20
7.607872184284143
 10
3.111479830300667
 20
7.610136173618455
  0
LWPOLYLINE
  5
D7
330
1F
100
AcDbEntity
  8
0
  6
Continuous
 62
     7
370
    15
100
AcDbPolyline
 90
        4
 70
   128
 43
0.0
 10
3.176779651803082
 20
7.610136151390883
 10
3.176210420449473
 20
7.608509915549085
 10
3.172996142486857
 20
7.606048834334871
 10
3.167216963300394
 20
7.603950929417681
  0
LWPOLYLINE
  5
D8
330
1F
100
AcDbEntity
  8
0
  6
Continuous
 62
     7
370
    15
100
AcDbPolyline
 90
       22
 70
   128
 43
0.0
 10
3.166509842060516
 20
7.605103838363851
 10
3.172112054262975
 20
7.607137483370722
 10
3.175227934268241
 20
7.609523213116247
 10
3.175580789675163
 20
7.612049043247361
 10
3.173139010347361
 20
7.614490497515602
 10
3.168119635961414
 20
7.616630634819372
 10
3.160968693008654
 20
7.618279364963917
 10
3.152321536933757
 20
7.619290119340228
 10
3.142946269160962
 20
7.619573054102749
 10
3.133676368509445
 20
7.619103141005535
 10
3.125335523782387
 20
7.61792216788373
 10
3.118664374579505
 20
7.616134893283628
 10
3.114255963564492
 20
7.61390019988906
 10
3.112501974343294
 20
7.611416691054815
 10
3.113558383441895
 20
7.608905042114563
 10
3.11733110714728
 20
7.606588373434884
 10
3.123484795928583
 20
7.604672467876285
 10
3.13147303414743
 20
7.603327722004835
 10
3.140585962678115
 20
7.602673542336696
 10
3.15001383104531
 20
7.602768076199923
 10
3.158918763219269
 20
7.603602854889623
 10
3.166509842060516
 20
7.605103838363851
  0
LWPOLYLINE
  5
D9
330
1F
100
AcDbEntity
  8
0
  6
Continuous
 62
     7
370
    15
100
AcDbPolyline
 90
        4
 70
   128
 43
0.0
 10
3.167216963300394
 20
7.593834733796337
 10
3.172996142486857
 20
7.595932638713528
 10
3.176210420449473
 20
7.598393719927742
 10
3.176779651803082
 20
7.600019955769539
  0
LWPOLYLINE
  5
DA
330
1F
100
AcDbEntity
  8
0
  6
Continuous
 62
     7
370
    15
100
AcDbPolyline
 90
        9
 70
   128
 43
0.0
 10
3.111479830300667
 20
7.600019977997112
 10
3.112592158643159
 20
7.597755988662799
 10
3.116484187797675
 20
7.595366102361333
 10
3.122832764270222
 20
7.593389804489922
 10
3.131073302816474
 20
7.592002537273456
 10
3.140474290122809
 20
7.59132773041861
 10
3.150199841349171
 20
7.591425198321324
 10
3.159386029067328
 20
7.59228633891128
 10
3.167216963300394
 20
7.593834733796337
  0
LWPOLYLINE
  5
DB
330
1F
100
AcDbEntity
  8
0
  6
Continuous
 62
     7
370
    15
100
AcDbPolyline
 90
        9
 70
   128
 43
0.0
 10
3.166509842060516
 20
7.593060829083263
 10
3.158918763219269
 20
7.591559845609036
 10
3.15001383104531
 20
7.590725066919335
 10
3.140585962678115
 20
7.590630533056109
 10
3.13147303414743
 20
7.591284712724247
 10
3.123484795928583
 20
7.592629458595697
 10
3.11733110714728
 20
7.594545364154297
 10
3.113558383441895
 20
7.596862032833976
 10
3.113296127166022
 20
7.597143189390744
  0
LWPOLYLINE
  5
DC
330
1F
100
AcDbEntity
  8
0
  6
Continuous
 62
     7
370
    15
100
AcDbPolyline
 90
        9
 70
   128
 43
0.0
 10
2.955084905581136
 20
7.547118406699518
 10
2.947253971348071
 20
7.545570011814461
 10
2.938067783629914
 20
7.544708871224504
 10
2.928342232403552
 20
7.54461140332179
 10
2.918941245097217
 20
7.545286210176637
 10
2.910700706550965
 20
7.546673477393103
 10
2.904352130078418
 20
7.548649775264513
 10
2.900460100923902
 20
7.55103966156598
 10
2.89934777258141
 20
7.553303650900292
  0
LWPOLYLINE
  5
DD
330
1F
100
AcDbEntity
  8
0
  6
Continuous
 62
     7
370
    15
100
AcDbPolyline
 90
        4
 70
   128
 43
0.0
 10
2.964647594083825
 20
7.55330362867272
 10
2.964078694595166
 20
7.55167748174121
 10
2.960864084767601
 20
7.549216311616708
 10
2.955084905581136
 20
7.547118406699518
  0
LWPOLYLINE
  5
DE
330
1F
100
AcDbEntity
  8
0
  6
Continuous
 62
     7
370
    15
100
AcDbPolyline
 90
       22
 70
   128
 43
0.0
 10
2.954377784341258
 20
7.548271315645688
 10
2.959979996543718
 20
7.550304960652559
 10
2.963095876548984
 20
7.552690690398084
 10
2.963448731955907
 20
7.555216520529199
 10
2.961006952628104
 20
7.557657974797439
 10
2.955987578242158
 20
7.559798112101209
 10
2.948836635289397
 20
7.561446842245755
 10
2.9401894792145
 20
7.562457596622065
 10
2.930814211441705
 20
7.562740531384586
 10
2.921544310790188
 20
7.562270618287372
 10
2.913203466063129
 20
7.561089645165568
 10
2.906532316860248
 20
7.559302370565466
 10
2.902123905845236
 20
7.557067677170897
 10
2.900369916624037
 20
7.554584168336652
 10
2.901426325722638
 20
7.5520725193964
 10
2.905199049428023
 20
7.549755850716721
 10
2.911352738209325
 20
7.547839945158122
 10
2.919341308293122
 20
7.546495288196959
 10
2.928453904958858
 20
7.545841019618534
 10
2.937881773326053
 20
7.54593555348176
 10
2.946786705500013
 20
7.546770332171461
 10
2.954377784341258
 20
7.548271315645688
  0
LWPOLYLINE
  5
DF
330
1F
100
AcDbEntity
  8
0
  6
Continuous
 62
     7
370
    15
100
AcDbPolyline
 90
        4
 70
   128
 43
0.0
 10
2.955084905581136
 20
7.537002211078175
 10
2.960864084767601
 20
7.539100115995365
 10
2.964078694595166
 20
7.541561286119867
 10
2.964647594083825
 20
7.543187433051377
  0
LWPOLYLINE
  5
E0
330
1F
100
AcDbEntity
  8
0
  6
Continuous
 62
     7
370
    15
100
AcDbPolyline
 90
        9
 70
   128
 43
0.0
 10
2.89934777258141
 20
7.543187455278949
 10
2.900460100923902
 20
7.540923465944636
 10
2.904352130078418
 20
7.53853357964317
 10
2.910700706550965
 20
7.536557281771759
 10
2.918941245097217
 20
7.535170014555294
 10
2.928342232403552
 20
7.534495207700447
 10
2.938067783629914
 20
7.534592675603161
 10
2.947253971348071
 20
7.535453816193117
 10
2.955084905581136
 20
7.537002211078175
  0
LWPOLYLINE
  5
E1
330
1F
100
AcDbEntity
  8
0
  6
Continuous
 62
     7
370
    15
100
AcDbPolyline
 90
        9
 70
   128
 43
0.0
 10
2.954377784341258
 20
7.5362283063651
 10
2.946786705500013
 20
7.534727322890873
 10
2.937881773326053
 20
7.533892544201172
 10
2.928453904958858
 20
7.533798010337946
 10
2.919341308293122
 20
7.534452278916372
 10
2.911352738209325
 20
7.535796935877534
 10
2.905199049428023
 20
7.537712841436134
 10
2.901426325722638
 20
7.540029510115813
 10
2.901164069446766
 20
7.540310666672582
  0
LWPOLYLINE
  5
E2
330
1F
100
AcDbEntity
  8
0
  6
Continuous
 62
     7
370
    15
100
AcDbPolyline
 90
        9
 70
   128
 43
0.0
 10
2.636886819002252
 20
7.575534668058599
 10
2.629055926252304
 20
7.573986262059756
 10
2.619869738534148
 20
7.5731251214698
 10
2.610144187307785
 20
7.573027653567086
 10
2.60074320000145
 20
7.573702460421933
 10
2.59250261997208
 20
7.575089738752184
 10
2.586154043499533
 20
7.577066036623594
 10
2.582262055828135
 20
7.579455911811276
 10
2.581149686002525
 20
7.581719912259373
  0
LWPOLYLINE
  5
E3
330
1F
100
AcDbEntity
  8
0
  6
Continuous
 62
     7
370
    15
100
AcDbPolyline
 90
        4
 70
   128
 43
0.0
 10
2.646449548988059
 20
7.581719878918016
 10
2.645880649499399
 20
7.580093731986505
 10
2.642666039671834
 20
7.577632561862004
 10
2.636886819002252
 20
7.575534668058599
  0
LWPOLYLINE
  5
E4
330
1F
100
AcDbEntity
  8
0
  6
Continuous
 62
     7
370
    15
100
AcDbPolyline
 90
       22
 70
   128
 43
0.0
 10
2.636179739245492
 20
7.576687565890984
 10
2.641781909964833
 20
7.578721222011641
 10
2.644897831453218
 20
7.581106940643381
 10
2.645250686860141
 20
7.583632770774494
 10
2.642808907532338
 20
7.586074225042734
 10
2.637789491663273
 20
7.58821437346029
 10
2.630638590193631
 20
7.589863092491051
 10
2.621991392635615
 20
7.590873857981147
 10
2.61261612486282
 20
7.591156792743667
 10
2.603346556076253
 20
7.590686968556742
 10
2.595005420967363
 20
7.589505895410863
 10
2.588334271764482
 20
7.587718620810762
 10
2.583925819266351
 20
7.585483938529979
 10
2.582171830045152
 20
7.583000429695733
 10
2.583228239143752
 20
7.580488780755482
 10
2.587001004332257
 20
7.578172100962016
 10
2.59315465163044
 20
7.576256206517204
 10
2.601143263197355
 20
7.574911538442255
 10
2.610255859863091
 20
7.574257269863831
 10
2.619683728230287
 20
7.574351803727056
 10
2.628588618921128
 20
7.575186593530542
 10
2.636179739245492
 20
7.576687565890984
  0
LWPOLYLINE
  5
E5
330
1F
100
AcDbEntity
  8
0
  6
Continuous
 62
     7
370
    15
100
AcDbPolyline
 90
        4
 70
   128
 43
0.0
 10
2.636886819002252
 20
7.565418472437256
 10
2.642666039671834
 20
7.567516366240661
 10
2.645880649499399
 20
7.569977536365162
 10
2.646449548988059
 20
7.571603683296672
  0
LWPOLYLINE
  5
E6
330
1F
100
AcDbEntity
  8
0
  6
Continuous
 62
     7
370
    15
100
AcDbPolyline
 90
        9
 70
   128
 43
0.0
 10
2.581149686002525
 20
7.57160371663803
 10
2.582262055828135
 20
7.569339716189932
 10
2.586154043499533
 20
7.566949841002251
 10
2.59250261997208
 20
7.564973543130841
 10
2.60074320000145
 20
7.563586264800589
 10
2.610144187307785
 20
7.562911457945743
 10
2.619869738534148
 20
7.563008925848457
 10
2.629055926252304
 20
7.563870066438413
 10
2.636886819002252
 20
7.565418472437256
  0
LWPOLYLINE
  5
E7
330
1F
100
AcDbEntity
  8
0
  6
Continuous
 62
     7
370
    15
100
AcDbPolyline
 90
        9
 70
   128
 43
0.0
 10
2.636179739245492
 20
7.564644556610396
 10
2.628588618921128
 20
7.563143584249954
 10
2.619683728230287
 20
7.562308794446468
 10
2.610255859863091
 20
7.562214260583242
 10
2.601143263197355
 20
7.562868529161668
 10
2.59315465163044
 20
7.564213197236616
 10
2.587001004332257
 20
7.566129091681429
 10
2.583228239143752
 20
7.568445771474894
 10
2.582966148800355
 20
7.568727061397094
  0
LWPOLYLINE
  5
E8
330
1F
100
AcDbEntity
  8
0
  6
Continuous
 62
     7
370
    15
100
AcDbPolyline
 90
        9
 70
   128
 43
0.0
 10
2.318688732423365
 20
7.376620838545029
 10
2.310858130055248
 20
7.37507253257026
 10
2.301671610472143
 20
7.374211303070016
 10
2.29194605924578
 20
7.374113835167302
 10
2.282545071939446
 20
7.374788642022148
 10
2.274304533393194
 20
7.376175909238614
 10
2.267956288785597
 20
7.378152296020311
 10
2.264064259631079
 20
7.380542182321779
 10
2.262951599423639
 20
7.382806082745803
  0
LWPOLYLINE
  5
E9
330
1F
100
AcDbEntity
  8
0
  6
Continuous
 62
     7
370
    15
100
AcDbPolyline
 90
        4
 70
   128
 43
0.0
 10
2.328251752791003
 20
7.382806149428519
 10
2.327682521437394
 20
7.381179913586722
 10
2.32446791160983
 20
7.37871874346222
 10
2.318688732423365
 20
7.376620838545029
  0
LWPOLYLINE
  5
EA
330
1F
100
AcDbEntity
  8
0
  6
Continuous
 62
     7
370
    15
100
AcDbPolyline
 90
       22
 70
   128
 43
0.0
 10
2.317981611183487
 20
7.377773747491199
 10
2.323583823385947
 20
7.37980739249807
 10
2.326699703391213
 20
7.382193122243596
 10
2.327052558798136
 20
7.38471895237471
 10
2.324610779470333
 20
7.38716040664295
 10
2.319591405084386
 20
7.389300543946721
 10
2.312440462131626
 20
7.390949274091266
 10
2.303793306056729
 20
7.391960028467577
 10
2.294418370148883
 20
7.392243052140385
 10
2.285148469497365
 20
7.391773139043171
 10
2.276807292905358
 20
7.39059207701108
 10
2.270136143702476
 20
7.388804802410978
 10
2.265727732687464
 20
7.386570109016409
 10
2.263973743466265
 20
7.384086600182164
 10
2.265030152564866
 20
7.381574951241912
 10
2.268802876270252
 20
7.379258282562233
 10
2.274956896916503
 20
7.377342465913922
 10
2.282945135135351
 20
7.375997720042471
 10
2.292058063666035
 20
7.375343540374333
 10
2.301485600168283
 20
7.375437985327271
 10
2.31039086420719
 20
7.376272852927258
 10
2.317981611183487
 20
7.377773747491199
  0
LWPOLYLINE
  5
EB
330
1F
100
AcDbEntity
  8
0
  6
Continuous
 62
     7
370
    15
100
AcDbPolyline
 90
        4
 70
   128
 43
0.0
 10
2.318688732423365
 20
7.366504642923686
 10
2.32446791160983
 20
7.368602547840876
 10
2.327682521437394
 20
7.371063717965378
 10
2.328251752791003
 20
7.372689953807176
  0
LWPOLYLINE
  5
EC
330
1F
100
AcDbEntity
  8
0
  6
Continuous
 62
     7
370
    15
100
AcDbPolyline
 90
        9
 70
   128
 43
0.0
 10
2.262951599423639
 20
7.37268988712446
 10
2.264064259631079
 20
7.370425986700435
 10
2.267956288785597
 20
7.368036100398968
 10
2.274304533393194
 20
7.366059713617271
 10
2.282545071939446
 20
7.364672446400805
 10
2.29194605924578
 20
7.363997639545958
 10
2.301671610472143
 20
7.364095107448673
 10
2.310858130055248
 20
7.364956336948917
 10
2.318688732423365
 20
7.366504642923686
  0
LWPOLYLINE
  5
ED
330
1F
100
AcDbEntity
  8
0
  6
Continuous
 62
     7
370
    15
100
AcDbPolyline
 90
        9
 70
   128
 43
0.0
 10
2.317981611183487
 20
7.365730738210612
 10
2.31039086420719
 20
7.364229843646671
 10
2.301485600168283
 20
7.363394976046683
 10
2.292058063666035
 20
7.363300531093745
 10
2.282945135135351
 20
7.363954710761883
 10
2.274956896916503
 20
7.365299456633334
 10
2.268802876270252
 20
7.367215273281645
 10
2.265030152564866
 20
7.369531941961324
 10
2.264768062221469
 20
7.369813054062949
  0
LWPOLYLINE
  5
EE
330
1F
100
AcDbEntity
  8
0
  6
Continuous
 62
     7
370
    15
100
AcDbPolyline
 90
        9
 70
   128
 43
0.0
 10
2.530820790142623
 20
7.433453361263192
 10
2.522989855909556
 20
7.431904966378135
 10
2.5138036681914
 20
7.431043825788179
 10
2.504078116965037
 20
7.430946357885464
 10
2.494677129658703
 20
7.431621164740311
 10
2.486436591112451
 20
7.433008431956777
 10
2.480088014639904
 20
7.434984729828187
 10
2.476196317350336
 20
7.437374705039941
 10
2.475083657142896
 20
7.439638605463966
  0
LWPOLYLINE
  5
EF
330
1F
100
AcDbEntity
  8
0
  6
Continuous
 62
     7
370
    15
100
AcDbPolyline
 90
        4
 70
   128
 43
0.0
 10
2.54038381051026
 20
7.439638672146682
 10
2.539814579156651
 20
7.438012436304885
 10
2.536599969329087
 20
7.435551266180382
 10
2.530820790142623
 20
7.433453361263192
  0
LWPOLYLINE
  5
F0
330
1F
100
AcDbEntity
  8
0
  6
Continuous
 62
     7
370
    15
100
AcDbPolyline
 90
       22
 70
   128
 43
0.0
 10
2.530113668902744
 20
7.434606270209362
 10
2.535715881105204
 20
7.436639915216233
 10
2.53883176111047
 20
7.439025644961758
 10
2.539184616517393
 20
7.441551475092873
 10
2.53674283718959
 20
7.443992929361113
 10
2.531723462803644
 20
7.446133066664883
 10
2.524572519850883
 20
7.447781796809429
 10
2.515925363775986
 20
7.44879255118574
 10
2.50655042786814
 20
7.449075574858547
 10
2.497280527216623
 20
7.448605661761334
 10
2.488939350624616
 20
7.447424599729242
 10
2.482268201421733
 20
7.44563732512914
 10
2.477859790406721
 20
7.443402631734572
 10
2.476105801185523
 20
7.440919122900326
 10
2.477162210284123
 20
7.438407473960075
 10
2.480934933989509
 20
7.436090805280396
 10
2.487088954635761
 20
7.434174988632084
 10
2.495077192854608
 20
7.432830242760634
 10
2.504190121385292
 20
7.432176063092496
 10
2.513617657887539
 20
7.432270508045434
 10
2.522522590061498
 20
7.433105286735135
 10
2.530113668902744
 20
7.434606270209362
  0
LWPOLYLINE
  5
F1
330
1F
100
AcDbEntity
  8
0
  6
Continuous
 62
     7
370
    15
100
AcDbPolyline
 90
        4
 70
   128
 43
0.0
 10
2.530820790142623
 20
7.423337165641849
 10
2.536599969329087
 20
7.425435070559039
 10
2.539814579156651
 20
7.427896240683541
 10
2.54038381051026
 20
7.429522476525339
  0
LWPOLYLINE
  5
F2
330
1F
100
AcDbEntity
  8
0
  6
Continuous
 62
     7
370
    15
100
AcDbPolyline
 90
        9
 70
   128
 43
0.0
 10
2.475083657142896
 20
7.429522409842623
 10
2.476196317350336
 20
7.427258509418598
 10
2.480088014639904
 20
7.424868534206844
 10
2.486436591112451
 20
7.422892236335434
 10
2.494677129658703
 20
7.421504969118968
 10
2.504078116965037
 20
7.420830162264121
 10
2.5138036681914
 20
7.420927630166835
 10
2.522989855909556
 20
7.421788770756791
 10
2.530820790142623
 20
7.423337165641849
  0
LWPOLYLINE
  5
F3
330
1F
100
AcDbEntity
  8
0
  6
Continuous
 62
     7
370
    15
100
AcDbPolyline
 90
        9
 70
   128
 43
0.0
 10
2.530113668902744
 20
7.422563260928775
 10
2.522522590061498
 20
7.421062277454547
 10
2.513617657887539
 20
7.420227498764845
 10
2.504190121385292
 20
7.420133053811908
 10
2.495077192854608
 20
7.420787233480046
 10
2.487088954635761
 20
7.422131979351497
 10
2.480934933989509
 20
7.424047795999808
 10
2.477162210284123
 20
7.426364464679487
 10
2.476900119940726
 20
7.426645754601687
  0
LWPOLYLINE
  5
F4
330
1F
100
AcDbEntity
  8
0
  6
Continuous
 62
     7
370
    15
100
AcDbPolyline
 90
        9
 70
   128
 43
0.0
 10
2.849018876721509
 20
7.632367190776762
 10
2.841187983971562
 20
7.630818784777919
 10
2.832001796253405
 20
7.629957644187963
 10
2.822276245027042
 20
7.629860176285249
 10
2.812875257720707
 20
7.630534983140095
 10
2.804634677691337
 20
7.631922261470347
 10
2.798286101218791
 20
7.633898559341757
 10
2.794394113547392
 20
7.636288434529438
 10
2.793281743721782
 20
7.638552434977536
  0
LWPOLYLINE
  5
F5
330
1F
100
AcDbEntity
  8
0
  6
Continuous
 62
     7
370
    15
100
AcDbPolyline
 90
        4
 70
   128
 43
0.0
 10
2.858581606707316
 20
7.638552401636178
 10
2.858012375353708
 20
7.63692616579438
 10
2.854798097391091
 20
7.634465084580167
 10
2.849018876721509
 20
7.632367190776762
  0
LWPOLYLINE
  5
F6
330
1F
100
AcDbEntity
  8
0
  6
Continuous
 62
     7
370
    15
100
AcDbPolyline
 90
       22
 70
   128
 43
0.0
 10
2.848311796964749
 20
7.633520088609147
 10
2.853913967684091
 20
7.635553744729804
 10
2.857029889172475
 20
7.637939463361544
 10
2.857382744579398
 20
7.640465293492657
 10
2.854940965251595
 20
7.642906747760897
 10
2.84992154938253
 20
7.645046896178453
 10
2.842770647912887
 20
7.646695615209213
 10
2.834123450354872
 20
7.64770638069931
 10
2.824748182582078
 20
7.64798931546183
 10
2.81547828193056
 20
7.647519402364617
 10
2.80713747868662
 20
7.646338418129026
 10
2.800466329483738
 20
7.644551143528924
 10
2.796057876985607
 20
7.642316461248142
 10
2.794303887764409
 20
7.639832952413896
 10
2.79536029686301
 20
7.637321303473645
 10
2.799133062051514
 20
7.635004623680179
 10
2.805286709349698
 20
7.633088729235367
 10
2.813274989051663
 20
7.63174397225013
 10
2.822387917582348
 20
7.631089792581994
 10
2.831815785949545
 20
7.631184326445218
 10
2.840720676640385
 20
7.632019116248705
 10
2.848311796964749
 20
7.633520088609147
  0
LWPOLYLINE
  5
F7
330
1F
100
AcDbEntity
  8
0
  6
Continuous
 62
     7
370
    15
100
AcDbPolyline
 90
        4
 70
   128
 43
0.0
 10
2.849018876721509
 20
7.622250995155419
 10
2.854798097391091
 20
7.624348888958824
 10
2.858012375353708
 20
7.626809970173037
 10
2.858581606707316
 20
7.628436206014835
  0
LWPOLYLINE
  5
F8
330
1F
100
AcDbEntity
  8
0
  6
Continuous
 62
     7
370
    15
100
AcDbPolyline
 90
        9
 70
   128
 43
0.0
 10
2.793281743721782
 20
7.628436239356193
 10
2.794394113547392
 20
7.626172238908095
 10
2.798286101218791
 20
7.623782363720414
 10
2.804634677691337
 20
7.621806065849003
 10
2.812875257720707
 20
7.620418787518752
 10
2.822276245027042
 20
7.619743980663906
 10
2.832001796253405
 20
7.61984144856662
 10
2.841187983971562
 20
7.620702589156576
 10
2.849018876721509
 20
7.622250995155419
  0
LWPOLYLINE
  5
F9
330
1F
100
AcDbEntity
  8
0
  6
Continuous
 62
     7
370
    15
100
AcDbPolyline
 90
        9
 70
   128
 43
0.0
 10
2.848311796964749
 20
7.621477079328559
 10
2.840720676640385
 20
7.619976106968117
 10
2.831815785949545
 20
7.619141317164631
 10
2.822387917582348
 20
7.619046783301405
 10
2.813274989051663
 20
7.619700962969543
 10
2.805286709349698
 20
7.621045719954778
 10
2.799133062051514
 20
7.622961614399591
 10
2.79536029686301
 20
7.625278294193057
 10
2.795098040587138
 20
7.625559450749826
  0
LWPOLYLINE
  5
FA
330
1F
100
AcDbEntity
  8
0
  6
Continuous
 62
     7
370
    15
100
AcDbPolyline
 90
        9
 70
   128
 43
0.0
 10
2.74295284786188
 20
7.490285883981355
 10
2.735121913628813
 20
7.488737489096298
 10
2.725935725910657
 20
7.487876348506341
 10
2.716210174684294
 20
7.487778880603627
 10
2.70680918737796
 20
7.488453687458474
 10
2.698568648831707
 20
7.48984095467494
 10
2.692220072359161
 20
7.49181725254635
 10
2.688328375069594
 20
7.494207227758104
 10
2.687215714862153
 20
7.496471128182129
  0
LWPOLYLINE
  5
FB
330
1F
100
AcDbEntity
  8
0
  6
Continuous
 62
     7
370
    15
100
AcDbPolyline
 90
        4
 70
   128
 43
0.0
 10
2.752515536364568
 20
7.496471105954557
 10
2.751946636875908
 20
7.494844959023047
 10
2.748732027048343
 20
7.492383788898545
 10
2.74295284786188
 20
7.490285883981355
  0
LWPOLYLINE
  5
FC
330
1F
100
AcDbEntity
  8
0
  6
Continuous
 62
     7
370
    15
100
AcDbPolyline
 90
       22
 70
   128
 43
0.0
 10
2.742245726622001
 20
7.491438792927525
 10
2.747847938824461
 20
7.493472437934396
 10
2.750963818829727
 20
7.495858167679921
 10
2.75131667423665
 20
7.498383997811036
 10
2.748874894908846
 20
7.500825452079276
 10
2.743855520522901
 20
7.502965589383046
 10
2.73670457757014
 20
7.504614319527592
 10
2.728057421495242
 20
7.505625073903903
 10
2.718682153722448
 20
7.505908008666423
 10
2.70941258493588
 20
7.505438184479497
 10
2.701071408343873
 20
7.504257122447405
 10
2.694400259140991
 20
7.502469847847303
 10
2.689991848125978
 20
7.500235154452735
 10
2.688237858904779
 20
7.497751645618489
 10
2.68929426800338
 20
7.495239996678238
 10
2.693066991708766
 20
7.492923327998558
 10
2.699220680490068
 20
7.49100742243996
 10
2.707209250573864
 20
7.489662765478797
 10
2.716322179104549
 20
7.489008585810658
 10
2.725749715606796
 20
7.489103030763597
 10
2.734654647780756
 20
7.489937809453298
 10
2.742245726622001
 20
7.491438792927525
  0
LWPOLYLINE
  5
FD
330
1F
100
AcDbEntity
  8
0
  6
Continuous
 62
     7
370
    15
100
AcDbPolyline
 90
        4
 70
   128
 43
0.0
 10
2.74295284786188
 20
7.480169688360012
 10
2.748732027048343
 20
7.482267593277202
 10
2.751946636875908
 20
7.484728763401704
 10
2.752515536364568
 20
7.486354910333214
  0
LWPOLYLINE
  5
FE
330
1F
100
AcDbEntity
  8
0
  6
Continuous
 62
     7
370
    15
100
AcDbPolyline
 90
        9
 70
   128
 43
0.0
 10
2.687215714862153
 20
7.486354932560786
 10
2.688328375069594
 20
7.484091032136761
 10
2.692220072359161
 20
7.481701056925007
 10
2.698568648831707
 20
7.479724759053596
 10
2.70680918737796
 20
7.478337491837131
 10
2.716210174684294
 20
7.477662684982284
 10
2.725935725910657
 20
7.477760152884998
 10
2.735121913628813
 20
7.478621293474954
 10
2.74295284786188
 20
7.480169688360012
  0
LWPOLYLINE
  5
FF
330
1F
100
AcDbEntity
  8
0
  6
Continuous
 62
     7
370
    15
100
AcDbPolyline
 90
        9
 70
   128
 43
0.0
 10
2.742245726622001
 20
7.479395783646938
 10
2.734654647780756
 20
7.47789480017271
 10
2.725749715606796
 20
7.477060021483009
 10
2.716322179104549
 20
7.476965576530071
 10
2.707209250573864
 20
7.477619756198209
 10
2.699220680490068
 20
7.478964413159371
 10
2.693066991708766
 20
7.480880318717971
 10
2.68929426800338
 20
7.48319698739765
 10
2.689032011727508
 20
7.483478143954419
  0
LWPOLYLINE
  5
100
330
1F
100
AcDbEntity
  8
0
  6
Continuous
 62
     7
370
    15
100
AcDbPolyline
 90
        9
 70
   128
 43
0.0
 10
2.212622703563738
 20
7.461869622622274
 10
2.20479181081379
 20
7.46032121662343
 10
2.195605623095635
 20
7.459460076033474
 10
2.185880071869271
 20
7.45936260813076
 10
2.176479084562937
 20
7.460037414985607
 10
2.168238504533566
 20
7.461424693315859
 10
2.161890259925968
 20
7.463401080097556
 10
2.15799827225457
 20
7.465790955285236
 10
2.156885570564011
 20
7.468054866823048
  0
LWPOLYLINE
  5
101
330
1F
100
AcDbEntity
  8
0
  6
Continuous
 62
     7
370
    15
100
AcDbPolyline
 90
        4
 70
   128
 43
0.0
 10
2.222185765414494
 20
7.468054922391978
 10
2.221616534060885
 20
7.466428686550179
 10
2.21840192423332
 20
7.463967516425678
 10
2.212622703563738
 20
7.461869622622274
  0
LWPOLYLINE
  5
102
330
1F
100
AcDbEntity
  8
0
  6
Continuous
 62
     7
370
    15
100
AcDbPolyline
 90
       22
 70
   128
 43
0.0
 10
2.211915623806978
 20
7.463022520454658
 10
2.217517794526319
 20
7.465056176575316
 10
2.220633716014704
 20
7.467441895207055
 10
2.220986571421627
 20
7.469967725338168
 10
2.218544792093823
 20
7.472409179606408
 10
2.213525376224759
 20
7.474549328023965
 10
2.206374474755117
 20
7.476198047054725
 10
2.197727277197101
 20
7.477208812544821
 10
2.188352341289255
 20
7.477491836217629
 10
2.179082440637738
 20
7.477021923120415
 10
2.170741305528849
 20
7.475840849974538
 10
2.164070156325967
 20
7.474053575374436
 10
2.159661703827836
 20
7.471818893093653
 10
2.157907714606638
 20
7.469335384259408
 10
2.158964123705239
 20
7.466823735319156
 10
2.162736888893743
 20
7.46450705552569
 10
2.168890868056875
 20
7.462591249991166
 10
2.176879147758841
 20
7.46124649300593
 10
2.185992076289527
 20
7.460592313337793
 10
2.195419612791773
 20
7.46068675829073
 10
2.204324835347563
 20
7.461521637004504
 10
2.211915623806978
 20
7.463022520454658
  0
LWPOLYLINE
  5
103
330
1F
100
AcDbEntity
  8
0
  6
Continuous
 62
     7
370
    15
100
AcDbPolyline
 90
        4
 70
   128
 43
0.0
 10
2.212622703563738
 20
7.45175342700093
 10
2.21840192423332
 20
7.453851320804335
 10
2.221616534060885
 20
7.456312490928836
 10
2.222185765414494
 20
7.457938726770634
  0
LWPOLYLINE
  5
104
330
1F
100
AcDbEntity
  8
0
  6
Continuous
 62
     7
370
    15
100
AcDbPolyline
 90
        9
 70
   128
 43
0.0
 10
2.156885570564011
 20
7.457938671201704
 10
2.15799827225457
 20
7.455674759663893
 10
2.161890259925968
 20
7.453284884476213
 10
2.168238504533566
 20
7.451308497694515
 10
2.176479084562937
 20
7.449921219364264
 10
2.185880071869271
 20
7.449246412509417
 10
2.195605623095635
 20
7.449343880412131
 10
2.20479181081379
 20
7.450205021002087
 10
2.212622703563738
 20
7.45175342700093
  0
LWPOLYLINE
  5
105
330
1F
100
AcDbEntity
  8
0
  6
Continuous
 62
     7
370
    15
100
AcDbPolyline
 90
        9
 70
   128
 43
0.0
 10
2.211915623806978
 20
7.450979511174071
 10
2.204324835347563
 20
7.449478627723916
 10
2.195419612791773
 20
7.448643749010142
 10
2.185992076289527
 20
7.448549304057205
 10
2.176879147758841
 20
7.449203483725342
 10
2.168890868056875
 20
7.450548240710578
 10
2.162736888893743
 20
7.452464046245103
 10
2.158964123705239
 20
7.454780726038569
 10
2.158701991878723
 20
7.455062027074554
  0
LWPOLYLINE
  5
106
330
1F
100
AcDbEntity
  8
0
  6
Continuous
 62
     7
370
    15
100
AcDbPolyline
 90
        9
 70
   128
 43
0.0
 10
2.424754761282995
 20
7.518702145340436
 10
2.416923868533047
 20
7.517153739341593
 10
2.407737680814891
 20
7.516292598751637
 10
2.398012129588528
 20
7.516195130848923
 10
2.388611142282194
 20
7.51686993770377
 10
2.380370562252823
 20
7.518257216034021
 10
2.374021985780276
 20
7.520233513905432
 10
2.370130329973827
 20
7.522623478003399
 10
2.369017628283268
 20
7.524887389541211
  0
LWPOLYLINE
  5
107
330
1F
100
AcDbEntity
  8
0
  6
Continuous
 62
     7
370
    15
100
AcDbPolyline
 90
        4
 70
   128
 43
0.0
 10
2.434317823133751
 20
7.52488744511014
 10
2.433748591780142
 20
7.523261209268342
 10
2.430533981952577
 20
7.520800039143841
 10
2.424754761282995
 20
7.518702145340436
  0
LWPOLYLINE
  5
108
330
1F
100
AcDbEntity
  8
0
  6
Continuous
 62
     7
370
    15
100
AcDbPolyline
 90
       22
 70
   128
 43
0.0
 10
2.424047681526235
 20
7.519855043172821
 10
2.429649852245576
 20
7.521888699293479
 10
2.432765773733961
 20
7.524274417925218
 10
2.433118629140884
 20
7.526800248056331
 10
2.43067684981308
 20
7.529241702324571
 10
2.425657433944016
 20
7.531381850742128
 10
2.418506532474374
 20
7.533030569772888
 10
2.409859334916358
 20
7.534041335262984
 10
2.400484399008512
 20
7.534324358935792
 10
2.391214498356995
 20
7.533854445838578
 10
2.382873363248106
 20
7.5326733726927
 10
2.376202214045224
 20
7.530886098092599
 10
2.371793761547093
 20
7.528651415811816
 10
2.370039772325895
 20
7.526167906977571
 10
2.371096181424496
 20
7.523656258037319
 10
2.374868946613
 20
7.521339578243853
 10
2.381022925776132
 20
7.519423772709329
 10
2.389011205478098
 20
7.518079015724092
 10
2.398124134008783
 20
7.517424836055955
 10
2.40755167051103
 20
7.517519281008893
 10
2.416456561201871
 20
7.518354070812379
 10
2.424047681526235
 20
7.519855043172821
  0
LWPOLYLINE
  5
109
330
1F
100
AcDbEntity
  8
0
  6
Continuous
 62
     7
370
    15
100
AcDbPolyline
 90
        4
 70
   128
 43
0.0
 10
2.424754761282995
 20
7.508585949719093
 10
2.430533981952577
 20
7.510683843522498
 10
2.433748591780142
 20
7.513145013646999
 10
2.434317823133751
 20
7.514771249488797
  0
LWPOLYLINE
  5
10A
330
1F
100
AcDbEntity
  8
0
  6
Continuous
 62
     7
370
    15
100
AcDbPolyline
 90
        9
 70
   128
 43
0.0
 10
2.369017628283268
 20
7.514771193919867
 10
2.370130329973827
 20
7.512507282382056
 10
2.374021985780276
 20
7.510117318284088
 10
2.380370562252823
 20
7.508141020412678
 10
2.388611142282194
 20
7.506753742082427
 10
2.398012129588528
 20
7.50607893522758
 10
2.407737680814891
 20
7.506176403130294
 10
2.416923868533047
 20
7.50703754372025
 10
2.424754761282995
 20
7.508585949719093
  0
LWPOLYLINE
  5
10B
330
1F
100
AcDbEntity
  8
0
  6
Continuous
 62
     7
370
    15
100
AcDbPolyline
 90
        9
 70
   128
 43
0.0
 10
2.424047681526235
 20
7.507812033892233
 10
2.416456561201871
 20
7.506311061531792
 10
2.40755167051103
 20
7.505476271728305
 10
2.398124134008783
 20
7.505381826775368
 10
2.389011205478098
 20
7.506036006443505
 10
2.381022925776132
 20
7.507380763428741
 10
2.374868946613
 20
7.509296568963266
 10
2.371096181424496
 20
7.511613248756731
 10
2.370834091081098
 20
7.511894360858357
  0
LWPOLYLINE
  5
10C
330
1F
100
AcDbEntity
  8
0
  6
Continuous
 62
     7
370
    15
100
AcDbPolyline
 90
       27
 70
   128
 43
0.0
 10
7.572386046666345
 20
8.05354340148909
 10
7.580847131509051
 20
8.054410411266518
 10
7.588816491019886
 20
8.05242745644702
 10
7.5958309720131
 20
8.047709764673372
 10
7.601482919233911
 20
8.04053156160258
 10
7.605443861571049
 20
8.031309921196918
 10
7.607483604662118
 20
8.020580715814618
 10
7.607483604662118
 20
8.008967721151792
 10
7.605443861571049
 20
7.997145689378112
 10
7.601482919233911
 20
7.985801688516597
 10
7.5958309720131
 20
7.975594934153017
 10
7.588816491019886
 20
7.967118728416989
 10
7.580847131509051
 20
7.960865614618992
 10
7.572386046666345
 20
7.957198988116139
 10
7.563924957934597
 20
7.956331977296793
 10
7.555955599720108
 20
7.958314932463596
 10
7.548941120671415
 20
7.963032624758203
 10
7.543289170209739
 20
7.970210940003479
 10
7.539328227224425
 20
7.979432580235489
 10
7.537288486726051
 20
7.990161673269651
 10
7.537288486726051
 20
8.001774667932476
 10
7.539328227224425
 20
8.013596812054295
 10
7.543289170209739
 20
8.024940813089463
 10
7.548941120671415
 20
8.03514745527856
 10
7.555955599720108
 20
8.043623660493627
 10
7.563924957934597
 20
8.049876773944319
 10
7.572386046666345
 20
8.05354340148909
  0
LWPOLYLINE
  5
10D
330
1F
100
AcDbEntity
  8
0
  6
Continuous
 62
     7
370
    15
100
AcDbPolyline
 90
       29
 70
   128
 43
0.0
 10
4.218048158806259
 20
7.964915926004322
 10
4.210194699239785
 20
7.962277568790542
 10
4.204729588744341
 20
7.959237181484084
 10
4.201926615902774
 20
7.955947156317789
 10
4.201926657385892
 20
7.952572555240472
 10
4.204729505778105
 20
7.949282541187963
 10
4.210194740722903
 20
7.946242142767721
 10
4.218048200289377
 20
7.943603763326368
 10
4.227896209681886
 20
7.941499723599338
 10
4.239244704957749
 20
7.940035537870365
 10
4.25152495256078
 20
7.939284623809386
 10
4.264120969662695
 20
7.939284601581814
 10
4.276401217265726
 20
7.940035560097936
 10
4.287749754024708
 20
7.941499712485552
 10
4.29759768045098
 20
7.94360372998501
 10
4.305451264466809
 20
7.946242142767721
 10
4.310916333479133
 20
7.949282541187963
 10
4.31371934780382
 20
7.952572555240472
 10
4.313719264837583
 20
7.955947167431574
 10
4.310916416445371
 20
7.959237181484083
 10
4.30545122298369
 20
7.962277568790542
 10
4.297597721934098
 20
7.964915959345678
 10
4.287749754024708
 20
7.967019987958924
 10
4.276401217265727
 20
7.968484184801682
 10
4.264120969662695
 20
7.969235098862662
 10
4.251524994043899
 20
7.969235109976448
 10
4.239244704957749
 20
7.968484162574111
 10
4.227896209681886
 20
7.96701999907271
 10
4.218048158806259
 20
7.964915926004322
  0
LWPOLYLINE
  5
10E
330
1F
100
AcDbEntity
  8
0
  6
Continuous
 62
     7
370
    15
100
AcDbPolyline
 90
       29
 70
   128
 43
0.0
 10
3.581652151580962
 20
7.794418402304978
 10
3.573798692014488
 20
7.791780045091196
 10
3.56833341558657
 20
7.788739613329595
 10
3.565530608677478
 20
7.785449632618444
 10
3.565530484228121
 20
7.782074987085985
 10
3.568333498552807
 20
7.778785017488619
 10
3.573798567565132
 20
7.775744574613232
 10
3.581652027131606
 20
7.773106195171879
 10
3.591500036524115
 20
7.77100215544485
 10
3.602848697732452
 20
7.76953801417102
 10
3.615128779403009
 20
7.768787055654898
 10
3.627724962437398
 20
7.768787077882469
 10
3.640005044107955
 20
7.769537991943448
 10
3.651353746799411
 20
7.771002188786208
 10
3.661201673225683
 20
7.773106206285666
 10
3.669055091309038
 20
7.775744574613232
 10
3.674520326253837
 20
7.778785017488619
 10
3.677323174646049
 20
7.782074987085985
 10
3.677323091679812
 20
7.785449599277086
 10
3.6745202432876
 20
7.788739613329595
 10
3.669055049825919
 20
7.791780000636053
 10
3.661201548776327
 20
7.794418391191191
 10
3.651353580866937
 20
7.796522419804436
 10
3.640005044107955
 20
7.797986616647195
 10
3.627724796504923
 20
7.798737530708173
 10
3.615128820886128
 20
7.798737541821959
 10
3.602848697732452
 20
7.797986638874767
 10
3.591500036524115
 20
7.796522430918221
 10
3.581652151580962
 20
7.794418402304978
  0
LINE
  5
10F
330
1F
100
AcDbEntity
  8
0
  6
Continuous
 62
     7
370
    15
100
AcDbLine
 10
2.034856007999696
 20
7.436847143173298
 30
0.0
 11
2.034856090965932
 21
7.417903005979864
 31
0.0
  0
LINE
  5
110
330
1F
100
AcDbEntity
  8
0
  6
Continuous
 62
     7
370
    15
100
AcDbLine
 10
5.287547255485434
 20
8.308279076684032
 30
0.0
 11
4.732020016042993
 21
8.159447189624534
 31
0.0
  0
LINE
  5
111
330
1F
100
AcDbEntity
  8
0
  6
Continuous
 62
     7
370
    15
100
AcDbLine
 10
4.703622166432745
 20
8.151839091864708
 30
0.0
 11
4.519887958323735
 21
8.102614666906374
 31
0.0
  0
LINE
  5
112
330
1F
100
AcDbEntity
  8
0
  6
Continuous
 62
     7
370
    15
100
AcDbLine
 10
4.491490274645961
 20
8.09500661360169
 30
0.0
 11
4.307755900604478
 21
8.04578214418821
 31
0.0
  0
LINE
  5
113
330
1F
100
AcDbEntity
  8
0
  6
Continuous
 62
     7
370
    15
100
AcDbLine
 10
4.279358216926705
 20
8.038174090883527
 30
0.0
 11
4.09562384288522
 21
7.988949621470048
 31
0.0
  0
LINE
  5
114
330
1F
100
AcDbEntity
  8
0
  6
Continuous
 62
     7
370
    15
100
AcDbLine
 10
4.067226159207447
 20
7.981341568165364
 30
0.0
 11
3.671359893379181
 21
7.875284620488866
 31
0.0
  0
LINE
  5
115
330
1F
100
AcDbEntity
  8
0
  6
Continuous
 62
     7
370
    15
100
AcDbLine
 10
3.642962043768933
 20
7.867676522729039
 30
0.0
 11
3.459227835659924
 21
7.818452097770703
 31
0.0
  0
LINE
  5
116
330
1F
100
AcDbEntity
  8
0
  6
Continuous
 62
     7
370
    15
100
AcDbLine
 10
3.430829986049677
 20
7.810844000010876
 30
0.0
 11
3.247095612008193
 21
7.761619530597396
 31
0.0
  0
LINE
  5
117
330
1F
100
AcDbEntity
  8
0
  6
Continuous
 62
     7
370
    15
100
AcDbLine
 10
3.21869792833042
 20
7.754011477292713
 30
0.0
 11
3.034963886153885
 21
7.704787096789521
 31
0.0
  0
LINE
  5
118
330
1F
100
AcDbEntity
  8
0
  6
Continuous
 62
     7
370
    15
100
AcDbLine
 10
3.006565870611162
 20
7.697178954574551
 30
0.0
 11
2.822831828434627
 21
7.647954574071358
 31
0.0
  0
LINE
  5
119
330
1F
100
AcDbEntity
  8
0
  6
Continuous
 62
     7
370
    15
100
AcDbLine
 10
2.794433812891905
 20
7.640346431856388
 30
0.0
 11
2.61069977071537
 21
7.591122051353195
 31
0.0
  0
LINE
  5
11A
330
1F
100
AcDbEntity
  8
0
  6
Continuous
 62
     7
370
    15
100
AcDbLine
 10
2.582301755172648
 20
7.583513909138225
 30
0.0
 11
2.398567712996114
 21
7.534289528635033
 31
0.0
  0
LINE
  5
11B
330
1F
100
AcDbEntity
  8
0
  6
Continuous
 62
     7
370
    15
100
AcDbLine
 10
2.37017002931834
 20
7.52668147533035
 30
0.0
 11
2.186435655276856
 21
7.47745700591687
 31
0.0
  0
LINE
  5
11C
330
1F
100
AcDbEntity
  8
0
  6
Continuous
 62
     7
370
    15
100
AcDbLine
 10
2.158037971599084
 20
7.469848952612187
 30
0.0
 11
2.034856007999696
 21
7.436847143173298
 31
0.0
  0
LINE
  5
11D
330
1F
100
AcDbEntity
  8
0
  6
Continuous
 62
     7
370
    15
100
AcDbLine
 10
5.579228834849412
 20
8.230134357946557
 30
0.0
 11
2.326537587363673
 21
7.358702424435825
 31
0.0
  0
LINE
  5
11E
330
1F
100
AcDbEntity
  8
0
  6
Continuous
 62
     7
370
    15
100
AcDbLine
 10
2.255826956768078
 20
7.358702468890968
 30
0.0
 11
2.326537587363673
 21
7.358702424435825
 31
0.0
  0
LINE
  5
11F
330
1F
100
AcDbEntity
  8
0
  6
Continuous
 62
     7
370
    15
100
AcDbLine
 10
2.255826956768078
 20
7.358702468890968
 30
0.0
 11
2.034856090965932
 21
7.417903005979864
 31
0.0
  0
LWPOLYLINE
  5
120
330
1F
100
AcDbEntity
  8
0
  6
Continuous
 62
     7
370
    15
100
AcDbPolyline
 90
       29
 70
   128
 43
0.0
 10
2.308859971197894
 20
7.453423310451144
 10
2.301006345698946
 20
7.450784908782219
 10
2.295541235203502
 20
7.447744521475763
 10
2.292738262361935
 20
7.444454496309467
 10
2.292738469777527
 20
7.441079939687295
 10
2.29554131816974
 20
7.437789925634787
 10
2.301006553114539
 20
7.434749527214543
 10
2.308860012681013
 20
7.43211114777319
 10
2.318708022073521
 20
7.430007108046161
 10
2.330056517349385
 20
7.428542922317187
 10
2.342336764952415
 20
7.427792008256207
 10
2.354932616121855
 20
7.427791941573492
 10
2.367212863724887
 20
7.428542900089615
 10
2.378561400483869
 20
7.430007052477231
 10
2.388409492842615
 20
7.432111114431832
 10
2.396263076858444
 20
7.434749527214543
 10
2.401728145870769
 20
7.437789925634787
 10
2.404531160195455
 20
7.441079939687295
 10
2.404530911296744
 20
7.444454507423253
 10
2.401728062904532
 20
7.447744521475763
 10
2.396262869442852
 20
7.450784908782219
 10
2.38840936839326
 20
7.453423299337358
 10
2.378561400483869
 20
7.455527327950602
 10
2.367212863724887
 20
7.456991524793362
 10
2.354932616121856
 20
7.45774243885434
 10
2.342336806435535
 20
7.45774249442327
 10
2.330056517349385
 20
7.456991547020933
 10
2.318708022073521
 20
7.455527383519532
 10
2.308859971197894
 20
7.453423310451144
  0
LWPOLYLINE
  5
121
330
1F
100
AcDbEntity
  8
0
  6
Continuous
 62
     7
370
    15
100
AcDbPolyline
 90
       29
 70
   128
 43
0.0
 10
2.945256144355665
 20
7.623920878605632
 10
2.937402518856717
 20
7.621282476936708
 10
2.931937408361274
 20
7.618242089630251
 10
2.929134435519705
 20
7.614952064463955
 10
2.929134311070351
 20
7.611577418931497
 10
2.931937491327511
 20
7.608287493789275
 10
2.937402394407362
 20
7.605247006458744
 10
2.945255853973835
 20
7.602608627017391
 10
2.955103863366344
 20
7.600504587290362
 10
2.966452690507155
 20
7.599040490471676
 10
2.978732606245238
 20
7.598289487500409
 10
2.991328789279627
 20
7.598289509727981
 10
3.003609036882659
 20
7.599040468244104
 10
3.014957573641639
 20
7.600504620631719
 10
3.024805666000387
 20
7.602608682586321
 10
3.032658918151267
 20
7.605247006458744
 10
3.03812431902854
 20
7.608287493789275
 10
3.040927001488277
 20
7.611577418931497
 10
3.040927084454515
 20
7.614952075577742
 10
3.038124236062303
 20
7.618242089630251
 10
3.032659042600622
 20
7.621282476936708
 10
3.02480554155103
 20
7.623920867491847
 10
3.014957573641639
 20
7.62602489610509
 10
3.003609036882659
 20
7.62748909294785
 10
2.991328789279627
 20
7.628240007008828
 10
2.978732647728356
 20
7.628239973667471
 10
2.966452690507156
 20
7.627489115175422
 10
2.955103863366344
 20
7.626024862763733
 10
2.945256144355665
 20
7.623920878605632
  0
LINE
  5
122
330
1F
100
AcDbEntity
  8
0
  6
Continuous
 62
     7
370
    15
100
AcDbLine
 10
2.255826956768078
 20
7.332689410585049
 30
0.0
 11
2.255826956768078
 21
7.358702468890968
 31
0.0
  0
LINE
  5
123
330
1F
100
AcDbEntity
  8
0
  6
Continuous
 62
     7
370
    15
100
AcDbLine
 10
2.326537587363673
 20
7.358702424435825
 30
0.0
 11
2.326537587363673
 21
7.332689366129905
 31
0.0
  0
LINE
  5
124
330
1F
100
AcDbEntity
  8
0
  6
Continuous
 62
     7
370
    15
100
AcDbLine
 10
2.326537587363673
 20
7.332689366129905
 30
0.0
 11
2.255826956768078
 21
7.332689410585049
 31
0.0
  0
LINE
  5
125
330
1F
100
AcDbEntity
  8
0
  6
Continuous
 62
     7
370
    15
100
AcDbLine
 10
5.579228834849412
 20
8.204121299640638
 30
0.0
 11
2.326537587363673
 21
7.332689366129905
 31
0.0
  0
LINE
  5
126
330
1F
100
AcDbEntity
  8
0
  6
Continuous
 62
     7
370
    15
100
AcDbLine
 10
2.034856090965932
 20
7.417903005979864
 30
0.0
 11
2.034856090965932
 21
7.391889947673945
 31
0.0
  0
LINE
  5
127
330
1F
100
AcDbEntity
  8
0
  6
Continuous
 62
     7
370
    15
100
AcDbLine
 10
2.034856090965932
 20
7.391889947673945
 30
0.0
 11
2.255826956768078
 21
7.332689410585049
 31
0.0
  0
ARC
  5
128
330
1F
100
AcDbEntity
  8
0
  6
Continuous
 62
     7
370
    15
100
AcDbCircle
 10
2.348634864662221
 20
7.23905511343793
 30
0.0
 40
0.1928102260093041
100
AcDbArc
 50
81.52655444353719
 51
98.47351279542118
  0
ARC
  5
129
330
1F
100
AcDbEntity
  8
0
  6
Continuous
 62
     7
370
    15
100
AcDbCircle
 10
2.985030573495102
 20
7.409562622144974
 30
0.0
 40
0.1928003255502776
100
AcDbArc
 50
81.5260763260248
 51
98.47381160838638
  0
ARC
  5
12A
330
1F
100
AcDbEntity
  8
0
  6
Continuous
 62
     7
370
    15
100
AcDbCircle
 10
3.621426812879371
 20
7.580055175671593
 30
0.0
 40
0.1928052756762032
100
AcDbArc
 50
81.52631538536377
 51
98.47366220158169
  0
ARC
  5
12B
330
1F
100
AcDbEntity
  8
0
  6
Continuous
 62
     7
370
    15
100
AcDbCircle
 10
4.257822986036858
 20
7.750551272051279
 30
0.0
 40
0.1928067313847547
100
AcDbArc
 50
81.52637983293562
 51
98.47359775401177
  0
LINE
  5
12C
330
1F
100
AcDbEntity
  8
0
  6
Continuous
 62
     7
370
    15
100
AcDbLine
 10
5.221255904481927
 20
8.072696113082457
 30
0.0
 11
1.650366570417303
 21
7.116015395494482
 31
0.0
  0
LINE
  5
12D
330
1F
100
AcDbEntity
  8
0
  6
Continuous
 62
     7
370
    15
100
AcDbLine
 10
5.221255904481927
 20
6.531186304544831
 30
0.0
 11
5.221255904481927
 21
8.072696113082457
 31
0.0
  0
LINE
  5
12E
330
1F
100
AcDbEntity
  8
0
  6
Continuous
 62
     7
370
    15
100
AcDbLine
 10
1.615011338085744
 20
5.565033529473923
 30
0.0
 11
5.221255904481927
 21
6.531186304544831
 31
0.0
  0
LINE
  5
12F
330
1F
100
AcDbEntity
  8
0
  6
Continuous
 62
     7
370
    15
100
AcDbLine
 10
1.615011338085744
 20
5.565033529473923
 30
0.0
 11
1.615011338085744
 21
6.303008064193842
 31
0.0
  0
LINE
  5
130
330
1F
100
AcDbEntity
  8
0
  6
Continuous
 62
     7
370
    15
100
AcDbLine
 10
1.615011338085744
 20
6.303008064193842
 30
0.0
 11
1.544300541557675
 21
6.31684427932279
 31
0.0
  0
LINE
  5
131
330
1F
100
AcDbEntity
  8
0
  6
Continuous
 62
     7
370
    15
100
AcDbLine
 10
1.544300541557675
 20
6.31684427932279
 30
0.0
 11
1.650366570417303
 21
6.416401394875559
 31
0.0
  0
LINE
  5
132
330
1F
100
AcDbEntity
  8
0
  6
Continuous
 62
     7
370
    15
100
AcDbLine
 10
1.650366570417303
 20
6.416401394875559
 30
0.0
 11
1.650366570417303
 21
7.116015395494482
 31
0.0
  0
LINE
  5
133
330
1F
100
AcDbEntity
  8
0
  6
Continuous
 62
     7
370
    15
100
AcDbLine
 10
1.226102537945028
 20
6.530066418084313
 30
0.0
 11
1.650366570417303
 21
6.416401394875559
 31
0.0
  0
LINE
  5
134
330
1F
100
AcDbEntity
  8
0
  6
Continuous
 62
     7
370
    15
100
AcDbLine
 10
1.226102537945028
 20
6.530066418084313
 30
0.0
 11
1.226102537945028
 21
7.229680418703236
 31
0.0
  0
LINE
  5
135
330
1F
100
AcDbEntity
  8
0
  6
Continuous
 62
     7
370
    15
100
AcDbLine
 10
1.226102537945028
 20
7.229680418703236
 30
0.0
 11
1.650366570417303
 21
7.116015395494482
 31
0.0
  0
LINE
  5
136
330
1F
100
AcDbEntity
  8
0
  6
Continuous
 62
     7
370
    15
100
AcDbLine
 10
5.221255904481927
 20
8.072696113082457
 30
0.0
 11
5.154964719410896
 21
8.090456254204312
 31
0.0
  0
LINE
  5
137
330
1F
100
AcDbEntity
  8
0
  6
Continuous
 62
     7
370
    15
100
AcDbLine
 10
4.814735363367789
 20
8.181607458857671
 30
0.0
 11
4.796991872009652
 21
8.186361136291212
 31
0.0
  0
LINE
  5
138
330
1F
100
AcDbEntity
  8
0
  6
Continuous
 62
     7
370
    15
100
AcDbLine
 10
4.796991872009652
 20
8.186361136291212
 30
0.0
 11
1.226102537945028
 21
7.229680418703236
 31
0.0
  0
LINE
  5
139
330
1F
100
AcDbEntity
  8
0
  6
Continuous
 62
     7
370
    15
100
AcDbLine
 10
1.1200365090854
 20
6.430509302531543
 30
0.0
 11
1.544300541557675
 21
6.31684427932279
 31
0.0
  0
LINE
  5
13A
330
1F
100
AcDbEntity
  8
0
  6
Continuous
 62
     7
370
    15
100
AcDbLine
 10
1.1200365090854
 20
6.430509302531543
 30
0.0
 11
1.226102537945028
 21
6.530066418084313
 31
0.0
  0
LINE
  5
13B
330
1F
100
AcDbEntity
  8
0
  6
Continuous
 62
     7
370
    15
100
AcDbLine
 10
1.190747305613469
 20
5.678698552682678
 30
0.0
 11
1.615011338085744
 21
5.565033529473923
 31
0.0
  0
LINE
  5
13C
330
1F
100
AcDbEntity
  8
0
  6
Continuous
 62
     7
370
    15
100
AcDbLine
 10
1.190747305613469
 20
5.678698552682678
 30
0.0
 11
1.190747305613469
 21
6.411565137739549
 31
0.0
  0
LINE
  5
13D
330
1F
100
AcDbEntity
  8
0
  6
Continuous
 62
     7
370
    15
100
AcDbLine
 10
6.211205562482617
 20
8.034807749785301
 30
0.0
 11
5.786941447044101
 21
7.921142704348976
 31
0.0
  0
LINE
  5
13E
330
1F
100
AcDbEntity
  8
0
  6
Continuous
 62
     7
370
    15
100
AcDbLine
 10
3.206001605047705
 20
8.612605012222291
 30
0.0
 11
4.814735363367789
 21
8.181607458857671
 31
0.0
  0
LINE
  5
13F
330
1F
100
AcDbEntity
  8
0
  6
Continuous
 62
     7
370
    15
100
AcDbLine
 10
5.154964719410896
 20
8.090456254204312
 30
0.0
 11
5.786941447044101
 21
7.921142704348976
 31
0.0
  0
LINE
  5
140
330
1F
100
AcDbEntity
  8
0
  6
Continuous
 62
     7
370
    15
100
AcDbLine
 10
3.630265720486219
 20
8.726270057658618
 30
0.0
 11
3.206001605047705
 21
8.612605012222291
 31
0.0
  0
LINE
  5
141
330
1F
100
AcDbEntity
  8
0
  6
Continuous
 62
     7
370
    15
100
AcDbLine
 10
3.630265720486219
 20
8.726270057658618
 30
0.0
 11
5.238999478806304
 21
8.295272504293995
 31
0.0
  0
LINE
  5
142
330
1F
100
AcDbEntity
  8
0
  6
Continuous
 62
     7
370
    15
100
AcDbLine
 10
5.579228834849412
 20
8.204121299640638
 30
0.0
 11
6.211205562482617
 21
8.034807749785301
 31
0.0
  0
LINE
  5
143
330
1F
100
AcDbEntity
  8
0
  6
Continuous
 62
     7
370
    15
100
AcDbLine
 10
6.211205562482617
 20
8.034807749785301
 30
0.0
 11
6.211205562482617
 21
6.493297941247674
 31
0.0
  0
LINE
  5
144
330
1F
100
AcDbEntity
  8
0
  6
Continuous
 62
     7
370
    15
100
AcDbLine
 10
6.211205562482617
 20
6.493297941247674
 30
0.0
 11
5.786941447044101
 21
6.379632895811349
 31
0.0
  0
LINE
  5
145
330
1F
100
AcDbEntity
  8
0
  6
Continuous
 62
     7
370
    15
100
AcDbLine
 10
5.786941447044101
 20
7.921142704348976
 30
0.0
 11
5.786941447044101
 21
6.379632895811349
 31
0.0
  0
LINE
  5
146
330
1F
100
AcDbEntity
  8
0
  6
Continuous
 62
     7
370
    15
100
AcDbLine
 10
5.786941447044101
 20
6.379632895811349
 30
0.0
 11
5.221255904481927
 21
6.531186304544831
 31
0.0
  0
LINE
  5
147
330
1F
100
AcDbEntity
  8
0
  6
Continuous
 62
     7
370
    15
100
AcDbLine
 10
3.170646289749908
 20
7.750645177779225
 30
0.0
 11
3.170646289749908
 21
7.816766877389324
 31
0.0
  0
LINE
  5
148
330
1F
100
AcDbEntity
  8
0
  6
Continuous
 62
     7
370
    15
100
AcDbLine
 10
3.170646289749908
 20
7.816766877389324
 30
0.0
 11
3.099935576188077
 21
7.870266418768762
 31
0.0
  0
LINE
  5
149
330
1F
100
AcDbEntity
  8
0
  6
Continuous
 62
     7
370
    15
100
AcDbLine
 10
3.099935576188077
 20
7.870266418768762
 30
0.0
 11
3.206001605047705
 21
7.910066708725634
 31
0.0
  0
LINE
  5
14A
330
1F
100
AcDbEntity
  8
0
  6
Continuous
 62
     7
370
    15
100
AcDbLine
 10
3.206001605047705
 20
7.910066708725634
 30
0.0
 11
3.206001605047705
 21
8.612605012222291
 31
0.0
  0
LINE
  5
14B
330
1F
100
AcDbEntity
  8
0
  6
Continuous
 62
     7
370
    15
100
AcDbLine
 10
1.544300624523927
 20
5.431348660526047
 30
0.0
 11
6.635469511988655
 21
4.067368248655567
 31
0.0
  0
LINE
  5
14C
330
1F
100
AcDbEntity
  8
0
  6
Continuous
 62
     7
370
    15
100
AcDbLine
 10
1.544300624523927
 20
10.05587801548721
 30
0.0
 11
1.544300624523927
 21
7.314929289922719
 31
0.0
  0
LINE
  5
14D
330
1F
100
AcDbEntity
  8
0
  6
Continuous
 62
     7
370
    15
100
AcDbLine
 10
1.544300624523927
 20
5.583977623914027
 30
0.0
 11
1.544300624523927
 21
5.431348660526047
 31
0.0
  0
LINE
  5
14E
330
1F
100
AcDbEntity
  8
0
  6
Continuous
 62
     7
370
    15
100
AcDbLine
 10
6.635469511988655
 20
8.69189760361673
 30
0.0
 11
1.544300624523927
 21
10.05587801548721
 31
0.0
  0
LINE
  5
14F
330
1F
100
AcDbEntity
  8
0
  6
Continuous
 62
     7
370
    15
100
AcDbLine
 10
6.635469511988655
 20
4.067368248655567
 30
0.0
 11
6.635469511988655
 21
8.69189760361673
 31
0.0
  0
LINE
  5
150
330
1F
100
AcDbEntity
  8
0
  6
Continuous
 62
     7
370
    15
100
AcDbLine
 10
6.635469511988655
 20
8.69189760361673
 30
0.0
 11
7.766840348214298
 21
8.995004354400979
 31
0.0
  0
LINE
  5
151
330
1F
100
AcDbEntity
  8
0
  6
Continuous
 62
     7
370
    15
100
AcDbLine
 10
1.544300624523927
 20
10.05587801548721
 30
0.0
 11
2.675671460749569
 21
10.35898476627146
 31
0.0
  0
LINE
  5
152
330
1F
100
AcDbEntity
  8
0
  6
Continuous
 62
     7
370
    15
100
AcDbLine
 10
7.766840348214298
 20
8.995004354400979
 30
0.0
 11
2.675671460749569
 21
10.35898476627146
 31
0.0
  0
LINE
  5
153
330
1F
100
AcDbEntity
  8
0
  6
Continuous
 62
     7
370
    15
100
AcDbLine
 10
6.635469511988655
 20
4.067368248655567
 30
0.0
 11
7.766840348214298
 21
4.370474999439815
 31
0.0
  0
LINE
  5
154
330
1F
100
AcDbEntity
  8
0
  6
Continuous
 62
     7
370
    15
100
AcDbLine
 10
7.766840348214298
 20
4.370474999439815
 30
0.0
 11
7.766840348214298
 21
8.995004354400979
 31
0.0
  0
LWPOLYLINE
  5
155
330
1F
100
AcDbEntity
  8
0
  6
HIDDEN
 62
     7
370
     0
100
AcDbPolyline
 90
       13
 70
   128
 43
0.0
 10
4.702470097262621
 20
8.150045094985857
 10
4.70249287149474
 20
8.150372140364781
 10
4.704302323645524
 20
8.152934145869139
 10
4.708849910523484
 20
8.155239400690655
 10
4.71573179396892
 20
8.157083133323345
 10
4.724336512813477
 20
8.158301526562416
 10
4.733899242799283
 20
8.158786254336291
 10
4.743570534106501
 20
8.15849433963473
 10
4.752490939483703
 20
8.157451633123836
 10
4.759867799500431
 20
8.155750823778364
 10
4.765045763848834
 20
8.153543036859561
 10
4.767564701777257
 20
8.151024452916882
 10
4.767769960248156
 20
8.150045061644499
  0
LWPOLYLINE
  5
156
330
1F
100
AcDbEntity
  8
0
  6
HIDDEN
 62
     7
370
     0
100
AcDbPolyline
 90
       13
 70
   128
 43
0.0
 10
4.767769960248156
 20
8.139928866023156
 10
4.767564701777257
 20
8.140908257295539
 10
4.765045763848834
 20
8.143426841238218
 10
4.759867799500431
 20
8.14563462815702
 10
4.752490939483703
 20
8.147335437502492
 10
4.743570534106501
 20
8.148378144013387
 10
4.733899242799283
 20
8.148670058714948
 10
4.724336512813477
 20
8.148185330941073
 10
4.71573179396892
 20
8.146966937702002
 10
4.708849910523484
 20
8.145123205069312
 10
4.704302323645524
 20
8.142817950247795
 10
4.70249287149474
 20
8.140255944743438
 10
4.702470097262621
 20
8.139928899364514
  0
LWPOLYLINE
  5
157
330
1F
100
AcDbEntity
  8
0
  6
HIDDEN
 62
     7
370
     0
100
AcDbPolyline
 90
       16
 70
   128
 43
0.0
 10
4.704286435611096
 20
8.13705209964436
 10
4.703492241305248
 20
8.13928260314163
 10
4.705246230526446
 20
8.141766111975876
 10
4.709654517092102
 20
8.144000749801515
 10
4.716325666294984
 20
8.145788024401616
 10
4.724666801403874
 20
8.146969097547493
 10
4.733936702055391
 20
8.147439010644708
 10
4.743311637963236
 20
8.147155986971899
 10
4.751958835521253
 20
8.146145221481804
 10
4.759109819957132
 20
8.144496524678615
 10
4.764129152859959
 20
8.142356354033486
 10
4.766571098120237
 20
8.139914944220391
 10
4.766218242713314
 20
8.137389114089277
 10
4.76310232122493
 20
8.135003395457538
 10
4.757499984573113
 20
8.132969694881737
 10
4.757499984573113
 20
8.132969694881737
  0
LWPOLYLINE
  5
162
330
1F
100
AcDbEntity
  8
0
  6
HIDDEN
 62
     7
370
     0
100
AcDbPolyline
 90
       13
 70
   128
 43
0.0
 10
4.808536126122249
 20
8.064796310908613
 10
4.808558858871249
 20
8.065123367401325
 10
4.810368352505152
 20
8.067685361791895
 10
4.814915897899993
 20
8.069990627727197
 10
4.821797781345429
 20
8.071834360359886
 10
4.830402541673104
 20
8.073052742485172
 10
4.839965230175792
 20
8.073537481372833
 10
4.849636521483009
 20
8.073245566671271
 10
4.85855696834333
 20
8.07220284904659
 10
4.865933828360058
 20
8.07050203970112
 10
4.871111751225344
 20
8.068294263896103
 10
4.873630689153767
 20
8.065775679953423
 10
4.873836113557138
 20
8.064796333136186
  0
LWPOLYLINE
  5
163
330
1F
100
AcDbEntity
  8
0
  6
HIDDEN
 62
     7
370
     0
100
AcDbPolyline
 90
       13
 70
   128
 43
0.0
 10
4.873836113557138
 20
8.054680137514841
 10
4.873630689153767
 20
8.05565948433208
 10
4.871111751225344
 20
8.058178068274759
 10
4.865933828360058
 20
8.060385844079776
 10
4.85855696834333
 20
8.062086653425247
 10
4.849636521483009
 20
8.063129371049928
 10
4.839965230175792
 20
8.063421285751489
 10
4.830402541673104
 20
8.062936546863829
 10
4.821797781345429
 20
8.061718164738543
 10
4.814915897899993
 20
8.059874432105853
 10
4.810368352505152
 20
8.057569166170551
 10
4.808558858871249
 20
8.055007171779982
 10
4.808536126122249
 20
8.05468011528727
  0
LWPOLYLINE
  5
164
330
1F
100
AcDbEntity
  8
0
  6
HIDDEN
 62
     7
370
     0
100
AcDbPolyline
 90
       16
 70
   128
 43
0.0
 10
4.810352422987604
 20
8.051803326680902
 10
4.809558270164876
 20
8.054033819064386
 10
4.811312259386074
 20
8.05651732789863
 10
4.815720504468612
 20
8.058751976838054
 10
4.822391653671494
 20
8.060539251438157
 10
4.830732830263501
 20
8.061720313470249
 10
4.840002730915019
 20
8.062190226567462
 10
4.849377666822864
 20
8.061907202894655
 10
4.858024822897761
 20
8.060896448518343
 10
4.865175931782997
 20
8.059247762828944
 10
4.870195306168943
 20
8.057107625525173
 10
4.872637085496746
 20
8.054666171256933
 10
4.872284230089824
 20
8.052140341125818
 10
4.869168350084557
 20
8.049754611380294
 10
4.863565971949623
 20
8.047720921918278
 10
4.863565971949623
 20
8.047720921918278
  0
LWPOLYLINE
  5
16F
330
1F
100
AcDbEntity
  8
0
  6
HIDDEN
 62
     7
370
     0
100
AcDbPolyline
 90
       13
 70
   128
 43
0.0
 10
4.490338039543365
 20
8.093212572267695
 10
4.490360813775484
 20
8.093539617646619
 10
4.492170265926267
 20
8.096101623150977
 10
4.496717852804226
 20
8.098406877972493
 10
4.503599736249663
 20
8.100250610605183
 10
4.512204455094219
 20
8.101469003844254
 10
4.521767185080026
 20
8.101953731618129
 10
4.531438476387243
 20
8.101661816916568
 10
4.540358881764445
 20
8.100619110405673
 10
4.547735741781172
 20
8.098918301060201
 10
4.552913706129577
 20
8.096710514141399
 10
4.555432644058001
 20
8.09419193019872
 10
4.555638068461372
 20
8.093212583381481
  0
LWPOLYLINE
  5
170
330
1F
100
AcDbEntity
  8
0
  6
HIDDEN
 62
     7
370
     0
100
AcDbPolyline
 90
       13
 70
   128
 43
0.0
 10
4.555638068461372
 20
8.083096387760138
 10
4.555432644058001
 20
8.084075734577377
 10
4.552913706129577
 20
8.086594318520056
 10
4.547735741781172
 20
8.088802105438858
 10
4.540358881764445
 20
8.090502914784329
 10
4.531438476387243
 20
8.091545621295225
 10
4.521767185080026
 20
8.091837535996786
 10
4.512204455094219
 20
8.091352808222911
 10
4.503599736249663
 20
8.09013441498384
 10
4.496717852804226
 20
8.088290682351148
 10
4.492170265926267
 20
8.085985427529633
 10
4.490360813775484
 20
8.083423422025276
 10
4.490338039543365
 20
8.083096376646352
  0
LWPOLYLINE
  5
171
330
1F
100
AcDbEntity
  8
0
  6
HIDDEN
 62
     7
370
     0
100
AcDbPolyline
 90
       16
 70
   128
 43
0.0
 10
4.492154377891838
 20
8.080219576926198
 10
4.491360183585991
 20
8.082450080423466
 10
4.49311417280719
 20
8.084933589257712
 10
4.497522459372846
 20
8.087168227083351
 10
4.504193608575728
 20
8.088955501683454
 10
4.512534743684617
 20
8.090136574829331
 10
4.521804644336134
 20
8.090606487926546
 10
4.531179580243979
 20
8.090323464253737
 10
4.539826777801995
 20
8.08931269876364
 10
4.546977845204112
 20
8.087664024188024
 10
4.551997261073177
 20
8.085523875770467
 10
4.55443904040098
 20
8.083082421502227
 10
4.554086184994057
 20
8.080556591371115
 10
4.550970263505672
 20
8.078170872739374
 10
4.545367926853857
 20
8.076137172163573
 10
4.545367926853857
 20
8.076137172163573
  0
LWPOLYLINE
  5
172
330
1F
100
AcDbEntity
  8
0
  6
HIDDEN
 62
     7
370
     0
100
AcDbPolyline
 90
       17
 70
   128
 43
0.0
 10
4.534443098668389
 20
8.078100591023206
 10
4.52918751940506
 20
8.077159786815615
 10
4.522987991777691
 20
8.076829385073336
 10
4.51678850563344
 20
8.077159753474257
 10
4.511532843403873
 20
8.07810057990942
 10
4.508021131480801
 20
8.079508629905598
 10
4.506788004296908
 20
8.081169540759535
 10
4.508021214447039
 20
8.082830473841045
 10
4.511532843403873
 20
8.084238501609652
 10
4.516788588599677
 20
8.085179350272385
 10
4.522987991777691
 20
8.085509696445734
 10
4.529187477921942
 20
8.085179328044814
 10
4.534443140151508
 20
8.084238501609652
 10
4.53795485207458
 20
8.082830451613473
 10
4.539187979258472
 20
8.081169540759535
 10
4.537954893557698
 20
8.079508663246956
 10
4.534443098668389
 20
8.078100591023206
  0
LWPOLYLINE
  5
173
330
1F
100
AcDbEntity
  8
0
  6
HIDDEN
 62
     7
370
     0
100
AcDbPolyline
 90
       17
 70
   128
 43
0.0
 10
4.535150219908268
 20
8.078874608779029
 10
4.538878847058567
 20
8.080369601922635
 10
4.540188095765115
 20
8.082133037451889
 10
4.538878722609212
 20
8.083896439639788
 10
4.535150344357623
 20
8.085391432783392
 10
4.529570159691147
 20
8.086390306522533
 10
4.522988074743928
 20
8.086741113175802
 10
4.51640594831359
 20
8.086390339863891
 10
4.510825763647114
 20
8.085391399442034
 10
4.507097302429288
 20
8.083896450753574
 10
4.505788012239622
 20
8.082133026338105
 10
4.50709726094617
 20
8.080369568581277
 10
4.510825805130233
 20
8.078874619892816
 10
4.516405823864234
 20
8.077875701698532
 10
4.522988033260809
 20
8.077524950614193
 10
4.529570201174266
 20
8.077875712812318
 10
4.535150219908268
 20
8.078874608779029
  0
LWPOLYLINE
  5
17C
330
1F
100
AcDbEntity
  8
0
  6
HIDDEN
 62
     7
370
     0
100
AcDbPolyline
 90
       13
 70
   128
 43
0.0
 10
4.596404068402992
 20
8.007963788190451
 10
4.596426801151992
 20
8.008290844683161
 10
4.598236294785896
 20
8.010852839073733
 10
4.602783840180736
 20
8.013158105009035
 10
4.609665723626172
 20
8.015001837641722
 10
4.618270483953847
 20
8.01622021976701
 10
4.627833172456535
 20
8.016704958654671
 10
4.637504463763753
 20
8.016413043953109
 10
4.646424910624073
 20
8.015370326328428
 10
4.6538017706408
 20
8.013669516982957
 10
4.65897985943856
 20
8.011461785633084
 10
4.661498797366984
 20
8.008943201690405
 10
4.661704055837882
 20
8.007963810418022
  0
LWPOLYLINE
  5
17D
330
1F
100
AcDbEntity
  8
0
  6
HIDDEN
 62
     7
370
     0
100
AcDbPolyline
 90
       13
 70
   128
 43
0.0
 10
4.661704055837882
 20
7.997847614796679
 10
4.661498797366984
 20
7.998827006069062
 10
4.65897985943856
 20
8.001345590011741
 10
4.6538017706408
 20
8.003553321361614
 10
4.646424910624073
 20
8.005254130707085
 10
4.637504463763753
 20
8.006296848331766
 10
4.627833172456535
 20
8.006588763033327
 10
4.618270483953847
 20
8.006104024145665
 10
4.609665723626172
 20
8.004885642020379
 10
4.602783840180736
 20
8.003041909387691
 10
4.598236294785896
 20
8.000736643452389
 10
4.596426801151992
 20
7.998174649061818
 10
4.596404068402992
 20
7.997847592569107
  0
LWPOLYLINE
  5
17E
330
1F
100
AcDbEntity
  8
0
  6
HIDDEN
 62
     7
370
     0
100
AcDbPolyline
 90
       16
 70
   128
 43
0.0
 10
4.598220365268348
 20
7.99497080396274
 10
4.597426212445619
 20
7.997201296346223
 10
4.599180201666817
 20
7.999684805180468
 10
4.603588446749355
 20
8.001919454119892
 10
4.610259595952237
 20
8.003706728719995
 10
4.618600772544245
 20
8.004887790752086
 10
4.627870673195761
 20
8.0053577038493
 10
4.637245609103607
 20
8.005074680176493
 10
4.645892765178505
 20
8.004063925800181
 10
4.653043874063739
 20
8.00241524011078
 10
4.658063248449686
 20
8.000275102807009
 10
4.660505027777489
 20
7.99783364853877
 10
4.660152172370566
 20
7.995307818407655
 10
4.6570362923653
 20
7.992922088662131
 10
4.651433914230366
 20
7.990888399200115
 10
4.651433914230366
 20
7.990888399200115
  0
LWPOLYLINE
  5
189
330
1F
100
AcDbEntity
  8
0
  6
HIDDEN
 62
     7
370
     0
100
AcDbPolyline
 90
       13
 70
   128
 43
0.0
 10
4.278205981824108
 20
8.036380049549531
 10
4.278228756056225
 20
8.036707094928457
 10
4.28003820820701
 20
8.039269100432814
 10
4.28458579508497
 20
8.041574355254329
 10
4.291467678530406
 20
8.043418087887019
 10
4.300072397374963
 20
8.04463648112609
 10
4.309635127360769
 20
8.045121208899965
 10
4.319306418667986
 20
8.044829294198404
 10
4.328226824045188
 20
8.04378658768751
 10
4.335603684061916
 20
8.042085778342038
 10
4.340781814342794
 20
8.039878035878381
 10
4.343300752271218
 20
8.037359451935699
 10
4.343506010742116
 20
8.036380060663319
  0
LWPOLYLINE
  5
18A
330
1F
100
AcDbEntity
  8
0
  6
HIDDEN
 62
     7
370
     0
100
AcDbPolyline
 90
       13
 70
   128
 43
0.0
 10
4.343506010742116
 20
8.026263865041974
 10
4.343300752271218
 20
8.027243256314356
 10
4.340781814342794
 20
8.029761840257036
 10
4.335603684061916
 20
8.031969582720694
 10
4.328226824045188
 20
8.033670392066166
 10
4.319306418667986
 20
8.034713098577061
 10
4.309635127360769
 20
8.035005013278622
 10
4.300072397374963
 20
8.034520285504747
 10
4.291467678530406
 20
8.033301892265676
 10
4.28458579508497
 20
8.031458159632986
 10
4.28003820820701
 20
8.029152904811471
 10
4.278228756056225
 20
8.026590899307114
 10
4.278205981824108
 20
8.026263853928188
  0
LWPOLYLINE
  5
18B
330
1F
100
AcDbEntity
  8
0
  6
HIDDEN
 62
     7
370
     0
100
AcDbPolyline
 90
       16
 70
   128
 43
0.0
 10
4.280022320172581
 20
8.023387054208034
 10
4.279228125866734
 20
8.025617557705304
 10
4.280982115087932
 20
8.02810106653955
 10
4.285390401653589
 20
8.030335704365189
 10
4.292061550856471
 20
8.03212297896529
 10
4.30040268596536
 20
8.033304052111168
 10
4.309672586616876
 20
8.033773965208382
 10
4.319047522524722
 20
8.033490941535575
 10
4.327694886015213
 20
8.032480220500621
 10
4.334845787484855
 20
8.030831501469862
 10
4.33986520335392
 20
8.028691353052305
 10
4.342306982681723
 20
8.026249898784065
 10
4.341954127274799
 20
8.023724068652951
 10
4.338838205786415
 20
8.021338350021212
 10
4.3332358691346
 20
8.019304649445411
 10
4.3332358691346
 20
8.019304649445411
  0
LWPOLYLINE
  5
196
330
1F
100
AcDbEntity
  8
0
  6
HIDDEN
 62
     7
370
     0
100
AcDbPolyline
 90
       13
 70
   128
 43
0.0
 10
4.384272010683735
 20
7.951131265472287
 10
4.38429490936521
 20
7.951458366420142
 10
4.386104237066638
 20
7.95402031635557
 10
4.390651782461478
 20
7.956325582290872
 10
4.397533665906915
 20
7.95816931492356
 10
4.40613842623459
 20
7.959387697048846
 10
4.415701114737278
 20
7.959872435936508
 10
4.425372406044496
 20
7.959580521234946
 10
4.434292852904816
 20
7.958537803610265
 10
4.441669878854018
 20
7.956837038719938
 10
4.446847801719304
 20
7.954629262914921
 10
4.449366739647727
 20
7.952110678972242
 10
4.449571998118625
 20
7.95113128769986
  0
LWPOLYLINE
  5
197
330
1F
100
AcDbEntity
  8
0
  6
HIDDEN
 62
     7
370
     0
100
AcDbPolyline
 90
       13
 70
   128
 43
0.0
 10
4.449571998118625
 20
7.941015092078516
 10
4.449366739647727
 20
7.941994483350899
 10
4.446847801719304
 20
7.944513067293578
 10
4.441669878854018
 20
7.946720843098595
 10
4.434292852904816
 20
7.948421607988921
 10
4.425372406044496
 20
7.949464325613603
 10
4.415701114737278
 20
7.949756240315164
 10
4.40613842623459
 20
7.949271501427503
 10
4.397533665906915
 20
7.948053119302217
 10
4.390651782461478
 20
7.946209386669528
 10
4.386104237066638
 20
7.943904120734226
 10
4.38429490936521
 20
7.941342170798799
 10
4.384272010683735
 20
7.941015069850944
  0
LWPOLYLINE
  5
198
330
1F
100
AcDbEntity
  8
0
  6
HIDDEN
 62
     7
370
     0
100
AcDbPolyline
 90
       16
 70
   128
 43
0.0
 10
4.386088307549091
 20
7.938138281244577
 10
4.385294154726362
 20
7.94036877362806
 10
4.38704814394756
 20
7.942852282462305
 10
4.391456554962573
 20
7.945086975856873
 10
4.39812753823298
 20
7.946874206001832
 10
4.406468714824987
 20
7.948055268033924
 10
4.415738615476504
 20
7.948525181131137
 10
4.425113717316825
 20
7.948242201913473
 10
4.433760873391722
 20
7.947231447537162
 10
4.440911816344482
 20
7.945582717392618
 10
4.445931190730428
 20
7.943442580088847
 10
4.448372970058232
 20
7.941001125820607
 10
4.448020280583784
 20
7.938475340144636
 10
4.444904234646043
 20
7.936089565943968
 10
4.439301856511109
 20
7.934055876481952
 10
4.439301856511109
 20
7.934055876481952
  0
LWPOLYLINE
  5
1A3
330
1F
100
AcDbEntity
  8
0
  6
HIDDEN
 62
     7
370
     0
100
AcDbPolyline
 90
       13
 70
   128
 43
0.0
 10
4.06607392410485
 20
7.979547526831369
 10
4.066096864269444
 20
7.979874616665438
 10
4.067906150487753
 20
7.982436577714651
 10
4.072453737365712
 20
7.984741832536168
 10
4.079335786743623
 20
7.986585609624
 10
4.087940339655705
 20
7.987803958407928
 10
4.097503069641512
 20
7.988288686181803
 10
4.107174360948729
 20
7.987996771480242
 10
4.116094766325931
 20
7.986954064969347
 10
4.123471792275133
 20
7.985253300079019
 10
4.128649756623538
 20
7.983045513160217
 10
4.131168694551961
 20
7.980526929217537
 10
4.131373953022858
 20
7.979547537945155
  0
LWPOLYLINE
  5
1A4
330
1F
100
AcDbEntity
  8
0
  6
HIDDEN
 62
     7
370
     0
100
AcDbPolyline
 90
       13
 70
   128
 43
0.0
 10
4.131373953022858
 20
7.969431342323812
 10
4.131168694551961
 20
7.970410733596194
 10
4.128649756623538
 20
7.972929317538874
 10
4.123471792275133
 20
7.975137104457676
 10
4.116094766325931
 20
7.976837869348003
 10
4.107174360948729
 20
7.977880575858899
 10
4.097503069641512
 20
7.97817249056046
 10
4.087940339655705
 20
7.977687762786584
 10
4.079335786743623
 20
7.976469414002657
 10
4.072453737365712
 20
7.974625636914825
 10
4.067906150487753
 20
7.972320382093307
 10
4.066096864269444
 20
7.969758421044095
 10
4.06607392410485
 20
7.969431331210026
  0
LWPOLYLINE
  5
1A5
330
1F
100
AcDbEntity
  8
0
  6
HIDDEN
 62
     7
370
     0
100
AcDbPolyline
 90
       16
 70
   128
 43
0.0
 10
4.067890262453324
 20
7.966554531489872
 10
4.067096068147477
 20
7.968785034987141
 10
4.068850057368675
 20
7.971268543821387
 10
4.073258509866806
 20
7.97350322610217
 10
4.079929493137214
 20
7.975290456247128
 10
4.088270628246102
 20
7.976471529393005
 10
4.09754052889762
 20
7.97694144249022
 10
4.106915630737939
 20
7.976658463272555
 10
4.115562828295955
 20
7.975647697782459
 10
4.122713729765598
 20
7.973998978751699
 10
4.127733145634662
 20
7.971858830334142
 10
4.130174924962465
 20
7.969417376065902
 10
4.129822235488018
 20
7.966891590389932
 10
4.126706148067158
 20
7.964505827303049
 10
4.121103977347817
 20
7.962472171182392
 10
4.121103977347817
 20
7.962472171182392
  0
LWPOLYLINE
  5
1B0
330
1F
100
AcDbEntity
  8
0
  6
HIDDEN
 62
     7
370
     0
100
AcDbPolyline
 90
       13
 70
   128
 43
0.0
 10
4.172139952964479
 20
7.894298742754125
 10
4.172162851645953
 20
7.894625843701979
 10
4.17397217934738
 20
7.897187793637407
 10
4.178519890674697
 20
7.899493104027852
 10
4.185401774120133
 20
7.901336836660541
 10
4.194006368515332
 20
7.902555174330683
 10
4.203569222950496
 20
7.903039957673489
 10
4.213240348325239
 20
7.902747998516783
 10
4.222160795185559
 20
7.901705280892102
 10
4.229537821134761
 20
7.900004516001775
 10
4.234715744000046
 20
7.897796740196759
 10
4.23723468192847
 20
7.895278156254079
 10
4.237439940399368
 20
7.894298764981697
  0
LWPOLYLINE
  5
1B1
330
1F
100
AcDbEntity
  8
0
  6
HIDDEN
 62
     7
370
     0
100
AcDbPolyline
 90
       13
 70
   128
 43
0.0
 10
4.237439940399368
 20
7.884182569360354
 10
4.23723468192847
 20
7.885161960632736
 10
4.234715744000046
 20
7.887680544575415
 10
4.229537821134761
 20
7.889888320380432
 10
4.222160795185559
 20
7.891589085270759
 10
4.213240348325239
 20
7.89263180289544
 10
4.203569222950496
 20
7.892923762052145
 10
4.194006368515332
 20
7.89243897870934
 10
4.185401774120133
 20
7.891220641039198
 10
4.178519890674697
 20
7.889376908406509
 10
4.17397217934738
 20
7.887071598016063
 10
4.172162851645953
 20
7.884509648080636
 10
4.172139952964479
 20
7.884182547132781
  0
LWPOLYLINE
  5
1B2
330
1F
100
AcDbEntity
  8
0
  6
HIDDEN
 62
     7
370
     0
100
AcDbPolyline
 90
       16
 70
   128
 43
0.0
 10
4.173956249829833
 20
7.881305758526414
 10
4.173162097007105
 20
7.883536250909897
 10
4.174916086228303
 20
7.886019759744142
 10
4.179324497243316
 20
7.888254453138711
 10
4.185995480513724
 20
7.890041683283669
 10
4.19433665710573
 20
7.891222745315761
 10
4.203606557757248
 20
7.891692658412974
 10
4.212981659597567
 20
7.891409679195311
 10
4.221628815672465
 20
7.890398924819
 10
4.228779758625226
 20
7.888750194674455
 10
4.233799133011172
 20
7.886610057370684
 10
4.236240912338975
 20
7.884168603102444
 10
4.235888222864526
 20
7.881642817426473
 10
4.232772176926786
 20
7.879257043225805
 10
4.227169964724327
 20
7.877223398218934
 10
4.227169964724327
 20
7.877223398218934
  0
LWPOLYLINE
  5
1BD
330
1F
100
AcDbEntity
  8
0
  6
HIDDEN
 62
     7
370
     0
100
AcDbPolyline
 90
       13
 70
   128
 43
0.0
 10
3.641809808666336
 20
7.865882481395043
 10
3.64183274883093
 20
7.866209571229112
 10
3.643642035049239
 20
7.868771532278326
 10
3.648189787859673
 20
7.871076831554986
 10
3.655071671305109
 20
7.872920564187675
 10
3.663676224217191
 20
7.874138912971602
 10
3.673239120135473
 20
7.874623685200622
 10
3.682910245510215
 20
7.874331726043916
 10
3.691830816819892
 20
7.873289063988165
 10
3.699207676836619
 20
7.871588254642694
 10
3.704385641185023
 20
7.869380467723892
 10
3.706904579113447
 20
7.866861883781211
 10
3.707109837584344
 20
7.86588249250883
  0
LWPOLYLINE
  5
1BE
330
1F
100
AcDbEntity
  8
0
  6
HIDDEN
 62
     7
370
     0
100
AcDbPolyline
 90
       13
 70
   128
 43
0.0
 10
3.707109837584344
 20
7.855766296887487
 10
3.706904579113447
 20
7.856745688159868
 10
3.704385641185023
 20
7.859264272102548
 10
3.699207676836619
 20
7.861472059021351
 10
3.691830816819892
 20
7.863172868366822
 10
3.682910245510215
 20
7.864215530422573
 10
3.673239120135473
 20
7.864507489579278
 10
3.663676224217191
 20
7.864022717350259
 10
3.655071671305109
 20
7.862804368566331
 10
3.648189787859673
 20
7.860960635933643
 10
3.643642035049239
 20
7.858655336656982
 10
3.64183274883093
 20
7.856093375607769
 10
3.641809808666336
 20
7.8557662857737
  0
LWPOLYLINE
  5
1BF
330
1F
100
AcDbEntity
  8
0
  6
HIDDEN
 62
     7
370
     0
100
AcDbPolyline
 90
       16
 70
   128
 43
0.0
 10
3.643626312947285
 20
7.852889530508691
 10
3.642831952708963
 20
7.855119989550816
 10
3.644585941930162
 20
7.857603498385061
 10
3.648994394428292
 20
7.859838180665844
 10
3.655665543631174
 20
7.861625455265946
 10
3.664006512807588
 20
7.86280648395668
 10
3.673276413459106
 20
7.863276397053894
 10
3.682651515299425
 20
7.862993417836229
 10
3.691298712857442
 20
7.861982652346133
 10
3.698449614327083
 20
7.860333933315374
 10
3.703469030196148
 20
7.858193784897816
 10
3.705910809523952
 20
7.855752330629576
 10
3.705558120049503
 20
7.853226544953607
 10
3.702442198561119
 20
7.850840826321868
 10
3.696839861909303
 20
7.848807125746066
 10
3.696839861909303
 20
7.848807125746066
  0
LWPOLYLINE
  5
1CA
330
1F
100
AcDbEntity
  8
0
  6
HIDDEN
 62
     7
370
     0
100
AcDbPolyline
 90
       13
 70
   128
 43
0.0
 10
3.747875837525964
 20
7.780633697317799
 10
3.747898736207438
 20
7.780960798265653
 10
3.749708063908866
 20
7.783522748201082
 10
3.754255775236182
 20
7.785828058591527
 10
3.761137658681618
 20
7.787671791224216
 10
3.769742253076819
 20
7.788890128894359
 10
3.779305107511981
 20
7.789374912237163
 10
3.788976232886724
 20
7.789082953080458
 10
3.797896845679519
 20
7.78804027991092
 10
3.805273705696247
 20
7.78633947056545
 10
3.810451628561532
 20
7.784131694760433
 10
3.812970566489957
 20
7.781613110817754
 10
3.813175824960854
 20
7.780633719545371
  0
LWPOLYLINE
  5
1CB
330
1F
100
AcDbEntity
  8
0
  6
HIDDEN
 62
     7
370
     0
100
AcDbPolyline
 90
       13
 70
   128
 43
0.0
 10
3.813175824960854
 20
7.770517523924028
 10
3.812970566489957
 20
7.77149691519641
 10
3.810451628561532
 20
7.77401549913909
 10
3.805273705696247
 20
7.776223274944106
 10
3.797896845679519
 20
7.777924084289576
 10
3.788976232886724
 20
7.778966757459114
 10
3.779305107511981
 20
7.77925871661582
 10
3.769742253076819
 20
7.778773933273016
 10
3.761137658681618
 20
7.777555595602873
 10
3.754255775236182
 20
7.775711862970183
 10
3.749708063908866
 20
7.773406552579738
 10
3.747898736207438
 20
7.77084460264431
 10
3.747875837525964
 20
7.770517501696456
  0
LWPOLYLINE
  5
1CC
330
1F
100
AcDbEntity
  8
0
  6
HIDDEN
 62
     7
370
     0
100
AcDbPolyline
 90
       16
 70
   128
 43
0.0
 10
3.749692383290031
 20
7.767640735317661
 10
3.748897981568591
 20
7.769871205473571
 10
3.750651970789788
 20
7.772354714307817
 10
3.755060381804801
 20
7.774589407702386
 10
3.761731531007683
 20
7.776376682302488
 10
3.770072541667216
 20
7.777557699879436
 10
3.779342442318734
 20
7.77802761297665
 10
3.788717544159053
 20
7.777744633758985
 10
3.797364700233951
 20
7.776733879382674
 10
3.804515643186712
 20
7.775085149238129
 10
3.809535017572658
 20
7.772945011934358
 10
3.81197679690046
 20
7.770503557666119
 10
3.811624107426012
 20
7.767977771990148
 10
3.808508227420746
 20
7.765592042244623
 10
3.802905849285812
 20
7.763558352782608
 10
3.802905849285812
 20
7.763558352782608
  0
LWPOLYLINE
  5
1D7
330
1F
100
AcDbEntity
  8
0
  6
HIDDEN
 62
     7
370
     0
100
AcDbPolyline
 90
       13
 70
   128
 43
0.0
 10
3.429677916879553
 20
7.809050003132025
 10
3.429700691111673
 20
7.809377048510951
 10
3.431509977329982
 20
7.811939009560163
 10
3.436057730140416
 20
7.814244308836824
 10
3.442939613585852
 20
7.816088041469512
 10
3.451544166497934
 20
7.81730639025344
 10
3.461107062416215
 20
7.817791162482459
 10
3.470778187790958
 20
7.817499203325755
 10
3.479698759100635
 20
7.816456541270002
 10
3.487075619117362
 20
7.814755731924531
 10
3.492253583465766
 20
7.812547945005729
 10
3.49477252139419
 20
7.810029361063049
 10
3.494977779865088
 20
7.809049969790667
  0
LWPOLYLINE
  5
1D8
330
1F
100
AcDbEntity
  8
0
  6
HIDDEN
 62
     7
370
     0
100
AcDbPolyline
 90
       13
 70
   128
 43
0.0
 10
3.494977779865088
 20
7.798933774169324
 10
3.49477252139419
 20
7.799913165441705
 10
3.492253583465766
 20
7.802431749384385
 10
3.487075619117362
 20
7.804639536303188
 10
3.479698759100635
 20
7.806340345648659
 10
3.470778187790958
 20
7.807383007704411
 10
3.461107062416215
 20
7.807674966861116
 10
3.451544166497934
 20
7.807190194632097
 10
3.442939613585852
 20
7.805971845848169
 10
3.436057730140416
 20
7.80412811321548
 10
3.431509977329982
 20
7.801822813938819
 10
3.429700691111673
 20
7.799260852889607
 10
3.429677916879553
 20
7.798933807510681
  0
LWPOLYLINE
  5
1D9
330
1F
100
AcDbEntity
  8
0
  6
HIDDEN
 62
     7
370
     0
100
AcDbPolyline
 90
       16
 70
   128
 43
0.0
 10
3.43149417226179
 20
7.796056941107813
 10
3.43070006092218
 20
7.798287511287797
 10
3.432453884210904
 20
7.800770975666898
 10
3.436862336709035
 20
7.803005657947681
 10
3.443533485911917
 20
7.804792932547783
 10
3.451874455088332
 20
7.805973961238517
 10
3.461144355739849
 20
7.806443874335731
 10
3.470519457580169
 20
7.806160895118066
 10
3.479166655138184
 20
7.80515012962797
 10
3.486317722540301
 20
7.803501455052354
 10
3.491336972476892
 20
7.801361262179653
 10
3.493778751804695
 20
7.798919807911413
 10
3.493426062330246
 20
7.796394022235444
 10
3.490310140841862
 20
7.794008303603705
 10
3.484707804190046
 20
7.791974603027903
 10
3.484707804190046
 20
7.791974603027903
  0
LWPOLYLINE
  5
1E4
330
1F
100
AcDbEntity
  8
0
  6
HIDDEN
 62
     7
370
     0
100
AcDbPolyline
 90
       13
 70
   128
 43
0.0
 10
3.535743945739182
 20
7.72380121905478
 10
3.535766844420656
 20
7.724128320002635
 10
3.53757600618961
 20
7.726690225482919
 10
3.542123717516925
 20
7.728995535873364
 10
3.549005600962362
 20
7.730839268506053
 10
3.557610195357562
 20
7.732057606176196
 10
3.567173049792724
 20
7.732542389519
 10
3.576844341099942
 20
7.732250474817439
 10
3.585764787960262
 20
7.731207757192757
 10
3.59314164797699
 20
7.729506947847287
 10
3.598319570842275
 20
7.72729917204227
 10
3.600838508770699
 20
7.724780588099591
 10
3.601043767241597
 20
7.723801196827208
  0
LWPOLYLINE
  5
1E5
330
1F
100
AcDbEntity
  8
0
  6
HIDDEN
 62
     7
370
     0
100
AcDbPolyline
 90
       13
 70
   128
 43
0.0
 10
3.601043767241597
 20
7.713685001205865
 10
3.600838508770699
 20
7.714664392478248
 10
3.598319570842275
 20
7.717182976420927
 10
3.59314164797699
 20
7.719390752225943
 10
3.585764787960262
 20
7.721091561571413
 10
3.576844341099942
 20
7.722134279196096
 10
3.567173049792724
 20
7.722426193897657
 10
3.557610195357562
 20
7.721941410554853
 10
3.549005600962362
 20
7.72072307288471
 10
3.542123717516925
 20
7.71887934025202
 10
3.53757600618961
 20
7.716574029861575
 10
3.535766844420656
 20
7.714012124381292
 10
3.535743945739182
 20
7.713685023433437
  0
LWPOLYLINE
  5
1E6
330
1F
100
AcDbEntity
  8
0
  6
HIDDEN
 62
     7
370
     0
100
AcDbPolyline
 90
       16
 70
   128
 43
0.0
 10
3.537560242604537
 20
7.710808234827069
 10
3.536766089781808
 20
7.713038727210553
 10
3.538520079003006
 20
7.715522236044797
 10
3.542928490018019
 20
7.717756929439365
 10
3.549599307355952
 20
7.719544115129181
 10
3.557940649880433
 20
7.720725221616416
 10
3.567210384599476
 20
7.721195090258487
 10
3.576585486439796
 20
7.720912111040822
 10
3.585232642514694
 20
7.719901356664511
 10
3.592383751399929
 20
7.71825267097511
 10
3.5974029598534
 20
7.716112489216195
 10
3.599844905113678
 20
7.713671079403099
 10
3.599492049706756
 20
7.711145249271985
 10
3.596376169701489
 20
7.70875951952646
 10
3.590773957499029
 20
7.706725874519589
 10
3.590773957499029
 20
7.706725874519589
  0
LWPOLYLINE
  5
1F1
330
1F
100
AcDbEntity
  8
0
  6
HIDDEN
 62
     7
370
     0
100
AcDbPolyline
 90
       13
 70
   128
 43
0.0
 10
3.217545859160297
 20
7.752217480413862
 10
3.21756879932489
 20
7.75254457024793
 10
3.219377919610725
 20
7.755106486842
 10
3.223925672421159
 20
7.757411786118661
 10
3.230807555866595
 20
7.759255518751349
 10
3.239412274711151
 20
7.760473911990421
 10
3.248974838764484
 20
7.760958595309152
 10
3.258646296004175
 20
7.760666725062734
 10
3.267566701381377
 20
7.759624018551839
 10
3.27494372733058
 20
7.757923253661512
 10
3.280121525746509
 20
7.755715422287566
 10
3.282640629607407
 20
7.75319688280003
 10
3.28284572214583
 20
7.752217447072504
  0
LWPOLYLINE
  5
1F2
330
1F
100
AcDbEntity
  8
0
  6
HIDDEN
 62
     7
370
     0
100
AcDbPolyline
 90
       13
 70
   128
 43
0.0
 10
3.28284572214583
 20
7.742101251451161
 10
3.282640629607407
 20
7.743080687178687
 10
3.280121525746509
 20
7.745599226666223
 10
3.27494372733058
 20
7.747807058040169
 10
3.267566701381377
 20
7.749507822930496
 10
3.258646296004175
 20
7.750550529441391
 10
3.248974838764484
 20
7.750842399687808
 10
3.239412274711151
 20
7.750357716369077
 10
3.230807555866595
 20
7.749139323130006
 10
3.223925672421159
 20
7.747295590497317
 10
3.219377919610725
 20
7.744990291220656
 10
3.21756879932489
 20
7.742428374626587
 10
3.217545859160297
 20
7.742101284792519
  0
LWPOLYLINE
  5
1F3
330
1F
100
AcDbEntity
  8
0
  6
HIDDEN
 62
     7
370
     0
100
AcDbPolyline
 90
       16
 70
   128
 43
0.0
 10
3.21936219750877
 20
7.739224485072365
 10
3.218568003202924
 20
7.741454988569634
 10
3.220321992424122
 20
7.743938497403879
 10
3.224730444922253
 20
7.746173179684663
 10
3.231401262260185
 20
7.747960365374477
 10
3.239742397369075
 20
7.749141438520354
 10
3.249012298020592
 20
7.749611351617568
 10
3.258387565793386
 20
7.749328416855048
 10
3.267034763351402
 20
7.748317651364952
 10
3.274185664821045
 20
7.746668932334191
 10
3.279205080690109
 20
7.744528783916635
 10
3.281646860017912
 20
7.742087329648395
 10
3.281294004610989
 20
7.739561499517281
 10
3.278178083122604
 20
7.737175780885542
 10
3.272575912403263
 20
7.735142124764885
 10
3.272575912403263
 20
7.735142124764885
  0
LWPOLYLINE
  5
1FE
330
1F
100
AcDbEntity
  8
0
  6
HIDDEN
 62
     7
370
     0
100
AcDbPolyline
 90
       13
 70
   128
 43
0.0
 10
3.323611888019924
 20
7.666968696336618
 10
3.323634786701399
 20
7.667295797284472
 10
3.325443948470352
 20
7.669857702764756
 10
3.329991659797669
 20
7.672163013155201
 10
3.336873543243104
 20
7.67400674578789
 10
3.345478303570779
 20
7.675225127913176
 10
3.355041158005942
 20
7.675709911255982
 10
3.364712283380685
 20
7.675417952099276
 10
3.373632730241006
 20
7.674375234474594
 10
3.381009756190207
 20
7.672674469584268
 10
3.386187513123018
 20
7.670466649324107
 10
3.388706616983917
 20
7.667948109836571
 10
3.388911709522339
 20
7.666968674109045
  0
LWPOLYLINE
  5
1FF
330
1F
100
AcDbEntity
  8
0
  6
HIDDEN
 62
     7
370
     0
100
AcDbPolyline
 90
       13
 70
   128
 43
0.0
 10
3.388911709522339
 20
7.656852478487702
 10
3.388706616983917
 20
7.657831914215228
 10
3.386187513123018
 20
7.660350453702764
 10
3.381009756190207
 20
7.662558273962924
 10
3.373632730241006
 20
7.664259038853251
 10
3.364712283380685
 20
7.665301756477933
 10
3.355041158005942
 20
7.665593715634638
 10
3.345478303570779
 20
7.665108932291833
 10
3.336873543243104
 20
7.663890550166547
 10
3.329991659797669
 20
7.662046817533858
 10
3.325443948470352
 20
7.659741507143412
 10
3.323634786701399
 20
7.657179601663129
 10
3.323611888019924
 20
7.656852500715274
  0
LWPOLYLINE
  5
200
330
1F
100
AcDbEntity
  8
0
  6
HIDDEN
 62
     7
370
     0
100
AcDbPolyline
 90
       16
 70
   128
 43
0.0
 10
3.325428267851517
 20
7.653975689881335
 10
3.324634032062551
 20
7.65620620449239
 10
3.326388021283749
 20
7.658689713326634
 10
3.330796432298762
 20
7.660924406721203
 10
3.337467581501643
 20
7.662711681321306
 10
3.345808426228702
 20
7.66389265444311
 10
3.35507832688022
 20
7.664362567540324
 10
3.364453594653014
 20
7.664079632777804
 10
3.373100750727911
 20
7.663068878401492
 10
3.380251693680671
 20
7.661420148256947
 10
3.385271068066618
 20
7.659280010953176
 10
3.387712847394421
 20
7.656838556684936
 10
3.387359991987498
 20
7.654312726553822
 10
3.384244111982233
 20
7.651926996808297
 10
3.378641899779772
 20
7.649893351801426
 10
3.378641899779772
 20
7.649893351801426
  0
LWPOLYLINE
  5
20B
330
1F
100
AcDbEntity
  8
0
  6
HIDDEN
 62
     7
370
     0
100
AcDbPolyline
 90
       13
 70
   128
 43
0.0
 10
3.00541380144104
 20
7.695384957695699
 10
3.005436741605633
 20
7.695712047529768
 10
3.007245861891468
 20
7.698273964123837
 10
3.011793614701902
 20
7.700579263400498
 10
3.018675498147338
 20
7.702422996033186
 10
3.027280216991894
 20
7.703641389272258
 10
3.036843112910176
 20
7.704126161501276
 10
3.046514238284918
 20
7.703834202344571
 10
3.055434643662121
 20
7.702791495833677
 10
3.062811669611322
 20
7.70109073094335
 10
3.067989468027252
 20
7.698882899569403
 10
3.07050857188815
 20
7.696364360081867
 10
3.070713664426573
 20
7.695384924354341
  0
LWPOLYLINE
  5
20C
330
1F
100
AcDbEntity
  8
0
  6
HIDDEN
 62
     7
370
     0
100
AcDbPolyline
 90
       13
 70
   128
 43
0.0
 10
3.070713664426573
 20
7.685268728732998
 10
3.07050857188815
 20
7.686248164460524
 10
3.067989468027252
 20
7.68876670394806
 10
3.062811669611322
 20
7.690974535322006
 10
3.055434643662121
 20
7.692675300212333
 10
3.046514238284918
 20
7.693718006723228
 10
3.036843112910176
 20
7.694009965879933
 10
3.027280216991894
 20
7.693525193650915
 10
3.018675498147338
 20
7.692306800411843
 10
3.011793614701902
 20
7.690463067779155
 10
3.007245861891468
 20
7.688157768502493
 10
3.005436741605633
 20
7.685595851908424
 10
3.00541380144104
 20
7.685268762074356
  0
LWPOLYLINE
  5
20D
330
1F
100
AcDbEntity
  8
0
  6
HIDDEN
 62
     7
370
     0
100
AcDbPolyline
 90
       16
 70
   128
 43
0.0
 10
3.007230139789513
 20
7.682391962354202
 10
3.006435945483666
 20
7.684622465851471
 10
3.008189934704864
 20
7.687105974685716
 10
3.012598387202995
 20
7.6893406569665
 10
3.019269536405877
 20
7.691127931566601
 10
3.027610339649817
 20
7.692308915802192
 10
3.036880240301334
 20
7.692778828899405
 10
3.046255508074129
 20
7.692495894136885
 10
3.054902705632145
 20
7.691485128646789
 10
3.062053607101787
 20
7.689836409616028
 10
3.067073022970852
 20
7.687696261198472
 10
3.069514802298655
 20
7.685254806930232
 10
3.069161946891732
 20
7.682728976799118
 10
3.066046025403347
 20
7.68034325816738
 10
3.060443854684006
 20
7.678309602046722
 10
3.060443854684006
 20
7.678309602046722
  0
LWPOLYLINE
  5
218
330
1F
100
AcDbEntity
  8
0
  6
HIDDEN
 62
     7
370
     0
100
AcDbPolyline
 90
       13
 70
   128
 43
0.0
 10
3.111479830300667
 20
7.610136173618455
 10
3.111502728982142
 20
7.610463274566309
 10
3.113311890751096
 20
7.613025180046593
 10
3.117859602078411
 20
7.615330490437038
 10
3.124741485523848
 20
7.617174223069727
 10
3.133346245851522
 20
7.618392605195014
 10
3.142909100286685
 20
7.618877388537819
 10
3.152580225661427
 20
7.618585429381113
 10
3.161500672521749
 20
7.617542711756431
 10
3.168877698470951
 20
7.615841946866105
 10
3.174055455403761
 20
7.613634126605944
 10
3.176574559264659
 20
7.611115587118409
 10
3.176779651803082
 20
7.610136151390883
  0
LWPOLYLINE
  5
219
330
1F
100
AcDbEntity
  8
0
  6
HIDDEN
 62
     7
370
     0
100
AcDbPolyline
 90
       13
 70
   128
 43
0.0
 10
3.176779651803082
 20
7.600019955769539
 10
3.176574559264659
 20
7.600999391497065
 10
3.174055455403761
 20
7.603517930984601
 10
3.168877698470951
 20
7.605725751244762
 10
3.161500672521749
 20
7.607426516135088
 10
3.152580225661427
 20
7.60846923375977
 10
3.142909100286685
 20
7.608761192916476
 10
3.133346245851522
 20
7.60827640957367
 10
3.124741485523848
 20
7.607058027448384
 10
3.117859602078411
 20
7.605214294815695
 10
3.113311890751096
 20
7.602908984425249
 10
3.111502728982142
 20
7.600347078944966
 10
3.111479830300667
 20
7.600019977997112
  0
LWPOLYLINE
  5
21A
330
1F
100
AcDbEntity
  8
0
  6
HIDDEN
 62
     7
370
     0
100
AcDbPolyline
 90
       16
 70
   128
 43
0.0
 10
3.113296127166022
 20
7.597143189390744
 10
3.112501974343294
 20
7.599373681774227
 10
3.114255963564492
 20
7.601857190608472
 10
3.118664374579505
 20
7.60409188400304
 10
3.125335523782387
 20
7.605879158603143
 10
3.133676368509445
 20
7.607060131724947
 10
3.142946269160962
 20
7.607530044822161
 10
3.152321536933757
 20
7.607247110059641
 10
3.160968693008654
 20
7.606236355683329
 10
3.168119635961414
 20
7.604587625538784
 10
3.173139010347361
 20
7.602447488235013
 10
3.175580789675163
 20
7.600006033966773
 10
3.175227934268241
 20
7.597480203835659
 10
3.172112054262975
 20
7.595094474090134
 10
3.166509842060516
 20
7.593060829083263
 10
3.166509842060516
 20
7.593060829083263
  0
LWPOLYLINE
  5
225
330
1F
100
AcDbEntity
  8
0
  6
HIDDEN
 62
     7
370
     0
100
AcDbPolyline
 90
       13
 70
   128
 43
0.0
 10
2.89934777258141
 20
7.553303650900292
 10
2.899370671262884
 20
7.553630751848146
 10
2.901179833031839
 20
7.55619265732843
 10
2.905727544359154
 20
7.558497967718875
 10
2.91260942780459
 20
7.560341700351565
 10
2.921214188132265
 20
7.561560082476851
 10
2.930777042567428
 20
7.562044865819656
 10
2.940448167942171
 20
7.561752906662951
 10
2.949368614802491
 20
7.560710189038269
 10
2.956745640751693
 20
7.559009424147943
 10
2.961923397684504
 20
7.556801603887782
 10
2.964442501545402
 20
7.554283064400246
 10
2.964647594083825
 20
7.55330362867272
  0
LWPOLYLINE
  5
226
330
1F
100
AcDbEntity
  8
0
  6
HIDDEN
 62
     7
370
     0
100
AcDbPolyline
 90
       13
 70
   128
 43
0.0
 10
2.964647594083825
 20
7.543187433051377
 10
2.964442501545402
 20
7.544166868778902
 10
2.961923397684504
 20
7.546685408266438
 10
2.956745640751693
 20
7.548893228526599
 10
2.949368614802491
 20
7.550593993416926
 10
2.940448167942171
 20
7.551636711041607
 10
2.930777042567428
 20
7.551928670198313
 10
2.921214188132265
 20
7.551443886855508
 10
2.91260942780459
 20
7.550225504730221
 10
2.905727544359154
 20
7.548381772097532
 10
2.901179833031839
 20
7.546076461707087
 10
2.899370671262884
 20
7.543514556226803
 10
2.89934777258141
 20
7.543187455278949
  0
LWPOLYLINE
  5
227
330
1F
100
AcDbEntity
  8
0
  6
HIDDEN
 62
     7
370
     0
100
AcDbPolyline
 90
       16
 70
   128
 43
0.0
 10
2.901164069446766
 20
7.540310666672582
 10
2.900369916624037
 20
7.542541159056064
 10
2.902123905845236
 20
7.545024667890309
 10
2.906532316860248
 20
7.547259361284878
 10
2.913203466063129
 20
7.54904663588498
 10
2.921544310790188
 20
7.550227609006784
 10
2.930814211441705
 20
7.550697522103998
 10
2.9401894792145
 20
7.550414587341478
 10
2.948836635289397
 20
7.549403832965166
 10
2.955987578242158
 20
7.547755102820621
 10
2.961006952628104
 20
7.54561496551685
 10
2.963448731955907
 20
7.543173511248611
 10
2.963095876548984
 20
7.540647681117496
 10
2.959979996543718
 20
7.538261951371971
 10
2.954377784341258
 20
7.5362283063651
 10
2.954377784341258
 20
7.5362283063651
  0
LWPOLYLINE
  5
232
330
1F
100
AcDbEntity
  8
0
  6
HIDDEN
 62
     7
370
     0
100
AcDbPolyline
 90
       13
 70
   128
 43
0.0
 10
2.581149686002525
 20
7.581719912259373
 10
2.581172626167119
 20
7.582047002093442
 10
2.582982078317902
 20
7.584609007597799
 10
2.587529499263388
 20
7.586914217964172
 10
2.594411382708824
 20
7.588757950596861
 10
2.603016101553381
 20
7.589976343835933
 10
2.612578997471661
 20
7.590461116064951
 10
2.622250122846404
 20
7.590169156908247
 10
2.631170528223607
 20
7.589126450397351
 10
2.638547554172808
 20
7.587425685507024
 10
2.643725352588738
 20
7.585217854133077
 10
2.646244456449636
 20
7.582699314645542
 10
2.646449548988059
 20
7.581719878918016
  0
LWPOLYLINE
  5
233
330
1F
100
AcDbEntity
  8
0
  6
HIDDEN
 62
     7
370
     0
100
AcDbPolyline
 90
       13
 70
   128
 43
0.0
 10
2.646449548988059
 20
7.571603683296672
 10
2.646244456449636
 20
7.572583119024198
 10
2.643725352588738
 20
7.575101658511734
 10
2.638547554172808
 20
7.57730948988568
 10
2.631170528223607
 20
7.579010254776008
 10
2.622250122846404
 20
7.580052961286903
 10
2.612578997471661
 20
7.580344920443608
 10
2.603016101553381
 20
7.579860148214589
 10
2.594411382708824
 20
7.578641754975517
 10
2.587529499263388
 20
7.576798022342829
 10
2.582982078317902
 20
7.574492811976456
 10
2.581172626167119
 20
7.571930806472098
 10
2.581149686002525
 20
7.57160371663803
  0
LWPOLYLINE
  5
234
330
1F
100
AcDbEntity
  8
0
  6
HIDDEN
 62
     7
370
     0
100
AcDbPolyline
 90
       16
 70
   128
 43
0.0
 10
2.582966148800355
 20
7.568727061397094
 10
2.582171830045152
 20
7.570957420415146
 10
2.583925819266351
 20
7.57344092924939
 10
2.588334271764482
 20
7.575675611530174
 10
2.595005420967363
 20
7.577462886130276
 10
2.603346556076253
 20
7.578643959276154
 10
2.61261612486282
 20
7.57911378346308
 10
2.621991392635615
 20
7.578830848700559
 10
2.630638590193631
 20
7.577820083210463
 10
2.637789491663273
 20
7.576171364179703
 10
2.642808907532338
 20
7.574031215762146
 10
2.645250686860141
 20
7.571589761493906
 10
2.644897831453218
 20
7.569063931362792
 10
2.641781909964833
 20
7.566678212731054
 10
2.636179739245492
 20
7.564644556610396
 10
2.636179739245492
 20
7.564644556610396
  0
LWPOLYLINE
  5
235
330
1F
100
AcDbEntity
  8
0
  6
HIDDEN
 62
     7
370
     0
100
AcDbPolyline
 90
       17
 70
   128
 43
0.0
 10
2.625254911060025
 20
7.566607975470028
 10
2.619998999931747
 20
7.565667082352151
 10
2.613799638236852
 20
7.565336725065014
 10
2.607600318025075
 20
7.565667137921079
 10
2.602344489863034
 20
7.566607919901098
 10
2.598832943872437
 20
7.56801601435242
 10
2.59759965075607
 20
7.569676880751214
 10
2.598832694973725
 20
7.57133776937758
 10
2.602344655795509
 20
7.572745886056474
 10
2.607600235058838
 20
7.573686690264064
 10
2.613799638236852
 20
7.574017036437413
 10
2.619999290313577
 20
7.573686712491635
 10
2.625254786610669
 20
7.57274584160133
 10
2.628766664466215
 20
7.571337836060295
 10
2.629999625717634
 20
7.569676880751214
 10
2.62876654001686
 20
7.568016003238634
 10
2.625254911060025
 20
7.566607975470028
  0
LWPOLYLINE
  5
236
330
1F
100
AcDbEntity
  8
0
  6
HIDDEN
 62
     7
370
     0
100
AcDbPolyline
 90
       17
 70
   128
 43
0.0
 10
2.625962032299903
 20
7.567381993225852
 10
2.629690327585255
 20
7.568876897459169
 10
2.630999742224277
 20
7.570640377443568
 10
2.629690369068373
 20
7.572403779631467
 10
2.625961990816784
 20
7.573898772775073
 10
2.620381806150308
 20
7.574897646514211
 10
2.613799721203089
 20
7.57524845316748
 10
2.607217428840276
 20
7.574897635400425
 10
2.601637576038749
 20
7.573898783888857
 10
2.597908948888449
 20
7.572403790745252
 10
2.596599824631257
 20
7.570640410784927
 10
2.59790890740533
 20
7.568876908572955
 10
2.601637617521868
 20
7.567382004339638
 10
2.607217470323395
 20
7.566383041690211
 10
2.613799845652445
 20
7.566032335061015
 10
2.620381847633427
 20
7.566383052803998
 10
2.625962032299903
 20
7.567381993225852
  0
LWPOLYLINE
  5
23F
330
1F
100
AcDbEntity
  8
0
  6
HIDDEN
 62
     7
370
     0
100
AcDbPolyline
 90
       13
 70
   128
 43
0.0
 10
2.262951599423639
 20
7.382806082745803
 10
2.262974498105114
 20
7.383133183693658
 10
2.264783991739017
 20
7.385695178084229
 10
2.269331371201383
 20
7.388000399564387
 10
2.276213254646819
 20
7.389844132197076
 10
2.284818014974494
 20
7.391062514322362
 10
2.294380869409657
 20
7.391547297665168
 10
2.3040519947844
 20
7.391255338508462
 10
2.31297244164472
 20
7.39021262088378
 10
2.320349467593922
 20
7.388511855993454
 10
2.325527556391682
 20
7.386304124643581
 10
2.328046328387631
 20
7.383785496245757
 10
2.328251752791003
 20
7.382806149428519
  0
LWPOLYLINE
  5
240
330
1F
100
AcDbEntity
  8
0
  6
HIDDEN
 62
     7
370
     0
100
AcDbPolyline
 90
       13
 70
   128
 43
0.0
 10
2.328251752791003
 20
7.372689953807176
 10
2.328046328387631
 20
7.373669300624414
 10
2.325527556391682
 20
7.376187929022238
 10
2.320349467593922
 20
7.378395660372111
 10
2.31297244164472
 20
7.380096425262437
 10
2.3040519947844
 20
7.381139142887119
 10
2.294380869409657
 20
7.381431102043824
 10
2.284818014974494
 20
7.380946318701019
 10
2.276213254646819
 20
7.379727936575733
 10
2.269331371201383
 20
7.377884203943043
 10
2.264783991739017
 20
7.375578982462886
 10
2.262974498105114
 20
7.373016988072315
 10
2.262951599423639
 20
7.37268988712446
  0
LWPOLYLINE
  5
241
330
1F
100
AcDbEntity
  8
0
  6
HIDDEN
 62
     7
370
     0
100
AcDbPolyline
 90
       16
 70
   128
 43
0.0
 10
2.264768062221469
 20
7.369813054062949
 10
2.263973743466265
 20
7.372043590901576
 10
2.265727732687464
 20
7.37452709973582
 10
2.270136143702476
 20
7.37676179313039
 10
2.276807292905358
 20
7.378549067730491
 10
2.285148469497365
 20
7.379730129762583
 10
2.294418370148883
 20
7.380200042859796
 10
2.303793306056729
 20
7.379917019186989
 10
2.312440462131626
 20
7.378906264810678
 10
2.319591405084386
 20
7.377257534666133
 10
2.324610779470333
 20
7.375117397362362
 10
2.327052558798136
 20
7.372675943094122
 10
2.326699703391213
 20
7.370150112963008
 10
2.323583823385947
 20
7.367764383217483
 10
2.317981611183487
 20
7.365730738210612
 10
2.317981611183487
 20
7.365730738210612
  0
LWPOLYLINE
  5
24C
330
1F
100
AcDbEntity
  8
0
  6
HIDDEN
 62
     7
370
     0
100
AcDbPolyline
 90
       13
 70
   128
 43
0.0
 10
2.475083657142896
 20
7.439638605463966
 10
2.475106555824371
 20
7.439965706411821
 10
2.476916049458273
 20
7.442527700802392
 10
2.48146342892064
 20
7.44483292228255
 10
2.488345312366076
 20
7.446676654915239
 10
2.496950072693751
 20
7.447895037040525
 10
2.506512927128914
 20
7.44837982038333
 10
2.516184052503656
 20
7.448087861226625
 10
2.525104499363977
 20
7.447045143601943
 10
2.532481525313179
 20
7.445344378711617
 10
2.53765928224599
 20
7.443136558451456
 10
2.540178386106888
 20
7.44061801896392
 10
2.54038381051026
 20
7.439638672146682
  0
LWPOLYLINE
  5
24D
330
1F
100
AcDbEntity
  8
0
  6
HIDDEN
 62
     7
370
     0
100
AcDbPolyline
 90
       13
 70
   128
 43
0.0
 10
2.54038381051026
 20
7.429522476525339
 10
2.540178386106888
 20
7.430501823342577
 10
2.53765928224599
 20
7.433020362830113
 10
2.532481525313179
 20
7.435228183090274
 10
2.525104499363977
 20
7.436928947980599
 10
2.516184052503656
 20
7.437971665605282
 10
2.506512927128914
 20
7.438263624761987
 10
2.496950072693751
 20
7.437778841419182
 10
2.488345312366076
 20
7.436560459293896
 10
2.48146342892064
 20
7.434716726661206
 10
2.476916049458273
 20
7.432411505181049
 10
2.475106555824371
 20
7.429849510790478
 10
2.475083657142896
 20
7.429522409842623
  0
LWPOLYLINE
  5
24E
330
1F
100
AcDbEntity
  8
0
  6
HIDDEN
 62
     7
370
     0
100
AcDbPolyline
 90
       16
 70
   128
 43
0.0
 10
2.476900119940726
 20
7.426645754601687
 10
2.476105801185523
 20
7.428876113619739
 10
2.477859790406721
 20
7.431359622453983
 10
2.482268201421733
 20
7.433594315848552
 10
2.488939350624616
 20
7.435381590448654
 10
2.497280527216623
 20
7.436562652480746
 10
2.50655042786814
 20
7.437032565577959
 10
2.515925363775986
 20
7.436749541905152
 10
2.524572519850883
 20
7.43573878752884
 10
2.531723462803644
 20
7.434090057384296
 10
2.53674283718959
 20
7.431949920080525
 10
2.539184616517393
 20
7.429508465812285
 10
2.53883176111047
 20
7.426982635681171
 10
2.535715881105204
 20
7.424596905935646
 10
2.530113668902744
 20
7.422563260928775
 10
2.530113668902744
 20
7.422563260928775
  0
LWPOLYLINE
  5
259
330
1F
100
AcDbEntity
  8
0
  6
HIDDEN
 62
     7
370
     0
100
AcDbPolyline
 90
       13
 70
   128
 43
0.0
 10
2.793281743721782
 20
7.638552434977536
 10
2.793304683886375
 20
7.638879524811605
 10
2.795113804172211
 20
7.641441441405675
 10
2.799661556982644
 20
7.643746740682335
 10
2.806543440428081
 20
7.645590473315023
 10
2.815148159272638
 20
7.646808866554095
 10
2.824711055190919
 20
7.647293638783114
 10
2.834382180565662
 20
7.647001679626408
 10
2.843302585942863
 20
7.645958973115514
 10
2.850679611892065
 20
7.644258208225187
 10
2.855857410307995
 20
7.64205037685124
 10
2.858376514168893
 20
7.639531837363704
 10
2.858581606707316
 20
7.638552401636178
  0
LWPOLYLINE
  5
25A
330
1F
100
AcDbEntity
  8
0
  6
HIDDEN
 62
     7
370
     0
100
AcDbPolyline
 90
       13
 70
   128
 43
0.0
 10
2.858581606707316
 20
7.628436206014835
 10
2.858376514168893
 20
7.629415641742361
 10
2.855857410307995
 20
7.631934181229897
 10
2.850679611892065
 20
7.634142012603843
 10
2.843302585942863
 20
7.63584277749417
 10
2.834382180565662
 20
7.636885484005065
 10
2.824711055190919
 20
7.63717744316177
 10
2.815148159272638
 20
7.636692670932752
 10
2.806543440428081
 20
7.63547427769368
 10
2.799661556982644
 20
7.633630545060992
 10
2.795113804172211
 20
7.631325245784331
 10
2.793304683886375
 20
7.628763329190261
 10
2.793281743721782
 20
7.628436239356193
  0
LWPOLYLINE
  5
25B
330
1F
100
AcDbEntity
  8
0
  6
HIDDEN
 62
     7
370
     0
100
AcDbPolyline
 90
       16
 70
   128
 43
0.0
 10
2.795098040587138
 20
7.625559450749826
 10
2.794303887764409
 20
7.627789943133309
 10
2.796057876985607
 20
7.630273451967553
 10
2.800466329483738
 20
7.632508134248337
 10
2.80713747868662
 20
7.634295408848439
 10
2.81547828193056
 20
7.635476393084029
 10
2.824748182582078
 20
7.635946306181243
 10
2.834123450354872
 20
7.635663371418722
 10
2.842770647912887
 20
7.634652605928626
 10
2.84992154938253
 20
7.633003886897866
 10
2.854940965251595
 20
7.630863738480309
 10
2.857382744579398
 20
7.628422284212069
 10
2.857029889172475
 20
7.625896454080955
 10
2.853913967684091
 20
7.623510735449217
 10
2.848311796964749
 20
7.621477079328559
 10
2.848311796964749
 20
7.621477079328559
  0
LWPOLYLINE
  5
266
330
1F
100
AcDbEntity
  8
0
  6
HIDDEN
 62
     7
370
     0
100
AcDbPolyline
 90
       13
 70
   128
 43
0.0
 10
2.687215714862153
 20
7.496471128182129
 10
2.687238613543628
 20
7.496798229129985
 10
2.68904810717753
 20
7.499360223520555
 10
2.693595486639897
 20
7.501665445000712
 10
2.700477370085334
 20
7.503509177633402
 10
2.709082130413007
 20
7.504727559758689
 10
2.718644984848171
 20
7.505212343101493
 10
2.728316110222913
 20
7.504920383944788
 10
2.737236557083234
 20
7.503877666320107
 10
2.744613583032436
 20
7.50217690142978
 10
2.749791339965247
 20
7.499969081169619
 10
2.752310443826145
 20
7.497450541682083
 10
2.752515536364568
 20
7.496471105954557
  0
LWPOLYLINE
  5
267
330
1F
100
AcDbEntity
  8
0
  6
HIDDEN
 62
     7
370
     0
100
AcDbPolyline
 90
       13
 70
   128
 43
0.0
 10
2.752515536364568
 20
7.486354910333214
 10
2.752310443826145
 20
7.48733434606074
 10
2.749791339965247
 20
7.489852885548276
 10
2.744613583032436
 20
7.492060705808436
 10
2.737236557083234
 20
7.493761470698763
 10
2.728316110222913
 20
7.494804188323445
 10
2.718644984848171
 20
7.49509614748015
 10
2.709082130413007
 20
7.494611364137345
 10
2.700477370085334
 20
7.493392982012058
 10
2.693595486639897
 20
7.491549249379369
 10
2.68904810717753
 20
7.489244027899212
 10
2.687238613543628
 20
7.486682033508642
 10
2.687215714862153
 20
7.486354932560786
  0
LWPOLYLINE
  5
268
330
1F
100
AcDbEntity
  8
0
  6
HIDDEN
 62
     7
370
     0
100
AcDbPolyline
 90
       16
 70
   128
 43
0.0
 10
2.689032011727508
 20
7.483478143954419
 10
2.688237858904779
 20
7.485708636337902
 10
2.689991848125978
 20
7.488192145172146
 10
2.694400259140991
 20
7.490426838566715
 10
2.701071408343873
 20
7.492214113166817
 10
2.70941258493588
 20
7.493395175198909
 10
2.718682153722448
 20
7.493864999385836
 10
2.728057421495242
 20
7.493582064623315
 10
2.73670457757014
 20
7.492571310247003
 10
2.743855520522901
 20
7.490922580102459
 10
2.748874894908846
 20
7.488782442798687
 10
2.75131667423665
 20
7.486340988530448
 10
2.750963818829727
 20
7.483815158399334
 10
2.747847938824461
 20
7.481429428653808
 10
2.742245726622001
 20
7.479395783646938
 10
2.742245726622001
 20
7.479395783646938
  0
LWPOLYLINE
  5
273
330
1F
100
AcDbEntity
  8
0
  6
HIDDEN
 62
     7
370
     0
100
AcDbPolyline
 90
       13
 70
   128
 43
0.0
 10
2.156885570564011
 20
7.468054866823048
 10
2.156908510728604
 20
7.468381956657117
 10
2.158717962879389
 20
7.470943962161474
 10
2.163265383824873
 20
7.473249172527847
 10
2.17014726727031
 20
7.475092905160535
 10
2.178751986114866
 20
7.476311298399607
 10
2.188314882033147
 20
7.476796070628625
 10
2.19798600740789
 20
7.47650411147192
 10
2.206906412785092
 20
7.475461404961025
 10
2.214283438734294
 20
7.473760640070698
 10
2.219461569015172
 20
7.471552897607039
 10
2.221980341011122
 20
7.469034269209216
 10
2.222185765414494
 20
7.468054922391978
  0
LWPOLYLINE
  5
274
330
1F
100
AcDbEntity
  8
0
  6
HIDDEN
 62
     7
370
     0
100
AcDbPolyline
 90
       13
 70
   128
 43
0.0
 10
2.222185765414494
 20
7.457938726770634
 10
2.221980341011122
 20
7.458918073587873
 10
2.219461569015172
 20
7.461436701985696
 10
2.214283438734294
 20
7.463644444449355
 10
2.206906412785092
 20
7.465345209339682
 10
2.19798600740789
 20
7.466387915850577
 10
2.188314882033147
 20
7.466679875007282
 10
2.178751986114866
 20
7.466195102778263
 10
2.17014726727031
 20
7.464976709539192
 10
2.163265383824873
 20
7.463132976906503
 10
2.158717962879389
 20
7.46082776654013
 10
2.156908510728604
 20
7.458265761035772
 10
2.156885570564011
 20
7.457938671201704
  0
LWPOLYLINE
  5
275
330
1F
100
AcDbEntity
  8
0
  6
HIDDEN
 62
     7
370
     0
100
AcDbPolyline
 90
       16
 70
   128
 43
0.0
 10
2.158701991878723
 20
7.455062027074554
 10
2.157907714606638
 20
7.45729237497882
 10
2.159661703827836
 20
7.459775883813065
 10
2.164070156325967
 20
7.462010566093848
 10
2.170741305528849
 20
7.46379784069395
 10
2.179082440637738
 20
7.464978913839828
 10
2.188352341289255
 20
7.465448826937042
 10
2.197727277197101
 20
7.465165803264234
 10
2.206374474755117
 20
7.464155037774137
 10
2.213525376224759
 20
7.462506318743377
 10
2.218544792093823
 20
7.46036617032582
 10
2.220986571421627
 20
7.457924716057581
 10
2.220633716014704
 20
7.455398885926467
 10
2.217517794526319
 20
7.453013167294728
 10
2.211915623806978
 20
7.450979511174071
 10
2.211915623806978
 20
7.450979511174071
  0
LWPOLYLINE
  5
280
330
1F
100
AcDbEntity
  8
0
  6
HIDDEN
 62
     7
370
     0
100
AcDbPolyline
 90
       13
 70
   128
 43
0.0
 10
2.369017628283268
 20
7.524887389541211
 10
2.369040568447861
 20
7.525214479375279
 10
2.370850020598646
 20
7.527776484879636
 10
2.37539744154413
 20
7.530081695246009
 10
2.382279324989567
 20
7.531925427878698
 10
2.390884043834123
 20
7.533143821117769
 10
2.400446939752405
 20
7.533628593346788
 10
2.410118065127147
 20
7.533336634190083
 10
2.419038470504349
 20
7.532293927679188
 10
2.426415496453551
 20
7.530593162788861
 10
2.43159329486948
 20
7.528385331414915
 10
2.434112398730379
 20
7.525866791927379
 10
2.434317823133751
 20
7.52488744511014
  0
LWPOLYLINE
  5
281
330
1F
100
AcDbEntity
  8
0
  6
HIDDEN
 62
     7
370
     0
100
AcDbPolyline
 90
       13
 70
   128
 43
0.0
 10
2.434317823133751
 20
7.514771249488797
 10
2.434112398730379
 20
7.515750596306035
 10
2.43159329486948
 20
7.518269135793571
 10
2.426415496453551
 20
7.520476967167518
 10
2.419038470504349
 20
7.522177732057845
 10
2.410118065127147
 20
7.523220438568739
 10
2.400446939752405
 20
7.523512397725445
 10
2.390884043834123
 20
7.523027625496426
 10
2.382279324989567
 20
7.521809232257355
 10
2.37539744154413
 20
7.519965499624666
 10
2.370850020598646
 20
7.517660289258293
 10
2.369040568447861
 20
7.515098283753935
 10
2.369017628283268
 20
7.514771193919867
  0
LWPOLYLINE
  5
282
330
1F
100
AcDbEntity
  8
0
  6
HIDDEN
 62
     7
370
     0
100
AcDbPolyline
 90
       16
 70
   128
 43
0.0
 10
2.370834091081098
 20
7.511894360858357
 10
2.370039772325895
 20
7.514124897696983
 10
2.371793761547093
 20
7.516608406531227
 10
2.376202214045224
 20
7.518843088812011
 10
2.382873363248106
 20
7.520630363412113
 10
2.391214498356995
 20
7.52181143655799
 10
2.400484399008512
 20
7.522281349655205
 10
2.409859334916358
 20
7.521998325982396
 10
2.418506532474374
 20
7.5209875604923
 10
2.425657433944016
 20
7.51933884146154
 10
2.43067684981308
 20
7.517198693043983
 10
2.433118629140884
 20
7.514757238775744
 10
2.432765773733961
 20
7.51223140864463
 10
2.429649852245576
 20
7.509845690012891
 10
2.424047681526235
 20
7.507812033892233
 10
2.424047681526235
 20
7.507812033892233
  0
LWPOLYLINE
  5
28D
330
1F
100
AcDbEntity
  8
0
  6
HIDDEN
 62
     7
370
     0
100
AcDbPolyline
 90
       27
 70
   128
 43
0.0
 10
1.915531616639442
 20
9.569077222093053
 10
1.923992701482148
 20
9.569944231870481
 10
1.931962060992984
 20
9.567961277050983
 10
1.938976541986199
 20
9.563243585277335
 10
1.944628489207007
 20
9.556065382206544
 10
1.948589431544146
 20
9.546843741800881
 10
1.950629174635215
 20
9.536114536418581
 10
1.950629174635215
 20
9.524501541755757
 10
1.948589431544146
 20
9.512679509982074
 10
1.944628489207007
 20
9.501335509120561
 10
1.938976541986199
 20
9.49112875475698
 10
1.931962060992984
 20
9.482652549020953
 10
1.923992701482148
 20
9.476399435222955
 10
1.915531616639442
 20
9.472732808720103
 10
1.907070527907694
 20
9.471865797900756
 10
1.899101169693206
 20
9.47384875306756
 10
1.892086690644512
 20
9.478566445362165
 10
1.886434740182835
 20
9.485744760607442
 10
1.882473797197522
 20
9.494966400839453
 10
1.880434056699148
 20
9.505695493873615
 10
1.880434056699148
 20
9.517308488536439
 10
1.882473797197522
 20
9.529130632658258
 10
1.886434740182835
 20
9.540474633693426
 10
1.892086690644512
 20
9.550681275882521
 10
1.899101169693206
 20
9.559157481097591
 10
1.907070527907694
 20
9.565410594548284
 10
1.915531616639442
 20
9.569077222093053
  0
LINE
  5
28E
330
1F
100
AcDbEntity
  8
0
  6
HIDDEN
 62
     7
370
     0
100
AcDbLine
 10
6.083042363039462
 20
8.521401007703454
 30
0.0
 11
5.287547255485434
 21
8.308279076684032
 31
0.0
  0
LINE
  5
28F
330
1F
100
AcDbEntity
  8
0
  6
HIDDEN
 62
     7
370
     0
100
AcDbLine
 10
4.732020016042993
 20
8.159447189624534
 30
0.0
 11
4.703622166432745
 21
8.151839091864708
 31
0.0
  0
LINE
  5
290
330
1F
100
AcDbEntity
  8
0
  6
HIDDEN
 62
     7
370
     0
100
AcDbLine
 10
4.519887958323735
 20
8.102614666906374
 30
0.0
 11
4.491490274645961
 21
8.09500661360169
 31
0.0
  0
LINE
  5
291
330
1F
100
AcDbEntity
  8
0
  6
HIDDEN
 62
     7
370
     0
100
AcDbLine
 10
4.307755900604478
 20
8.04578214418821
 30
0.0
 11
4.279358216926705
 21
8.038174090883527
 31
0.0
  0
LINE
  5
292
330
1F
100
AcDbEntity
  8
0
  6
HIDDEN
 62
     7
370
     0
100
AcDbLine
 10
4.09562384288522
 20
7.988949621470048
 30
0.0
 11
4.067226159207447
 21
7.981341568165364
 31
0.0
  0
LINE
  5
293
330
1F
100
AcDbEntity
  8
0
  6
HIDDEN
 62
     7
370
     0
100
AcDbLine
 10
3.671359893379181
 20
7.875284620488866
 30
0.0
 11
3.642962043768933
 21
7.867676522729039
 31
0.0
  0
LINE
  5
294
330
1F
100
AcDbEntity
  8
0
  6
HIDDEN
 62
     7
370
     0
100
AcDbLine
 10
3.459227835659924
 20
7.818452097770703
 30
0.0
 11
3.430829986049677
 21
7.810844000010876
 31
0.0
  0
LINE
  5
295
330
1F
100
AcDbEntity
  8
0
  6
HIDDEN
 62
     7
370
     0
100
AcDbLine
 10
3.247095612008193
 20
7.761619530597396
 30
0.0
 11
3.21869792833042
 21
7.754011477292713
 31
0.0
  0
LINE
  5
296
330
1F
100
AcDbEntity
  8
0
  6
HIDDEN
 62
     7
370
     0
100
AcDbLine
 10
3.034963886153885
 20
7.704787096789521
 30
0.0
 11
3.006565870611162
 21
7.697178954574551
 31
0.0
  0
LINE
  5
297
330
1F
100
AcDbEntity
  8
0
  6
HIDDEN
 62
     7
370
     0
100
AcDbLine
 10
2.822831828434627
 20
7.647954574071358
 30
0.0
 11
2.794433812891905
 21
7.640346431856388
 31
0.0
  0
LINE
  5
298
330
1F
100
AcDbEntity
  8
0
  6
HIDDEN
 62
     7
370
     0
100
AcDbLine
 10
2.61069977071537
 20
7.591122051353195
 30
0.0
 11
2.582301755172648
 21
7.583513909138225
 31
0.0
  0
LINE
  5
299
330
1F
100
AcDbEntity
  8
0
  6
HIDDEN
 62
     7
370
     0
100
AcDbLine
 10
2.398567712996114
 20
7.534289528635033
 30
0.0
 11
2.37017002931834
 21
7.52668147533035
 31
0.0
  0
LINE
  5
29A
330
1F
100
AcDbEntity
  8
0
  6
HIDDEN
 62
     7
370
     0
100
AcDbLine
 10
2.186435655276856
 20
7.47745700591687
 30
0.0
 11
2.158037971599084
 21
7.469848952612187
 31
0.0
  0
LINE
  5
29B
330
1F
100
AcDbEntity
  8
0
  6
HIDDEN
 62
     7
370
     0
100
AcDbLine
 10
6.083042363039462
 20
8.521401007703454
 30
0.0
 11
6.126725787746902
 21
8.509697735440953
 31
0.0
  0
LINE
  5
29C
330
1F
100
AcDbEntity
  8
0
  6
HIDDEN
 62
     7
370
     0
100
AcDbLine
 10
6.011820935248215
 20
8.478913455543469
 30
0.0
 11
6.126725787746902
 21
8.509697735440953
 31
0.0
  0
LWPOLYLINE
  5
29D
330
1F
100
AcDbEntity
  8
0
  6
HIDDEN
 62
     7
370
     0
100
AcDbPolyline
 90
       23
 70
   128
 43
0.0
 10
6.216135623714191
 20
8.424175292444783
 10
6.200557302248944
 20
8.420558844271575
 10
6.183216466781625
 20
8.417573175690204
 10
6.164466180134748
 20
8.415279045768414
 10
6.144688107741114
 20
8.413723182419204
 10
6.124284843266861
 20
8.412937248818721
 10
6.103671757178664
 20
8.412937259932506
 10
6.083268430479733
 20
8.413723199089883
 10
6.063490337344538
 20
8.415279056882202
 10
6.044740112922339
 20
8.417573159019525
 10
6.027399215230341
 20
8.420558844271575
 10
6.011820893765096
 20
8.424175292444781
 10
5.99832220400216
 20
8.428348896934849
 10
5.987177971602349
 20
8.43299469284825
 10
5.978614964033558
 20
8.438018107423506
 10
5.972807597067998
 20
8.443316877159267
 10
5.969874056110594
 20
8.448783142762968
 10
5.969874056110594
 20
8.454305605225284
 10
5.972807617809556
 20
8.45977186527209
 10
5.978614964033559
 20
8.465070640564746
 10
5.98717795086079
 20
8.470094060696895
 10
5.99832224548528
 20
8.474739851053401
 10
6.011820935248215
 20
8.478913455543469
  0
LINE
  5
29E
330
1F
100
AcDbEntity
  8
0
  6
HIDDEN
 62
     7
370
     0
100
AcDbLine
 10
6.331040476212879
 20
8.454959572342266
 30
0.0
 11
6.216135623714191
 21
8.424175292444783
 31
0.0
  0
LINE
  5
29F
330
1F
100
AcDbEntity
  8
0
  6
HIDDEN
 62
     7
370
     0
100
AcDbLine
 10
6.331040476212879
 20
8.454959572342266
 30
0.0
 11
6.374723942403439
 21
8.443256288965979
 31
0.0
  0
LINE
  5
2A0
330
1F
100
AcDbEntity
  8
0
  6
HIDDEN
 62
     7
370
     0
100
AcDbLine
 10
6.374723942403439
 20
8.443256288965979
 30
0.0
 11
5.579228834849412
 21
8.230134357946557
 31
0.0
  0
LWPOLYLINE
  5
2A5
330
1F
100
AcDbEntity
  8
0
  6
HIDDEN
 62
     7
370
     0
100
AcDbPolyline
 90
       17
 70
   128
 43
0.0
 10
2.601071870750222
 20
7.574050342587753
 10
2.597169927130357
 20
7.572485843826865
 10
2.595799615273211
 20
7.570640344102211
 10
2.597169719714764
 20
7.568794877718914
 10
2.601071787783984
 20
7.567230412299385
 10
2.606911241941793
 20
7.566185016252291
 10
2.613799596753733
 20
7.565817950130186
 10
2.620688076015029
 20
7.56618507182122
 10
2.626527696105311
 20
7.567230445640742
 10
2.630429639725177
 20
7.56879494440163
 10
2.631799619717374
 20
7.570640355215997
 10
2.630429515275821
 20
7.572485821599293
 10
2.626527488689718
 20
7.574050275905037
 10
2.620687993048792
 20
7.575095683065916
 10
2.613799638236852
 20
7.57546274918802
 10
2.606911490840505
 20
7.575095716407274
 10
2.601071870750222
 20
7.574050342587753
  0
LWPOLYLINE
  5
2B5
330
1F
100
AcDbEntity
  8
0
  6
HIDDEN
 62
     7
370
     0
100
AcDbPolyline
 90
       17
 70
   128
 43
0.0
 10
4.510260058358587
 20
8.08554295814093
 10
4.506358114738721
 20
8.083978459380043
 10
4.50498796881405
 20
8.082133004110533
 10
4.506358239188077
 20
8.08028758218238
 10
4.510260141324824
 20
8.078723072307706
 10
4.516099761415106
 20
8.077677720715756
 10
4.522987950294572
 20
8.077310610138509
 10
4.529876263623394
 20
8.077677687374398
 10
4.535715883713676
 20
8.078723061193921
 10
4.539617827333541
 20
8.080287559954808
 10
4.540987973258213
 20
8.082133015224318
 10
4.53961786881666
 20
8.083978481607616
 10
4.535716008163032
 20
8.085542980368503
 10
4.52987634658963
 20
8.086588343074238
 10
4.522987991777691
 20
8.086955409196342
 10
4.516099678448869
 20
8.086588331960452
 10
4.510260058358587
 20
8.08554295814093
  0
LINE
  5
2B9
330
1F
100
AcDbEntity
  8
0
  6
HIDDEN
 62
     7
370
     0
100
AcDbLine
 10
6.374723942403439
 20
8.41724323066006
 30
0.0
 11
6.374723942403439
 21
8.443256288965979
 31
0.0
  0
LINE
  5
2BA
330
1F
100
AcDbEntity
  8
0
  6
HIDDEN
 62
     7
370
     0
100
AcDbLine
 10
6.374723942403439
 20
8.41724323066006
 30
0.0
 11
5.579228834849412
 21
8.204121299640638
 31
0.0
  0
LWPOLYLINE
  5
2BC
330
1F
100
AcDbEntity
  8
0
  6
HIDDEN
 62
     7
370
     0
100
AcDbPolyline
 90
       17
 70
   128
 43
0.0
 10
2.388409492842615
 20
7.406098056125914
 10
2.378561400483869
 20
7.403993994171311
 10
2.367212863724887
 20
7.402529841783697
 10
2.354932616121855
 20
7.401778883267573
 10
2.342336764952415
 20
7.401778949950289
 10
2.330056517349385
 20
7.402529864011269
 10
2.318708022073521
 20
7.403994049740241
 10
2.308860012681013
 20
7.406098089467271
 10
2.301006553114539
 20
7.408736468908623
 10
2.29554131816974
 20
7.411776867328867
 10
2.292738469777527
 20
7.415066881381376
 10
2.292738262361935
 20
7.418441438003548
 10
2.295541235203502
 20
7.421731463169843
 10
2.301006345698946
 20
7.424771850476301
 10
2.308859971197894
 20
7.427410252145224
 10
2.318708022073521
 20
7.429514325213613
 10
2.320223856710762
 20
7.429760640051453
  0
LWPOLYLINE
  5
2BD
330
1F
100
AcDbEntity
  8
0
  6
HIDDEN
 62
     7
370
     0
100
AcDbPolyline
 90
       10
 70
   128
 43
0.0
 10
2.377045648812865
 20
7.42976067339281
 10
2.378561400483869
 20
7.429514269644683
 10
2.38840936839326
 20
7.427410241031439
 10
2.396262869442852
 20
7.424771850476301
 10
2.401728062904532
 20
7.421731463169843
 10
2.404530911296744
 20
7.418441449117334
 10
2.404531160195455
 20
7.415066881381376
 10
2.401728145870769
 20
7.411776867328867
 10
2.396263076858444
 20
7.408736468908623
 10
2.388409492842615
 20
7.406098056125914
  0
LWPOLYLINE
  5
2C4
330
1F
100
AcDbEntity
  8
0
  6
HIDDEN
 62
     7
370
     0
100
AcDbPolyline
 90
       17
 70
   128
 43
0.0
 10
2.626527696105311
 20
7.541217387334824
 10
2.620688076015029
 20
7.540172013515302
 10
2.613799596753733
 20
7.539804891824268
 10
2.606911241941793
 20
7.540171957946372
 10
2.601071787783984
 20
7.541217353993466
 10
2.597169719714764
 20
7.542781819412995
 10
2.595799615273211
 20
7.544627285796291
 10
2.597169927130357
 20
7.546472785520945
 10
2.601071870750222
 20
7.548037284281834
 10
2.606911490840505
 20
7.549082658101355
 10
2.613799638236852
 20
7.5494496908821
 10
2.620687993048792
 20
7.549082624759998
 10
2.626527488689718
 20
7.548037217599119
 10
2.630429515275821
 20
7.546472763293374
 10
2.631799619717374
 20
7.544627296910078
 10
2.630429639725177
 20
7.542781886095712
 10
2.626527696105311
 20
7.541217387334824
  0
LWPOLYLINE
  5
2C5
330
1F
100
AcDbEntity
  8
0
  6
HIDDEN
 62
     7
370
     0
100
AcDbPolyline
 90
       17
 70
   128
 43
0.0
 10
3.024805666000387
 20
7.576595624280402
 10
3.014957573641639
 20
7.574491562325799
 10
3.003609036882659
 20
7.573027409938185
 10
2.991328789279627
 20
7.572276451422061
 10
2.978732606245238
 20
7.572276429194489
 10
2.966452690507155
 20
7.573027432165757
 10
2.955103863366344
 20
7.574491528984443
 10
2.945255853973835
 20
7.576595568711472
 10
2.937402394407362
 20
7.579233948152825
 10
2.931937491327511
 20
7.582274435483356
 10
2.929134311070351
 20
7.585564360625578
 10
2.929134435519705
 20
7.588939006158037
 10
2.931937408361274
 20
7.592229031324331
 10
2.937402518856717
 20
7.595269418630789
 10
2.945256144355665
 20
7.597907820299713
 10
2.955103863366344
 20
7.600011804457814
 10
2.956620029868533
 20
7.600258208205942
  0
LWPOLYLINE
  5
2C6
330
1F
100
AcDbEntity
  8
0
  6
HIDDEN
 62
     7
370
     0
100
AcDbPolyline
 90
       10
 70
   128
 43
0.0
 10
3.013441490105687
 20
7.600258152637011
 10
3.014957573641639
 20
7.600011837799172
 10
3.02480554155103
 20
7.597907809185928
 10
3.032659042600622
 20
7.595269418630789
 10
3.038124236062303
 20
7.592229031324331
 10
3.040927084454515
 20
7.588939017271822
 10
3.040927001488277
 20
7.585564360625578
 10
3.03812431902854
 20
7.582274435483356
 10
3.032658918151267
 20
7.579233948152825
 10
3.024805666000387
 20
7.576595624280402
  0
LWPOLYLINE
  5
2CD
330
1F
100
AcDbEntity
  8
0
  6
HIDDEN
 62
     7
370
     0
100
AcDbPolyline
 90
       17
 70
   128
 43
0.0
 10
3.661201673225683
 20
7.747093147979747
 10
3.651353746799411
 20
7.744989130480288
 10
3.640005044107955
 20
7.743524933637529
 10
3.627724962437398
 20
7.742774019576549
 10
3.615128779403009
 20
7.742773997348978
 10
3.602848697732452
 20
7.743524955865101
 10
3.591500036524115
 20
7.744989097138931
 10
3.581652027131606
 20
7.747093136865961
 10
3.573798567565132
 20
7.749731516307313
 10
3.568333498552807
 20
7.752771959182701
 10
3.565530484228121
 20
7.756061928780066
 10
3.565530608677478
 20
7.759436574312525
 10
3.56833341558657
 20
7.762726555023676
 10
3.573798692014488
 20
7.765766986785278
 10
3.581652151580962
 20
7.768405343999058
 10
3.591500036524115
 20
7.770509372612303
 10
3.59301603709383
 20
7.770755731905287
  0
LWPOLYLINE
  5
2CE
330
1F
100
AcDbEntity
  8
0
  6
HIDDEN
 62
     7
370
     0
100
AcDbPolyline
 90
       10
 70
   128
 43
0.0
 10
3.649837663263459
 20
7.7707557207915
 10
3.651353580866937
 20
7.770509361498517
 10
3.661201548776327
 20
7.768405332885272
 10
3.669055049825919
 20
7.765766942330134
 10
3.6745202432876
 20
7.762726555023676
 10
3.677323091679812
 20
7.759436540971167
 10
3.677323174646049
 20
7.756061928780066
 10
3.674520326253837
 20
7.752771959182701
 10
3.669055091309038
 20
7.749731516307313
 10
3.661201673225683
 20
7.747093147979747
  0
LWPOLYLINE
  5
2D3
330
1F
100
AcDbEntity
  8
0
  6
HIDDEN
 62
     7
370
     0
100
AcDbPolyline
 90
       17
 70
   128
 43
0.0
 10
4.29759768045098
 20
7.917590671679091
 10
4.287749754024708
 20
7.915486654179632
 10
4.276401217265726
 20
7.914022501792018
 10
4.264120969662695
 20
7.913271543275894
 10
4.25152495256078
 20
7.913271565503466
 10
4.239244704957749
 20
7.914022479564446
 10
4.227896209681886
 20
7.915486665293419
 10
4.218048200289377
 20
7.917590705020449
 10
4.210194740722903
 20
7.920229084461801
 10
4.204729505778105
 20
7.923269482882045
 10
4.201926657385892
 20
7.926559496934554
 10
4.201926615902774
 20
7.929934098011869
 10
4.204729588744341
 20
7.933224123178164
 10
4.210194699239785
 20
7.936264510484623
 10
4.218048158806259
 20
7.938902867698402
 10
4.227896209681886
 20
7.941006940766791
 10
4.229412210251601
 20
7.941253300059774
  0
LWPOLYLINE
  5
2D4
330
1F
100
AcDbEntity
  8
0
  6
HIDDEN
 62
     7
370
     0
100
AcDbPolyline
 90
       10
 70
   128
 43
0.0
 10
4.28623383642123
 20
7.941253288945988
 10
4.287749754024708
 20
7.941006929653005
 10
4.297597721934098
 20
7.93890290103976
 10
4.30545122298369
 20
7.936264510484623
 10
4.310916416445371
 20
7.933224123178164
 10
4.313719264837583
 20
7.929934109125656
 10
4.31371934780382
 20
7.926559496934554
 10
4.310916333479133
 20
7.923269482882045
 10
4.305451264466809
 20
7.920229084461801
 10
4.29759768045098
 20
7.917590671679091
  0
LWPOLYLINE
  5
2DA
330
1F
100
AcDbEntity
  8
0
  6
HIDDEN
 62
     7
370
     0
100
AcDbPolyline
 90
       17
 70
   128
 43
0.0
 10
4.535715883713676
 20
8.052710002888002
 10
4.529876263623394
 20
8.051664629068479
 10
4.522987950294572
 20
8.05129755183259
 10
4.516099761415106
 20
8.051664662409837
 10
4.510260141324824
 20
8.052710014001787
 10
4.506358239188077
 20
8.054274523876461
 10
4.50498796881405
 20
8.056119945804613
 10
4.506358114738721
 20
8.057965401074124
 10
4.510260058358587
 20
8.059529899835013
 10
4.516099678448869
 20
8.060575273654533
 10
4.522987991777691
 20
8.060942350890423
 10
4.52987634658963
 20
8.060575284768319
 10
4.535716008163032
 20
8.059529922062584
 10
4.53961786881666
 20
8.057965423301695
 10
4.540987973258213
 20
8.056119956918399
 10
4.539617827333541
 20
8.054274501648889
 10
4.535715883713676
 20
8.052710002888002
  0
LWPOLYLINE
  5
2DC
330
1F
100
AcDbEntity
  8
0
  6
HIDDEN
 62
     7
370
     0
100
AcDbPolyline
 90
       20
 70
   128
 43
0.0
 10
6.035254126705967
 20
8.484127257407171
 10
6.023370260672064
 20
8.480368122114699
 10
6.013957938103568
 20
8.476136223038915
 10
6.007273887650797
 20
8.471546996295964
 10
6.003500458732395
 20
8.466725602564673
 10
6.0027405917072
 20
8.461803579058571
 10
6.005015007392958
 20
8.456915174754943
 10
6.010261647044226
 20
8.452193732857526
 10
6.018337435384906
 20
8.447768051031609
 10
6.029021993347367
 20
8.443758841663198
 10
6.042024005731148
 20
8.440275458849079
 10
6.056988667422752
 20
8.437412958800413
 10
6.073507888242819
 20
8.435249365851412
 10
6.09113105781542
 20
8.433843733103676
 10
6.109377469762063
 20
8.433234380891137
 10
6.127749285176274
 20
8.433437968778921
 10
6.145745574659239
 20
8.434448900975807
 10
6.162875240311259
 20
8.436239631963339
 10
6.17867115110441
 20
8.43876129720317
 10
6.19270239077332
 20
8.44194512736634
  0
ARC
  5
2DD
330
1F
100
AcDbEntity
  8
0
  6
HIDDEN
 62
     7
370
     0
100
AcDbCircle
 10
6.229616018978347
 20
8.466287724285802
 30
0.0
 40
0.0442173944510798
100
AcDbArc
 50
213.4027517731273
 51
252.2498771430228
  0
ARC
  5
2DE
330
1F
100
AcDbEntity
  8
0
  6
HIDDEN
 62
     7
370
     0
100
AcDbCircle
 10
6.018747089454244
 20
8.503050774451796
 30
0.0
 40
0.0251113873803896
100
AcDbArc
 50
253.9892762235099
 51
311.098282635664
  0
LWPOLYLINE
  5
2DF
330
1F
100
AcDbEntity
  8
0
  6
HIDDEN
 62
     7
370
     0
100
AcDbPolyline
 90
       11
 70
   128
 43
0.0
 10
6.035254126705967
 20
8.484127257407171
 10
6.049118241260765
 20
8.49395271621567
 10
6.064219133513892
 20
8.500715376662395
 10
6.080268827655939
 20
8.50428642676041
 10
6.096961302720896
 20
8.504597732137742
 10
6.113978258739643
 20
8.501643456418113
 10
6.130995256241511
 20
8.495479659850859
 10
6.147687731306467
 20
8.486224157367713
 10
6.163737466931632
 20
8.474053315276451
 10
6.17883831770164
 20
8.459199274088197
 10
6.19270239077332
 20
8.44194512736634
  0
ARC
  5
2E0
330
1F
100
AcDbEntity
  8
0
  6
HIDDEN
 62
     7
370
     0
100
AcDbCircle
 10
6.208443871441336
 20
8.423432810018271
 30
0.0
 40
0.0224611324316307
100
AcDbArc
 50
208.3351108978124
 51
251.5015853643334
  0
LWPOLYLINE
  5
2E1
330
1F
100
AcDbEntity
  8
0
  6
HIDDEN
 62
     7
370
     0
100
AcDbPolyline
 90
       20
 70
   128
 43
0.0
 10
6.188673882158566
 20
8.412772134905015
 10
6.175360570081933
 20
8.409751260628226
 10
6.160373009708857
 20
8.407358629221631
 10
6.144119892723911
 20
8.405659545291428
 10
6.127044611440393
 20
8.404700336654318
 10
6.109612886460192
 20
8.404507173497746
 10
6.09230023877197
 20
8.405085334870038
 10
6.075578912198018
 20
8.406419039195155
 10
6.059905013627488
 20
8.408471911051707
 10
6.045706151047042
 20
8.411187936958544
 10
6.033369527885815
 20
8.41449305464615
 10
6.023231696685115
 20
8.418297097969169
 10
6.015569183913618
 20
8.422496308622049
 10
6.010591064489133
 20
8.426976125699294
 10
6.008433029692644
 20
8.431614375352038
 10
6.009154027035698
 20
8.43628452712733
 10
6.012734352036956
 20
8.440859183696915
 10
6.019076322322863
 20
8.44521357336446
 10
6.028006974030362
 20
8.449228917542708
 10
6.039282718286958
 20
8.452795678757413
  0
ARC
  5
2E2
330
1F
100
AcDbEntity
  8
0
  6
HIDDEN
 62
     7
370
     0
100
AcDbCircle
 10
6.029959027082952
 20
8.460682566154899
 30
0.0
 40
0.0122120518541442
100
AcDbArc
 50
254.2253215468553
 51
319.7722009343051
  0
LWPOLYLINE
  5
2E3
330
1F
100
AcDbEntity
  8
0
  6
HIDDEN
 62
     7
370
     0
100
AcDbPolyline
 90
       22
 70
   128
 43
0.0
 10
6.026639120047995
 20
8.44893044176109
 10
6.014597410747768
 20
8.445181631175756
 10
6.00477570165246
 20
8.440993867722399
 10
5.997393396976415
 20
8.436460696137292
 10
5.992615412857678
 20
8.43168337968105
 10
5.990548474989662
 20
8.426768641261633
 10
5.991238712600265
 20
8.421826262856574
 10
5.994670776935601
 20
8.41696664881543
 10
6.000767986450911
 20
8.412298353042389
 10
6.009394131326231
 20
8.407925650634059
 10
6.020356501734043
 20
8.40394623732576
 10
6.033410202083614
 20
8.400449006734357
 10
6.048263689017334
 20
8.39751206654745
 10
6.064585159810975
 20
8.39520102700035
 10
6.082009915627248
 20
8.39356752829944
 10
6.100148865555124
 20
8.392648029219502
 10
6.118596740267312
 20
8.392463095821421
 10
6.136941363497272
 20
8.393016862433569
 10
6.1547730894487
 20
8.39429693718462
 10
6.171693524621215
 20
8.396274738195579
 10
6.187324695579574
 20
8.39890608261043
 10
6.201317438914411
 20
8.402132189615324
  0
LWPOLYLINE
  5
2E4
330
1F
100
AcDbEntity
  8
0
  6
HIDDEN
 62
     7
370
     0
100
AcDbPolyline
 90
       12
 70
   128
 43
0.0
 10
6.188673882158566
 20
8.412772134905015
 10
6.177351894595497
 20
8.429458723744472
 10
6.164701617574438
 20
8.444130556517398
 10
6.150988211189561
 20
8.45648033455833
 10
6.136499153452858
 20
8.466248927461807
 10
6.121538059309456
 20
8.473231776831946
 10
6.106418499652951
 20
8.477282473963278
 10
6.091457405509548
 20
8.478316109531203
 10
6.076968306289727
 20
8.4763110851391
 10
6.063254941387969
 20
8.471309242242872
 10
6.050604705850027
 20
8.463415696402389
 10
6.039282718286958
 20
8.452795678757413
  0
LINE
  5
2E5
330
1F
100
AcDbEntity
  8
0
  6
HIDDEN
 62
     7
370
     0
100
AcDbLine
 10
6.19270239077332
 20
8.44194512736634
 30
0.0
 11
6.307607243272009
 21
8.472729407263823
 31
0.0
  0
ARC
  5
2E6
330
1F
100
AcDbEntity
  8
0
  6
HIDDEN
 62
     7
370
     0
100
AcDbCircle
 10
6.34452087147704
 20
8.497072004183289
 30
0.0
 40
0.0442173944510845
100
AcDbArc
 50
213.4027517731287
 51
252.2498771430187
  0
LINE
  5
2E7
330
1F
100
AcDbEntity
  8
0
  6
HIDDEN
 62
     7
370
     0
100
AcDbLine
 10
6.150158979204655
 20
8.514911537304657
 30
0.0
 11
6.035254126705967
 21
8.484127257407171
 31
0.0
  0
LWPOLYLINE
  5
2E8
330
1F
100
AcDbEntity
  8
0
  6
HIDDEN
 62
     7
370
     0
100
AcDbPolyline
 90
       11
 70
   128
 43
0.0
 10
6.150158979204655
 20
8.514911537304657
 10
6.164023093759453
 20
8.524736996113153
 10
6.17912398601258
 20
8.531499656559878
 10
6.195173680154628
 20
8.535070706657894
 10
6.211866155219583
 20
8.535382012035226
 10
6.228883111238332
 20
8.532427736315597
 10
6.245900108740198
 20
8.526263939748345
 10
6.262592583805155
 20
8.517008437265197
 10
6.27864231943032
 20
8.504837595173935
 10
6.293743170200329
 20
8.48998355398568
 10
6.307607243272009
 20
8.472729407263823
  0
LINE
  5
2E9
330
1F
100
AcDbEntity
  8
0
  6
HIDDEN
 62
     7
370
     0
100
AcDbLine
 10
6.201317438914411
 20
8.402132189615324
 30
0.0
 11
6.316222291413099
 21
8.432916469512807
 31
0.0
  0
LINE
  5
2EA
330
1F
100
AcDbEntity
  8
0
  6
HIDDEN
 62
     7
370
     0
100
AcDbLine
 10
6.039282718286958
 20
8.452795678757413
 30
0.0
 11
6.154187570785646
 21
8.483579958654898
 31
0.0
  0
LWPOLYLINE
  5
2EB
330
1F
100
AcDbEntity
  8
0
  6
HIDDEN
 62
     7
370
     0
100
AcDbPolyline
 90
       12
 70
   128
 43
0.0
 10
6.303578734657254
 20
8.4435564148025
 10
6.292256747094185
 20
8.460243003641956
 10
6.279606470073125
 20
8.474914836414882
 10
6.265893063688249
 20
8.487264614455813
 10
6.251404005951545
 20
8.49703320735929
 10
6.236442911808143
 20
8.50401605672943
 10
6.221323352151639
 20
8.508066753860761
 10
6.206362258008236
 20
8.509100389428686
 10
6.191873158788415
 20
8.507095365036585
 10
6.178159793886656
 20
8.502093522140356
 10
6.165509558348714
 20
8.494199976299873
 10
6.154187570785646
 20
8.483579958654898
  0
LINE
  5
2EC
330
1F
100
AcDbEntity
  8
0
  6
HIDDEN
 62
     7
370
     0
100
AcDbLine
 10
6.303578734657254
 20
8.4435564148025
 30
0.0
 11
6.188673882158566
 21
8.412772134905015
 31
0.0
  0
LWPOLYLINE
  5
2ED
330
1F
100
AcDbEntity
  8
0
  6
HIDDEN
 62
     7
370
     0
100
AcDbPolyline
 90
        9
 70
   128
 43
0.0
 10
6.411493493699256
 20
8.403008181263205
 10
6.410786977205465
 20
8.412592686820364
 10
6.408694578425228
 20
8.421430371183724
 10
6.405296706874497
 20
8.429181492325007
 10
6.400723941323462
 20
8.435548235886386
 10
6.395152010541754
 20
8.440285918211827
 10
6.388795039571252
 20
8.443212481223833
 10
6.381897325130675
 20
8.44421544542612
 10
6.374723942403439
 20
8.443256288965979
  0
LWPOLYLINE
  5
2EE
330
1F
100
AcDbEntity
  8
0
  6
HIDDEN
 62
     7
370
     0
100
AcDbPolyline
 90
        9
 70
   128
 43
0.0
 10
6.367810027508696
 20
8.41471146463949
 10
6.367103511014907
 20
8.424295970196649
 10
6.365011112234668
 20
8.433133654560011
 10
6.361613240683936
 20
8.440884775701292
 10
6.357040475132903
 20
8.447251519262673
 10
6.351468544351194
 20
8.451989201588114
 10
6.345111573380692
 20
8.454915764600119
 10
6.338213858940115
 20
8.455918728802407
 10
6.331040476212879
 20
8.454959572342266
  0
LINE
  5
2EF
330
1F
100
AcDbEntity
  8
0
  6
HIDDEN
 62
     7
370
     0
100
AcDbLine
 10
6.367810027508696
 20
8.41471146463949
 30
0.0
 11
6.411493493699256
 21
8.403008181263205
 31
0.0
  0
LINE
  5
2F0
330
1F
100
AcDbEntity
  8
0
  6
HIDDEN
 62
     7
370
     0
100
AcDbLine
 10
6.411493493699256
 20
8.403008181263205
 30
0.0
 11
6.392401611071291
 21
8.397893254906236
 31
0.0
  0
LWPOLYLINE
  5
2F1
330
1F
100
AcDbEntity
  8
0
  6
HIDDEN
 62
     7
370
     0
100
AcDbPolyline
 90
        9
 70
   128
 43
0.0
 10
6.392401611071291
 20
8.397893254906236
 10
6.392061939518002
 20
8.40250121413973
 10
6.39105597842885
 20
8.406750024729685
 10
6.389422386181342
 20
8.410476523062735
 10
6.387223941641933
 20
8.413537459758234
 10
6.384545127774376
 20
8.415815182684173
 10
6.381488892715591
 20
8.417222195265566
 10
6.378172682952456
 20
8.417704389353147
 10
6.374723942403439
 20
8.41724323066006
  0
LINE
  5
2F2
330
1F
100
AcDbEntity
  8
0
  6
HIDDEN
 62
     7
370
     0
100
AcDbLine
 10
6.33389996008095
 20
8.413566493758981
 30
0.0
 11
6.392401611071291
 21
8.397893254906236
 31
0.0
  0
LWPOLYLINE
  5
2F3
330
1F
100
AcDbEntity
  8
0
  6
HIDDEN
 62
     7
370
     0
100
AcDbPolyline
 90
        9
 70
   128
 43
0.0
 10
6.316222291413099
 20
8.432916469512807
 10
6.319671031962117
 20
8.433377628205892
 10
6.322987241725249
 20
8.432895434118313
 10
6.326043476784035
 20
8.431488421536919
 10
6.328722290651594
 20
8.429210698610981
 10
6.330920735191003
 20
8.426149761915482
 10
6.332554327438511
 20
8.42242326358243
 10
6.333560288527662
 20
8.418174452992477
 10
6.33389996008095
 20
8.413566493758981
  0
LINE
  5
2F4
330
1F
100
AcDbEntity
  8
0
  6
HIDDEN
 62
     7
370
     0
100
AcDbLine
 10
6.316222291413099
 20
8.432916469512807
 30
0.0
 11
6.374723942403439
 21
8.41724323066006
 31
0.0
  0
LINE
  5
2F5
330
1F
100
AcDbEntity
  8
0
  6
HIDDEN
 62
     7
370
     0
100
AcDbLine
 10
6.392401611071291
 20
8.036601846061106
 30
0.0
 11
6.411493493699256
 21
8.041716772418075
 31
0.0
  0
LINE
  5
2F6
330
1F
100
AcDbEntity
  8
0
  6
HIDDEN
 62
     7
370
     0
100
AcDbLine
 10
6.392401611071291
 20
8.036601846061106
 30
0.0
 11
6.392401611071291
 21
8.397893254906236
 31
0.0
  0
LINE
  5
2F7
330
1F
100
AcDbEntity
  8
0
  6
HIDDEN
 62
     7
370
     0
100
AcDbLine
 10
6.411493493699256
 20
8.041716772418075
 30
0.0
 11
6.411493493699256
 21
8.403008181263205
 31
0.0
  0
LINE
  5
2F8
330
1F
100
AcDbEntity
  8
0
  6
HIDDEN
 62
     7
370
     0
100
AcDbLine
 10
6.33389996008095
 20
8.413566493758981
 30
0.0
 11
6.33389996008095
 21
8.257006807897594
 31
0.0
  0
LINE
  5
2F9
330
1F
100
AcDbEntity
  8
0
  6
HIDDEN
 62
     7
370
     0
100
AcDbLine
 10
6.100720031707314
 20
8.114746564798579
 30
0.0
 11
6.392401611071291
 21
8.036601846061106
 31
0.0
  0
LINE
  5
2FA
330
1F
100
AcDbEntity
  8
0
  6
HIDDEN
 62
     7
370
     0
100
AcDbLine
 10
6.100720031707314
 20
8.114746564798579
 30
0.0
 11
6.100720031707314
 21
8.476037973643709
 31
0.0
  0
LINE
  5
2FB
330
1F
100
AcDbEntity
  8
0
  6
HIDDEN
 62
     7
370
     0
100
AcDbLine
 10
6.100720031707314
 20
8.476037973643709
 30
0.0
 11
6.159221641214534
 21
8.460364745904749
 31
0.0
  0
LINE
  5
2FC
330
1F
100
AcDbEntity
  8
0
  6
HIDDEN
 62
     7
370
     0
100
AcDbLine
 10
6.159221641214534
 20
8.303805060043361
 30
0.0
 11
6.159221641214534
 21
8.460364745904749
 31
0.0
  0
LWPOLYLINE
  5
2FD
330
1F
100
AcDbEntity
  8
0
  6
HIDDEN
 62
     7
370
     0
100
AcDbPolyline
 90
       22
 70
   128
 43
0.0
 10
6.33389996008095
 20
8.257006807897594
 10
6.332924443063645
 20
8.239532091474584
 10
6.33001971213212
 20
8.222970334573627
 10
6.325250646883886
 20
8.207691552734841
 10
6.31872377596754
 20
8.194037081631144
 10
6.310584954028128
 20
8.182312060362317
 10
6.301015877125172
 20
8.172778225935102
 10
6.290230349252008
 20
8.165648583109962
 10
6.278469387327775
 20
8.161082498476641
 10
6.265995579493295
 20
8.159181898919822
 10
6.253087650822529
 20
8.159989223199881
 10
6.240033950472956
 20
8.163486453791286
 10
6.227126021802191
 20
8.16959548300643
 10
6.214652213967711
 20
8.17817982451868
 10
6.202891210560359
 20
8.189047703625954
 10
6.192105724170312
 20
8.201956459572176
 10
6.182536688750477
 20
8.216617605802529
 10
6.174397825327946
 20
8.232703598878625
 10
6.167870954411601
 20
8.249855311687511
 10
6.163101889163365
 20
8.267689464100445
 10
6.16019715823184
 20
8.28580764003991
 10
6.159221641214534
 20
8.303805060043361
  0
ARC
  5
2FE
330
1F
100
AcDbEntity
  8
0
  6
HIDDEN
 62
     7
370
     0
100
AcDbCircle
 10
6.370255880140258
 20
8.43645213202288
 30
0.0
 40
0.0218778155529882
100
AcDbArc
 50
217.1201094097112
 51
263.5811415689734
  0
LWPOLYLINE
  5
2FF
330
1F
100
AcDbEntity
  8
0
  6
HIDDEN
 62
     7
370
     0
100
AcDbPolyline
 90
        9
 70
   128
 43
0.0
 10
6.19536285484263
 20
8.465431265472435
 10
6.194494274823371
 20
8.477214329263889
 10
6.191921914416259
 20
8.488079151829209
 10
6.187744627892948
 20
8.497608298444388
 10
6.182122945848036
 20
8.505435449235214
 10
6.17527290661072
 20
8.511259911657404
 10
6.167457752734222
 20
8.514857734938757
 10
6.158977817054975
 20
8.516090756888534
 10
6.150158979204655
 20
8.514911537304657
  0
LWPOLYLINE
  5
300
330
1F
100
AcDbEntity
  8
0
  6
HIDDEN
 62
     7
370
     0
100
AcDbPolyline
 90
       11
 70
   128
 43
0.0
 10
6.19536285484263
 20
8.465431265472435
 10
6.219164288055268
 20
8.464379233453216
 10
6.242197859667947
 20
8.462458789996894
 10
6.264024332160967
 20
8.459706562321573
 10
6.284227533924928
 20
8.456175026251411
 10
6.30242221642266
 20
8.451931521604659
 10
6.318261487445543
 20
8.44705695396453
 10
6.331443235811494
 20
8.441644292928877
 10
6.341716193085686
 20
8.435796728610952
 10
6.348884364496145
 20
8.429625791325744
 10
6.352811118909984
 20
8.423249135431602
  0
LWPOLYLINE
  5
301
330
1F
100
AcDbEntity
  8
0
  6
HIDDEN
 62
     7
370
     0
100
AcDbPolyline
 90
        9
 70
   128
 43
0.0
 10
6.326579315523507
 20
8.41837990935484
 10
6.326674481362561
 20
8.417713461022113
 10
6.327016600095762
 20
8.417052848468923
 10
6.327602344971447
 20
8.416404604430745
 10
6.328425708391417
 20
8.415775210241786
 10
6.329478741153066
 20
8.415170849334707
 10
6.330750812559079
 20
8.414597564656956
 10
6.33222946600674
 20
8.414060998886039
 10
6.33389996008095
 20
8.413566493758981
  0
ARC
  5
302
330
1F
100
AcDbEntity
  8
0
  6
HIDDEN
 62
     7
370
     0
100
AcDbCircle
 10
6.323348723940026
 20
8.454217089915756
 30
0.0
 40
0.0224611324316329
100
AcDbArc
 50
208.3351108978103
 51
251.5015853643305
  0
LWPOLYLINE
  5
303
330
1F
100
AcDbEntity
  8
0
  6
HIDDEN
 62
     7
370
     0
100
AcDbPolyline
 90
        9
 70
   128
 43
0.0
 10
6.154187570785646
 20
8.483579958654898
 10
6.1586747608356
 20
8.484179947736388
 10
6.162989510746869
 20
8.483552554513083
 10
6.166966008605314
 20
8.481721860046636
 10
6.170451437083702
 20
8.478758383036824
 10
6.173311854321943
 20
8.474775681493401
 10
6.175437336537449
 20
8.469927095745518
 10
6.176746201849235
 20
8.464398854015708
 10
6.1771881516519
 20
8.458403453207239
  0
LWPOLYLINE
  5
304
330
1F
100
AcDbEntity
  8
0
  6
HIDDEN
 62
     7
370
     0
100
AcDbPolyline
 90
       12
 70
   128
 43
0.0
 10
6.326579315523507
 20
8.41837990935484
 10
6.325277990740789
 20
8.424097841257964
 10
6.320908540800412
 20
8.429705515374589
 10
6.31356256626184
 20
8.435085393867465
 10
6.303394085518224
 20
8.440124702893147
 10
6.290616159755801
 20
8.44471784029953
 10
6.275496600099296
 20
8.44876853743086
 10
6.258352337574915
 20
8.452191884962543
 10
6.239542661362006
 20
8.454916144448235
 10
6.219461864613945
 20
8.456884201100063
 10
6.198530801995318
 20
8.458054813915881
 10
6.1771881516519
 20
8.458403453207239
  0
LINE
  5
305
330
1F
100
AcDbEntity
  8
0
  6
HIDDEN
 62
     7
370
     0
100
AcDbLine
 10
6.326579315523507
 20
8.261820223493451
 30
0.0
 11
6.326579315523507
 21
8.41837990935484
 31
0.0
  0
LWPOLYLINE
  5
306
330
1F
100
AcDbEntity
  8
0
  6
HIDDEN
 62
     7
370
     0
100
AcDbPolyline
 90
        9
 70
   128
 43
0.0
 10
6.326579315523507
 20
8.261820223493451
 10
6.326674481362561
 20
8.261153775160725
 10
6.327016600095762
 20
8.260493162607534
 10
6.327602344971447
 20
8.259844918569354
 10
6.328425708391417
 20
8.259215524380397
 10
6.329478741153066
 20
8.258611163473316
 10
6.330750812559079
 20
8.258037878795565
 10
6.33222946600674
 20
8.257501313024651
 10
6.33389996008095
 20
8.257006807897594
  0
LINE
  5
307
330
1F
100
AcDbEntity
  8
0
  6
HIDDEN
 62
     7
370
     0
100
AcDbLine
 10
6.367810027508696
 20
8.258151778778103
 30
0.0
 11
6.367810027508696
 21
8.41471146463949
 31
0.0
  0
ARC
  5
308
330
1F
100
AcDbEntity
  8
0
  6
HIDDEN
 62
     7
370
     0
100
AcDbCircle
 10
6.133651941952932
 20
8.533835054349273
 30
0.0
 40
0.0251113873803827
100
AcDbArc
 50
253.9892762235036
 51
311.0982826356758
  0
LWPOLYLINE
  5
309
330
1F
100
AcDbEntity
  8
0
  6
HIDDEN
 62
     7
370
     0
100
AcDbPolyline
 90
       12
 70
   128
 43
0.0
 10
6.326579315523507
 20
8.261820223493451
 10
6.325277990740789
 20
8.267538155396575
 10
6.320908540800412
 20
8.2731458295132
 10
6.31356256626184
 20
8.278525708006075
 10
6.303394085518224
 20
8.283565017031758
 10
6.290616159755801
 20
8.288158154438139
 10
6.275496600099296
 20
8.292208851569471
 10
6.258352337574915
 20
8.295632199101154
 10
6.239542661362006
 20
8.298356458586845
 10
6.219461864613945
 20
8.300324515238672
 10
6.198530801995318
 20
8.30149512805449
 10
6.1771881516519
 20
8.301843767345848
  0
LINE
  5
30A
330
1F
100
AcDbEntity
  8
0
  6
HIDDEN
 62
     7
370
     0
100
AcDbLine
 10
6.1771881516519
 20
8.458403453207239
 30
0.0
 11
6.1771881516519
 21
8.301843767345848
 31
0.0
  0
ARC
  5
30B
330
1F
100
AcDbEntity
  8
0
  6
HIDDEN
 62
     7
370
     0
100
AcDbCircle
 10
6.144863879581641
 20
8.491466846052375
 30
0.0
 40
0.0122120518541376
100
AcDbArc
 50
254.2253215468422
 51
319.7722009343343
  0
LINE
  5
30C
330
1F
100
AcDbEntity
  8
0
  6
HIDDEN
 62
     7
370
     0
100
AcDbLine
 10
6.141543972546683
 20
8.479714721658574
 30
0.0
 11
6.026639120047995
 21
8.44893044176109
 31
0.0
  0
LINE
  5
30D
330
1F
100
AcDbEntity
  8
0
  6
HIDDEN
 62
     7
370
     0
100
AcDbLine
 10
6.352811118909984
 20
8.423249135431602
 30
0.0
 11
6.352811118909984
 21
8.266689449570213
 31
0.0
  0
LINE
  5
30E
330
1F
100
AcDbEntity
  8
0
  6
HIDDEN
 62
     7
370
     0
100
AcDbLine
 10
6.326082098863811
 20
8.250230674159507
 30
0.0
 11
6.326579315523507
 21
8.261820223493451
 31
0.0
  0
ARC
  5
30F
330
1F
100
AcDbEntity
  8
0
  6
HIDDEN
 62
     7
370
     0
100
AcDbCircle
 10
6.175954288700133
 20
8.373813071952193
 30
0.0
 40
0.0719798806841508
100
AcDbArc
 50
256.557887078797
 51
270.9821994924399
  0
LINE
  5
310
330
1F
100
AcDbEntity
  8
0
  6
HIDDEN
 62
     7
370
     0
100
AcDbLine
 10
6.119811914335278
 20
8.11986149115555
 30
0.0
 11
6.411493493699256
 21
8.041716772418075
 31
0.0
  0
ARC
  5
311
330
1F
100
AcDbEntity
  8
0
  6
HIDDEN
 62
     7
370
     0
100
AcDbCircle
 10
6.370255880140255
 20
8.279892446161492
 30
0.0
 40
0.0218778155529855
100
AcDbArc
 50
217.1201094097169
 51
263.5811415689822
  0
LWPOLYLINE
  5
312
330
1F
100
AcDbEntity
  8
0
  6
HIDDEN
 62
     7
370
     0
100
AcDbPolyline
 90
       23
 70
   128
 43
0.0
 10
6.16349533904272
 20
8.31288994187679
 10
6.164535154893876
 20
8.292802430613985
 10
6.167633404573732
 20
8.272566778707899
 10
6.172727075225113
 20
8.252594726322156
 10
6.17971245905149
 20
8.233292977216759
 10
6.188447310439134
 20
8.215054368710534
 10
6.198753832741674
 20
8.198250401966342
 10
6.210422245828281
 20
8.183222938426792
 10
6.223214975878658
 20
8.170277877355404
 10
6.236871633357272
 20
8.159678961344075
 10
6.251114156920059
 20
8.151641763450916
 10
6.265652662534149
 20
8.146329972344194
 10
6.28019116814824
 20
8.143851710787641
 10
6.294433774677262
 20
8.14425742751535
 10
6.308090349189639
 20
8.1475388268141
 10
6.320883079240017
 20
8.153629260357408
 10
6.332551533809742
 20
8.162404519135881
 10
6.342858097595399
 20
8.173686012303971
 10
6.351592948983046
 20
8.187244294363873
 10
6.358578291326304
 20
8.202803131525826
 10
6.363671920494567
 20
8.220045893701207
 10
6.366770211657541
 20
8.238621423832158
 10
6.367810027508696
 20
8.258151778778103
  0
LWPOLYLINE
  5
313
330
1F
100
AcDbEntity
  8
0
  6
HIDDEN
 62
     7
370
     0
100
AcDbPolyline
 90
       20
 70
   128
 43
0.0
 10
6.352811118909984
 20
8.266689449570213
 10
6.351737452834039
 20
8.249322306101381
 10
6.348545658721711
 20
8.23300408161139
 10
6.343322851122087
 20
8.218179999344984
 10
6.336211400098246
 20
8.205254592194476
 10
6.327405446645297
 20
8.194580088512612
 10
6.317145012087538
 20
8.186447929465504
 10
6.305710107475603
 20
8.181079947257304
 10
6.293412602895228
 20
8.178622404354319
 10
6.280588013809755
 20
8.179142428834413
 10
6.267586001425977
 20
8.182625811648533
 10
6.254761370857385
 20
8.188977496585511
 10
6.24246386627701
 20
8.198024314263419
 10
6.231028961665076
 20
8.209519371116771
 10
6.220768568590435
 20
8.223149286680047
 10
6.211962573654369
 20
8.23854222598023
 10
6.204851164113645
 20
8.25527809466514
 10
6.199628356514021
 20
8.272900672686969
 10
6.196436562401693
 20
8.29092913101291
 10
6.19536285484263
 20
8.308871579611045
  0
LWPOLYLINE
  5
314
330
1F
100
AcDbEntity
  8
0
  6
HIDDEN
 62
     7
370
     0
100
AcDbPolyline
 90
       11
 70
   128
 43
0.0
 10
6.19536285484263
 20
8.308871579611045
 10
6.219164288055268
 20
8.307819547591828
 10
6.242197859667947
 20
8.305899104135507
 10
6.264024332160967
 20
8.303146876460184
 10
6.284227533924928
 20
8.299615340390023
 10
6.30242221642266
 20
8.295371835743271
 10
6.318261487445543
 20
8.290497268103141
 10
6.331443235811494
 20
8.285084607067487
 10
6.341716193085686
 20
8.279237042749562
 10
6.348884364496145
 20
8.273066105464355
 10
6.352811118909984
 20
8.266689449570213
  0
LWPOLYLINE
  5
315
330
1F
100
AcDbEntity
  8
0
  6
HIDDEN
 62
     7
370
     0
100
AcDbPolyline
 90
        9
 70
   128
 43
0.0
 10
6.126725787746902
 20
8.509697735440953
 10
6.133899170474138
 20
8.510656891901096
 10
6.140796884914714
 20
8.509653927698806
 10
6.147153855885218
 20
8.506727364686801
 10
6.152725786666927
 20
8.50198968236136
 10
6.157298552217961
 20
8.49562293879998
 10
6.160696423768692
 20
8.487871817658698
 10
6.16278882254893
 20
8.479034133295337
 10
6.16349533904272
 20
8.46944962773818
  0
ARC
  5
316
330
1F
100
AcDbEntity
  8
0
  6
HIDDEN
 62
     7
370
     0
100
AcDbCircle
 10
6.197079534977455
 20
8.607416779188264
 30
0.0
 40
0.1419958911230644
100
AcDbArc
 50
256.3190406494566
 51
269.3072974021618
  0
LWPOLYLINE
  5
317
330
1F
100
AcDbEntity
  8
0
  6
HIDDEN
 62
     7
370
     0
100
AcDbPolyline
 90
        9
 70
   128
 43
0.0
 10
6.159221641214534
 20
8.460364745904749
 10
6.158881969661246
 20
8.464972705138244
 10
6.157876008572095
 20
8.469221515728197
 10
6.156242416324587
 20
8.472948014061248
 10
6.154043971785178
 20
8.476008950756748
 10
6.151365157917618
 20
8.478286673682687
 10
6.148308922858833
 20
8.479693686264079
 10
6.1449927130957
 20
8.480175880351659
 10
6.141543972546683
 20
8.479714721658574
  0
ARC
  5
318
330
1F
100
AcDbEntity
  8
0
  6
HIDDEN
 62
     7
370
     0
100
AcDbCircle
 10
6.175954288700122
 20
8.530372757813539
 30
0.0
 40
0.0719798806841067
100
AcDbArc
 50
256.5578870787974
 51
270.9821994924491
  0
LWPOLYLINE
  5
319
330
1F
100
AcDbEntity
  8
0
  6
HIDDEN
 62
     7
370
     0
100
AcDbPolyline
 90
        9
 70
   128
 43
0.0
 10
6.100720031707314
 20
8.476037973643709
 10
6.100380360154026
 20
8.480645932877203
 10
6.099374399064874
 20
8.484894743467158
 10
6.097740806817365
 20
8.488621241800208
 10
6.095542362277956
 20
8.491682178495707
 10
6.092863548410397
 20
8.493959901421646
 10
6.089807313351612
 20
8.495366914003041
 10
6.086491103588478
 20
8.49584910809062
 10
6.083042363039462
 20
8.495387949397533
  0
LINE
  5
31A
330
1F
100
AcDbEntity
  8
0
  6
HIDDEN
 62
     7
370
     0
100
AcDbLine
 10
6.083042363039462
 20
8.495387949397533
 30
0.0
 11
6.141543972546683
 21
8.479714721658574
 31
0.0
  0
LWPOLYLINE
  5
31B
330
1F
100
AcDbEntity
  8
0
  6
HIDDEN
 62
     7
370
     0
100
AcDbPolyline
 90
        9
 70
   128
 43
0.0
 10
6.119811914335278
 20
8.48115290000068
 10
6.119105397841488
 20
8.490737405557837
 10
6.11701299906125
 20
8.499575089921197
 10
6.113615127510519
 20
8.50732621106248
 10
6.109042361959486
 20
8.513692954623861
 10
6.103470431177776
 20
8.5184306369493
 10
6.097113460207275
 20
8.521357199961306
 10
6.090215745766697
 20
8.522360164163595
 10
6.083042363039462
 20
8.521401007703454
  0
LINE
  5
31C
330
1F
100
AcDbEntity
  8
0
  6
HIDDEN
 62
     7
370
     0
100
AcDbLine
 10
6.119811914335278
 20
8.48115290000068
 30
0.0
 11
6.16349533904272
 21
8.46944962773818
 31
0.0
  0
ARC
  5
31D
330
1F
100
AcDbEntity
  8
0
  6
HIDDEN
 62
     7
370
     0
100
AcDbCircle
 10
6.197079534977508
 20
8.450857093327302
 30
0.0
 40
0.1419958911234931
100
AcDbArc
 50
256.3190406494766
 51
269.3072974021423
  0
LINE
  5
31E
330
1F
100
AcDbEntity
  8
0
  6
HIDDEN
 62
     7
370
     0
100
AcDbLine
 10
6.19536285484263
 20
8.308871579611045
 30
0.0
 11
6.19536285484263
 21
8.465431265472435
 31
0.0
  0
LINE
  5
31F
330
1F
100
AcDbEntity
  8
0
  6
HIDDEN
 62
     7
370
     0
100
AcDbLine
 10
6.16349533904272
 20
8.46944962773818
 30
0.0
 11
6.16349533904272
 21
8.31288994187679
 31
0.0
  0
LINE
  5
320
330
1F
100
AcDbEntity
  8
0
  6
HIDDEN
 62
     7
370
     0
100
AcDbLine
 10
6.083042363039462
 20
8.521401007703454
 30
0.0
 11
6.083042363039462
 21
8.495387949397533
 31
0.0
  0
LINE
  5
321
330
1F
100
AcDbEntity
  8
0
  6
HIDDEN
 62
     7
370
     0
100
AcDbLine
 10
6.100720031707314
 20
8.476037973643709
 30
0.0
 11
6.119811914335278
 21
8.48115290000068
 31
0.0
  0
LINE
  5
322
330
1F
100
AcDbEntity
  8
0
  6
HIDDEN
 62
     7
370
     0
100
AcDbLine
 10
6.100720031707314
 20
8.114746564798579
 30
0.0
 11
6.119811914335278
 21
8.11986149115555
 31
0.0
  0
LINE
  5
323
330
1F
100
AcDbEntity
  8
0
  6
HIDDEN
 62
     7
370
     0
100
AcDbLine
 10
6.119811914335278
 20
8.11986149115555
 30
0.0
 11
6.119811914335278
 21
8.48115290000068
 31
0.0
  0
LINE
  5
325
330
1F
100
AcDbEntity
  8
0
  6
HIDDEN
 62
     7
370
     0
100
AcDbLine
 10
1.190747305613469
 20
6.411565137739549
 30
0.0
 11
1.190747305613469
 21
6.416673087402595
 31
0.0
  0
LINE
  5
326
330
1F
100
AcDbEntity
  8
0
  6
HIDDEN
 62
     7
370
     0
100
AcDbLine
 10
1.190747305613469
 20
6.416673087402595
 30
0.0
 11
1.615011338085744
 21
6.303008064193842
 31
0.0
  0
LINE
  5
327
330
1F
100
AcDbEntity
  8
0
  6
HIDDEN
 62
     7
370
     0
100
AcDbLine
 10
1.190747305613469
 20
6.416673087402595
 30
0.0
 11
1.1200365090854
 21
6.430509302531543
 31
0.0
  0
LINE
  5
36B
330
1F
100
AcDbEntity
  8
0
  6
HIDDEN
 62
     7
370
     0
100
AcDbLine
 10
7.443903852411833
 20
8.091556332438724
 30
0.0
 11
1.928470849508592
 21
9.56920178974553
 31
0.0
  0
LINE
  5
36C
330
1F
100
AcDbEntity
  8
0
  6
HIDDEN
 62
     7
370
     0
100
AcDbLine
 10
1.902592381177598
 20
9.472608240373013
 30
0.0
 11
7.418025384080839
 21
7.994962783066205
 31
0.0
  0
LINE
  5
36F
330
1F
100
AcDbEntity
  8
0
  6
HIDDEN
 62
     7
370
     0
100
AcDbLine
 10
2.404884596366039
 20
7.416754131907997
 30
0.0
 11
2.404884596366039
 21
7.442767190213916
 31
0.0
  0
LINE
  5
370
330
1F
100
AcDbEntity
  8
0
  6
HIDDEN
 62
     7
370
     0
100
AcDbLine
 10
2.292384826191351
 20
7.442767245782846
 30
0.0
 11
2.292384826191351
 21
7.416754187476927
 31
0.0
  0
LINE
  5
37B
330
1F
100
AcDbEntity
  8
0
  6
HIDDEN
 62
     7
370
     0
100
AcDbLine
 10
2.631799619717374
 20
7.544627296910078
 30
0.0
 11
2.631799619717374
 21
7.570640355215997
 31
0.0
  0
LINE
  5
37C
330
1F
100
AcDbEntity
  8
0
  6
HIDDEN
 62
     7
370
     0
100
AcDbLine
 10
2.595799615273211
 20
7.570640344102211
 30
0.0
 11
2.595799615273211
 21
7.544627285796291
 31
0.0
  0
LINE
  5
37D
330
1F
100
AcDbEntity
  8
0
  6
HIDDEN
 62
     7
370
     0
100
AcDbLine
 10
3.041280769523809
 20
7.587251700062486
 30
0.0
 11
3.041280769523809
 21
7.613264758368404
 31
0.0
  0
LINE
  5
37E
330
1F
100
AcDbEntity
  8
0
  6
HIDDEN
 62
     7
370
     0
100
AcDbLine
 10
2.928780667484174
 20
7.613264725027048
 30
0.0
 11
2.928780667484174
 21
7.587251666721128
 31
0.0
  0
LINE
  5
38B
330
1F
100
AcDbEntity
  8
0
  6
HIDDEN
 62
     7
370
     0
100
AcDbLine
 10
3.677676942681581
 20
7.757749268216974
 30
0.0
 11
3.677676942681581
 21
7.783762326522893
 31
0.0
  0
LINE
  5
38C
330
1F
100
AcDbEntity
  8
0
  6
HIDDEN
 62
     7
370
     0
100
AcDbLine
 10
3.565176840641945
 20
7.783762293181536
 30
0.0
 11
3.565176840641945
 21
7.757749234875616
 31
0.0
  0
LINE
  5
395
330
1F
100
AcDbEntity
  8
0
  6
HIDDEN
 62
     7
370
     0
100
AcDbLine
 10
4.314072949906878
 20
7.928246791916318
 30
0.0
 11
4.314072949906878
 21
7.954259850222237
 31
0.0
  0
LINE
  5
396
330
1F
100
AcDbEntity
  8
0
  6
HIDDEN
 62
     7
370
     0
100
AcDbLine
 10
4.201573013799716
 20
7.954259861336023
 30
0.0
 11
4.201573013799716
 21
7.928246803030105
 31
0.0
  0
LINE
  5
3A1
330
1F
100
AcDbEntity
  8
0
  6
HIDDEN
 62
     7
370
     0
100
AcDbLine
 10
4.540987973258213
 20
8.056119956918399
 30
0.0
 11
4.540987973258213
 21
8.082133015224318
 31
0.0
  0
LINE
  5
3A2
330
1F
100
AcDbEntity
  8
0
  6
HIDDEN
 62
     7
370
     0
100
AcDbLine
 10
4.50498796881405
 20
8.082133004110533
 30
0.0
 11
4.50498796881405
 21
8.056119945804613
 31
0.0
  0
SPLINE
  5
3A5
330
1F
100
AcDbEntity
  8
0
  6
HIDDEN
 62
     7
370
     0
100
AcDbSpline
210
0.0
220
0.0
230
1.0
 70
     8
 71
     3
 72
     9
 73
     5
 74
     0
 42
0.0000000001
 43
0.0000000001
 40
0.0
 40
0.0
 40
0.0
 40
0.0
 40
0.0950779160985836
 40
1.0
 40
1.0
 40
1.0
 40
1.0
 10
6.009386685106439
 20
8.473282036324336
 30
0.0
 10
6.009332392588532
 20
8.473233779181153
 30
0.0
 10
6.008761360742911
 20
8.472726225532911
 30
0.0
 10
6.008834420595016
 20
8.472818187027629
 30
0.0
 10
6.008900534068634
 20
8.472901405015067
 30
0.0
  0
SPLINE
  5
3A6
330
1F
100
AcDbEntity
  8
0
  6
HIDDEN
 62
     7
370
     0
100
AcDbSpline
210
0.0
220
0.0
230
1.0
 70
     8
 71
     3
 72
    11
 73
     7
 74
     0
 42
0.0000000001
 43
0.0000000001
 40
0.0
 40
0.0
 40
0.0
 40
0.0
 40
0.2351773135135796
 40
0.4902815814211416
 40
0.7690899949391224
 40
1.0
 40
1.0
 40
1.0
 40
1.0
 10
6.008792926858951
 20
8.472822527218539
 30
0.0
 10
6.009124317389796
 20
8.473015638720658
 30
0.0
 10
6.009815177707499
 20
8.473418224375008
 30
0.0
 10
6.01345034680248
 20
8.475044355572219
 30
0.0
 10
6.01861213815738
 20
8.476903492806346
 30
0.0
 10
6.023199557876342
 20
8.47819759649224
 30
0.0
 10
6.02527772706135
 20
8.4787838446594
 30
0.0
  0
ARC
  5
3A7
330
1F
100
AcDbEntity
  8
0
  6
HIDDEN
 62
     7
370
     0
100
AcDbCircle
 10
6.113978276775905
 20
8.333334884819
 30
0.0
 40
0.1746947115384626
100
AcDbArc
 50
104.9979610740752
 51
126.8836036750927
  0
SPLINE
  5
3A8
330
1F
100
AcDbEntity
  8
0
  6
HIDDEN
 62
     7
370
     0
100
AcDbSpline
210
0.0
220
0.0
230
1.0
 70
     8
 71
     3
 72
    13
 73
     9
 74
     0
 42
0.0000000001
 43
0.0000000001
 40
0.0
 40
0.0
 40
0.0
 40
0.0
 40
0.0451036748589563
 40
0.2354779723144144
 40
0.4389318914097644
 40
0.6611742817548811
 40
0.9016054033582825
 40
1.0
 40
1.0
 40
1.0
 40
1.0
 10
6.012462264261973
 20
8.440642821117629
 30
0.0
 10
6.01240554319358
 20
8.440577932848928
 30
0.0
 10
6.012109412951097
 20
8.440239163159121
 30
0.0
 10
6.013215050438536
 20
8.44125474960928
 30
0.0
 10
6.016240254719569
 20
8.442942088991495
 30
0.0
 10
6.021651461196607
 20
8.445325063253102
 30
0.0
 10
6.027631956888234
 20
8.447354431032746
 30
0.0
 10
6.031876216251196
 20
8.448527498434494
 30
0.0
 10
6.033108744260654
 20
8.448868155851016
 30
0.0
  0
ARC
  5
3A9
330
1F
100
AcDbEntity
  8
0
  6
HIDDEN
 62
     7
370
     0
100
AcDbCircle
 10
6.113978276775905
 20
8.333334884819
 30
0.0
 40
0.1476947115384626
100
AcDbArc
 50
104.9979610740749
 51
133.4971252957745
  0
LINE
  5
3AA
330
1F
100
AcDbEntity
  8
0
  6
HIDDEN
 62
     7
370
     0
100
AcDbLine
 10
6.183674808573793
 20
8.532862902504955
 30
0.0
 11
6.068769956075104
 21
8.502078622607472
 31
0.0
  0
LINE
  5
3AB
330
1F
100
AcDbEntity
  8
0
  6
HIDDEN
 62
     7
370
     0
100
AcDbLine
 10
6.190662017657388
 20
8.506782621154004
 30
0.0
 11
6.0757571651587
 21
8.475998341256518
 31
0.0
  0
LINE
  5
3AC
330
1F
100
AcDbEntity
  8
0
  6
HIDDEN
 62
     7
370
     0
100
AcDbLine
 10
6.388180744587354
 20
8.443385789585747
 30
0.0
 11
6.344497278396795
 21
8.455089072962033
 31
0.0
  0
LINE
  5
3AD
330
1F
100
AcDbEntity
  8
0
  6
HIDDEN
 62
     7
370
     0
100
AcDbLine
 10
6.381193557541667
 20
8.417305514138995
 30
0.0
 11
6.322691906551326
 21
8.43297875299174
 31
0.0
  0
SPLINE
  5
3AE
330
1F
100
AcDbEntity
  8
0
  6
HIDDEN
 62
     7
370
     0
100
AcDbSpline
210
0.0
220
0.0
230
1.0
 70
     8
 71
     3
 72
     9
 73
     5
 74
     0
 42
0.0000000001
 43
0.0000000001
 40
0.0
 40
0.0
 40
0.0
 40
0.0
 40
0.5215492625020159
 40
1.0
 40
1.0
 40
1.0
 40
1.0
 10
6.344509872412336
 20
8.45512767317121
 30
0.0
 10
6.344290758536728
 20
8.455188638929731
 30
0.0
 10
6.343870637387372
 20
8.455305532506054
 30
0.0
 10
6.34394324464676
 20
8.455266863116923
 30
0.0
 10
6.343977983643563
 20
8.455248361719174
 30
0.0
  0
SPLINE
  5
3AF
330
1F
100
AcDbEntity
  8
0
  6
HIDDEN
 62
     7
370
     0
100
AcDbSpline
210
0.0
220
0.0
230
1.0
 70
     8
 71
     3
 72
    11
 73
     7
 74
     0
 42
0.0000000001
 43
0.0000000001
 40
0.0
 40
0.0
 40
0.0
 40
0.0
 40
0.2977210256644141
 40
0.5716579583483422
 40
0.8558893278493538
 40
1.0
 40
1.0
 40
1.0
 40
1.0
 10
6.343970256278418
 20
8.455230675139365
 30
0.0
 10
6.344304906196799
 20
8.454940575935708
 30
0.0
 10
6.344947471795506
 20
8.454383552735514
 30
0.0
 10
6.347105428010498
 20
8.451183085652578
 30
0.0
 10
6.349150160194077
 20
8.447046788893695
 30
0.0
 10
6.350094930903651
 20
8.443182358533229
 30
0.0
 10
6.350412787963538
 20
8.441882216117653
 30
0.0
  0
SPLINE
  5
3B0
330
1F
100
AcDbEntity
  8
0
  6
HIDDEN
 62
     7
370
     0
100
AcDbSpline
210
0.0
220
0.0
230
1.0
 70
     8
 71
     3
 72
    20
 73
    16
 74
     0
 42
0.0000000001
 43
0.0000000001
 40
0.0
 40
0.0
 40
0.0
 40
0.0
 40
0.0592411296206315
 40
0.13472756199184
 40
0.2127559681706662
 40
0.292753737880516
 40
0.3742272907945555
 40
0.4567642825259991
 40
0.5491032715398388
 40
0.6399148946879389
 40
0.7287373726209819
 40
0.8154692394002241
 40
0.8999640179164451
 40
0.9829613291139857
 40
1.0
 40
1.0
 40
1.0
 40
1.0
 10
6.350487842592237
 20
8.441490453531994
 30
0.0
 10
6.349413672633068
 20
8.44540533942534
 30
0.0
 10
6.346970770198721
 20
8.454308664450778
 30
0.0
 10
6.340634092384529
 20
8.467631681161979
 30
0.0
 10
6.331992639364131
 20
8.481396903973953
 30
0.0
 10
6.321251637044967
 20
8.494309924715301
 30
0.0
 10
6.308682361997287
 20
8.506027342419523
 30
0.0
 10
6.293975620586565
 20
8.516605848373956
 30
0.0
 10
6.277366469598137
 20
8.52548292066729
 30
0.0
 10
6.259259113380633
 20
8.532158374653345
 30
0.0
 10
6.240808411922011
 20
8.536259737472482
 30
0.0
 10
6.222440702589304
 20
8.537867468723003
 30
0.0
 10
6.204473445322858
 20
8.537097490723615
 30
0.0
 10
6.191628167890955
 20
8.534921435192403
 30
0.0
 10
6.184832315074183
 20
8.53316249477433
 30
0.0
 10
6.183674808573793
 20
8.532862902504955
 30
0.0
  0
SPLINE
  5
3B1
330
1F
100
AcDbEntity
  8
0
  6
HIDDEN
 62
     7
370
     0
100
AcDbSpline
210
0.0
220
0.0
230
1.0
 70
     8
 71
     3
 72
     9
 73
     5
 74
     0
 42
0.0000000001
 43
0.0000000001
 40
0.0
 40
0.0
 40
0.0
 40
0.0
 40
0.0598693780440181
 40
0.9999999999999998
 40
0.9999999999999998
 40
0.9999999999999998
 40
0.9999999999999998
 10
6.322676448904254
 20
8.43298480210073
 30
0.0
 10
6.322670661191792
 20
8.432985838666564
 30
0.0
 10
6.322573988858613
 20
8.433003152456466
 30
0.0
 10
6.322538399492391
 20
8.433017190529321
 30
0.0
 10
6.322504940839389
 20
8.433030388151486
 30
0.0
  0
SPLINE
  5
3B2
330
1F
100
AcDbEntity
  8
0
  6
HIDDEN
 62
     7
370
     0
100
AcDbSpline
210
0.0
220
0.0
230
1.0
 70
     8
 71
     3
 72
    11
 73
     7
 74
     0
 42
0.0000000001
 43
0.0000000001
 40
0.0
 40
0.0
 40
0.0
 40
0.0
 40
0.2667264403813414
 40
0.5144462117352685
 40
0.7728376462946103
 40
1.0
 40
1.0
 40
1.0
 40
1.0
 10
6.322435076785908
 20
8.433049641698065
 30
0.0
 10
6.322692592581452
 20
8.432822879485033
 30
0.0
 10
6.323189273845185
 20
8.432385513915681
 30
0.0
 10
6.324902562247382
 20
8.429312075644267
 30
0.0
 10
6.326291351830437
 20
8.424494680225247
 30
0.0
 10
6.326486367748551
 20
8.420276148805374
 30
0.0
 10
6.326577604344865
 20
8.418302543512449
 30
0.0
  0
SPLINE
  5
3B3
330
1F
100
AcDbEntity
  8
0
  6
HIDDEN
 62
     7
370
     0
100
AcDbSpline
210
0.0
220
0.0
230
1.0
 70
     8
 71
     3
 72
    20
 73
    16
 74
     0
 42
0.0000000001
 43
0.0000000001
 40
0.0
 40
0.0
 40
0.0
 40
0.0
 40
0.024156522701773
 40
0.0914365905389358
 40
0.1629570982616861
 40
0.2388715586563401
 40
0.3181509283453713
 40
0.3998634071585234
 40
0.4832742308306412
 40
0.5678035616077746
 40
0.6608645359622302
 40
0.7516567607239985
 40
0.8397534308200235
 40
0.92493468246179
 40
1.0
 40
1.0
 40
1.0
 40
1.0
 10
6.326589132600754
 20
8.41883704884823
 30
0.0
 10
6.326554720112598
 20
8.420256609217187
 30
0.0
 10
6.326424462929983
 20
8.42562988921299
 30
0.0
 10
6.32476446602333
 20
8.434962777819581
 30
0.0
 10
6.320693192615733
 20
8.44700385375612
 30
0.0
 10
6.314399566859097
 20
8.459134639563838
 30
0.0
 10
6.305945143916027
 20
8.470895808143485
 30
0.0
 10
6.295475094018369
 20
8.481777027948378
 30
0.0
 10
6.283236590570001
 20
8.491346089158383
 30
0.0
 10
6.269106250808047
 20
8.499503880920833
 30
0.0
 10
6.253459388854779
 20
8.505706773060847
 30
0.0
 10
6.236833881570887
 20
8.50956133994388
 30
0.0
 10
6.220358802070501
 20
8.510866100047023
 30
0.0
 10
6.204851193360991
 20
8.5100155905813
 30
0.0
 10
6.195188414494587
 20
8.50781394974533
 30
0.0
 10
6.190662017657388
 20
8.506782621154004
 30
0.0
  0
LINE
  5
3B4
330
1F
100
AcDbEntity
  8
0
  6
HIDDEN
 62
     7
370
     0
100
AcDbLine
 10
6.02527772706135
 20
8.4787838446594
 30
0.0
 11
6.14018257956004
 21
8.509568124556883
 31
0.0
  0
LINE
  5
3B5
330
1F
100
AcDbEntity
  8
0
  6
HIDDEN
 62
     7
370
     0
100
AcDbLine
 10
6.326589132600754
 20
8.262277362986841
 30
0.0
 11
6.326589132600754
 21
8.41883704884823
 31
0.0
  0
LINE
  5
3B6
330
1F
100
AcDbEntity
  8
0
  6
HIDDEN
 62
     7
370
     0
100
AcDbLine
 10
6.033108744260654
 20
8.448868155851016
 30
0.0
 11
6.148013596759342
 21
8.479652435748501
 31
0.0
  0
ARC
  5
3B7
330
1F
100
AcDbEntity
  8
0
  6
HIDDEN
 62
     7
370
     0
100
AcDbCircle
 10
6.178894418795847
 20
8.262277414431544
 30
0.0
 40
0.1476947115384615
100
AcDbArc
 50
357.6884504289723
 51
0.0000000000004307
  0
SPLINE
  5
3B8
330
1F
100
AcDbEntity
  8
0
  6
HIDDEN
 62
     7
370
     0
100
AcDbSpline
210
0.0
220
0.0
230
1.0
 70
     8
 71
     3
 72
     9
 73
     5
 74
     0
 42
0.0000000001
 43
0.0000000001
 40
0.0
 40
0.0
 40
0.0
 40
0.0
 40
0.4896814789901017
 40
1.0
 40
1.0
 40
1.0
 40
1.0
 10
6.14018257956004
 20
8.509568124556883
 30
0.0
 10
6.14042256388403
 20
8.509619253779263
 30
0.0
 10
6.140912646385181
 20
8.509723667004127
 30
0.0
 10
6.140795813306871
 20
8.509713882168663
 30
0.0
 10
6.140736191223141
 20
8.509708888785901
 30
0.0
  0
LINE
  5
3B9
330
1F
100
AcDbEntity
  8
0
  6
HIDDEN
 62
     7
370
     0
100
AcDbLine
 10
6.140709905185764
 20
8.509727605116077
 30
0.0
 11
6.140189582429
 21
8.509867400488291
 31
0.0
  0
SPLINE
  5
3BA
330
1F
100
AcDbEntity
  8
0
  6
HIDDEN
 62
     7
370
     0
100
AcDbSpline
210
0.0
220
0.0
230
1.0
 70
     8
 71
     3
 72
     9
 73
     5
 74
     0
 42
0.0000000001
 43
0.0000000001
 40
0.0
 40
0.0
 40
0.0
 40
0.0
 40
0.303671558752328
 40
0.9999999999999998
 40
0.9999999999999998
 40
0.9999999999999998
 40
0.9999999999999998
 10
6.148013596759342
 20
8.479652435748501
 30
0.0
 10
6.14815018535708
 20
8.479677442780241
 30
0.0
 10
6.148599975908093
 20
8.479759791722775
 30
0.0
 10
6.148246025585495
 20
8.479773379819729
 30
0.0
 10
6.147999559909081
 20
8.479782841598099
 30
0.0
  0
LINE
  5
3BB
330
1F
100
AcDbEntity
  8
0
  6
HIDDEN
 62
     7
370
     0
100
AcDbLine
 10
6.14801358768491
 20
8.479777005137508
 30
0.0
 11
6.089511978177688
 21
8.495450232876468
 31
0.0
  0
LINE
  5
3BC
330
1F
100
AcDbEntity
  8
0
  6
HIDDEN
 62
     7
370
     0
100
AcDbLine
 10
6.140182589930819
 20
8.509827236060722
 30
0.0
 11
6.096499165223377
 21
8.521530508323222
 31
0.0
  0
ARC
  5
3BD
330
1F
100
AcDbEntity
  8
0
  6
HIDDEN
 62
     7
370
     0
100
AcDbCircle
 10
6.315780939825085
 20
8.441094123309738
 30
0.0
 40
0.0326741565491349
100
AcDbArc
 50
27.33141315791054
 51
104.4868527670554
  0
LWPOLYLINE
  5
3BE
330
1F
100
AcDbEntity
  8
0
  6
HIDDEN
 62
     7
370
     0
100
AcDbPolyline
 90
        3
 70
   128
 43
0.0
 10
6.349967245009811
 20
8.443988187157268
 10
6.351942538890726
 20
8.435032199223055
 10
6.352811118909984
 20
8.423249135431602
  0
ARC
  5
3BF
330
1F
100
AcDbEntity
  8
0
  6
HIDDEN
 62
     7
370
     0
100
AcDbCircle
 10
6.307336983173765
 20
8.425813379401533
 30
0.0
 40
0.0181366958719581
100
AcDbArc
 50
8.104669289254896
 51
101.9593652726395
  0
LWPOLYLINE
  5
3C0
330
1F
100
AcDbEntity
  8
0
  6
HIDDEN
 62
     7
370
     0
100
AcDbPolyline
 90
       20
 70
   128
 43
0.0
 10
6.1771881516519
 20
8.301843767345848
 10
6.178206894078799
 20
8.284819482165284
 10
6.181235369153148
 20
8.267713573146483
 10
6.186190942502667
 20
8.250992889126194
 10
6.192938420643796
 20
8.235113377660393
 10
6.20129378446237
 20
8.22050823267963
 10
6.211029125704726
 20
8.207575832887334
 10
6.221878827962386
 20
8.196668929343024
 10
6.233547033633399
 20
8.188085071116645
 10
6.245715401265531
 20
8.18205842270215
 10
6.258052024426757
 20
8.178753305014547
 10
6.270220350575772
 20
8.178259884199182
 10
6.281888556246784
 20
8.18059165991613
 10
6.292738299987562
 20
8.185685042058079
 10
6.302473641229918
 20
8.193401030825338
 10
6.310829005048491
 20
8.203529187187379
 10
6.317576483189622
 20
8.215793250720707
 10
6.322532056539141
 20
8.229858629003656
 10
6.325560490130371
 20
8.245341825250802
 10
6.326082098863811
 20
8.250230674159507
  0
TEXT
  5
3ED
330
1F
100
AcDbEntity
  8
0
100
AcDbText
 10
3.252920973542209
 20
3.827404134513248
 30
0.0
 40
0.25
  1
USP  HPA
100
AcDbText
  0
TEXT
  5
3EE
330
1F
100
AcDbEntity
  8
0
100
AcDbText
 10
2.329283627786438
 20
3.351032457874179
 30
0.0
 40
0.25
  1
SIMPSON  HPA
100
AcDbText
  0
ENDSEC
  0
SECTION
  2
OBJECTS
  0
DICTIONARY
  5
C
330
0
100
AcDbDictionary
281
     1
  3
ACAD_COLOR
350
3E9
  3
ACAD_GROUP
350
D
  3
ACAD_LAYOUT
350
1A
  3
ACAD_MATERIAL
350
3E8
  3
ACAD_MLINESTYLE
350
17
  3
ACAD_PLOTSETTINGS
350
19
  3
ACAD_PLOTSTYLENAME
350
E
  3
ACAD_SCALELIST
350
3C3
  3
AcDbVariableDictionary
350
3E5
  0
DICTIONARY
  5
3E9
102
{ACAD_REACTORS
330
C
102
}
330
C
100
AcDbDictionary
281
     1
  0
DICTIONARY
  5
D
102
{ACAD_REACTORS
330
C
102
}
330
C
100
AcDbDictionary
281
     1
  0
DICTIONARY
  5
1A
102
{ACAD_REACTORS
330
C
102
}
330
C
100
AcDbDictionary
281
     1
  3
Layout1
350
1E
  3
Layout2
350
26
  3
Model
350
22
  0
DICTIONARY
  5
3E8
102
{ACAD_REACTORS
330
C
102
}
330
C
100
AcDbDictionary
281
     1
  0
DICTIONARY
  5
17
102
{ACAD_REACTORS
330
C
102
}
330
C
100
AcDbDictionary
281
     1
  3
Standard
350
18
  0
DICTIONARY
  5
19
102
{ACAD_REACTORS
330
C
102
}
330
C
100
AcDbDictionary
281
     1
  0
ACDBDICTIONARYWDFLT
  5
E
102
{ACAD_REACTORS
330
C
102
}
330
C
100
AcDbDictionary
281
     1
  3
Normal
350
F
100
AcDbDictionaryWithDefault
340
F
  0
DICTIONARY
  5
3C3
102
{ACAD_REACTORS
330
C
102
}
330
C
100
AcDbDictionary
281
     1
  3
A0
350
3C4
  3
A1
350
3C5
  3
A2
350
3C6
  3
A3
350
3C7
  3
A4
350
3C8
  3
A5
350
3C9
  3
A6
350
3CA
  3
A7
350
3CB
  3
A8
350
3CC
  3
A9
350
3CD
  3
B0
350
3CE
  3
B1
350
3CF
  3
B2
350
3D0
  3
B3
350
3D1
  3
B4
350
3D2
  3
B5
350
3D3
  3
B6
350
3D4
  3
B7
350
3D5
  3
B8
350
3D6
  3
B9
350
3D7
  3
C0
350
3D8
  3
C1
350
3D9
  3
C2
350
3DA
  3
C3
350
3DB
  3
C4
350
3DC
  3
C5
350
3DD
  3
C6
350
3DE
  3
C7
350
3DF
  3
C8
350
3E0
  3
C9
350
3E1
  3
D0
350
3E2
  3
D1
350
3E3
  3
D2
350
3E4
  0
DICTIONARY
  5
3E5
102
{ACAD_REACTORS
330
C
102
}
330
C
100
AcDbDictionary
281
     1
  3
CANNOSCALE
350
3E6
  0
LAYOUT
  5
1E
102
{ACAD_REACTORS
330
1A
102
}
330
1A
100
AcDbPlotSettings
  1

  2
none_device
  4

  6

 40
0.0
 41
0.0
 42
0.0
 43
0.0
 44
0.0
 45
0.0
 46
0.0
 47
0.0
 48
0.0
 49
0.0
140
0.0
141
0.0
142
1.0
143
1.0
 70
   688
 72
     0
 73
     0
 74
     5
  7

 75
    16
147
1.0
 76
     0
 77
     2
 78
   300
148
0.0
149
0.0
100
AcDbLayout
  1
Layout1
 70
     1
 71
     1
 10
0.0
 20
0.0
 11
12.0
 21
9.0
 12
0.0
 22
0.0
 32
0.0
 14
1.000000000000000E+20
 24
1.000000000000000E+20
 34
1.000000000000000E+20
 15
-1.000000000000000E+20
 25
-1.000000000000000E+20
 35
-1.000000000000000E+20
146
0.0
 13
0.0
 23
0.0
 33
0.0
 16
1.0
 26
0.0
 36
0.0
 17
0.0
 27
1.0
 37
0.0
 76
     0
330
1B
  0
LAYOUT
  5
26
102
{ACAD_REACTORS
330
1A
102
}
330
1A
100
AcDbPlotSettings
  1

  2
none_device
  4

  6

 40
0.0
 41
0.0
 42
0.0
 43
0.0
 44
0.0
 45
0.0
 46
0.0
 47
0.0
 48
0.0
 49
0.0
140
0.0
141
0.0
142
1.0
143
1.0
 70
   688
 72
     0
 73
     0
 74
     5
  7

 75
    16
147
1.0
 76
     0
 77
     2
 78
   300
148
0.0
149
0.0
100
AcDbLayout
  1
Layout2
 70
     1
 71
     2
 10
0.0
 20
0.0
 11
0.0
 21
0.0
 12
0.0
 22
0.0
 32
0.0
 14
0.0
 24
0.0
 34
0.0
 15
0.0
 25
0.0
 35
0.0
146
0.0
 13
0.0
 23
0.0
 33
0.0
 16
1.0
 26
0.0
 36
0.0
 17
0.0
 27
1.0
 37
0.0
 76
     0
330
23
  0
LAYOUT
  5
22
102
{ACAD_REACTORS
330
1A
102
}
330
1A
100
AcDbPlotSettings
  1

  2
none_device
  4

  6

 40
0.0
 41
0.0
 42
0.0
 43
0.0
 44
0.0
 45
0.0
 46
0.0
 47
0.0
 48
0.0
 49
0.0
140
0.0
141
0.0
142
1.0
143
1.0
 70
  1712
 72
     0
 73
     0
 74
     0
  7

 75
     0
147
1.0
 76
     0
 77
     2
 78
   300
148
0.0
149
0.0
100
AcDbLayout
  1
Model
 70
     1
 71
     0
 10
0.0
 20
0.0
 11
8.5
 21
11.0
 12
0.0
 22
0.0
 32
0.0
 14
0.0
 24
0.0
 34
0.0
 15
8.5
 25
11.0
 35
0.0
146
0.0
 13
0.0
 23
0.0
 33
0.0
 16
1.0
 26
0.0
 36
0.0
 17
0.0
 27
1.0
 37
0.0
 76
     0
330
1F
  0
MLINESTYLE
  5
18
102
{ACAD_REACTORS
330
17
102
}
330
17
100
AcDbMlineStyle
  2
STANDARD
 70
     0
  3

 62
   256
 51
90.0
 52
90.0
 71
     2
 49
0.5
 62
   256
  6
BYLAYER
 49
-0.5
 62
   256
  6
BYLAYER
  0
ACDBPLACEHOLDER
  5
F
102
{ACAD_REACTORS
330
E
102
}
330
E
  0
ACAD_PROXY_OBJECT
  5
3C4
102
{ACAD_REACTORS
330
3C3
102
}
330
3C3
100
AcDbProxyObject
 90
      499
 91
      503
 95
   393239
 70
     0
 93
       41
310
903313A31580
 94
        0
  0
ACAD_PROXY_OBJECT
  5
3C5
102
{ACAD_REACTORS
330
3C3
102
}
330
3C3
100
AcDbProxyObject
 90
      499
 91
      503
 95
   393239
 70
     0
 93
      105
310
903313A324000000000000004000
 94
        0
  0
ACAD_PROXY_OBJECT
  5
3C6
102
{ACAD_REACTORS
330
3C3
102
}
330
3C3
100
AcDbProxyObject
 90
      499
 91
      503
 95
   393239
 70
     0
 93
      105
310
903313A344000000000000104000
 94
        0
  0
ACAD_PROXY_OBJECT
  5
3C7
102
{ACAD_REACTORS
330
3C3
102
}
330
3C3
100
AcDbProxyObject
 90
      499
 91
      503
 95
   393239
 70
     0
 93
      105
310
903313A354000000000000144000
 94
        0
  0
ACAD_PROXY_OBJECT
  5
3C8
102
{ACAD_REACTORS
330
3C3
102
}
330
3C3
100
AcDbProxyObject
 90
      499
 91
      503
 95
   393239
 70
     0
 93
      105
310
903313A384000000000000204000
 94
        0
  0
ACAD_PROXY_OBJECT
  5
3C9
102
{ACAD_REACTORS
330
3C3
102
}
330
3C3
100
AcDbProxyObject
 90
      499
 91
      503
 95
   393239
 70
     0
 93
      113
310
904313A31304000000000000244000
 94
        0
  0
ACAD_PROXY_OBJECT
  5
3CA
102
{ACAD_REACTORS
330
3C3
102
}
330
3C3
100
AcDbProxyObject
 90
      499
 91
      503
 95
   393239
 70
     0
 93
      113
310
904313A31364000000000000304000
 94
        0
  0
ACAD_PROXY_OBJECT
  5
3CB
102
{ACAD_REACTORS
330
3C3
102
}
330
3C3
100
AcDbProxyObject
 90
      499
 91
      503
 95
   393239
 70
     0
 93
      113
310
904313A32304000000000000344000
 94
        0
  0
ACAD_PROXY_OBJECT
  5
3CC
102
{ACAD_REACTORS
330
3C3
102
}
330
3C3
100
AcDbProxyObject
 90
      499
 91
      503
 95
   393239
 70
     0
 93
      113
310
904313A333040000000000003E4000
 94
        0
  0
ACAD_PROXY_OBJECT
  5
3CD
102
{ACAD_REACTORS
330
3C3
102
}
330
3C3
100
AcDbProxyObject
 90
      499
 91
      503
 95
   393239
 70
     0
 93
      113
310
904313A34304000000000000444000
 94
        0
  0
ACAD_PROXY_OBJECT
  5
3CE
102
{ACAD_REACTORS
330
3C3
102
}
330
3C3
100
AcDbProxyObject
 90
      499
 91
      503
 95
   393239
 70
     0
 93
      113
310
904313A35304000000000000494000
 94
        0
  0
ACAD_PROXY_OBJECT
  5
3CF
102
{ACAD_REACTORS
330
3C3
102
}
330
3C3
100
AcDbProxyObject
 90
      499
 91
      503
 95
   393239
 70
     0
 93
      121
310
905313A3130304000000000000594000
 94
        0
  0
ACAD_PROXY_OBJECT
  5
3D0
102
{ACAD_REACTORS
330
3C3
102
}
330
3C3
100
AcDbProxyObject
 90
      499
 91
      503
 95
   393239
 70
     0
 93
      105
310
903323A310000000000000010140
 94
        0
  0
ACAD_PROXY_OBJECT
  5
3D1
102
{ACAD_REACTORS
330
3C3
102
}
330
3C3
100
AcDbProxyObject
 90
      499
 91
      503
 95
   393239
 70
     0
 93
      105
310
903343A310000000000000410159
 94
        0
  0
ACAD_PROXY_OBJECT
  5
3D2
102
{ACAD_REACTORS
330
3C3
102
}
330
3C3
100
AcDbProxyObject
 90
      499
 91
      503
 95
   393239
 70
     0
 93
      105
310
903383A310000000000000810140
 94
        0
  0
ACAD_PROXY_OBJECT
  5
3D3
102
{ACAD_REACTORS
330
3C3
102
}
330
3C3
100
AcDbProxyObject
 90
      499
 91
      503
 95
   393239
 70
     0
 93
      113
310
90431303A310000000000000910140
 94
        0
  0
ACAD_PROXY_OBJECT
  5
3D4
102
{ACAD_REACTORS
330
3C3
102
}
330
3C3
100
AcDbProxyObject
 90
      499
 91
      503
 95
   393239
 70
     0
 93
      121
310
9053130303A310000000000001650100
 94
        0
  0
ACAD_PROXY_OBJECT
  5
3D5
102
{ACAD_REACTORS
330
3C3
102
}
330
3C3
100
AcDbProxyObject
 90
      499
 91
      503
 95
   393239
 70
     0
 93
      257
310
90E312F31323822203D2031272D3022000000000000200FC000000000000284000
 94
        0
  0
ACAD_PROXY_OBJECT
  5
3D6
102
{ACAD_REACTORS
330
3C3
102
}
330
3C3
100
AcDbProxyObject
 90
      499
 91
      503
 95
   393239
 70
     0
 93
      249
310
90D312F363422203D2031272D3022000000000000240FC000000000000284000
 94
        0
  0
ACAD_PROXY_OBJECT
  5
3D7
102
{ACAD_REACTORS
330
3C3
102
}
330
3C3
100
AcDbProxyObject
 90
      499
 91
      503
 95
   393239
 70
     0
 93
      249
310
90D312F333222203D2031272D3022000000000000280FC000000000000284040
 94
        0
  0
ACAD_PROXY_OBJECT
  5
3D8
102
{ACAD_REACTORS
330
3C3
102
}
330
3C3
100
AcDbProxyObject
 90
      499
 91
      503
 95
   393239
 70
     0
 93
      249
310
90D312F313622203D2031272D30220000000000002C0FC000000000000284000
 94
        0
  0
ACAD_PROXY_OBJECT
  5
3D9
102
{ACAD_REACTORS
330
3C3
102
}
330
3C3
100
AcDbProxyObject
 90
      499
 91
      503
 95
   393239
 70
     0
 93
      249
310
90D332F333222203D2031272D30220000000000002E0FC000000000000284040
 94
        0
  0
ACAD_PROXY_OBJECT
  5
3DA
102
{ACAD_REACTORS
330
3C3
102
}
330
3C3
100
AcDbProxyObject
 90
      499
 91
      503
 95
   393239
 70
     0
 93
      241
310
90C312F3822203D2031272D3022000000000000300FC000000000000284040
 94
        0
  0
ACAD_PROXY_OBJECT
  5
3DB
102
{ACAD_REACTORS
330
3C3
102
}
330
3C3
100
AcDbProxyObject
 90
      499
 91
      503
 95
   393239
 70
     0
 93
      249
310
90D332F313622203D2031272D3022000000000000320FC000000000000284040
 94
        0
  0
ACAD_PROXY_OBJECT
  5
3DC
102
{ACAD_REACTORS
330
3C3
102
}
330
3C3
100
AcDbProxyObject
 90
      499
 91
      503
 95
   393239
 70
     0
 93
      241
310
90C312F3422203D2031272D3022000000000000340FC000000000000284040
 94
        0
  0
ACAD_PROXY_OBJECT
  5
3DD
102
{ACAD_REACTORS
330
3C3
102
}
330
3C3
100
AcDbProxyObject
 90
      499
 91
      503
 95
   393239
 70
     0
 93
      241
310
90C332F3822203D2031272D3022000000000000360FC000000000000284040
 94
        0
  0
ACAD_PROXY_OBJECT
  5
3DE
102
{ACAD_REACTORS
330
3C3
102
}
330
3C3
100
AcDbProxyObject
 90
      499
 91
      503
 95
   393239
 70
     0
 93
      241
310
90C312F3222203D2031272D3022000000000000380FC000000000000284040
 94
        0
  0
ACAD_PROXY_OBJECT
  5
3DF
102
{ACAD_REACTORS
330
3C3
102
}
330
3C3
100
AcDbProxyObject
 90
      499
 91
      503
 95
   393239
 70
     0
 93
      241
310
90C332F3422203D2031272D30220000000000003A0FC000000000000284040
 94
        0
  0
ACAD_PROXY_OBJECT
  5
3E0
102
{ACAD_REACTORS
330
3C3
102
}
330
3C3
100
AcDbProxyObject
 90
      499
 91
      503
 95
   393239
 70
     0
 93
      161
310
90A3122203D2031272D30224000000000000284000
 94
        0
  0
ACAD_PROXY_OBJECT
  5
3E1
102
{ACAD_REACTORS
330
3C3
102
}
330
3C3
100
AcDbProxyObject
 90
      499
 91
      503
 95
   393239
 70
     0
 93
      257
310
90E312D312F3222203D2031272D30220000000000003E0FC000000000000284000
 94
        0
  0
ACAD_PROXY_OBJECT
  5
3E2
102
{ACAD_REACTORS
330
3C3
102
}
330
3C3
100
AcDbProxyObject
 90
      499
 91
      503
 95
   393239
 70
     0
 93
      225
310
90A3322203D2031272D302200000000000002100000000000000284028
 94
        0
  0
ACAD_PROXY_OBJECT
  5
3E3
102
{ACAD_REACTORS
330
3C3
102
}
330
3C3
100
AcDbProxyObject
 90
      499
 91
      503
 95
   393239
 70
     0
 93
      225
310
90A3622203D2031272D302200000000000006100000000000000284000
 94
        0
  0
ACAD_PROXY_OBJECT
  5
3E4
102
{ACAD_REACTORS
330
3C3
102
}
330
3C3
100
AcDbProxyObject
 90
      499
 91
      503
 95
   393239
 70
     0
 93
      249
310
90D31272D3022203D2031272D30220000000000000A100000000000000284000
 94
        0
  0
DICTIONARYVAR
  5
3E6
102
{ACAD_REACTORS
330
3E5
102
}
330
3E5
100
DictionaryVariables
280
     0
  1
1:1
  0
ENDSEC
  0
EOF
