  0
SECTION
  2
HEADER
  9
$ACADVER
  1
AC1018
  9
$ACADMAINTVER
 70
     0
  9
$DWGCODEPAGE
  3
ANSI_1252
  9
$INSBASE
 10
0.0
 20
0.0
 30
0.0
  9
$EXTMIN
 10
2.043694968403461
 20
2.603412827340327
 30
0.0
  9
$EXTMAX
 10
6.941290160213925
 20
10.76342591657772
 30
0.0
  9
$LIMMIN
 10
0.0
 20
0.0
  9
$LIMMAX
 10
8.5
 20
11.0
  9
$ORTHOMODE
 70
     0
  9
$REGENMODE
 70
     1
  9
$FILLMODE
 70
     1
  9
$QTEXTMODE
 70
     0
  9
$MIRRTEXT
 70
     1
  9
$LTSCALE
 40
1.0
  9
$ATTMODE
 70
     1
  9
$TEXTSIZE
 40
0.25
  9
$TRACEWID
 40
0.05
  9
$TEXTSTYLE
  7
Standard
  9
$CLAYER
  8
0
  9
$CELTYPE
  6
ByLayer
  9
$CECOLOR
 62
   256
  9
$CELTSCALE
 40
1.0
  9
$DISPSILH
 70
     0
  9
$DIMSCALE
 40
1.0
  9
$DIMASZ
 40
0.156
  9
$DIMEXO
 40
0.05
  9
$DIMDLI
 40
0.38
  9
$DIMRND
 40
0.0
  9
$DIMDLE
 40
0.0
  9
$DIMEXE
 40
0.125
  9
$DIMTP
 40
0.0
  9
$DIMTM
 40
0.0
  9
$DIMTXT
 40
0.125
  9
$DIMCEN
 40
0.09
  9
$DIMTSZ
 40
0.0
  9
$DIMTOL
 70
     0
  9
$DIMLIM
 70
     0
  9
$DIMTIH
 70
     1
  9
$DIMTOH
 70
     1
  9
$DIMSE1
 70
     0
  9
$DIMSE2
 70
     0
  9
$DIMTAD
 70
     0
  9
$DIMZIN
 70
     0
  9
$DIMBLK
  1

  9
$DIMASO
 70
     1
  9
$DIMSHO
 70
     1
  9
$DIMPOST
  1

  9
$DIMAPOST
  1

  9
$DIMALT
 70
     0
  9
$DIMALTD
 70
     2
  9
$DIMALTF
 40
25.4
  9
$DIMLFAC
 40
12.0
  9
$DIMTOFL
 70
     0
  9
$DIMTVP
 40
0.0
  9
$DIMTIX
 70
     0
  9
$DIMSOXD
 70
     0
  9
$DIMSAH
 70
     0
  9
$DIMBLK1
  1

  9
$DIMBLK2
  1

  9
$DIMSTYLE
  2
Standard
  9
$DIMCLRD
 70
     0
  9
$DIMCLRE
 70
     0
  9
$DIMCLRT
 70
     0
  9
$DIMTFAC
 40
1.0
  9
$DIMGAP
 40
0.06
  9
$DIMJUST
 70
     0
  9
$DIMSD1
 70
     0
  9
$DIMSD2
 70
     0
  9
$DIMTOLJ
 70
     1
  9
$DIMTZIN
 70
     0
  9
$DIMALTZ
 70
     0
  9
$DIMALTTZ
 70
     0
  9
$DIMUPT
 70
     0
  9
$DIMDEC
 70
     3
  9
$DIMTDEC
 70
     3
  9
$DIMALTU
 70
     2
  9
$DIMALTTD
 70
     2
  9
$DIMTXSTY
  7
Standard
  9
$DIMAUNIT
 70
     0
  9
$DIMADEC
 70
     0
  9
$DIMALTRND
 40
0.0
  9
$DIMAZIN
 70
     0
  9
$DIMDSEP
 70
    46
  9
$DIMATFIT
 70
     3
  9
$DIMFRAC
 70
     0
  9
$DIMLDRBLK
  1

  9
$DIMLUNIT
 70
     2
  9
$DIMLWD
 70
    -2
  9
$DIMLWE
 70
    -2
  9
$DIMTMOVE
 70
     0
  9
$LUNITS
 70
     2
  9
$LUPREC
 70
     3
  9
$SKETCHINC
 40
0.1
  9
$FILLETRAD
 40
0.5
  9
$AUNITS
 70
     0
  9
$AUPREC
 70
     0
  9
$MENU
  1
.
  9
$ELEVATION
 40
0.0
  9
$PELEVATION
 40
0.0
  9
$THICKNESS
 40
0.0
  9
$LIMCHECK
 70
     0
  9
$CHAMFERA
 40
0.5
  9
$CHAMFERB
 40
0.5
  9
$CHAMFERC
 40
1.0
  9
$CHAMFERD
 40
0.0
  9
$SKPOLY
 70
     0
  9
$TDCREATE
 40
2456520.625557650
  9
$TDUCREATE
 40
2456520.833890984
  9
$TDUPDATE
 40
2456526.406124977
  9
$TDUUPDATE
 40
2456526.614458311
  9
$TDINDWG
 40
0.0011294560
  9
$TDUSRTIMER
 40
0.0011294560
  9
$USRTIMER
 70
     1
  9
$ANGBASE
 50
0.0
  9
$ANGDIR
 70
     0
  9
$PDMODE
 70
     0
  9
$PDSIZE
 40
-1.0
  9
$PLINEWID
 40
0.0
  9
$SPLFRAME
 70
     0
  9
$SPLINETYPE
 70
     6
  9
$SPLINESEGS
 70
     8
  9
$HANDSEED
  5
12D
  9
$SURFTAB1
 70
     6
  9
$SURFTAB2
 70
     6
  9
$SURFTYPE
 70
     6
  9
$SURFU
 70
     6
  9
$SURFV
 70
     6
  9
$UCSBASE
  2

  9
$UCSNAME
  2

  9
$UCSORG
 10
0.0
 20
0.0
 30
0.0
  9
$UCSXDIR
 10
1.0
 20
0.0
 30
0.0
  9
$UCSYDIR
 10
0.0
 20
1.0
 30
0.0
  9
$UCSORTHOREF
  2

  9
$UCSORTHOVIEW
 70
     0
  9
$UCSORGTOP
 10
0.0
 20
0.0
 30
0.0
  9
$UCSORGBOTTOM
 10
0.0
 20
0.0
 30
0.0
  9
$UCSORGLEFT
 10
0.0
 20
0.0
 30
0.0
  9
$UCSORGRIGHT
 10
0.0
 20
0.0
 30
0.0
  9
$UCSORGFRONT
 10
0.0
 20
0.0
 30
0.0
  9
$UCSORGBACK
 10
0.0
 20
0.0
 30
0.0
  9
$PUCSBASE
  2

  9
$PUCSNAME
  2

  9
$PUCSORG
 10
0.0
 20
0.0
 30
0.0
  9
$PUCSXDIR
 10
1.0
 20
0.0
 30
0.0
  9
$PUCSYDIR
 10
0.0
 20
1.0
 30
0.0
  9
$PUCSORTHOREF
  2

  9
$PUCSORTHOVIEW
 70
     0
  9
$PUCSORGTOP
 10
0.0
 20
0.0
 30
0.0
  9
$PUCSORGBOTTOM
 10
0.0
 20
0.0
 30
0.0
  9
$PUCSORGLEFT
 10
0.0
 20
0.0
 30
0.0
  9
$PUCSORGRIGHT
 10
0.0
 20
0.0
 30
0.0
  9
$PUCSORGFRONT
 10
0.0
 20
0.0
 30
0.0
  9
$PUCSORGBACK
 10
0.0
 20
0.0
 30
0.0
  9
$USERI1
 70
     0
  9
$USERI2
 70
     0
  9
$USERI3
 70
     0
  9
$USERI4
 70
     0
  9
$USERI5
 70
     0
  9
$USERR1
 40
0.0
  9
$USERR2
 40
0.0
  9
$USERR3
 40
0.0
  9
$USERR4
 40
0.0
  9
$USERR5
 40
0.0
  9
$WORLDVIEW
 70
     1
  9
$SHADEDGE
 70
     3
  9
$SHADEDIF
 70
    70
  9
$TILEMODE
 70
     1
  9
$MAXACTVP
 70
    64
  9
$PINSBASE
 10
0.0
 20
0.0
 30
0.0
  9
$PLIMCHECK
 70
     0
  9
$PEXTMIN
 10
1.000000000000000E+20
 20
1.000000000000000E+20
 30
1.000000000000000E+20
  9
$PEXTMAX
 10
-1.000000000000000E+20
 20
-1.000000000000000E+20
 30
-1.000000000000000E+20
  9
$PLIMMIN
 10
0.0
 20
0.0
  9
$PLIMMAX
 10
12.0
 20
9.0
  9
$UNITMODE
 70
     0
  9
$VISRETAIN
 70
     1
  9
$PLINEGEN
 70
     0
  9
$PSLTSCALE
 70
     1
  9
$TREEDEPTH
 70
  3020
  9
$CMLSTYLE
  2
Standard
  9
$CMLJUST
 70
     0
  9
$CMLSCALE
 40
1.0
  9
$PROXYGRAPHICS
 70
     1
  9
$MEASUREMENT
 70
     0
  9
$CELWEIGHT
370
    -1
  9
$ENDCAPS
280
     0
  9
$JOINSTYLE
280
     0
  9
$LWDISPLAY
290
     1
  9
$INSUNITS
 70
     1
  9
$HYPERLINKBASE
  1

  9
$STYLESHEET
  1

  9
$XEDIT
290
     1
  9
$CEPSNTYPE
380
     0
  9
$PSTYLEMODE
290
     1
  9
$FINGERPRINTGUID
  2
{7B4F637F-F89F-4B9A-A495-E23546D04FE0}
  9
$VERSIONGUID
  2
{DA23C81F-15DC-4F07-80A2-87618EDD9E8D}
  9
$EXTNAMES
290
     1
  9
$PSVPSCALE
 40
0.0
  9
$OLESTARTUP
290
     0
  9
$SORTENTS
280
   127
  9
$INDEXCTL
280
     0
  9
$HIDETEXT
280
     0
  9
$XCLIPFRAME
290
     0
  9
$HALOGAP
280
     0
  9
$OBSCOLOR
 70
   257
  9
$OBSLTYPE
280
     0
  9
$INTERSECTIONDISPLAY
280
     0
  9
$INTERSECTIONCOLOR
 70
   257
  9
$DIMASSOC
280
     1
  9
$PROJECTNAME
  1

  0
ENDSEC
  0
SECTION
  2
CLASSES
  0
CLASS
  1
ACDBDICTIONARYWDFLT
  2
AcDbDictionaryWithDefault
  3
ObjectDBX Classes
 90
        0
 91
        1
280
     0
281
     0
  0
CLASS
  1
VISUALSTYLE
  2
AcDbVisualStyle
  3
ObjectDBX Classes
 90
     4095
 91
        0
280
     0
281
     0
  0
CLASS
  1
MATERIAL
  2
AcDbMaterial
  3
ObjectDBX Classes
 90
        0
 91
        0
280
     0
281
     0
  0
ENDSEC
  0
SECTION
  2
TABLES
  0
TABLE
  2
VPORT
  5
8
330
0
100
AcDbSymbolTable
 70
     3
  0
VPORT
  5
12C
330
8
100
AcDbSymbolTableRecord
100
AcDbViewportTableRecord
  2
*Active
 70
     0
 10
0.0
 20
0.0
 11
1.0
 21
1.0
 12
4.449481337817212
 22
6.680979976851096
 13
0.0
 23
0.0
 14
0.5
 24
0.5
 15
0.5
 25
0.5
 16
0.0
 26
0.0
 36
1.0
 17
0.0
 27
0.0
 37
0.0
 40
9.635379722737038
 41
2.144329896907216
 42
50.0
 43
0.0
 44
0.0
 50
0.0
 51
0.0
 71
     0
 72
  2000
 73
     1
 74
     3
 75
     0
 76
     0
 77
     0
 78
     0
281
     0
 65
     1
110
0.0
120
0.0
130
0.0
111
1.0
121
0.0
131
0.0
112
0.0
122
1.0
132
0.0
 79
     0
146
0.0
  0
ENDTAB
  0
TABLE
  2
LTYPE
  5
5
330
0
100
AcDbSymbolTable
 70
     6
  0
LTYPE
  5
14
330
5
100
AcDbSymbolTableRecord
100
AcDbLinetypeTableRecord
  2
ByBlock
 70
     0
  3

 72
    65
 73
     0
 40
0.0
  0
LTYPE
  5
15
330
5
100
AcDbSymbolTableRecord
100
AcDbLinetypeTableRecord
  2
ByLayer
 70
     0
  3

 72
    65
 73
     0
 40
0.0
  0
LTYPE
  5
16
330
5
100
AcDbSymbolTableRecord
100
AcDbLinetypeTableRecord
  2
Continuous
 70
     0
  3
Solid line
 72
    65
 73
     0
 40
0.0
  0
LTYPE
  5
3F
330
5
100
AcDbSymbolTableRecord
100
AcDbLinetypeTableRecord
  2
HIDDEN
 70
     0
  3
Hidden __ __ __ __ __ __ __ __ __ __ __ __ __ __
 72
    65
 73
     2
 40
0.075
 49
0.05
 74
     0
 49
-0.025
 74
     0
  0
LTYPE
  5
40
330
5
100
AcDbSymbolTableRecord
100
AcDbLinetypeTableRecord
  2
PHANTOM
 70
     0
  3
Phantom ______  __  __  ______  __  __  ______
 72
    65
 73
     6
 40
0.5
 49
0.25
 74
     0
 49
-0.05
 74
     0
 49
0.05
 74
     0
 49
-0.05
 74
     0
 49
0.05
 74
     0
 49
-0.05
 74
     0
  0
LTYPE
  5
41
330
5
100
AcDbSymbolTableRecord
100
AcDbLinetypeTableRecord
  2
CENTER
 70
     0
  3
Center ____ _ ____ _ ____ _ ____ _ ____ _ ____
 72
    65
 73
     4
 40
0.4
 49
0.25
 74
     0
 49
-0.05
 74
     0
 49
0.05
 74
     0
 49
-0.05
 74
     0
  0
LTYPE
  5
42
330
5
100
AcDbSymbolTableRecord
100
AcDbLinetypeTableRecord
  2
CENTERX2
 70
     0
  3
Center (2x) ________  __  ________  __  _____
 72
    65
 73
     4
 40
0.8
 49
0.5
 74
     0
 49
-0.1
 74
     0
 49
0.1
 74
     0
 49
-0.1
 74
     0
  0
LTYPE
  5
43
330
5
100
AcDbSymbolTableRecord
100
AcDbLinetypeTableRecord
  2
DOT2
 70
     0
  3
Dot (.5x) ........................................
 72
    65
 73
     2
 40
0.025
 49
0.0
 74
     0
 49
-0.025
 74
     0
  0
ENDTAB
  0
TABLE
  2
LAYER
  5
2
330
0
100
AcDbSymbolTable
 70
     7
  0
LAYER
  5
10
330
2
100
AcDbSymbolTableRecord
100
AcDbLayerTableRecord
  2
0
 70
     0
 62
     7
  6
Continuous
370
    -3
390
F
  0
LAYER
  5
44
330
2
100
AcDbSymbolTableRecord
100
AcDbLayerTableRecord
  2
SLD-0
 70
     0
 62
   179
  6
Continuous
370
    -3
390
F
  0
LAYER
  5
45
330
2
100
AcDbSymbolTableRecord
100
AcDbLayerTableRecord
  2
SLD-DEFPOINTS
 70
     0
 62
   179
  6
Continuous
370
    -3
390
F
  0
LAYER
  5
46
330
2
100
AcDbSymbolTableRecord
100
AcDbLayerTableRecord
  2
OBJ
 70
     0
 62
   179
  6
Continuous
370
    -3
390
F
  0
LAYER
  5
47
330
2
100
AcDbSymbolTableRecord
100
AcDbLayerTableRecord
  2
FORMAT
 70
     0
 62
     7
  6
Continuous
370
    -3
390
F
  0
LAYER
  5
48
330
2
100
AcDbSymbolTableRecord
100
AcDbLayerTableRecord
  2
TOLERANCES
 70
     0
 62
     7
  6
Continuous
370
    -3
390
F
  0
LAYER
  5
49
330
2
100
AcDbSymbolTableRecord
100
AcDbLayerTableRecord
  2
QTY-BLANK-SIZE-1
 70
     0
 62
     7
  6
Continuous
370
    -3
390
F
  0
ENDTAB
  0
TABLE
  2
STYLE
  5
3
330
0
100
AcDbSymbolTable
 70
     2
  0
STYLE
  5
11
330
3
100
AcDbSymbolTableRecord
100
AcDbTextStyleTableRecord
  2
Standard
 70
     0
 40
0.0
 41
1.0
 50
0.0
 71
     0
 42
0.25
  3
txt
  4

  0
STYLE
  5
11D
330
3
100
AcDbSymbolTableRecord
100
AcDbTextStyleTableRecord
  2
SLDTEXTSTYLE0
 70
     0
 40
0.0
 41
0.7
 50
0.0
 71
     0
 42
0.2
  3
TXT
  4

  0
ENDTAB
  0
TABLE
  2
VIEW
  5
6
330
0
100
AcDbSymbolTable
 70
     0
  0
ENDTAB
  0
TABLE
  2
UCS
  5
7
330
0
100
AcDbSymbolTable
 70
     0
  0
ENDTAB
  0
TABLE
  2
APPID
  5
9
330
0
100
AcDbSymbolTable
 70
     1
  0
APPID
  5
12
330
9
100
AcDbSymbolTableRecord
100
AcDbRegAppTableRecord
  2
ACAD
 70
     0
  0
ENDTAB
  0
TABLE
  2
DIMSTYLE
  5
A
330
0
100
AcDbSymbolTable
 70
     1
100
AcDbDimStyleTable
 71
     0
  0
DIMSTYLE
105
27
330
A
100
AcDbSymbolTableRecord
100
AcDbDimStyleTableRecord
  2
Standard
 70
     0
340
11
  0
ENDTAB
  0
TABLE
  2
BLOCK_RECORD
  5
1
330
0
100
AcDbSymbolTable
 70
     1
  0
BLOCK_RECORD
  5
1F
330
1
100
AcDbSymbolTableRecord
100
AcDbBlockTableRecord
  2
*Model_Space
340
22
  0
BLOCK_RECORD
  5
1B
330
1
100
AcDbSymbolTableRecord
100
AcDbBlockTableRecord
  2
*Paper_Space
340
1E
  0
BLOCK_RECORD
  5
23
330
1
100
AcDbSymbolTableRecord
100
AcDbBlockTableRecord
  2
*Paper_Space0
340
26
  0
ENDTAB
  0
ENDSEC
  0
SECTION
  2
BLOCKS
  0
BLOCK
  5
20
330
1F
100
AcDbEntity
  8
0
100
AcDbBlockBegin
  2
*Model_Space
 70
     0
 10
0.0
 20
0.0
 30
0.0
  3
*Model_Space
  1

  0
ENDBLK
  5
21
330
1F
100
AcDbEntity
  8
0
100
AcDbBlockEnd
  0
BLOCK
  5
1C
330
1B
100
AcDbEntity
 67
     1
  8
0
100
AcDbBlockBegin
  2
*Paper_Space
 70
     0
 10
0.0
 20
0.0
 30
0.0
  3
*Paper_Space
  1

  0
ENDBLK
  5
1D
330
1B
100
AcDbEntity
 67
     1
  8
0
100
AcDbBlockEnd
  0
BLOCK
  5
24
330
23
100
AcDbEntity
  8
0
100
AcDbBlockBegin
  2
*Paper_Space0
 70
     0
 10
0.0
 20
0.0
 30
0.0
  3
*Paper_Space0
  1

  0
ENDBLK
  5
25
330
23
100
AcDbEntity
  8
0
100
AcDbBlockEnd
  0
ENDSEC
  0
SECTION
  2
ENTITIES
  0
LINE
  5
4A
330
1F
100
AcDbEntity
  8
0
  6
Continuous
 62
     7
370
    15
100
AcDbLine
 10
4.162734021668271
 20
7.198066877065723
 30
0.0
 11
4.167984011686606
 21
7.19571337092594
 31
0.0
  0
LINE
  5
4B
330
1F
100
AcDbEntity
  8
0
  6
Continuous
 62
     7
370
    15
100
AcDbLine
 10
4.193550573735649
 20
7.25274494856642
 30
0.0
 11
4.188300583717315
 21
7.255098454706203
 31
0.0
  0
LINE
  5
4C
330
1F
100
AcDbEntity
  8
0
  6
Continuous
 62
     7
370
    15
100
AcDbLine
 10
3.861569602828994
 20
7.634108814316919
 30
0.0
 11
3.871711783517893
 21
7.633405450494584
 31
0.0
  0
LINE
  5
4D
330
1F
100
AcDbEntity
  8
0
  6
Continuous
 62
     7
370
    15
100
AcDbLine
 10
3.876035836705272
 20
7.695755666211673
 30
0.0
 11
3.865893575877142
 21
7.696459035591692
 31
0.0
  0
LINE
  5
4E
330
1F
100
AcDbEntity
  8
0
  6
Continuous
 62
     7
370
    15
100
AcDbLine
 10
3.890686710269971
 20
7.553567154438521
 30
0.0
 11
3.900828971098102
 21
7.552863785058502
 31
0.0
  0
LINE
  5
4F
330
1F
100
AcDbEntity
  8
0
  6
Continuous
 62
     7
370
    15
100
AcDbLine
 10
3.905152944146249
 20
7.615214006333276
 30
0.0
 11
3.89501076345735
 21
7.61591737015561
 31
0.0
  0
LINE
  5
50
330
1F
100
AcDbEntity
  8
0
  6
Continuous
 62
     7
370
    15
100
AcDbLine
 10
3.890686710269971
 20
7.7709004892897
 30
0.0
 11
3.900828971098102
 21
7.770197119909681
 31
0.0
  0
LINE
  5
51
330
1F
100
AcDbEntity
  8
0
  6
Continuous
 62
     7
370
    15
100
AcDbLine
 10
3.905152944146249
 20
7.832547341184454
 30
0.0
 11
3.89501076345735
 21
7.833250705006788
 31
0.0
  0
LINE
  5
52
330
1F
100
AcDbEntity
  8
0
  6
Continuous
 62
     7
370
    15
100
AcDbLine
 10
3.890686710269971
 20
7.988233767473884
 30
0.0
 11
3.900828971098102
 21
7.987530398093865
 31
0.0
  0
LINE
  5
53
330
1F
100
AcDbEntity
  8
0
  6
Continuous
 62
     7
370
    15
100
AcDbLine
 10
3.905152944146249
 20
8.049880619368639
 30
0.0
 11
3.89501076345735
 21
8.050583983190973
 31
0.0
  0
LINE
  5
54
330
1F
100
AcDbEntity
  8
0
  6
Continuous
 62
     7
370
    15
100
AcDbLine
 10
4.076131488687215
 20
6.895348177989595
 30
0.0
 11
4.08138147870555
 21
6.892994671849812
 31
0.0
  0
LINE
  5
55
330
1F
100
AcDbEntity
  8
0
  6
Continuous
 62
     7
370
    15
100
AcDbLine
 10
4.106948040754593
 20
6.95002625303198
 30
0.0
 11
4.101698050736259
 21
6.952379759171762
 31
0.0
  0
LINE
  5
56
330
1F
100
AcDbEntity
  8
0
  6
Continuous
 62
     7
370
    15
100
AcDbLine
 10
3.989528955706159
 20
7.172184974766243
 30
0.0
 11
3.994778945724494
 21
7.16983146862646
 31
0.0
  0
LINE
  5
57
330
1F
100
AcDbEntity
  8
0
  6
Continuous
 62
     7
370
    15
100
AcDbLine
 10
4.020345507773537
 20
7.22686304626694
 30
0.0
 11
4.015095517755203
 21
7.229216552406723
 31
0.0
  0
LINE
  5
58
330
1F
100
AcDbEntity
  8
0
  6
Continuous
 62
     7
370
    15
100
AcDbLine
 10
3.902926371918867
 20
6.99020699669598
 30
0.0
 11
3.9081763619372
 21
6.987853490556196
 31
0.0
  0
LINE
  5
59
330
1F
100
AcDbEntity
  8
0
  6
Continuous
 62
     7
370
    15
100
AcDbLine
 10
3.933742923986244
 20
7.044885068196677
 30
0.0
 11
3.92849293396791
 21
7.04723857433646
 31
0.0
  0
LINE
  5
5A
330
1F
100
AcDbEntity
  8
0
  6
Continuous
 62
     7
370
    15
100
AcDbLine
 10
3.859625130831457
 20
7.273514276385153
 30
0.0
 11
3.864875120849791
 21
7.271160770245371
 31
0.0
  0
LINE
  5
5B
330
1F
100
AcDbEntity
  8
0
  6
Continuous
 62
     7
370
    15
100
AcDbLine
 10
3.890441682898834
 20
7.32819234788585
 30
0.0
 11
3.885191692880501
 21
7.330545854025633
 31
0.0
  0
LINE
  5
5C
330
1F
100
AcDbEntity
  8
0
  6
Continuous
 62
     7
370
    15
100
AcDbLine
 10
3.861569602828994
 20
7.851442092501103
 30
0.0
 11
3.871711783517893
 21
7.850738728678769
 31
0.0
  0
LINE
  5
5D
330
1F
100
AcDbEntity
  8
0
  6
Continuous
 62
     7
370
    15
100
AcDbLine
 10
3.876035836705272
 20
7.913088944395858
 30
0.0
 11
3.865893575877142
 21
7.913792313775877
 31
0.0
  0
LWPOLYLINE
  5
5E
330
1F
100
AcDbEntity
  8
0
  6
Continuous
 62
     7
370
    15
100
AcDbPolyline
 90
       12
 70
   128
 43
0.0
 10
4.167984011686606
 20
7.19571337092594
 10
4.163384370653044
 20
7.19849625174047
 10
4.158042653725208
 20
7.204440621941683
 10
4.154720129065351
 20
7.212143286929754
 10
4.15371198090911
 20
7.220919844989277
 10
4.155107831458148
 20
7.229990463718245
 10
4.158783611882272
 20
7.238549130724906
 10
4.164412790497755
 20
7.245835428517357
 10
4.171495078291118
 20
7.251201922645967
 10
4.179401265423073
 20
7.254171748548803
 10
4.187428828654673
 20
7.254481034457653
 10
4.193550573735649
 20
7.25274494856642
  0
LWPOLYLINE
  5
5F
330
1F
100
AcDbEntity
  8
0
  6
Continuous
 62
     7
370
    15
100
AcDbPolyline
 90
       21
 70
   128
 43
0.0
 10
4.193810727715693
 20
7.200227195182232
 10
4.2003039171937
 20
7.206776219796824
 10
4.204933686325667
 20
7.215011751260692
 10
4.207246818076482
 20
7.22412758143039
 10
4.207016894451976
 20
7.233231428546024
 10
4.20426639721192
 20
7.241432135208514
 10
4.199264624814318
 20
7.247926935949152
 10
4.192501120753573
 20
7.252080107123267
 10
4.184637991907282
 20
7.253485088943254
 10
4.176444901956283
 20
7.252004355214014
 10
4.168723878154239
 20
7.247782827407601
 10
4.162230688676232
 20
7.241233802793008
 10
4.157600919544266
 20
7.23299827132914
 10
4.155287762390332
 20
7.223882437363474
 10
4.155517711417957
 20
7.214778594043808
 10
4.158268157851775
 20
7.206577879789381
 10
4.163269981055615
 20
7.200083086640679
 10
4.17003345971324
 20
7.195929911670596
 10
4.177896588559533
 20
7.194524958184106
 10
4.186089678510531
 20
7.196005691913347
 10
4.193810727715693
 20
7.200227195182232
  0
LWPOLYLINE
  5
60
330
1F
100
AcDbEntity
  8
0
  6
Continuous
 62
     7
370
    15
100
AcDbPolyline
 90
       12
 70
   128
 43
0.0
 10
4.188300583717315
 20
7.255098454706203
 10
4.182178838636339
 20
7.256834540597435
 10
4.174151275404739
 20
7.256525254688585
 10
4.166245088272784
 20
7.25355542878575
 10
4.159162800479421
 20
7.248188934657139
 10
4.153533621863938
 20
7.240902636864688
 10
4.149857841439814
 20
7.232343969858028
 10
4.148461990890776
 20
7.223273351129058
 10
4.149470139047017
 20
7.214496793069537
 10
4.152792663706874
 20
7.206794128081465
 10
4.158134380634709
 20
7.200849757880252
 10
4.162734021668271
 20
7.198066877065723
  0
LWPOLYLINE
  5
61
330
1F
100
AcDbEntity
  8
0
  6
Continuous
 62
     7
370
    15
100
AcDbPolyline
 90
       13
 70
   128
 43
0.0
 10
3.871711783517893
 20
7.633405450494584
 10
3.870736790951506
 20
7.633728147295122
 10
3.868678803269741
 20
7.636427169421639
 10
3.867082345738352
 20
7.64162773027529
 10
3.866089380068165
 20
7.648867746430525
 10
3.865788089005528
 20
7.657503926489615
 10
3.866205249683586
 20
7.666768853930059
 10
3.867303828619131
 20
7.675839384458266
 10
3.868986149786704
 20
7.683909515802073
 10
3.871102716473449
 20
7.690262168585701
 10
3.87346554616258
 20
7.694332953798571
 10
3.875864694964184
 20
7.695760016963597
 10
3.876035836705272
 20
7.695755666211673
  0
LWPOLYLINE
  5
62
330
1F
100
AcDbEntity
  8
0
  6
Continuous
 62
     7
370
    15
100
AcDbPolyline
 90
       21
 70
   128
 43
0.0
 10
3.878588455679124
 20
7.642482358691106
 10
3.880529014058531
 20
7.649935546358105
 10
3.881912613092791
 20
7.65881577877142
 10
3.882603951988219
 20
7.668253700019865
 10
3.882535237612876
 20
7.677325503125921
 10
3.881713191091602
 20
7.685143248366667
 10
3.88021840360874
 20
7.69094156486452
 10
3.878197084365062
 20
7.694152956885787
 10
3.875847117148065
 20
7.694462997756128
 10
3.873398544802451
 20
7.69184138367578
 10
3.871091000852476
 20
7.686544784483057
 10
3.869150493279305
 20
7.679091604407997
 10
3.867766843438808
 20
7.670211364402743
 10
3.867075555349618
 20
7.660773450746237
 10
3.86714426972496
 20
7.651701647640179
 10
3.867966265439999
 20
7.643883894807496
 10
3.869461103729097
 20
7.63808558590158
 10
3.871482422972774
 20
7.634874193880314
 10
3.873832390189771
 20
7.634564153009974
 10
3.876280962535386
 20
7.637185710423327
 10
3.878588455679124
 20
7.642482358691106
  0
LWPOLYLINE
  5
63
330
1F
100
AcDbEntity
  8
0
  6
Continuous
 62
     7
370
    15
100
AcDbPolyline
 90
       13
 70
   128
 43
0.0
 10
3.865893575877142
 20
7.696459035591692
 10
3.865722434136054
 20
7.696463386343616
 10
3.863323365473681
 20
7.695036317620907
 10
3.860960535784549
 20
7.690965532408036
 10
3.858843888958574
 20
7.684612885182092
 10
3.857161567791001
 20
7.676542753838285
 10
3.856063068994687
 20
7.667472217752393
 10
3.855645908316629
 20
7.65820729031195
 10
3.855947199379265
 20
7.64957111025286
 10
3.856940165049453
 20
7.642331094097624
 10
3.85853654244161
 20
7.637130538801658
 10
3.860594610262607
 20
7.634431511117456
 10
3.861569602828994
 20
7.634108814316919
  0
LWPOLYLINE
  5
64
330
1F
100
AcDbEntity
  8
0
  6
Continuous
 62
     7
370
    15
100
AcDbPolyline
 90
       10
 70
   128
 43
0.0
 10
3.859217307732508
 20
7.635877414679646
 10
3.857387006592531
 20
7.638922928813693
 10
3.855892168303433
 20
7.644721237719609
 10
3.855070172588395
 20
7.652538990552292
 10
3.855001458213052
 20
7.661610793658349
 10
3.855692746302243
 20
7.671048707314857
 10
3.85707639614274
 20
7.679928947320109
 10
3.859016983855142
 20
7.687382121837486
 10
3.861324447665885
 20
7.692678726587892
 10
3.86331970625317
 20
7.695032036031142
  0
LWPOLYLINE
  5
65
330
1F
100
AcDbEntity
  8
0
  6
Continuous
 62
     7
370
    15
100
AcDbPolyline
 90
       13
 70
   128
 43
0.0
 10
3.900828971098102
 20
7.552863785058502
 10
3.899853927725477
 20
7.553186474267102
 10
3.897795910710718
 20
7.555885509543242
 10
3.896199533318561
 20
7.561086064839208
 10
3.895206516842136
 20
7.568326073402506
 10
3.894905225779499
 20
7.576962253461596
 10
3.895322386457558
 20
7.586227237569034
 10
3.896420936060108
 20
7.595297724579869
 10
3.898103286560676
 20
7.603367842774055
 10
3.900219904053656
 20
7.609720559816614
 10
3.902582733742788
 20
7.613791288362491
 10
3.904981802405161
 20
7.615218413752193
 10
3.905152944146249
 20
7.615214006333276
  0
LWPOLYLINE
  5
66
330
1F
100
AcDbEntity
  8
0
  6
Continuous
 62
     7
370
    15
100
AcDbPolyline
 90
       21
 70
   128
 43
0.0
 10
3.907705563120101
 20
7.561940698812708
 10
3.909646150832504
 20
7.569393929997079
 10
3.911029800673
 20
7.578274113335338
 10
3.911721088762191
 20
7.587712026991845
 10
3.911652374386848
 20
7.596783830097902
 10
3.91083037867181
 20
7.604601582930585
 10
3.909335540382712
 20
7.610399891836501
 10
3.907314221139034
 20
7.613611283857768
 10
3.904964253922037
 20
7.613921324728107
 10
3.902515681576423
 20
7.611299767314755
 10
3.900208188432684
 20
7.606003119046977
 10
3.898267630053277
 20
7.598549931379977
 10
3.896883950879785
 20
7.589669704524347
 10
3.896192692123589
 20
7.580231777718217
 10
3.896261406498932
 20
7.57115997461216
 10
3.897083372880976
 20
7.563342291596093
 10
3.898578240503069
 20
7.557543912873562
 10
3.900599559746746
 20
7.554332577519289
 10
3.902949526963743
 20
7.554022479981955
 10
3.905398099309357
 20
7.556644094062303
 10
3.907705563120101
 20
7.561940698812708
  0
LWPOLYLINE
  5
67
330
1F
100
AcDbEntity
  8
0
  6
Continuous
 62
     7
370
    15
100
AcDbPolyline
 90
       13
 70
   128
 43
0.0
 10
3.89501076345735
 20
7.61591737015561
 10
3.894839621716262
 20
7.615921777574529
 10
3.892440472914658
 20
7.614494657742509
 10
3.890077643225527
 20
7.610423929196633
 10
3.887961025732545
 20
7.604071212154073
 10
3.886278755371209
 20
7.596001088402204
 10
3.885180205768659
 20
7.586930601391368
 10
3.8847630450906
 20
7.577665617283931
 10
3.885064336153237
 20
7.56902943722484
 10
3.88605727249043
 20
7.561789434219226
 10
3.887653730021819
 20
7.556588873365576
 10
3.889711747036578
 20
7.553889838089437
 10
3.890686710269971
 20
7.553567154438521
  0
LWPOLYLINE
  5
68
330
1F
100
AcDbEntity
  8
0
  6
Continuous
 62
     7
370
    15
100
AcDbPolyline
 90
       10
 70
   128
 43
0.0
 10
3.888334415173486
 20
7.555335754801249
 10
3.886504143366503
 20
7.558381255785675
 10
3.885009355883642
 20
7.564179628950521
 10
3.884187309362367
 20
7.571997317524273
 10
3.884118594987024
 20
7.58106912063033
 10
3.884809933882452
 20
7.590507041878774
 10
3.886193532916711
 20
7.599387274292091
 10
3.888134091296119
 20
7.606840461959088
 10
3.890441584439857
 20
7.612137110226867
 10
3.892436813694147
 20
7.614490432819739
  0
LWPOLYLINE
  5
69
330
1F
100
AcDbEntity
  8
0
  6
Continuous
 62
     7
370
    15
100
AcDbPolyline
 90
       13
 70
   128
 43
0.0
 10
3.900828971098102
 20
7.770197119909681
 10
3.899853927725477
 20
7.77051980911828
 10
3.897795910710718
 20
7.773218787727427
 10
3.896199533318561
 20
7.778419343023394
 10
3.895206516842136
 20
7.785659408253684
 10
3.894905225779499
 20
7.794295588312775
 10
3.895322386457558
 20
7.803560515753218
 10
3.896420936060108
 20
7.812631059431048
 10
3.898103286560676
 20
7.820701177625233
 10
3.900219904053656
 20
7.827053838000798
 10
3.902582733742788
 20
7.831124566546676
 10
3.904981802405161
 20
7.832551691936379
 10
3.905152944146249
 20
7.832547341184454
  0
LWPOLYLINE
  5
6A
330
1F
100
AcDbEntity
  8
0
  6
Continuous
 62
     7
370
    15
100
AcDbPolyline
 90
       21
 70
   128
 43
0.0
 10
3.907705563120101
 20
7.779274033663887
 10
3.909646150832504
 20
7.786727208181264
 10
3.911029800673
 20
7.795607391519523
 10
3.911721088762191
 20
7.805045361843024
 10
3.911652374386848
 20
7.814117164949081
 10
3.91083037867181
 20
7.82193486111477
 10
3.909335540382712
 20
7.827733170020685
 10
3.907314221139034
 20
7.830944562041953
 10
3.904964253922037
 20
7.831254659579286
 10
3.902515681576423
 20
7.828633045498939
 10
3.900208188432684
 20
7.823336453898155
 10
3.898267630053277
 20
7.815883209564162
 10
3.896883950879785
 20
7.807003039375524
 10
3.896192692123589
 20
7.797565112569396
 10
3.896261406498932
 20
7.788493252796346
 10
3.897083372880976
 20
7.780675569780278
 10
3.898578240503069
 20
7.77487724772474
 10
3.900599559746746
 20
7.771665855703474
 10
3.902949526963743
 20
7.771355814833134
 10
3.905398099309357
 20
7.773977372246488
 10
3.907705563120101
 20
7.779274033663887
  0
LWPOLYLINE
  5
6B
330
1F
100
AcDbEntity
  8
0
  6
Continuous
 62
     7
370
    15
100
AcDbPolyline
 90
       13
 70
   128
 43
0.0
 10
3.89501076345735
 20
7.833250705006788
 10
3.894839621716262
 20
7.833255055758714
 10
3.892440472914658
 20
7.831827935926694
 10
3.890077643225527
 20
7.827757207380817
 10
3.887961025732545
 20
7.821404547005251
 10
3.886278755371209
 20
7.813334423253382
 10
3.885180205768659
 20
7.804263879575552
 10
3.8847630450906
 20
7.794998952135109
 10
3.885064336153237
 20
7.786362772076019
 10
3.88605727249043
 20
7.779122712403411
 10
3.887653730021819
 20
7.773922151549761
 10
3.889711747036578
 20
7.771223172940616
 10
3.890686710269971
 20
7.7709004892897
  0
LWPOLYLINE
  5
6C
330
1F
100
AcDbEntity
  8
0
  6
Continuous
 62
     7
370
    15
100
AcDbPolyline
 90
       10
 70
   128
 43
0.0
 10
3.888334415173486
 20
7.772669089652427
 10
3.886504143366503
 20
7.775714590636853
 10
3.885009355883642
 20
7.781512907134707
 10
3.884187309362367
 20
7.789330595708458
 10
3.884118594987024
 20
7.798402455481508
 10
3.884809933882452
 20
7.807840376729953
 10
3.886193532916711
 20
7.816720552476275
 10
3.888134091296119
 20
7.824173796810267
 10
3.890441584439857
 20
7.829470388411051
 10
3.892436813694147
 20
7.831823711003924
  0
LWPOLYLINE
  5
6D
330
1F
100
AcDbEntity
  8
0
  6
Continuous
 62
     7
370
    15
100
AcDbPolyline
 90
       13
 70
   128
 43
0.0
 10
3.900828971098102
 20
7.987530398093865
 10
3.899853927725477
 20
7.987853087302466
 10
3.897795910710718
 20
7.990552122578605
 10
3.896199533318561
 20
7.995752677874572
 10
3.895206516842136
 20
8.002992686437869
 10
3.894905225779499
 20
8.011628866496959
 10
3.895322386457558
 20
8.020893850604396
 10
3.896420936060108
 20
8.029964394282226
 10
3.898103286560676
 20
8.038034455809418
 10
3.900219904053656
 20
8.044387116184983
 10
3.902582733742788
 20
8.04845784473086
 10
3.904981802405161
 20
8.049884970120563
 10
3.905152944146249
 20
8.049880619368639
  0
LWPOLYLINE
  5
6E
330
1F
100
AcDbEntity
  8
0
  6
Continuous
 62
     7
370
    15
100
AcDbPolyline
 90
       21
 70
   128
 43
0.0
 10
3.907705563120101
 20
7.996607311848071
 10
3.909646150832504
 20
8.00406048636545
 10
3.911029800673
 20
8.012940726370702
 10
3.911721088762191
 20
8.022378696694202
 10
3.911652374386848
 20
8.031450443133266
 10
3.91083037867181
 20
8.039268139298954
 10
3.909335540382712
 20
8.045066504871865
 10
3.907314221139034
 20
8.048277896893131
 10
3.904964253922037
 20
8.048587937763471
 10
3.902515681576423
 20
8.045966323683124
 10
3.900208188432684
 20
8.04066973208234
 10
3.898267630053277
 20
8.03321654441534
 10
3.896883950879785
 20
8.024336317559709
 10
3.896192692123589
 20
8.014898447420574
 10
3.896261406498932
 20
8.005826587647524
 10
3.897083372880976
 20
7.998008904631457
 10
3.898578240503069
 20
7.992210525908925
 10
3.900599559746746
 20
7.988999133887658
 10
3.902949526963743
 20
7.988689093017318
 10
3.905398099309357
 20
7.991310707097666
 10
3.907705563120101
 20
7.996607311848071
  0
LWPOLYLINE
  5
6F
330
1F
100
AcDbEntity
  8
0
  6
Continuous
 62
     7
370
    15
100
AcDbPolyline
 90
       13
 70
   128
 43
0.0
 10
3.89501076345735
 20
8.050583983190973
 10
3.894839621716262
 20
8.050588333942899
 10
3.892440472914658
 20
8.049161214110879
 10
3.890077643225527
 20
8.045090485565001
 10
3.887961025732545
 20
8.038737825189436
 10
3.886278755371209
 20
8.030667758104561
 10
3.885180205768659
 20
8.021597214426732
 10
3.8847630450906
 20
8.012332230319293
 10
3.885064336153237
 20
8.003696050260204
 10
3.88605727249043
 20
7.99645604725459
 10
3.887653730021819
 20
7.99125548640094
 10
3.889711747036578
 20
7.9885564511248
 10
3.890686710269971
 20
7.988233767473884
  0
LWPOLYLINE
  5
70
330
1F
100
AcDbEntity
  8
0
  6
Continuous
 62
     7
370
    15
100
AcDbPolyline
 90
       10
 70
   128
 43
0.0
 10
3.888334415173486
 20
7.990002367836612
 10
3.886504143366503
 20
7.993047868821038
 10
3.885009355883642
 20
7.998846241985885
 10
3.884187309362367
 20
8.006663930559636
 10
3.884118594987024
 20
8.015735790332687
 10
3.884809933882452
 20
8.025173654914137
 10
3.886193532916711
 20
8.034053887327454
 10
3.888134091296119
 20
8.041507074994452
 10
3.890441584439857
 20
8.046803666595236
 10
3.892436813694147
 20
8.049157045855102
  0
LWPOLYLINE
  5
71
330
1F
100
AcDbEntity
  8
0
  6
Continuous
 62
     7
370
    15
100
AcDbPolyline
 90
       12
 70
   128
 43
0.0
 10
4.08138147870555
 20
6.892994671849812
 10
4.076781837671987
 20
6.895777545580969
 10
4.071440120744152
 20
6.901721921094713
 10
4.068117596084295
 20
6.909424596707845
 10
4.067109447928054
 20
6.918201149454835
 10
4.068505298477092
 20
6.927271752578246
 10
4.072181078901216
 20
6.935830435633175
 10
4.077810206710463
 20
6.943116726276401
 10
4.084892545310062
 20
6.948483211173934
 10
4.092798757845136
 20
6.951453049726957
 10
4.100826295673617
 20
6.951762349548275
 10
4.106948040754593
 20
6.95002625303198
  0
LWPOLYLINE
  5
72
330
1F
100
AcDbEntity
  8
0
  6
Continuous
 62
     7
370
    15
100
AcDbPolyline
 90
       21
 70
   128
 43
0.0
 10
4.107208194734638
 20
6.89750848902273
 10
4.113701384212644
 20
6.904057534887446
 10
4.118331153344611
 20
6.912293052184565
 10
4.120644259692308
 20
6.921408890068777
 10
4.12041436147092
 20
6.93051273611056
 10
4.117663864230864
 20
6.938713428606302
 10
4.112662091833263
 20
6.945208238643869
 10
4.105898562369398
 20
6.949361397167796
 10
4.098035433523108
 20
6.95076637721694
 10
4.089842368975227
 20
6.949285643741981
 10
4.082121345173183
 20
6.945064138956535
 10
4.07562810488894
 20
6.938515088156147
 10
4.070998386563209
 20
6.930279576901478
 10
4.068685229409276
 20
6.921163732089394
 10
4.0689151784369
 20
6.912059893196837
 10
4.071665624870719
 20
6.903859193109158
 10
4.076667448074558
 20
6.89736439110624
 10
4.083430926732185
 20
6.893211226761217
 10
4.091294055578476
 20
6.89180624494123
 10
4.099487170932594
 20
6.893286986008127
 10
4.107208194734638
 20
6.89750848902273
  0
LWPOLYLINE
  5
73
330
1F
100
AcDbEntity
  8
0
  6
Continuous
 62
     7
370
    15
100
AcDbPolyline
 90
       12
 70
   128
 43
0.0
 10
4.101698050736259
 20
6.952379759171762
 10
4.095576305655283
 20
6.954115855688057
 10
4.087548767826802
 20
6.95380655586674
 10
4.079642555291728
 20
6.950836717313718
 10
4.072560216692129
 20
6.945470232416183
 10
4.066931088882882
 20
6.938183941772958
 10
4.063255308458758
 20
6.929625258718028
 10
4.06185945790972
 20
6.920554655594618
 10
4.062867606065961
 20
6.911778102847629
 10
4.066190130725818
 20
6.904075427234495
 10
4.071531847653653
 20
6.898131051720752
 10
4.076131488687215
 20
6.895348177989595
  0
LWPOLYLINE
  5
74
330
1F
100
AcDbEntity
  8
0
  6
Continuous
 62
     7
370
    15
100
AcDbPolyline
 90
       12
 70
   128
 43
0.0
 10
3.994778945724494
 20
7.16983146862646
 10
3.990179304690931
 20
7.172614349440991
 10
3.984837587763096
 20
7.178558719642204
 10
3.981515063103239
 20
7.186261384630276
 10
3.980506914946998
 20
7.195037942689796
 10
3.981902765496037
 20
7.204108561418765
 10
3.98557854592016
 20
7.212667228425425
 10
3.991207673729407
 20
7.219953518625939
 10
3.998290012329006
 20
7.225320020346487
 10
4.006196174057843
 20
7.228289842453354
 10
4.014223762692561
 20
7.228599132158174
 10
4.020345507773537
 20
7.22686304626694
  0
LWPOLYLINE
  5
75
330
1F
100
AcDbEntity
  8
0
  6
Continuous
 62
     7
370
    15
100
AcDbPolyline
 90
       21
 70
   128
 43
0.0
 10
4.020605661753582
 20
7.174345292882752
 10
4.027098851231587
 20
7.180894317497346
 10
4.031728620363555
 20
7.189129848961212
 10
4.034041726711252
 20
7.19824567533494
 10
4.033811828489864
 20
7.207349526246543
 10
4.031061331249809
 20
7.215550232909034
 10
4.026059558852207
 20
7.222045033649672
 10
4.019296029388343
 20
7.226198201027818
 10
4.011432900542051
 20
7.227603182847805
 10
4.003239835994171
 20
7.226122452914533
 10
3.99551876138589
 20
7.221900917516184
 10
3.989025571907884
 20
7.21535189290159
 10
3.984395802775917
 20
7.207116361437722
 10
3.98208269642822
 20
7.198000535063994
 10
3.982312645455844
 20
7.188896691744328
 10
3.985063091889663
 20
7.180695977489901
 10
3.990064864287265
 20
7.174201176749262
 10
3.996828393751129
 20
7.170048009371116
 10
4.00469152259742
 20
7.168643055884627
 10
4.012884587145301
 20
7.170123785817898
 10
4.020605661753582
 20
7.174345292882752
  0
LWPOLYLINE
  5
76
330
1F
100
AcDbEntity
  8
0
  6
Continuous
 62
     7
370
    15
100
AcDbPolyline
 90
       12
 70
   128
 43
0.0
 10
4.015095517755203
 20
7.229216552406723
 10
4.008973772674227
 20
7.230952638297956
 10
4.000946184039509
 20
7.230643348593137
 10
3.993040022310673
 20
7.227673526486269
 10
3.985957683711073
 20
7.222307024765722
 10
3.980328555901826
 20
7.215020734565207
 10
3.976652775477703
 20
7.206462067558548
 10
3.975256924928664
 20
7.19739144882958
 10
3.976265073084905
 20
7.188614890770057
 10
3.979587597744762
 20
7.180912225781987
 10
3.984929314672597
 20
7.174967855580773
 10
3.989528955706159
 20
7.172184974766243
  0
LWPOLYLINE
  5
77
330
1F
100
AcDbEntity
  8
0
  6
Continuous
 62
     7
370
    15
100
AcDbPolyline
 90
       12
 70
   128
 43
0.0
 10
3.9081763619372
 20
6.987853490556196
 10
3.903576771709875
 20
6.99063637187929
 10
3.89823505478204
 20
6.996580749163878
 10
3.894912479315946
 20
7.004283413643387
 10
3.893904381965942
 20
7.013059979294845
 10
3.895300181708743
 20
7.022130569181754
 10
3.898976012939104
 20
7.030689257947099
 10
3.904605140748351
 20
7.037975548147613
 10
3.91168747934795
 20
7.043342035701414
 10
3.919593641076787
 20
7.046311871975029
 10
3.927621229711505
 20
7.046621175846596
 10
3.933742923986244
 20
7.044885068196677
  0
LWPOLYLINE
  5
78
330
1F
100
AcDbEntity
  8
0
  6
Continuous
 62
     7
370
    15
100
AcDbPolyline
 90
       21
 70
   128
 43
0.0
 10
3.934003077966289
 20
6.992367307729115
 10
3.940496318250532
 20
6.998916361185768
 10
3.945126036576263
 20
7.007151870890949
 10
3.947439193730196
 20
7.016267719023365
 10
3.947209244702572
 20
7.025371555259654
 10
3.944458798268753
 20
7.03357224826396
 10
3.939456975064914
 20
7.04006705557941
 10
3.932693496407287
 20
7.044220216382745
 10
3.924830367560995
 20
7.045625198202732
 10
3.916637303013115
 20
7.04414446826946
 10
3.908916228404835
 20
7.039922961204607
 10
3.902423038926828
 20
7.033373908256517
 10
3.897793269794861
 20
7.025138390959398
 10
3.895480163447164
 20
7.016022557502295
 10
3.895710061668551
 20
7.006918713674066
 10
3.898460558908607
 20
6.998718021178324
 10
3.903462331306209
 20
6.992223206270938
 10
3.910225860770072
 20
6.988070053059539
 10
3.918088989616364
 20
6.986665071239553
 10
3.926282054164245
 20
6.988145801172824
 10
3.934003077966289
 20
6.992367307729115
  0
LWPOLYLINE
  5
79
330
1F
100
AcDbEntity
  8
0
  6
Continuous
 62
     7
370
    15
100
AcDbPolyline
 90
       12
 70
   128
 43
0.0
 10
3.92849293396791
 20
7.04723857433646
 10
3.922371239693171
 20
7.048974681986379
 10
3.914343651058453
 20
7.048665378114812
 10
3.906437489329617
 20
7.045695541841197
 10
3.899355150730017
 20
7.040329054287396
 10
3.89372602292077
 20
7.033042764086883
 10
3.890050191690409
 20
7.024484075321536
 10
3.888654391947608
 20
7.015413485434628
 10
3.889662489297612
 20
7.006636919783169
 10
3.892985064763706
 20
6.998934255303661
 10
3.898326781691541
 20
6.992989878019074
 10
3.902926371918867
 20
6.99020699669598
  0
LWPOLYLINE
  5
7A
330
1F
100
AcDbEntity
  8
0
  6
Continuous
 62
     7
370
    15
100
AcDbPolyline
 90
       12
 70
   128
 43
0.0
 10
3.864875120849791
 20
7.271160770245371
 10
3.860275479816229
 20
7.273943651059902
 10
3.854933762888394
 20
7.279888021261114
 10
3.851611238228537
 20
7.287590686249186
 10
3.850603090072295
 20
7.296367244308706
 10
3.851998940621334
 20
7.305437834704179
 10
3.855674721045458
 20
7.313996530044335
 10
3.861303899660942
 20
7.321282827836787
 10
3.868386187454304
 20
7.3266492936319
 10
3.876292399989377
 20
7.329619151664203
 10
3.884319937817859
 20
7.329928433777084
 10
3.890441682898834
 20
7.32819234788585
  0
LWPOLYLINE
  5
7B
330
1F
100
AcDbEntity
  8
0
  6
Continuous
 62
     7
370
    15
100
AcDbPolyline
 90
       21
 70
   128
 43
0.0
 10
3.890701836878879
 20
7.275674594501663
 10
3.897195026356886
 20
7.282223619116256
 10
3.901824795488853
 20
7.290459150580123
 10
3.90413790183655
 20
7.299574976953851
 10
3.903908003615162
 20
7.308678827865453
 10
3.901157506375107
 20
7.316879534527945
 10
3.896155733977504
 20
7.323374335268583
 10
3.889392255319878
 20
7.327527510238667
 10
3.881529075667349
 20
7.328932484466715
 10
3.873336011119469
 20
7.327451726199947
 10
3.865614987317425
 20
7.323230226727031
 10
3.859121797839419
 20
7.316681202112437
 10
3.854492028707452
 20
7.308445670648571
 10
3.852178871553518
 20
7.299329836682905
 10
3.852408820581142
 20
7.290225993363239
 10
3.855159267014961
 20
7.282025279108812
 10
3.8601610902188
 20
7.275530485960111
 10
3.866924568876427
 20
7.271377310990027
 10
3.874787697722718
 20
7.26997232917004
 10
3.882980813076835
 20
7.27145306669525
 10
3.890701836878879
 20
7.275674594501663
  0
LWPOLYLINE
  5
7C
330
1F
100
AcDbEntity
  8
0
  6
Continuous
 62
     7
370
    15
100
AcDbPolyline
 90
       12
 70
   128
 43
0.0
 10
3.885191692880501
 20
7.330545854025633
 10
3.879069947799525
 20
7.332281939916867
 10
3.871042409971043
 20
7.331972657803984
 10
3.86313619743597
 20
7.329002799771683
 10
3.856053909642607
 20
7.32363633397657
 10
3.850424731027124
 20
7.316350036184118
 10
3.846748950603
 20
7.30779134084396
 10
3.845353100053961
 20
7.298720750448489
 10
3.846361248210202
 20
7.289944192388968
 10
3.84968377287006
 20
7.282241527400897
 10
3.855025489797895
 20
7.276297157199683
 10
3.859625130831457
 20
7.273514276385153
  0
LWPOLYLINE
  5
7D
330
1F
100
AcDbEntity
  8
0
  6
Continuous
 62
     7
370
    15
100
AcDbPolyline
 90
       13
 70
   128
 43
0.0
 10
3.871711783517893
 20
7.850738728678769
 10
3.870736790951506
 20
7.851061425479307
 10
3.868678803269741
 20
7.853760447605824
 10
3.867082345738352
 20
7.858961008459474
 10
3.866089380068165
 20
7.866201024614709
 10
3.865788089005528
 20
7.874837204673799
 10
3.866205249683586
 20
7.884102188781237
 10
3.867303828619131
 20
7.893172719309445
 10
3.868986149786704
 20
7.901242793986258
 10
3.871102716473449
 20
7.907595560103874
 10
3.87346554616258
 20
7.91166628864975
 10
3.875864694964184
 20
7.913093295147782
 10
3.876035836705272
 20
7.913088944395858
  0
LWPOLYLINE
  5
7E
330
1F
100
AcDbEntity
  8
0
  6
Continuous
 62
     7
370
    15
100
AcDbPolyline
 90
       21
 70
   128
 43
0.0
 10
3.878588455679124
 20
7.859815636875291
 10
3.880529014058531
 20
7.867268824542289
 10
3.881912613092791
 20
7.876149056955604
 10
3.882603951988219
 20
7.885587034871044
 10
3.882535237612876
 20
7.894658781310106
 10
3.881713191091602
 20
7.902476583217846
 10
3.88021840360874
 20
7.908274843048705
 10
3.878197084365062
 20
7.911486235069972
 10
3.875847117148065
 20
7.911796275940312
 10
3.873398544802451
 20
7.909174775193952
 10
3.871091000852476
 20
7.903878062667242
 10
3.869150493279305
 20
7.896424882592182
 10
3.867766843438808
 20
7.887544642586928
 10
3.867075555349618
 20
7.878106785597415
 10
3.86714426972496
 20
7.869034925824364
 10
3.867966265439999
 20
7.861217229658675
 10
3.869461103729097
 20
7.855418864085766
 10
3.871482422972774
 20
7.852207472064499
 10
3.873832390189771
 20
7.851897431194159
 10
3.876280962535386
 20
7.854519045274506
 10
3.878588455679124
 20
7.859815636875291
  0
LWPOLYLINE
  5
7F
330
1F
100
AcDbEntity
  8
0
  6
Continuous
 62
     7
370
    15
100
AcDbPolyline
 90
       13
 70
   128
 43
0.0
 10
3.865893575877142
 20
7.913792313775877
 10
3.865722434136054
 20
7.913796664527801
 10
3.863323365473681
 20
7.912369652472086
 10
3.860960535784549
 20
7.908298923926208
 10
3.858843888958574
 20
7.901946163366277
 10
3.857161567791001
 20
7.893876088689464
 10
3.856063068994687
 20
7.884805552603571
 10
3.855645908316629
 20
7.875540568496135
 10
3.855947199379265
 20
7.866904388437045
 10
3.856940165049453
 20
7.859664372281808
 10
3.85853654244161
 20
7.854463816985843
 10
3.860594610262607
 20
7.851764789301641
 10
3.861569602828994
 20
7.851442092501103
  0
LWPOLYLINE
  5
80
330
1F
100
AcDbEntity
  8
0
  6
Continuous
 62
     7
370
    15
100
AcDbPolyline
 90
       10
 70
   128
 43
0.0
 10
3.859217278399514
 20
7.853210706013452
 10
3.857387006592531
 20
7.856256206997878
 10
3.855892168303433
 20
7.862054572570787
 10
3.855070172588395
 20
7.869872268736476
 10
3.855001458213052
 20
7.878944128509527
 10
3.855692746302243
 20
7.888381985499041
 10
3.85707639614274
 20
7.897262225504294
 10
3.859016983855142
 20
7.90471540002167
 10
3.861324447665885
 20
7.910012118106065
 10
3.86331970625317
 20
7.912365370882321
  0
LINE
  5
81
330
1F
100
AcDbEntity
  8
0
  6
Continuous
 62
     7
370
    15
100
AcDbLine
 10
3.143694947776496
 20
7.042327382653347
 30
0.0
 11
3.143694947776496
 21
5.207068356133702
 31
0.0
  0
LINE
  5
82
330
1F
100
AcDbEntity
  8
0
  6
Continuous
 62
     7
370
    15
100
AcDbLine
 10
3.693694944796262
 20
6.795769129143133
 30
0.0
 11
3.681194953197232
 21
6.801372722078132
 31
0.0
  0
LINE
  5
83
330
1F
100
AcDbEntity
  8
0
  6
Continuous
 62
     7
370
    15
100
AcDbLine
 10
3.193930531450746
 20
7.019807386577158
 30
0.0
 11
3.143694947776496
 21
7.042327382653347
 31
0.0
  0
LINE
  5
84
330
1F
100
AcDbEntity
  8
0
  6
Continuous
 62
     7
370
    15
100
AcDbLine
 10
3.693694944796262
 20
5.008806361479087
 30
0.0
 11
3.693694944796262
 21
6.795769129143133
 31
0.0
  0
LINE
  5
85
330
1F
100
AcDbEntity
  8
0
  6
Continuous
 62
     7
370
    15
100
AcDbLine
 10
3.693694944796262
 20
5.008806361479087
 30
0.0
 11
3.443297430743045
 21
5.121056496175073
 31
0.0
  0
LINE
  5
86
330
1F
100
AcDbEntity
  8
0
  6
Continuous
 62
     7
370
    15
100
AcDbLine
 10
3.443297430743045
 20
5.121056496175073
 30
0.0
 11
3.418694953619628
 21
4.987196708379991
 31
0.0
  0
LINE
  5
87
330
1F
100
AcDbEntity
  8
0
  6
Continuous
 62
     7
370
    15
100
AcDbLine
 10
3.418694953619628
 20
4.987196708379991
 30
0.0
 11
3.393395623546314
 21
5.095130605494198
 31
0.0
  0
LINE
  5
88
330
1F
100
AcDbEntity
  8
0
  6
Continuous
 62
     7
370
    15
100
AcDbLine
 10
3.393395623546314
 20
5.095130605494198
 30
0.0
 11
3.143694947776496
 21
5.207068356133702
 31
0.0
  0
LINE
  5
89
330
1F
100
AcDbEntity
  8
0
  6
Continuous
 62
     7
370
    15
100
AcDbLine
 10
3.693694944796262
 20
6.795769129143133
 30
0.0
 11
3.715153975021105
 21
6.798975735835818
 31
0.0
  0
LINE
  5
8A
330
1F
100
AcDbEntity
  8
0
  6
Continuous
 62
     7
370
    15
100
AcDbLine
 10
3.953502543739429
 20
5.047629214928307
 30
0.0
 11
3.953502543739429
 21
6.831483854646473
 31
0.0
  0
LINE
  5
8B
330
1F
100
AcDbEntity
  8
0
  6
Continuous
 62
     7
370
    15
100
AcDbLine
 10
3.953502543739429
 20
5.047629214928307
 30
0.0
 11
3.693694944796262
 21
5.008806361479087
 31
0.0
  0
LINE
  5
8C
330
1F
100
AcDbEntity
  8
0
  6
Continuous
 62
     7
370
    15
100
AcDbLine
 10
3.66109872373828
 20
5.023418920821566
 30
0.0
 11
3.418694953619628
 21
4.987196708379991
 31
0.0
  0
LINE
  5
8D
330
1F
100
AcDbEntity
  8
0
  6
Continuous
 62
     7
370
    15
100
AcDbLine
 10
4.088414745822515
 20
6.854751811139665
 30
0.0
 11
4.213310142682598
 21
6.873414836041573
 31
0.0
  0
LINE
  5
8E
330
1F
100
AcDbEntity
  8
0
  6
Continuous
 62
     7
370
    15
100
AcDbLine
 10
4.213310142682598
 20
4.506896622108372
 30
0.0
 11
4.213310142682598
 21
6.873414836041573
 31
0.0
  0
LINE
  5
8F
330
1F
100
AcDbEntity
  8
0
  6
Continuous
 62
     7
370
    15
100
AcDbLine
 10
4.213310142682598
 20
4.506896622108372
 30
0.0
 11
3.953502543739429
 21
4.468073768659152
 31
0.0
  0
LINE
  5
90
330
1F
100
AcDbEntity
  8
0
  6
Continuous
 62
     7
370
    15
100
AcDbLine
 10
3.953502543739429
 20
4.468073768659152
 30
0.0
 11
3.953502543739429
 21
6.831483854646473
 31
0.0
  0
LINE
  5
91
330
1F
100
AcDbEntity
  8
0
  6
Continuous
 62
     7
370
    15
100
AcDbLine
 10
3.403502546719664
 20
5.052011436815879
 30
0.0
 11
3.403502546719664
 21
4.666335649979779
 31
0.0
  0
LINE
  5
92
330
1F
100
AcDbEntity
  8
0
  6
Continuous
 62
     7
370
    15
100
AcDbLine
 10
3.953502543739429
 20
4.468073768659152
 30
0.0
 11
3.703105029686213
 21
4.580323903355138
 31
0.0
  0
LINE
  5
93
330
1F
100
AcDbEntity
  8
0
  6
Continuous
 62
     7
370
    15
100
AcDbLine
 10
3.703105029686213
 20
4.580323903355138
 30
0.0
 11
3.678502552562795
 21
4.446464002226068
 31
0.0
  0
LINE
  5
94
330
1F
100
AcDbEntity
  8
0
  6
Continuous
 62
     7
370
    15
100
AcDbLine
 10
3.678502552562795
 20
4.446464002226068
 30
0.0
 11
3.653203222489482
 21
4.554397899340275
 31
0.0
  0
LINE
  5
95
330
1F
100
AcDbEntity
  8
0
  6
Continuous
 62
     7
370
    15
100
AcDbLine
 10
3.653203222489482
 20
4.554397899340275
 30
0.0
 11
3.403502546719664
 21
4.666335649979779
 31
0.0
  0
LINE
  5
96
330
1F
100
AcDbEntity
  8
0
  6
Continuous
 62
     7
370
    15
100
AcDbLine
 10
3.920906348084566
 20
4.48268621846361
 30
0.0
 11
3.678502552562795
 21
4.446464002226068
 31
0.0
  0
LINE
  5
97
330
1F
100
AcDbEntity
  8
0
  6
Continuous
 62
     7
370
    15
100
AcDbLine
 10
3.663310145662831
 20
4.51127895732993
 30
0.0
 11
3.663310145662831
 21
4.125602943825856
 31
0.0
  0
LINE
  5
98
330
1F
100
AcDbEntity
  8
0
  6
Continuous
 62
     7
370
    15
100
AcDbLine
 10
4.213310142682598
 20
3.927341062505228
 30
0.0
 11
4.213310142682598
 21
6.873414836041573
 31
0.0
  0
LINE
  5
99
330
1F
100
AcDbEntity
  8
0
  6
Continuous
 62
     7
370
    15
100
AcDbLine
 10
4.213310142682598
 20
3.927341062505228
 30
0.0
 11
3.962912628629381
 21
4.039591197201214
 31
0.0
  0
LINE
  5
9A
330
1F
100
AcDbEntity
  8
0
  6
Continuous
 62
     7
370
    15
100
AcDbLine
 10
3.962912628629381
 20
4.039591197201214
 30
0.0
 11
3.938310151505963
 21
3.905731296072144
 31
0.0
  0
LINE
  5
9B
330
1F
100
AcDbEntity
  8
0
  6
Continuous
 62
     7
370
    15
100
AcDbLine
 10
3.938310151505963
 20
3.905731296072144
 30
0.0
 11
3.913010821432649
 21
4.013665193186352
 31
0.0
  0
LINE
  5
9C
330
1F
100
AcDbEntity
  8
0
  6
Continuous
 62
     7
370
    15
100
AcDbLine
 10
3.913010821432649
 20
4.013665193186352
 30
0.0
 11
3.663310145662831
 21
4.125602943825856
 31
0.0
  0
LINE
  5
9D
330
1F
100
AcDbEntity
  8
0
  6
Continuous
 62
     7
370
    15
100
AcDbLine
 10
4.213310142682598
 20
6.873414836041573
 30
0.0
 11
4.473117767028883
 21
6.912237693286762
 31
0.0
  0
LINE
  5
9E
330
1F
100
AcDbEntity
  8
0
  6
Continuous
 62
     7
370
    15
100
AcDbLine
 10
4.473117767028883
 20
3.966163919750417
 30
0.0
 11
4.473117767028883
 21
6.912237693286762
 31
0.0
  0
LINE
  5
9F
330
1F
100
AcDbEntity
  8
0
  6
Continuous
 62
     7
370
    15
100
AcDbLine
 10
4.473117767028883
 20
3.966163919750417
 30
0.0
 11
4.213310142682598
 21
3.927341062505228
 31
0.0
  0
LINE
  5
A0
330
1F
100
AcDbEntity
  8
0
  6
Continuous
 62
     7
370
    15
100
AcDbLine
 10
4.180713959729293
 20
3.941953514207672
 30
0.0
 11
3.938310151505963
 21
3.905731296072144
 31
0.0
  0
LINE
  5
A1
330
1F
100
AcDbEntity
  8
0
  6
Continuous
 62
     7
370
    15
100
AcDbLine
 10
3.513893413010123
 20
6.418658104537014
 30
0.0
 11
3.513893413010123
 21
7.170941773113892
 31
0.0
  0
LINE
  5
A2
330
1F
100
AcDbEntity
  8
0
  6
Continuous
 62
     7
370
    15
100
AcDbLine
 10
3.513893413010123
 20
7.170941773113892
 30
0.0
 11
4.79532860169948
 21
10.74123634756897
 31
0.0
  0
LINE
  5
A3
330
1F
100
AcDbEntity
  8
0
  6
Continuous
 62
     7
370
    15
100
AcDbLine
 10
4.79532860169948
 20
10.74123634756897
 30
0.0
 11
4.824652461377022
 21
10.54517944541128
 31
0.0
  0
LINE
  5
A4
330
1F
100
AcDbEntity
  8
0
  6
Continuous
 62
     7
370
    15
100
AcDbLine
 10
4.824652461377022
 20
10.54517944541128
 30
0.0
 11
4.869932958564247
 21
10.57295463490698
 31
0.0
  0
LINE
  5
A5
330
1F
100
AcDbEntity
  8
0
  6
Continuous
 62
     7
370
    15
100
AcDbLine
 10
4.869932958564247
 20
10.57295463490698
 30
0.0
 11
4.849416134481423
 21
10.48978411219544
 31
0.0
  0
LINE
  5
A6
330
1F
100
AcDbEntity
  8
0
  6
Continuous
 62
     7
370
    15
100
AcDbLine
 10
4.849416134481423
 20
10.48978411219544
 30
0.0
 11
4.886381032697085
 21
10.24264001558305
 31
0.0
  0
LINE
  5
A7
330
1F
100
AcDbEntity
  8
0
  6
Continuous
 62
     7
370
    15
100
AcDbLine
 10
3.513893413010123
 20
6.418658104537014
 30
0.0
 11
3.861102277191315
 21
7.386040517667955
 31
0.0
  0
LINE
  5
A8
330
1F
100
AcDbEntity
  8
0
  6
Continuous
 62
     7
370
    15
100
AcDbLine
 10
4.105315298378942
 20
8.066459135250035
 30
0.0
 11
4.886381032697085
 21
10.24264001558305
 31
0.0
  0
LINE
  5
A9
330
1F
100
AcDbEntity
  8
0
  6
Continuous
 62
     7
370
    15
100
AcDbLine
 10
3.193930480004994
 20
6.440847647246518
 30
0.0
 11
3.513893413010123
 21
6.418658104537014
 31
0.0
  0
LINE
  5
AA
330
1F
100
AcDbEntity
  8
0
  6
Continuous
 62
     7
370
    15
100
AcDbLine
 10
3.193930480004994
 20
6.440847647246518
 30
0.0
 11
3.193930480004994
 21
7.193131315823396
 31
0.0
  0
LINE
  5
AB
330
1F
100
AcDbEntity
  8
0
  6
Continuous
 62
     7
370
    15
100
AcDbLine
 10
3.193930480004994
 20
7.193131315823396
 30
0.0
 11
3.513893413010123
 21
7.170941773113892
 31
0.0
  0
LINE
  5
AC
330
1F
100
AcDbEntity
  8
0
  6
Continuous
 62
     7
370
    15
100
AcDbLine
 10
4.475365610028362
 20
10.76342591657772
 30
0.0
 11
4.79532860169948
 21
10.74123634756897
 31
0.0
  0
LINE
  5
AD
330
1F
100
AcDbEntity
  8
0
  6
Continuous
 62
     7
370
    15
100
AcDbLine
 10
3.193930480004994
 20
7.193131315823396
 30
0.0
 11
4.475365610028362
 21
10.76342591657772
 31
0.0
  0
LINE
  5
AE
330
1F
100
AcDbEntity
  8
0
  6
Continuous
 62
     7
370
    15
100
AcDbLine
 10
4.81998004916163
 20
10.57641884240195
 30
0.0
 11
4.869932958564247
 21
10.57295463490698
 31
0.0
  0
LINE
  5
B1
330
1F
100
AcDbEntity
  8
0
  6
Continuous
 62
     7
370
    15
100
AcDbLine
 10
2.293694917716046
 20
7.713149723268578
 30
0.0
 11
3.143694947776496
 21
7.332105134121421
 31
0.0
  0
LINE
  5
B2
330
1F
100
AcDbEntity
  8
0
  6
Continuous
 62
     7
370
    15
100
AcDbLine
 10
2.293694917716046
 20
7.713149723268578
 30
0.0
 11
2.293694917716046
 21
8.002927474736653
 31
0.0
  0
LINE
  5
B3
330
1F
100
AcDbEntity
  8
0
  6
Continuous
 62
     7
370
    15
100
AcDbLine
 10
2.293694917716046
 20
8.002927474736653
 30
0.0
 11
3.143694947776496
 21
7.621882885589496
 31
0.0
  0
LINE
  5
B4
330
1F
100
AcDbEntity
  8
0
  6
Continuous
 62
     7
370
    15
100
AcDbLine
 10
2.293694917716046
 20
8.002927474736653
 30
0.0
 11
2.745719581258343
 21
8.070473179094493
 31
0.0
  0
LINE
  5
B5
330
1F
100
AcDbEntity
  8
0
  6
Continuous
 62
     7
370
    15
100
AcDbLine
 10
2.745719581258343
 20
8.070473179094493
 30
0.0
 11
2.720008882715732
 21
8.096517077800218
 31
0.0
  0
LINE
  5
B6
330
1F
100
AcDbEntity
  8
0
  6
Continuous
 62
     7
370
    15
100
AcDbLine
 10
2.720008882715732
 20
8.096517077800218
 30
0.0
 11
2.868005513749764
 21
8.073803324146007
 31
0.0
  0
LINE
  5
B7
330
1F
100
AcDbEntity
  8
0
  6
Continuous
 62
     7
370
    15
100
AcDbLine
 10
2.868005513749764
 20
8.073803324146007
 30
0.0
 11
3.271322860476388
 21
8.134070730908506
 31
0.0
  0
LINE
  5
B8
330
1F
100
AcDbEntity
  8
0
  6
Continuous
 62
     7
370
    15
100
AcDbLine
 10
3.441329269881172
 20
8.057858942516659
 30
0.0
 11
3.271322860476388
 21
8.134070730908506
 31
0.0
  0
LINE
  5
B9
330
1F
100
AcDbEntity
  8
0
  6
Continuous
 62
     7
370
    15
100
AcDbLine
 10
2.720008882715732
 20
8.066631216910254
 30
0.0
 11
2.720008882715732
 21
8.096517077800218
 31
0.0
  0
LINE
  5
BB
330
1F
100
AcDbEntity
  8
0
  6
Continuous
 62
     7
370
    15
100
AcDbLine
 10
6.508277535333407
 20
7.790828780044769
 30
0.0
 11
6.695568081737031
 21
7.706868725007548
 31
0.0
  0
LINE
  5
BC
330
1F
100
AcDbEntity
  8
0
  6
Continuous
 62
     7
370
    15
100
AcDbLine
 10
6.695568081737031
 20
7.706868725007548
 30
0.0
 11
6.796193993911991
 21
7.713523136878454
 31
0.0
  0
LINE
  5
BD
330
1F
100
AcDbEntity
  8
0
  6
Continuous
 62
     7
370
    15
100
AcDbLine
 10
6.796193993911991
 20
7.713523136878454
 30
0.0
 11
6.708434788845712
 21
7.675218790155835
 31
0.0
  0
LINE
  5
BE
330
1F
100
AcDbEntity
  8
0
  6
Continuous
 62
     7
370
    15
100
AcDbLine
 10
6.708434788845712
 20
7.675218790155835
 30
0.0
 11
6.941290160213925
 21
7.570832582890174
 31
0.0
  0
LINE
  5
BF
330
1F
100
AcDbEntity
  8
0
  6
Continuous
 62
     7
370
    15
100
AcDbLine
 10
4.646322845692554
 20
7.2278973489523
 30
0.0
 11
6.941290160213925
 21
7.570832582890174
 31
0.0
  0
LINE
  5
C0
330
1F
100
AcDbEntity
  8
0
  6
Continuous
 62
     7
370
    15
100
AcDbLine
 10
6.941290160213925
 20
7.2810548314221
 30
0.0
 11
6.941290160213925
 21
7.570832582890174
 31
0.0
  0
LINE
  5
C1
330
1F
100
AcDbEntity
  8
0
  6
Continuous
 62
     7
370
    15
100
AcDbLine
 10
4.646322845692554
 20
6.938119597484226
 30
0.0
 11
6.941290160213925
 21
7.2810548314221
 31
0.0
  0
LINE
  5
C2
330
1F
100
AcDbEntity
  8
0
  6
Continuous
 62
     7
370
    15
100
AcDbLine
 10
6.796193993911991
 20
7.635877412729962
 30
0.0
 11
6.796193993911991
 21
7.713523136878454
 31
0.0
  0
LINE
  5
C3
330
1F
100
AcDbEntity
  8
0
  6
Continuous
 62
     7
370
    15
100
AcDbLine
 10
3.878615674926514
 20
7.402957197234314
 30
0.0
 11
3.99664943547953
 21
7.420594893000913
 31
0.0
  0
LINE
  5
C4
330
1F
100
AcDbEntity
  8
0
  6
Continuous
 62
     7
370
    15
100
AcDbLine
 10
4.261619811784626
 20
7.460189216375294
 30
0.0
 11
6.508277546114881
 21
7.795905586201486
 31
0.0
  0
LINE
  5
C5
330
1F
100
AcDbEntity
  8
0
  6
Continuous
 62
     7
370
    15
100
AcDbLine
 10
6.508277546114881
 20
7.506127834733412
 30
0.0
 11
6.508277546114881
 21
7.795905586201486
 31
0.0
  0
LINE
  5
C6
330
1F
100
AcDbEntity
  8
0
  6
Continuous
 62
     7
370
    15
100
AcDbLine
 10
4.261619811784626
 20
7.170411464907219
 30
0.0
 11
6.508277546114881
 21
7.506127834733412
 31
0.0
  0
LINE
  5
C7
330
1F
100
AcDbEntity
  8
0
  6
Continuous
 62
     7
370
    15
100
AcDbLine
 10
3.143694947776496
 20
7.621882885589496
 30
0.0
 11
3.31952552956661
 21
7.543060192144468
 31
0.0
  0
LINE
  5
C8
330
1F
100
AcDbEntity
  8
0
  6
Continuous
 62
     7
370
    15
100
AcDbLine
 10
3.143694947776496
 20
7.332105134121421
 30
0.0
 11
3.229934662861281
 21
7.293444927485532
 31
0.0
  0
LINE
  5
C9
330
1F
100
AcDbEntity
  8
0
  6
Continuous
 62
     7
370
    15
100
AcDbLine
 10
6.001578688570051
 20
8.048934296306727
 30
0.0
 11
4.182668733948797
 21
7.77713595440744
 31
0.0
  0
LINE
  5
CA
330
1F
100
AcDbEntity
  8
0
  6
Continuous
 62
     7
370
    15
100
AcDbLine
 10
6.001578688570051
 20
8.048934296306727
 30
0.0
 11
6.262555264413042
 21
7.931941697951109
 31
0.0
  0
LINE
  5
CB
330
1F
100
AcDbEntity
  8
0
  6
Continuous
 62
     7
370
    15
100
AcDbLine
 10
6.262555264413042
 20
7.931941697951109
 30
0.0
 11
6.363181379812949
 21
7.938596140189767
 31
0.0
  0
LINE
  5
CC
330
1F
100
AcDbEntity
  8
0
  6
Continuous
 62
     7
370
    15
100
AcDbLine
 10
6.363181379812949
 20
7.938596140189767
 30
0.0
 11
6.275422174746669
 21
7.900291793467148
 31
0.0
  0
LINE
  5
CD
330
1F
100
AcDbEntity
  8
0
  6
Continuous
 62
     7
370
    15
100
AcDbLine
 10
6.275422174746669
 20
7.900291793467148
 30
0.0
 11
6.508277546114881
 21
7.795905586201486
 31
0.0
  0
LINE
  5
CE
330
1F
100
AcDbEntity
  8
0
  6
Continuous
 62
     7
370
    15
100
AcDbLine
 10
6.363181379812949
 20
7.860950430208023
 30
0.0
 11
6.363181379812949
 21
7.938596140189767
 31
0.0
  0
LINE
  5
CF
330
1F
100
AcDbEntity
  8
0
  6
Continuous
 62
     7
370
    15
100
AcDbLine
 10
3.693694944796262
 20
6.818151082956624
 30
0.0
 11
3.693694944796262
 21
6.795769129143133
 31
0.0
  0
LINE
  5
D0
330
1F
100
AcDbEntity
  8
0
  6
Continuous
 62
     7
370
    15
100
AcDbLine
 10
2.043694968403461
 20
7.535443883098965
 30
0.0
 11
3.193930531450746
 21
7.019807386577158
 31
0.0
  0
LINE
  5
D1
330
1F
100
AcDbEntity
  8
0
  6
Continuous
 62
     7
370
    15
100
AcDbLine
 10
2.043694968403461
 20
7.535443883098965
 30
0.0
 11
2.043694968403461
 21
7.825221634567039
 31
0.0
  0
LINE
  5
D2
330
1F
100
AcDbEntity
  8
0
  6
Continuous
 62
     7
370
    15
100
AcDbLine
 10
2.043694968403461
 20
7.825221634567039
 30
0.0
 11
3.229934662861281
 21
7.293444927485532
 31
0.0
  0
LINE
  5
D3
330
1F
100
AcDbEntity
  8
0
  6
Continuous
 62
     7
370
    15
100
AcDbLine
 10
4.261619811784626
 20
7.170411464907219
 30
0.0
 11
4.646322845692554
 21
7.2278973489523
 31
0.0
  0
LINE
  5
D4
330
1F
100
AcDbEntity
  8
0
  6
Continuous
 62
     7
370
    15
100
AcDbLine
 10
2.043694968403461
 20
7.825221634567039
 30
0.0
 11
2.293694931400412
 21
7.862578940378037
 31
0.0
  0
LINE
  5
D5
330
1F
100
AcDbEntity
  8
0
  6
Continuous
 62
     7
370
    15
100
AcDbLine
 10
4.088414745822515
 20
6.854751811139665
 30
0.0
 11
4.646322845692554
 21
6.938119597484226
 31
0.0
  0
LINE
  5
D6
330
1F
100
AcDbEntity
  8
0
  6
Continuous
 62
     7
370
    15
100
AcDbLine
 10
3.841346650214841
 20
8.051883316832302
 30
0.0
 11
3.849824739766901
 21
8.051295358319597
 31
0.0
  0
LINE
  5
D7
330
1F
100
AcDbEntity
  8
0
  6
Continuous
 62
     7
370
    15
100
AcDbLine
 10
3.849824739766901
 20
8.051295358319597
 30
0.0
 11
3.849824739766901
 21
7.375147224338262
 31
0.0
  0
LINE
  5
D8
330
1F
100
AcDbEntity
  8
0
  6
Continuous
 62
     7
370
    15
100
AcDbLine
 10
3.841346650214841
 20
7.375735182850966
 30
0.0
 11
3.849824739766901
 21
7.375147224338262
 31
0.0
  0
LINE
  5
D9
330
1F
100
AcDbEntity
  8
0
  6
Continuous
 62
     7
370
    15
100
AcDbLine
 10
3.903419475251673
 20
8.103063938960588
 30
0.0
 11
3.849824739766901
 21
8.051295358319597
 31
0.0
  0
LINE
  5
DA
330
1F
100
AcDbEntity
  8
0
  6
Continuous
 62
     7
370
    15
100
AcDbLine
 10
3.849824739766901
 20
7.375147224338262
 30
0.0
 11
3.903419475251673
 21
7.426915804979253
 31
0.0
  0
LWPOLYLINE
  5
DB
330
1F
100
AcDbEntity
  8
0
  6
Continuous
 62
     7
370
    15
100
AcDbPolyline
 90
       10
 70
   128
 43
0.0
 10
4.110065354628484
 20
7.253323303589416
 10
4.108759685149714
 20
7.244869069030829
 10
4.105000074434919
 20
7.237044292970136
 10
4.09924006975975
 20
7.230792792025955
 10
4.092174344799575
 20
7.226868596182339
 10
4.084655174176221
 20
7.225745012190348
 10
4.077589449216046
 20
7.227557556136503
 10
4.07182939373464
 20
7.232087623184972
 10
4.068069783019844
 20
7.238788807661737
 10
4.066764113541075
 20
7.246852831810515
  0
LINE
  5
DC
330
1F
100
AcDbEntity
  8
0
  6
Continuous
 62
     7
370
    15
100
AcDbLine
 10
4.110065354628484
 20
7.687989916624779
 30
0.0
 11
4.110065354628484
 21
7.253323303589416
 31
0.0
  0
LWPOLYLINE
  5
DD
330
1F
100
AcDbEntity
  8
0
  6
Continuous
 62
     7
370
    15
100
AcDbPolyline
 90
       10
 70
   128
 43
0.0
 10
4.066764113541075
 20
7.681519444845878
 10
4.068069783019844
 20
7.689973707737962
 10
4.07182939373464
 20
7.697798512132151
 10
4.077589449216046
 20
7.704050020668272
 10
4.084655174176221
 20
7.707974216511887
 10
4.092174344799575
 20
7.709097800503879
 10
4.09924006975975
 20
7.707285256557722
 10
4.105000074434919
 20
7.702755181917317
 10
4.108759685149714
 20
7.696053969107055
 10
4.110065354628484
 20
7.687989916624779
  0
LINE
  5
DE
330
1F
100
AcDbEntity
  8
0
  6
Continuous
 62
     7
370
    15
100
AcDbLine
 10
4.066764113541075
 20
7.246852831810515
 30
0.0
 11
4.066764113541075
 21
7.681519444845878
 31
0.0
  0
LINE
  5
DF
330
1F
100
AcDbEntity
  8
0
  6
Continuous
 62
     7
370
    15
100
AcDbLine
 10
4.001849442075276
 20
7.418263793816484
 30
0.0
 11
3.874809005898734
 21
7.399280237308247
 31
0.0
  0
LINE
  5
E0
330
1F
100
AcDbEntity
  8
0
  6
Continuous
 62
     7
370
    15
100
AcDbLine
 10
4.001849442075276
 20
7.442411923244282
 30
0.0
 11
4.001849442075276
 21
7.418263793816484
 31
0.0
  0
LINE
  5
E1
330
1F
100
AcDbEntity
  8
0
  6
Continuous
 62
     7
370
    15
100
AcDbLine
 10
3.907612814763291
 20
7.428330215139655
 30
0.0
 11
4.001849442075276
 21
7.442411923244282
 31
0.0
  0
LINE
  5
E2
330
1F
100
AcDbEntity
  8
0
  6
Continuous
 62
     7
370
    15
100
AcDbLine
 10
4.091050053586076
 20
8.131889237289447
 30
0.0
 11
3.907612814763291
 21
8.10447834912099
 31
0.0
  0
LINE
  5
E3
330
1F
100
AcDbEntity
  8
0
  6
Continuous
 62
     7
370
    15
100
AcDbLine
 10
4.091050053586076
 20
8.119815087575057
 30
0.0
 11
4.091050053586076
 21
8.131889237289447
 31
0.0
  0
LINE
  5
E4
330
1F
100
AcDbEntity
  8
0
  6
Continuous
 62
     7
370
    15
100
AcDbLine
 10
4.218318558959482
 20
7.643795759352911
 30
0.0
 11
4.091050053586076
 21
8.119815087575057
 31
0.0
  0
LINE
  5
E5
330
1F
100
AcDbEntity
  8
0
  6
Continuous
 62
     7
370
    15
100
AcDbLine
 10
4.26161982545001
 20
7.650266234927782
 30
0.0
 11
4.218318558959482
 21
7.643795759352911
 31
0.0
  0
LINE
  5
E6
330
1F
100
AcDbEntity
  8
0
  6
Continuous
 62
     7
370
    15
100
AcDbLine
 10
4.26161982545001
 20
6.986192238264932
 30
0.0
 11
4.26161982545001
 21
7.650266234927782
 31
0.0
  0
LINE
  5
E7
330
1F
100
AcDbEntity
  8
0
  6
Continuous
 62
     7
370
    15
100
AcDbLine
 10
4.26161982545001
 20
6.986192238264932
 30
0.0
 11
4.175017292468954
 21
6.876658703882782
 31
0.0
  0
LINE
  5
E8
330
1F
100
AcDbEntity
  8
0
  6
Continuous
 62
     7
370
    15
100
AcDbLine
 10
4.175017292468954
 20
6.876658703882782
 30
0.0
 11
4.088414734084779
 21
6.863717748937073
 31
0.0
  0
LINE
  5
E9
330
1F
100
AcDbEntity
  8
0
  6
Continuous
 62
     7
370
    15
100
AcDbLine
 10
4.088414734084779
 20
6.863717748937073
 30
0.0
 11
4.088414734084779
 21
6.851643677139799
 31
0.0
  0
LINE
  5
EA
330
1F
100
AcDbEntity
  8
0
  6
Continuous
 62
     7
370
    15
100
AcDbLine
 10
3.720353981616851
 20
6.796644636651389
 30
0.0
 11
4.088414734084779
 21
6.851643677139799
 31
0.0
  0
LINE
  5
EB
330
1F
100
AcDbEntity
  8
0
  6
Continuous
 62
     7
370
    15
100
AcDbLine
 10
3.720353981616851
 20
6.796644636651389
 30
0.0
 11
3.720353981616851
 21
6.820792783787624
 31
0.0
  0
LINE
  5
EC
330
1F
100
AcDbEntity
  8
0
  6
Continuous
 62
     7
370
    15
100
AcDbLine
 10
3.720353981616851
 20
6.820792783787624
 30
0.0
 11
3.706689136175003
 21
6.818750856245268
 31
0.0
  0
LINE
  5
ED
330
1F
100
AcDbEntity
  8
0
  6
Continuous
 62
     7
370
    15
100
AcDbLine
 10
3.672188226767468
 20
6.824175000880792
 30
0.0
 11
3.672188226767468
 21
6.800026853744556
 31
0.0
  0
LINE
  5
EE
330
1F
100
AcDbEntity
  8
0
  6
Continuous
 62
     7
370
    15
100
AcDbLine
 10
3.653740823873441
 20
6.80829659822455
 30
0.0
 11
3.672188226767468
 21
6.800026853744556
 31
0.0
  0
LINE
  5
EF
330
1F
100
AcDbEntity
  8
0
  6
Continuous
 62
     7
370
    15
100
AcDbLine
 10
3.359688227794124
 20
7.712857422503113
 30
0.0
 11
3.359688227794124
 21
7.654960414880848
 31
0.0
  0
LINE
  5
F0
330
1F
100
AcDbEntity
  8
0
  6
Continuous
 62
     7
370
    15
100
AcDbLine
 10
3.359688227794124
 20
7.712857422503113
 30
0.0
 11
3.377588310010846
 21
7.70483303517046
 31
0.0
  0
LINE
  5
F1
330
1F
100
AcDbEntity
  8
0
  6
Continuous
 62
     7
370
    15
100
AcDbLine
 10
3.391244395587914
 20
7.74288123118149
 30
0.0
 11
3.458166735162003
 21
8.163747680320591
 31
0.0
  0
LINE
  5
F2
330
1F
100
AcDbEntity
  8
0
  6
Continuous
 62
     7
370
    15
100
AcDbLine
 10
3.458166735162003
 20
8.163747680320591
 30
0.0
 11
3.458166735162003
 21
8.175821830034982
 31
0.0
  0
LINE
  5
F3
330
1F
100
AcDbEntity
  8
0
  6
Continuous
 62
     7
370
    15
100
AcDbLine
 10
3.53437232949514
 20
8.141659796674442
 30
0.0
 11
3.458166735162003
 21
8.175821830034982
 31
0.0
  0
LINE
  5
F4
330
1F
100
AcDbEntity
  8
0
  6
Continuous
 62
     7
370
    15
100
AcDbLine
 10
3.680188214350929
 20
6.820588704558301
 30
0.0
 11
3.672188226767468
 21
6.824175000880792
 31
0.0
  0
ARC
  5
F5
330
1F
100
AcDbEntity
  8
0
  6
Continuous
 62
     7
370
    15
100
AcDbCircle
 10
3.908184417273587
 20
8.095860446115635
 30
0.0
 40
0.0086368386368792
100
AcDbArc
 50
93.79471796027628
 51
123.4837036696847
  0
ARC
  5
F6
330
1F
100
AcDbEntity
  8
0
  6
Continuous
 62
     7
370
    15
100
AcDbCircle
 10
3.907137692154057
 20
8.072711115756469
 30
0.0
 40
0.034424131235295
100
AcDbArc
 50
97.88903565534099
 51
107.2110540539721
  0
ARC
  5
F7
330
1F
100
AcDbEntity
  8
0
  6
Continuous
 62
     7
370
    15
100
AcDbCircle
 10
3.908184417273599
 20
7.419712312134261
 30
0.0
 40
0.0086368386369187
100
AcDbArc
 50
93.79471796034142
 51
123.4837036696104
  0
LINE
  5
F8
330
1F
100
AcDbEntity
  8
0
  6
Continuous
 62
     7
370
    15
100
AcDbLine
 10
4.085850046990329
 20
8.134220336473877
 30
0.0
 11
4.091050053586076
 21
8.131889237289447
 31
0.0
  0
LINE
  5
F9
330
1F
100
AcDbEntity
  8
0
  6
Continuous
 62
     7
370
    15
100
AcDbLine
 10
4.085850046990329
 20
8.134220336473877
 30
0.0
 11
3.902412808167544
 21
8.106809448305419
 31
0.0
  0
ARC
  5
FA
330
1F
100
AcDbEntity
  8
0
  6
Continuous
 62
     7
370
    15
100
AcDbCircle
 10
3.697258437232415
 20
6.874748979605073
 30
0.0
 40
0.0567866877213811
100
AcDbArc
 50
252.5062030099783
 51
279.5595353883499
  0
LINE
  5
FB
330
1F
100
AcDbEntity
  8
0
  6
Continuous
 62
     7
370
    15
100
AcDbLine
 10
3.99664943547953
 20
7.420594893000913
 30
0.0
 11
4.001849442075276
 21
7.418263793816484
 31
0.0
  0
LINE
  5
FC
330
1F
100
AcDbEntity
  8
0
  6
Continuous
 62
     7
370
    15
100
AcDbLine
 10
3.467173461591766
 20
8.177167698368556
 30
0.0
 11
3.458166735162003
 21
8.175821830034982
 31
0.0
  0
LINE
  5
FD
330
1F
100
AcDbEntity
  8
0
  6
Continuous
 62
     7
370
    15
100
AcDbLine
 10
3.536036787410083
 20
8.146297113938247
 30
0.0
 11
3.467173461591766
 21
8.177167698368556
 31
0.0
  0
LINE
  5
FE
330
1F
100
AcDbEntity
  8
0
  6
Continuous
 62
     7
370
    15
100
AcDbLine
 10
3.715153975021105
 20
6.798975735835818
 30
0.0
 11
3.720353981616851
 21
6.796644636651389
 31
0.0
  0
LINE
  5
FF
330
1F
100
AcDbEntity
  8
0
  6
Continuous
 62
     7
370
    15
100
AcDbLine
 10
3.715153975021105
 20
6.798975735835818
 30
0.0
 11
3.715153975021105
 21
6.820015751484485
 31
0.0
  0
LINE
  5
100
330
1F
100
AcDbEntity
  8
0
  6
Continuous
 62
     7
370
    15
100
AcDbLine
 10
3.99664943547953
 20
7.441634894482832
 30
0.0
 11
3.99664943547953
 21
7.420594893000913
 31
0.0
  0
LINE
  5
101
330
1F
100
AcDbEntity
  8
0
  6
Continuous
 62
     7
370
    15
100
AcDbLine
 10
3.681194953197232
 20
6.801372722078132
 30
0.0
 11
3.672188226767468
 21
6.800026853744556
 31
0.0
  0
LINE
  5
102
330
1F
100
AcDbEntity
  8
0
  6
Continuous
 62
     7
370
    15
100
AcDbLine
 10
3.681194953197232
 20
6.820183628189578
 30
0.0
 11
3.681194953197232
 21
6.801372722078132
 31
0.0
  0
LINE
  5
103
330
1F
100
AcDbEntity
  8
0
  6
Continuous
 62
     7
370
    15
100
AcDbLine
 10
4.256419818854263
 20
7.65259733411221
 30
0.0
 11
4.26161982545001
 21
7.650266234927782
 31
0.0
  0
LINE
  5
104
330
1F
100
AcDbEntity
  8
0
  6
Continuous
 62
     7
370
    15
100
AcDbLine
 10
4.256419818854263
 20
7.65259733411221
 30
0.0
 11
4.217519490205287
 21
7.646784487357886
 31
0.0
  0
LINE
  5
105
330
1F
100
AcDbEntity
  8
0
  6
Continuous
 62
     7
370
    15
100
AcDbLine
 10
3.368694954223887
 20
7.714203290836688
 30
0.0
 11
3.359688227794124
 21
7.712857422503113
 31
0.0
  0
LINE
  5
106
330
1F
100
AcDbEntity
  8
0
  6
Continuous
 62
     7
370
    15
100
AcDbLine
 10
3.368694954223887
 20
7.714203290836688
 30
0.0
 11
3.379252775259037
 21
7.70947034914686
 31
0.0
  0
LINE
  5
107
330
1F
100
AcDbEntity
  8
0
  6
Continuous
 62
     8
370
    15
100
AcDbLine
 10
3.894941465838844
 20
8.103651891915609
 30
0.0
 11
3.903419475251673
 21
8.103063938960588
 31
0.0
  0
LINE
  5
108
330
1F
100
AcDbEntity
  8
0
  6
Continuous
 62
     8
370
    15
100
AcDbLine
 10
3.903419475251673
 20
7.426915804979253
 30
0.0
 11
3.903419475251673
 21
7.554302470491398
 31
0.0
  0
LINE
  5
109
330
1F
100
AcDbEntity
  8
0
  6
Continuous
 62
     8
370
    15
100
AcDbLine
 10
3.903419475251673
 20
7.615334239546654
 30
0.0
 11
3.903419475251673
 21
7.771635805342577
 31
0.0
  0
LINE
  5
10A
330
1F
100
AcDbEntity
  8
0
  6
Continuous
 62
     8
370
    15
100
AcDbLine
 10
3.903419475251673
 20
7.832667574397832
 30
0.0
 11
3.903419475251673
 21
7.988969140193756
 31
0.0
  0
LINE
  5
10B
330
1F
100
AcDbEntity
  8
0
  6
Continuous
 62
     8
370
    15
100
AcDbLine
 10
3.903419475251673
 20
8.050000852582018
 30
0.0
 11
3.903419475251673
 21
8.103063938960588
 31
0.0
  0
LINE
  5
10C
330
1F
100
AcDbEntity
  8
0
  6
Continuous
 62
     8
370
    15
100
AcDbLine
 10
3.907612814763291
 20
7.428330215139655
 30
0.0
 11
3.907612814763291
 21
7.561665271663614
 31
0.0
  0
LINE
  5
10D
330
1F
100
AcDbEntity
  8
0
  6
Continuous
 62
     8
370
    15
100
AcDbLine
 10
3.907612814763291
 20
7.613341263366636
 30
0.0
 11
3.907612814763291
 21
7.778998606514793
 31
0.0
  0
LINE
  5
10E
330
1F
100
AcDbEntity
  8
0
  6
Continuous
 62
     8
370
    15
100
AcDbLine
 10
3.907612814763291
 20
7.830674598217814
 30
0.0
 11
3.907612814763291
 21
7.996331884698977
 31
0.0
  0
LINE
  5
10F
330
1F
100
AcDbEntity
  8
0
  6
Continuous
 62
     8
370
    15
100
AcDbLine
 10
3.907612814763291
 20
8.048007876401998
 30
0.0
 11
3.907612814763291
 21
8.10447834912099
 31
0.0
  0
LINE
  5
110
330
1F
100
AcDbEntity
  8
0
  6
Continuous
 62
     8
370
    15
100
AcDbLine
 10
3.706689136175003
 20
6.818750856245268
 30
0.0
 11
3.706689136175003
 21
6.955819520368204
 31
0.0
  0
LINE
  5
111
330
1F
100
AcDbEntity
  8
0
  6
Continuous
 62
     8
370
    15
100
AcDbLine
 10
3.680188214350929
 20
6.820588704558301
 30
0.0
 11
3.680188214350929
 21
6.881983562949566
 31
0.0
  0
LINE
  5
112
330
1F
100
AcDbEntity
  8
0
  6
Continuous
 62
     8
370
    15
100
AcDbLine
 10
3.902412808167544
 20
8.106809448305419
 30
0.0
 11
3.907612814763291
 21
8.10447834912099
 31
0.0
  0
LINE
  5
113
330
1F
100
AcDbEntity
  8
0
  6
Continuous
 62
     8
370
    15
100
AcDbLine
 10
4.066764113541075
 20
7.681519444845878
 30
0.0
 11
4.076999198367884
 21
7.685531602086265
 31
0.0
  0
LINE
  5
114
330
1F
100
AcDbEntity
  8
0
  6
Continuous
 62
     8
370
    15
100
AcDbLine
 10
4.091522872436105
 20
7.687701863742153
 30
0.0
 11
4.110065354628484
 21
7.687989916624779
 31
0.0
  0
LWPOLYLINE
  5
115
330
1F
100
AcDbEntity
  8
0
  6
Continuous
 62
     8
370
    15
100
AcDbPolyline
 90
        9
 70
   128
 43
0.0
 10
4.076999198367884
 20
7.685531602086265
 10
4.077551970223949
 20
7.688713773597383
 10
4.079126150664053
 20
7.691576707364599
 10
4.08148203586311
 20
7.69368445898262
 10
4.084261035401994
 20
7.694716316346696
 10
4.087040034940878
 20
7.69451498659053
 10
4.089395920139936
 20
7.693111311267416
 10
4.090970100580039
 20
7.690718834690653
 10
4.091522872436105
 20
7.687701863742153
  0
LINE
  5
116
330
1F
100
AcDbEntity
  8
0
  6
Continuous
 62
     8
370
    15
100
AcDbLine
 10
4.076999198367884
 20
7.685531602086265
 30
0.0
 11
4.076999198367884
 21
7.250864989050902
 31
0.0
  0
LINE
  5
117
330
1F
100
AcDbEntity
  8
0
  6
Continuous
 62
     8
370
    15
100
AcDbLine
 10
4.066764113541075
 20
7.246852831810515
 30
0.0
 11
4.076999198367884
 21
7.250864989050902
 31
0.0
  0
ARC
  5
118
330
1F
100
AcDbEntity
  8
0
  6
Continuous
 62
     8
370
    15
100
AcDbCircle
 10
4.0908824635868
 20
7.642305271869262
 30
0.0
 40
0.0454011087658455
100
AcDbArc
 50
89.19178315001905
 51
107.8057782569392
  0
LINE
  5
119
330
1F
100
AcDbEntity
  8
0
  6
Continuous
 62
     8
370
    15
100
AcDbLine
 10
4.091522872436105
 20
7.687701863742153
 30
0.0
 11
4.091522872436105
 21
7.253035250706791
 31
0.0
  0
ARC
  5
11A
330
1F
100
AcDbEntity
  8
0
  6
Continuous
 62
     8
370
    15
100
AcDbCircle
 10
4.090882463586804
 20
7.207638658833876
 30
0.0
 40
0.0454011087658686
100
AcDbArc
 50
89.19178315002396
 51
107.8057782569346
  0
LINE
  5
11B
330
1F
100
AcDbEntity
  8
0
  6
Continuous
 62
     8
370
    15
100
AcDbLine
 10
4.091522872436105
 20
7.253035250706791
 30
0.0
 11
4.110065354628484
 21
7.253323303589416
 31
0.0
  0
LWPOLYLINE
  5
11C
330
1F
100
AcDbEntity
  8
0
  6
Continuous
 62
     8
370
    15
100
AcDbPolyline
 90
        9
 70
   128
 43
0.0
 10
4.091522872436105
 20
7.253035250706791
 10
4.090970100580039
 20
7.24985310752917
 10
4.089395920139936
 20
7.246990202095451
 10
4.087040034940878
 20
7.244882393810436
 10
4.084261035401994
 20
7.243850593113353
 10
4.08148203586311
 20
7.244051866202526
 10
4.079126150664053
 20
7.245455598192635
 10
4.077551970223949
 20
7.2478480464359
 10
4.076999198367884
 20
7.250864989050902
  0
TEXT
  5
124
330
1F
100
AcDbEntity
  8
0
100
AcDbText
 10
3.074389766308485
 20
3.123697555506311
 30
0.0
 40
0.25
  1
USP  HHCP
100
AcDbText
  0
TEXT
  5
125
330
1F
100
AcDbEntity
  8
0
100
AcDbText
 10
2.155317897216711
 20
2.603828866745601
 30
0.0
 40
0.25
  1
SIMPSON  HCP
100
AcDbText
  0
ENDSEC
  0
SECTION
  2
OBJECTS
  0
DICTIONARY
  5
C
330
0
100
AcDbDictionary
281
     1
  3
ACAD_COLOR
350
121
  3
ACAD_GROUP
350
D
  3
ACAD_LAYOUT
350
1A
  3
ACAD_MATERIAL
350
120
  3
ACAD_MLINESTYLE
350
17
  3
ACAD_PLOTSETTINGS
350
19
  3
ACAD_PLOTSTYLENAME
350
E
  0
DICTIONARY
  5
121
102
{ACAD_REACTORS
330
C
102
}
330
C
100
AcDbDictionary
281
     1
  0
DICTIONARY
  5
D
102
{ACAD_REACTORS
330
C
102
}
330
C
100
AcDbDictionary
281
     1
  0
DICTIONARY
  5
1A
102
{ACAD_REACTORS
330
C
102
}
330
C
100
AcDbDictionary
281
     1
  3
Layout1
350
1E
  3
Layout2
350
26
  3
Model
350
22
  0
DICTIONARY
  5
120
102
{ACAD_REACTORS
330
C
102
}
330
C
100
AcDbDictionary
281
     1
  0
DICTIONARY
  5
17
102
{ACAD_REACTORS
330
C
102
}
330
C
100
AcDbDictionary
281
     1
  3
Standard
350
18
  0
DICTIONARY
  5
19
102
{ACAD_REACTORS
330
C
102
}
330
C
100
AcDbDictionary
281
     1
  0
ACDBDICTIONARYWDFLT
  5
E
102
{ACAD_REACTORS
330
C
102
}
330
C
100
AcDbDictionary
281
     1
  3
Normal
350
F
100
AcDbDictionaryWithDefault
340
F
  0
LAYOUT
  5
1E
102
{ACAD_REACTORS
330
1A
102
}
330
1A
100
AcDbPlotSettings
  1

  2
none_device
  4

  6

 40
0.0
 41
0.0
 42
0.0
 43
0.0
 44
0.0
 45
0.0
 46
0.0
 47
0.0
 48
0.0
 49
0.0
140
0.0
141
0.0
142
1.0
143
1.0
 70
   688
 72
     0
 73
     0
 74
     5
  7

 75
    16
147
1.0
 76
     0
 77
     2
 78
   300
148
0.0
149
0.0
100
AcDbLayout
  1
Layout1
 70
     1
 71
     1
 10
0.0
 20
0.0
 11
12.0
 21
9.0
 12
0.0
 22
0.0
 32
0.0
 14
1.000000000000000E+20
 24
1.000000000000000E+20
 34
1.000000000000000E+20
 15
-1.000000000000000E+20
 25
-1.000000000000000E+20
 35
-1.000000000000000E+20
146
0.0
 13
0.0
 23
0.0
 33
0.0
 16
1.0
 26
0.0
 36
0.0
 17
0.0
 27
1.0
 37
0.0
 76
     0
330
1B
  0
LAYOUT
  5
26
102
{ACAD_REACTORS
330
1A
102
}
330
1A
100
AcDbPlotSettings
  1

  2
none_device
  4

  6

 40
0.0
 41
0.0
 42
0.0
 43
0.0
 44
0.0
 45
0.0
 46
0.0
 47
0.0
 48
0.0
 49
0.0
140
0.0
141
0.0
142
1.0
143
1.0
 70
   688
 72
     0
 73
     0
 74
     5
  7

 75
    16
147
1.0
 76
     0
 77
     2
 78
   300
148
0.0
149
0.0
100
AcDbLayout
  1
Layout2
 70
     1
 71
     2
 10
0.0
 20
0.0
 11
0.0
 21
0.0
 12
0.0
 22
0.0
 32
0.0
 14
0.0
 24
0.0
 34
0.0
 15
0.0
 25
0.0
 35
0.0
146
0.0
 13
0.0
 23
0.0
 33
0.0
 16
1.0
 26
0.0
 36
0.0
 17
0.0
 27
1.0
 37
0.0
 76
     0
330
23
  0
LAYOUT
  5
22
102
{ACAD_REACTORS
330
1A
102
}
330
1A
100
AcDbPlotSettings
  1

  2
none_device
  4

  6

 40
0.0
 41
0.0
 42
0.0
 43
0.0
 44
0.0
 45
0.0
 46
0.0
 47
0.0
 48
0.0
 49
0.0
140
0.0
141
0.0
142
1.0
143
1.0
 70
  1712
 72
     0
 73
     0
 74
     0
  7

 75
     0
147
1.0
 76
     0
 77
     2
 78
   300
148
0.0
149
0.0
100
AcDbLayout
  1
Model
 70
     1
 71
     0
 10
0.0
 20
0.0
 11
8.5
 21
11.0
 12
0.0
 22
0.0
 32
0.0
 14
0.0
 24
0.0
 34
0.0
 15
8.5
 25
11.0
 35
0.0
146
0.0
 13
0.0
 23
0.0
 33
0.0
 16
1.0
 26
0.0
 36
0.0
 17
0.0
 27
1.0
 37
0.0
 76
     0
330
1F
  0
MLINESTYLE
  5
18
102
{ACAD_REACTORS
330
17
102
}
330
17
100
AcDbMlineStyle
  2
STANDARD
 70
     0
  3

 62
   256
 51
90.0
 52
90.0
 71
     2
 49
0.5
 62
   256
  6
BYLAYER
 49
-0.5
 62
   256
  6
BYLAYER
  0
ACDBPLACEHOLDER
  5
F
102
{ACAD_REACTORS
330
E
102
}
330
E
  0
ENDSEC
  0
EOF
