  0
SECTION
  2
HEADER
  9
$ACADVER
  1
AC1018
  9
$ACADMAINTVER
 70
     0
  9
$DWGCODEPAGE
  3
ANSI_1252
  9
$INSBASE
 10
0.0
 20
0.0
 30
0.0
  9
$EXTMIN
 10
0.6114107867262178
 20
0.0662953831792657
 30
0.0
  9
$EXTMAX
 10
4.151930788981975
 20
2.513794805670876
 30
0.0
  9
$LIMMIN
 10
0.0
 20
0.0
  9
$LIMMAX
 10
12.0
 20
9.0
  9
$ORTHOMODE
 70
     0
  9
$REGENMODE
 70
     1
  9
$FILLMODE
 70
     1
  9
$QTEXTMODE
 70
     0
  9
$MIRRTEXT
 70
     0
  9
$LTSCALE
 40
1.5
  9
$ATTMODE
 70
     1
  9
$TEXTSIZE
 40
0.25
  9
$TRACEWID
 40
0.05
  9
$TEXTSTYLE
  7
STANDARD
  9
$CLAYER
  8
0
  9
$CELTYPE
  6
BYLAYER
  9
$CECOLOR
 62
   256
  9
$CELTSCALE
 40
1.0
  9
$DISPSILH
 70
     1
  9
$DIMSCALE
 40
1.0
  9
$DIMASZ
 40
0.18
  9
$DIMEXO
 40
0.0625
  9
$DIMDLI
 40
0.38
  9
$DIMRND
 40
0.0
  9
$DIMDLE
 40
0.0
  9
$DIMEXE
 40
0.18
  9
$DIMTP
 40
0.0
  9
$DIMTM
 40
0.0
  9
$DIMTXT
 40
0.18
  9
$DIMCEN
 40
0.09
  9
$DIMTSZ
 40
0.0
  9
$DIMTOL
 70
     0
  9
$DIMLIM
 70
     0
  9
$DIMTIH
 70
     1
  9
$DIMTOH
 70
     1
  9
$DIMSE1
 70
     0
  9
$DIMSE2
 70
     0
  9
$DIMTAD
 70
     0
  9
$DIMZIN
 70
     0
  9
$DIMBLK
  1

  9
$DIMASO
 70
     1
  9
$DIMSHO
 70
     1
  9
$DIMPOST
  1

  9
$DIMAPOST
  1

  9
$DIMALT
 70
     0
  9
$DIMALTD
 70
     2
  9
$DIMALTF
 40
25.4
  9
$DIMLFAC
 40
1.0
  9
$DIMTOFL
 70
     0
  9
$DIMTVP
 40
0.0
  9
$DIMTIX
 70
     0
  9
$DIMSOXD
 70
     0
  9
$DIMSAH
 70
     0
  9
$DIMBLK1
  1

  9
$DIMBLK2
  1

  9
$DIMSTYLE
  2
STANDARD
  9
$DIMCLRD
 70
     0
  9
$DIMCLRE
 70
     0
  9
$DIMCLRT
 70
     0
  9
$DIMTFAC
 40
1.0
  9
$DIMGAP
 40
0.09
  9
$DIMJUST
 70
     0
  9
$DIMSD1
 70
     0
  9
$DIMSD2
 70
     0
  9
$DIMTOLJ
 70
     1
  9
$DIMTZIN
 70
     0
  9
$DIMALTZ
 70
     0
  9
$DIMALTTZ
 70
     0
  9
$DIMUPT
 70
     0
  9
$DIMDEC
 70
     4
  9
$DIMTDEC
 70
     4
  9
$DIMALTU
 70
     2
  9
$DIMALTTD
 70
     2
  9
$DIMTXSTY
  7
STANDARD
  9
$DIMAUNIT
 70
     0
  9
$DIMADEC
 70
     0
  9
$DIMALTRND
 40
0.0
  9
$DIMAZIN
 70
     0
  9
$DIMDSEP
 70
    46
  9
$DIMATFIT
 70
     3
  9
$DIMFRAC
 70
     0
  9
$DIMLDRBLK
  1

  9
$DIMLUNIT
 70
     2
  9
$DIMLWD
 70
    -2
  9
$DIMLWE
 70
    -2
  9
$DIMTMOVE
 70
     0
  9
$LUNITS
 70
     5
  9
$LUPREC
 70
     6
  9
$SKETCHINC
 40
0.1
  9
$FILLETRAD
 40
0.0
  9
$AUNITS
 70
     0
  9
$AUPREC
 70
     1
  9
$MENU
  1
CUSTOM
  9
$ELEVATION
 40
0.0
  9
$PELEVATION
 40
0.0
  9
$THICKNESS
 40
0.0
  9
$LIMCHECK
 70
     0
  9
$CHAMFERA
 40
0.0
  9
$CHAMFERB
 40
0.0
  9
$CHAMFERC
 40
0.0
  9
$CHAMFERD
 40
0.0
  9
$SKPOLY
 70
     0
  9
$TDCREATE
 40
2451263.704898032
  9
$TDUCREATE
 40
2451263.913231366
  9
$TDUPDATE
 40
2456570.396616690
  9
$TDUUPDATE
 40
2456570.604950023
  9
$TDINDWG
 40
0.6514618403
  9
$TDUSRTIMER
 40
0.6514618403
  9
$USRTIMER
 70
     1
  9
$ANGBASE
 50
0.0
  9
$ANGDIR
 70
     0
  9
$PDMODE
 70
     0
  9
$PDSIZE
 40
0.0
  9
$PLINEWID
 40
0.0
  9
$SPLFRAME
 70
     0
  9
$SPLINETYPE
 70
     6
  9
$SPLINESEGS
 70
     8
  9
$HANDSEED
  5
1A8
  9
$SURFTAB1
 70
     6
  9
$SURFTAB2
 70
     6
  9
$SURFTYPE
 70
     6
  9
$SURFU
 70
     6
  9
$SURFV
 70
     6
  9
$UCSBASE
  2

  9
$UCSNAME
  2

  9
$UCSORG
 10
0.0
 20
0.0
 30
0.0
  9
$UCSXDIR
 10
1.0
 20
0.0
 30
0.0
  9
$UCSYDIR
 10
0.0
 20
1.0
 30
0.0
  9
$UCSORTHOREF
  2

  9
$UCSORTHOVIEW
 70
     0
  9
$UCSORGTOP
 10
0.0
 20
0.0
 30
0.0
  9
$UCSORGBOTTOM
 10
0.0
 20
0.0
 30
0.0
  9
$UCSORGLEFT
 10
0.0
 20
0.0
 30
0.0
  9
$UCSORGRIGHT
 10
0.0
 20
0.0
 30
0.0
  9
$UCSORGFRONT
 10
0.0
 20
0.0
 30
0.0
  9
$UCSORGBACK
 10
0.0
 20
0.0
 30
0.0
  9
$PUCSBASE
  2

  9
$PUCSNAME
  2

  9
$PUCSORG
 10
0.0
 20
0.0
 30
0.0
  9
$PUCSXDIR
 10
1.0
 20
0.0
 30
0.0
  9
$PUCSYDIR
 10
0.0
 20
1.0
 30
0.0
  9
$PUCSORTHOREF
  2

  9
$PUCSORTHOVIEW
 70
     0
  9
$PUCSORGTOP
 10
0.0
 20
0.0
 30
0.0
  9
$PUCSORGBOTTOM
 10
0.0
 20
0.0
 30
0.0
  9
$PUCSORGLEFT
 10
0.0
 20
0.0
 30
0.0
  9
$PUCSORGRIGHT
 10
0.0
 20
0.0
 30
0.0
  9
$PUCSORGFRONT
 10
0.0
 20
0.0
 30
0.0
  9
$PUCSORGBACK
 10
0.0
 20
0.0
 30
0.0
  9
$USERI1
 70
     0
  9
$USERI2
 70
     0
  9
$USERI3
 70
     0
  9
$USERI4
 70
     0
  9
$USERI5
 70
     0
  9
$USERR1
 40
0.0
  9
$USERR2
 40
0.0
  9
$USERR3
 40
0.0
  9
$USERR4
 40
0.0
  9
$USERR5
 40
0.0
  9
$WORLDVIEW
 70
     1
  9
$SHADEDGE
 70
     3
  9
$SHADEDIF
 70
    70
  9
$TILEMODE
 70
     1
  9
$MAXACTVP
 70
    16
  9
$PINSBASE
 10
0.0
 20
0.0
 30
0.0
  9
$PLIMCHECK
 70
     0
  9
$PEXTMIN
 10
1.049999952316284
 20
0.7999999523162842
 30
0.0
  9
$PEXTMAX
 10
9.449999570846555
 20
7.199999570846556
 30
0.0
  9
$PLIMMIN
 10
0.0
 20
0.0
  9
$PLIMMAX
 10
12.0
 20
9.0
  9
$UNITMODE
 70
     0
  9
$VISRETAIN
 70
     0
  9
$PLINEGEN
 70
     0
  9
$PSLTSCALE
 70
     0
  9
$TREEDEPTH
 70
  3020
  9
$CMLSTYLE
  2
STANDARD
  9
$CMLJUST
 70
     0
  9
$CMLSCALE
 40
1.0
  9
$PROXYGRAPHICS
 70
     1
  9
$MEASUREMENT
 70
     0
  9
$CELWEIGHT
370
    -1
  9
$ENDCAPS
280
     0
  9
$JOINSTYLE
280
     0
  9
$LWDISPLAY
290
     0
  9
$INSUNITS
 70
     0
  9
$HYPERLINKBASE
  1

  9
$STYLESHEET
  1
USP.ctb
  9
$XEDIT
290
     1
  9
$CEPSNTYPE
380
     0
  9
$PSTYLEMODE
290
     1
  9
$FINGERPRINTGUID
  2
{38150AD8-C65B-474C-97D6-03167C764BD5}
  9
$VERSIONGUID
  2
{FC1A6862-BABA-4551-8B35-A77ECCB6EAAD}
  9
$EXTNAMES
290
     1
  9
$PSVPSCALE
 40
0.0
  9
$OLESTARTUP
290
     0
  9
$SORTENTS
280
   127
  9
$INDEXCTL
280
     0
  9
$HIDETEXT
280
     0
  9
$XCLIPFRAME
290
     0
  9
$HALOGAP
280
     0
  9
$OBSCOLOR
 70
   257
  9
$OBSLTYPE
280
     0
  9
$INTERSECTIONDISPLAY
280
     0
  9
$INTERSECTIONCOLOR
 70
   257
  9
$DIMASSOC
280
     1
  9
$PROJECTNAME
  1

  0
ENDSEC
  0
SECTION
  2
CLASSES
  0
CLASS
  1
ACDBDICTIONARYWDFLT
  2
AcDbDictionaryWithDefault
  3
ObjectDBX Classes
 90
        0
 91
        1
280
     0
281
     0
  0
CLASS
  1
DICTIONARYVAR
  2
AcDbDictionaryVar
  3
ObjectDBX Classes
 90
        0
 91
        2
280
     0
281
     0
  0
CLASS
  1
SORTENTSTABLE
  2
AcDbSortentsTable
  3
ObjectDBX Classes
 90
        0
 91
        1
280
     0
281
     0
  0
ENDSEC
  0
SECTION
  2
TABLES
  0
TABLE
  2
VPORT
  5
143
330
0
100
AcDbSymbolTable
 70
     3
  0
VPORT
  5
1A7
330
143
100
AcDbSymbolTableRecord
100
AcDbViewportTableRecord
  2
*Active
 70
     0
 10
0.0
 20
0.0
 11
1.0
 21
1.0
 12
-20.93482248024702
 22
11.50432436358796
 13
0.0
 23
0.0
 14
1.0
 24
1.0
 15
0.0
 25
0.0
 16
0.0
 26
0.0
 36
1.0
 17
23.09603071721725
 27
-10.27010416511326
 37
-10.44050274849355
 40
2.879118021978003
 41
2.144329896907216
 42
50.0
 43
10.55307667737539
 44
10.55307667737539
 50
0.0
 51
0.0
 71
     0
 72
   100
 73
     1
 74
     1
 75
     0
 76
     0
 77
     0
 78
     0
281
     0
 65
     1
110
0.0
120
0.0
130
0.0
111
1.0
121
0.0
131
0.0
112
0.0
122
1.0
132
0.0
 79
     0
146
0.0
  0
ENDTAB
  0
TABLE
  2
LTYPE
  5
13E
330
0
100
AcDbSymbolTable
 70
     1
  0
LTYPE
  5
13F
330
13E
100
AcDbSymbolTableRecord
100
AcDbLinetypeTableRecord
  2
BYBLOCK
 70
     0
  3

 72
    65
 73
     0
 40
0.0
  0
LTYPE
  5
140
330
13E
100
AcDbSymbolTableRecord
100
AcDbLinetypeTableRecord
  2
BYLAYER
 70
     0
  3

 72
    65
 73
     0
 40
0.0
  0
LTYPE
  5
6
330
13E
100
AcDbSymbolTableRecord
100
AcDbLinetypeTableRecord
  2
CONTINUOUS
 70
     0
  3
Solid line
 72
    65
 73
     0
 40
0.0
  0
ENDTAB
  0
TABLE
  2
LAYER
  5
13C
330
0
100
AcDbSymbolTable
 70
     5
  0
LAYER
  5
22
330
13C
100
AcDbSymbolTableRecord
100
AcDbLayerTableRecord
  2
0
 70
     0
 62
     7
  6
CONTINUOUS
370
    -3
390
152
  0
LAYER
  5
3D
330
13C
100
AcDbSymbolTableRecord
100
AcDbLayerTableRecord
  2
PV-728
 70
     2
 62
     7
  6
CONTINUOUS
370
    -3
390
152
  0
LAYER
  5
19
330
13C
100
AcDbSymbolTableRecord
100
AcDbLayerTableRecord
  2
USP
 70
     0
 62
     7
  6
CONTINUOUS
370
    -3
390
152
  0
LAYER
  5
1C
330
13C
100
AcDbSymbolTableRecord
100
AcDbLayerTableRecord
  2
USP-GEO
 70
     0
 62
     7
  6
CONTINUOUS
370
    -3
390
152
  0
LAYER
  5
5
330
13C
100
AcDbSymbolTableRecord
100
AcDbLayerTableRecord
  2
USP-TXT
 70
     0
 62
     7
  6
CONTINUOUS
370
    -3
390
152
  0
ENDTAB
  0
TABLE
  2
STYLE
  5
13D
330
0
100
AcDbSymbolTable
 70
     1
  0
STYLE
  5
7
330
13D
100
AcDbSymbolTableRecord
100
AcDbTextStyleTableRecord
  2
STANDARD
 70
     0
 40
0.0
 41
1.0
 50
0.0
 71
     0
 42
0.25
  3
txt
  4

  0
ENDTAB
  0
TABLE
  2
VIEW
  5
141
330
0
100
AcDbSymbolTable
 70
     0
  0
ENDTAB
  0
TABLE
  2
UCS
  5
142
330
0
100
AcDbSymbolTable
 70
     0
  0
ENDTAB
  0
TABLE
  2
APPID
  5
145
330
0
100
AcDbSymbolTable
 70
     1
  0
APPID
  5
146
330
145
100
AcDbSymbolTableRecord
100
AcDbRegAppTableRecord
  2
ACAD
 70
     0
  0
ENDTAB
  0
TABLE
  2
DIMSTYLE
  5
147
330
0
100
AcDbSymbolTable
 70
     1
100
AcDbDimStyleTable
 71
     0
  0
DIMSTYLE
105
14F
330
147
100
AcDbSymbolTableRecord
100
AcDbDimStyleTableRecord
  2
STANDARD
 70
     0
340
7
  0
ENDTAB
  0
TABLE
  2
BLOCK_RECORD
  5
1
330
0
100
AcDbSymbolTable
 70
     2
  0
BLOCK_RECORD
  5
2
102
{ACAD_XDICTIONARY
360
133
102
}
330
1
100
AcDbSymbolTableRecord
100
AcDbBlockTableRecord
  2
*MODEL_SPACE
340
157
  0
BLOCK_RECORD
  5
137
102
{ACAD_XDICTIONARY
360
138
102
}
330
1
100
AcDbSymbolTableRecord
100
AcDbBlockTableRecord
  2
*PAPER_SPACE
340
158
  0
BLOCK_RECORD
  5
1A
102
{ACAD_XDICTIONARY
360
18E
102
}
330
1
100
AcDbSymbolTableRecord
100
AcDbBlockTableRecord
  2
base blockA
340
0
  0
BLOCK_RECORD
  5
3B
330
1
100
AcDbSymbolTableRecord
100
AcDbBlockTableRecord
  2
*U1
340
0
102
{BLKREFS
331
3A
102
}
  0
ENDTAB
  0
ENDSEC
  0
SECTION
  2
BLOCKS
  0
BLOCK
  5
135
330
2
100
AcDbEntity
  8
0
100
AcDbBlockBegin
  2
*MODEL_SPACE
 70
     0
 10
0.0
 20
0.0
 30
0.0
  3
*MODEL_SPACE
  1

  0
ENDBLK
  5
136
330
2
100
AcDbEntity
  8
0
100
AcDbBlockEnd
  0
BLOCK
  5
13A
330
137
100
AcDbEntity
 67
     1
  8
0
100
AcDbBlockBegin
  2
*PAPER_SPACE
 70
     0
 10
0.0
 20
0.0
 30
0.0
  3
*PAPER_SPACE
  1

  0
ENDBLK
  5
13B
330
137
100
AcDbEntity
 67
     1
  8
0
100
AcDbBlockEnd
  0
BLOCK
  5
37
330
1A
100
AcDbEntity
  8
0
100
AcDbBlockBegin
  2
base blockA
 70
     2
 10
0.0
 20
0.0
 30
0.0
  3
base blockA
  1

  0
LWPOLYLINE
  5
1B
330
1A
100
AcDbEntity
  8
USP-GEO
100
AcDbPolyline
 90
        4
 70
     1
 43
0.0
 10
0.0
 20
0.0
 10
0.0
 20
3.0
 10
3.0
 20
3.0
 10
3.0
 20
0.0
  0
TEXT
  5
1D
330
1A
100
AcDbEntity
  8
USP-TXT
100
AcDbText
 10
0.5126323550828254
 20
0.0577537530311503
 30
0.0
 40
0.046875
  1
 Copyright 2004 United Steel Products Company
100
AcDbText
  0
TEXT
  5
1E
330
1A
100
AcDbEntity
  8
USP-TXT
100
AcDbText
 10
0.5204091789382091
 20
0.1551392140505712
 30
0.0
 40
0.078125
  1
USP Structural Connectors
100
AcDbText
  0
CIRCLE
  5
1F
330
1A
100
AcDbEntity
  8
USP-TXT
100
AcDbCircle
 10
0.5128464045112509
 20
0.0830320346476796
 30
0.0
 40
0.0214703793180158
  0
TEXT
  5
20
330
1A
100
AcDbEntity
  8
USP-TXT
100
AcDbText
 10
0.5042237483422803
 20
0.0697781247899698
 30
0.0
 40
0.0254123629763196
  1
C
100
AcDbText
  0
TEXT
  5
21
330
1A
100
AcDbEntity
  8
0
100
AcDbText
 10
2.434466095748831
 20
0.1975394907214323
 30
0.0
 40
0.0398157395393663
  1
TM
100
AcDbText
  0
ATTDEF
  5
23
330
1A
100
AcDbEntity
  8
USP-TXT
100
AcDbText
 10
0.2285944087798271
 20
2.131422307042676
 30
0.0
 40
0.09375
  1
REF#
100
AcDbAttributeDefinition
  3
REF#
  2
REF#
 70
     0
  0
ATTDEF
  5
24
330
1A
100
AcDbEntity
  8
USP-TXT
100
AcDbText
 10
0.228804698318946
 20
2.663353083391648
 30
0.0
 40
0.156
  1
PART#
100
AcDbAttributeDefinition
  3
ENTER PART#
  2
PART#
 70
     0
  0
ATTDEF
  5
25
330
1A
100
AcDbEntity
  8
USP-TXT
100
AcDbText
 10
0.2287687103892821
 20
2.455939297974389
 30
0.0
 40
0.094
  1
DESC
100
AcDbAttributeDefinition
  3
DESC OF PART
  2
DESC
 70
     0
  0
ATTDEF
  5
26
330
1A
100
AcDbEntity
  8
USP-TXT
100
AcDbText
 10
0.2287687103892821
 20
2.296477206945141
 30
0.0
 40
0.094
  1
DESC
100
AcDbAttributeDefinition
  3
DESC OF PART
  2
DESC
 70
     0
  0
ATTDEF
  5
27
330
1A
100
AcDbEntity
  8
USP-TXT
100
AcDbText
 10
0.228804698318946
 20
0.9922084511082687
 30
0.0
 40
0.063
  1
EXTDESC
100
AcDbAttributeDefinition
  3
ADDITION DESC
  2
EXTDESC
 70
     0
  0
ATTDEF
  5
28
330
1A
100
AcDbEntity
  8
USP-TXT
100
AcDbText
 10
0.228804698318946
 20
0.7280192225426916
 30
0.0
 40
0.094
  1
Fast
100
AcDbAttributeDefinition
  3
Fasteners
  2
FAST
 70
     0
  0
ATTDEF
  5
29
330
1A
100
AcDbEntity
  8
USP-TXT
100
AcDbText
 10
0.228804698318946
 20
0.5901712537022519
 30
0.0
 40
0.063
  1
Supporting Member:
100
AcDbAttributeDefinition
  3
Supporting
  2
SUPPORTING
 70
     0
  0
ATTDEF
  5
2A
330
1A
100
AcDbEntity
  8
USP-TXT
100
AcDbText
 10
0.2325701781462328
 20
0.4923097209131698
 30
0.0
 40
0.063
  1
SUPPORTED
100
AcDbAttributeDefinition
  3
Supported
  2
SUPPORTED
 70
     0
  0
ATTDEF
  5
2B
330
1A
100
AcDbEntity
  8
USP-TXT
100
AcDbText
 10
0.3467694348797607
 20
1.814279556124766
 30
0.0
 40
0.063
  1
NER#
100
AcDbAttributeDefinition
  3
NER#
  2
NER#
 70
     0
  0
ATTDEF
  5
2C
330
1A
100
AcDbEntity
  8
USP-TXT
100
AcDbText
 10
0.3467694348797607
 20
1.722117780662095
 30
0.0
 40
0.063
  1
NER#
100
AcDbAttributeDefinition
  3
NER#
  2
NER#
 70
     0
  0
ATTDEF
  5
2D
330
1A
100
AcDbEntity
  8
USP-TXT
100
AcDbText
 10
0.3467694348797607
 20
1.631015334721752
 30
0.0
 40
0.063
  1
NER#
100
AcDbAttributeDefinition
  3
NER#
  2
NER#
 70
     0
  0
ATTDEF
  5
2E
330
1A
100
AcDbEntity
  8
USP-TXT
100
AcDbText
 10
0.3467694348797607
 20
1.537794229736753
 30
0.0
 40
0.063
  1
NER#
100
AcDbAttributeDefinition
  3
NER#
  2
NER#
 70
     0
  0
ATTDEF
  5
2F
330
1A
100
AcDbEntity
  8
USP-TXT
100
AcDbText
 10
0.3467694348797607
 20
1.448810442841057
 30
0.0
 40
0.063
  1
NER#
100
AcDbAttributeDefinition
  3
NER#
  2
NER#
 70
     0
  0
ATTDEF
  5
30
330
1A
100
AcDbEntity
  8
USP-TXT
100
AcDbText
 10
0.2283634841335704
 20
1.934648364679425
 30
0.0
 40
0.063
  1

100
AcDbAttributeDefinition
  3
Code Listings:
  2
CODE
 70
     0
  0
ATTDEF
  5
31
330
1A
100
AcDbEntity
  8
USP-TXT
100
AcDbText
 10
0.2300163426662962
 20
1.266739663439999
 30
0.0
 40
0.063
  1
pat
100
AcDbAttributeDefinition
  3
pat
  2
PAT
 70
     0
  0
ATTDEF
  5
32
330
1A
100
AcDbEntity
  8
USP-TXT
100
AcDbText
 10
0.2300163426662962
 20
1.168627150031042
 30
0.0
 40
0.063
  1
pat
100
AcDbAttributeDefinition
  3
pat
  2
PAT
 70
     0
  0
ATTDEF
  5
33
330
1A
100
AcDbEntity
  8
USP-TXT
100
AcDbText
 10
1.328369046230498
 20
0.5884879628236562
 30
0.0
 40
0.063
  1
SUPT'G
100
AcDbAttributeDefinition
  3
SUPT'G
  2
SUPT'G
 70
     0
  0
ATTDEF
  5
34
330
1A
100
AcDbEntity
  8
USP-TXT
100
AcDbText
 10
1.324378030103837
 20
0.4936287084484193
 30
0.0
 40
0.063
  1
SUPT'D
100
AcDbAttributeDefinition
  3
SUPT'D
  2
SUPT'D
 70
     0
  0
ENDBLK
  5
38
330
1A
100
AcDbEntity
  8
0
100
AcDbBlockEnd
  0
BLOCK
  5
131
330
3B
100
AcDbEntity
  8
0
100
AcDbBlockBegin
  2
*U1
 70
     1
 10
0.0
 20
0.0
 30
0.0
  3
*U1
  1
*T999
  0
LINE
  5
3C
330
3B
100
AcDbEntity
  8
PV-728
100
AcDbLine
 10
-28.19113620803891
 20
58.87566611002277
 30
0.0
 11
-28.17672037088963
 21
58.95485404605302
 31
0.0
  0
LINE
  5
3E
330
3B
100
AcDbEntity
  8
PV-728
100
AcDbLine
 10
-28.10579927343523
 20
59.34443220722818
 30
0.0
 11
-28.10423386005858
 21
59.35303121213141
 31
0.0
  0
LINE
  5
3F
330
3B
100
AcDbEntity
  8
PV-728
100
AcDbLine
 10
-28.17569955256006
 20
58.87472938353526
 30
0.0
 11
-28.15800002529719
 21
58.97195502628807
 31
0.0
  0
LINE
  5
40
330
3B
100
AcDbEntity
  8
PV-728
100
AcDbLine
 10
-28.19113620803891
 20
58.87566611002277
 30
0.0
 11
-28.26756853959211
 21
58.83993177622541
 31
0.0
  0
LINE
  5
41
330
3B
100
AcDbEntity
  8
PV-728
100
AcDbLine
 10
-28.40128811384402
 20
59.07450402697337
 30
0.0
 11
-28.34789172442381
 21
59.36781684855077
 31
0.0
  0
LINE
  5
42
330
3B
100
AcDbEntity
  8
PV-728
100
AcDbLine
 10
-28.28319338156093
 20
59.36347165413925
 30
0.0
 11
-28.34789172442381
 21
59.36781684855077
 31
0.0
  0
LINE
  5
43
330
3B
100
AcDbEntity
  8
PV-728
100
AcDbLine
 10
-28.23981521436074
 20
59.38554915596077
 30
0.0
 11
-28.28319338156093
 21
59.36347165413925
 31
0.0
  0
LINE
  5
44
330
3B
100
AcDbEntity
  8
PV-728
100
AcDbLine
 10
-28.20176851139184
 20
59.34073959761388
 30
0.0
 11
-28.23981521436074
 21
59.38554915596077
 31
0.0
  0
LINE
  5
45
330
3B
100
AcDbEntity
  8
PV-728
100
AcDbLine
 10
-28.17648628870116
 20
59.35741563100952
 30
0.0
 11
-28.20176851139184
 21
59.34073959761388
 31
0.0
  0
LINE
  5
46
330
3B
100
AcDbEntity
  8
PV-728
100
AcDbLine
 10
-28.10423386005858
 20
59.35303121213141
 30
0.0
 11
-28.10423386005858
 21
59.34586220770983
 31
0.0
  0
LINE
  5
47
330
3B
100
AcDbEntity
  8
PV-728
100
AcDbLine
 10
-28.10423386005858
 20
59.35303121213141
 30
0.0
 11
-28.17648628870116
 21
59.35741563100952
 31
0.0
  0
LINE
  5
48
330
3B
100
AcDbEntity
  8
PV-728
100
AcDbLine
 10
-28.36560354954104
 20
57.83752903909726
 30
0.0
 11
-28.39950655761709
 21
57.89017380128512
 31
0.0
  0
LINE
  5
49
330
3B
100
AcDbEntity
  8
PV-728
100
AcDbLine
 10
-28.39950655761709
 20
57.89017380128512
 30
0.0
 11
-28.45806629669257
 21
57.89372732094285
 31
0.0
  0
LINE
  5
4A
330
3B
100
AcDbEntity
  8
PV-728
100
AcDbLine
 10
-28.45806629669257
 20
57.89372732094285
 30
0.0
 11
-28.45806629669257
 21
58.57816970200612
 31
0.0
  0
LINE
  5
4B
330
3B
100
AcDbEntity
  8
PV-728
100
AcDbLine
 10
-28.21440843232734
 20
58.56338406558677
 30
0.0
 11
-28.21440843232734
 21
57.8789416845235
 31
0.0
  0
LINE
  5
4C
330
3B
100
AcDbEntity
  8
PV-728
100
AcDbLine
 10
-28.20343294368424
 20
57.93923137034411
 30
0.0
 11
-28.20343294368424
 21
58.56271805144015
 31
0.0
  0
LINE
  5
4D
330
3B
100
AcDbEntity
  8
PV-728
100
AcDbLine
 10
-28.21440843232734
 20
57.8789416845235
 30
0.0
 11
-28.29163335654275
 21
57.88362784417173
 31
0.0
  0
LINE
  5
4E
330
3B
100
AcDbEntity
  8
PV-728
100
AcDbLine
 10
-28.21440843232734
 20
57.8789416845235
 30
0.0
 11
-28.20343294368424
 21
57.93923137034411
 31
0.0
  0
LINE
  5
4F
330
3B
100
AcDbEntity
  8
PV-728
100
AcDbLine
 10
-28.29163335654275
 20
57.88362784417173
 30
0.0
 11
-28.32245427029203
 21
57.92090934308359
 31
0.0
  0
LINE
  5
50
330
3B
100
AcDbEntity
  8
PV-728
100
AcDbLine
 10
-28.32245427029203
 20
57.92090934308359
 30
0.0
 11
-28.36560354954104
 21
57.83752903909726
 31
0.0
  0
LINE
  5
51
330
3B
100
AcDbEntity
  8
PV-728
100
AcDbLine
 10
-28.20343294368424
 20
58.56271805144015
 30
0.0
 11
-28.20343294368424
 21
57.93923137034411
 31
0.0
  0
LINE
  5
52
330
3B
100
AcDbEntity
  8
PV-728
100
AcDbLine
 10
-28.19245745504113
 20
57.99952105616473
 30
0.0
 11
-28.19245745504113
 21
58.56205203729352
 31
0.0
  0
LINE
  5
53
330
3B
100
AcDbEntity
  8
PV-728
100
AcDbLine
 10
-28.20343294368424
 20
57.93923137034411
 30
0.0
 11
-28.19245745504113
 21
57.99952105616473
 31
0.0
  0
LINE
  5
54
330
3B
100
AcDbEntity
  8
PV-728
100
AcDbLine
 10
-28.17569955256006
 20
58.87472938353526
 30
0.0
 11
-28.15800002529719
 21
58.97195502628807
 31
0.0
  0
LINE
  5
55
330
3B
100
AcDbEntity
  8
PV-728
100
AcDbLine
 10
-28.16026289708122
 20
58.87379265704774
 30
0.0
 11
-28.13927967970474
 21
58.98905600652313
 31
0.0
  0
LINE
  5
56
330
3B
100
AcDbEntity
  8
PV-728
100
AcDbLine
 10
-28.46040354590471
 20
58.58155665874601
 30
0.0
 11
-28.46040354590471
 21
58.57831153086587
 31
0.0
  0
ELLIPSE
  5
57
330
3B
100
AcDbEntity
  8
PV-728
100
AcDbEllipse
 10
-28.33884284382846
 20
58.67689368828649
 30
0.0
 11
0.0045497350179889
 21
-0.0005675705053391
 31
0.0
210
0.0
220
0.0
230
1.0
 40
0.8586018337649477
 41
-0.0121056680432853
 42
0.4070320895904044
  0
ELLIPSE
  5
58
330
3B
100
AcDbEntity
  8
PV-728
100
AcDbEllipse
 10
-28.33884284382846
 20
58.67689368828649
 30
0.0
 11
0.0045497350179889
 21
-0.0005675705053391
 31
0.0
210
0.0
220
0.0
230
1.0
 40
0.8586018337649477
 41
2.626519154064802
 42
6.2710796391363
  0
ELLIPSE
  5
59
330
3B
100
AcDbEntity
  8
PV-728
100
AcDbEllipse
 10
-28.33895509732839
 20
58.67599384646118
 30
0.0
 11
0.0087764950192687
 21
-0.0010948505118425
 31
0.0
210
0.0
220
0.0
230
1.0
 40
0.858601833764948
 41
-3.021893567404668
 42
-0.3705313316669012
  0
ELLIPSE
  5
5A
330
3B
100
AcDbEntity
  8
PV-728
100
AcDbEllipse
 10
-28.33895509732839
 20
58.67599384646118
 30
0.0
 11
0.0087764950192687
 21
-0.0010948505118425
 31
0.0
210
0.0
220
0.0
230
1.0
 40
0.858601833764948
 41
2.771061321922378
 42
3.141592653589528
  0
ELLIPSE
  5
5B
330
3B
100
AcDbEntity
  8
PV-728
100
AcDbEllipse
 10
-28.33917960432824
 20
58.67419416281055
 30
0.0
 11
0.0087764950192687
 21
-0.0010948505118425
 31
0.0
210
0.0
220
0.0
230
1.0
 40
0.858601833764948
 41
0.0
 42
6.283185307179586
  0
ELLIPSE
  5
5C
330
3B
100
AcDbEntity
  8
PV-728
100
AcDbEllipse
 10
-28.33895509732839
 20
58.67599384646118
 30
0.0
 11
0.0087764950192687
 21
-0.0010948505118425
 31
0.0
210
0.0
220
0.0
230
1.0
 40
0.858601833764948
 41
-3.021893567404668
 42
-0.3705313316669012
  0
ELLIPSE
  5
5D
330
3B
100
AcDbEntity
  8
PV-728
100
AcDbEllipse
 10
-28.33895509732839
 20
58.67599384646118
 30
0.0
 11
0.0087764950192687
 21
-0.0010948505118425
 31
0.0
210
0.0
220
0.0
230
1.0
 40
0.858601833764948
 41
2.771061321922378
 42
3.141592653589528
  0
LINE
  5
5E
330
3B
100
AcDbEntity
  8
PV-728
100
AcDbLine
 10
-28.23414981470843
 20
58.65031415233102
 30
0.0
 11
-27.38992507092702
 21
58.59908494144427
 31
0.0
  0
LINE
  5
5F
330
3B
100
AcDbEntity
  8
PV-728
100
AcDbLine
 10
-28.46040354590471
 20
58.57831153086587
 30
0.0
 11
-28.45208196292653
 21
58.57780656091275
 31
0.0
  0
LINE
  5
60
330
3B
100
AcDbEntity
  8
PV-728
100
AcDbLine
 10
-28.30376634738421
 20
58.568806478882
 30
0.0
 11
-27.38992507092702
 21
58.51335280044686
 31
0.0
  0
LINE
  5
61
330
3B
100
AcDbEntity
  8
PV-728
100
AcDbLine
 10
-28.46040354590471
 20
58.58155665874602
 30
0.0
 11
-28.46040354590471
 21
58.57831153086587
 31
0.0
  0
LINE
  5
62
330
3B
100
AcDbEntity
  8
PV-728
100
AcDbLine
 10
-27.33741260197537
 20
58.65643264354954
 30
0.0
 11
-27.38383516327154
 21
58.63652569792423
 31
0.0
  0
LINE
  5
63
330
3B
100
AcDbEntity
  8
PV-728
100
AcDbLine
 10
-27.33741260197537
 20
58.65643264354954
 30
0.0
 11
-27.33741260197537
 21
58.57070050255213
 31
0.0
  0
LINE
  5
64
330
3B
100
AcDbEntity
  8
PV-728
100
AcDbLine
 10
-27.38383516327154
 20
58.55079355692681
 30
0.0
 11
-27.33741260197537
 21
58.57070050255213
 31
0.0
  0
LINE
  5
65
330
3B
100
AcDbEntity
  8
PV-728
100
AcDbLine
 10
-27.38992507092702
 20
58.59908494144427
 30
0.0
 11
-27.38992507092702
 21
58.51335280044686
 31
0.0
  0
LINE
  5
66
330
3B
100
AcDbEntity
  8
PV-728
100
AcDbLine
 10
-27.38383516327154
 20
58.63652569792423
 30
0.0
 11
-27.38992507092702
 21
58.59908494144427
 31
0.0
  0
LINE
  5
67
330
3B
100
AcDbEntity
  8
PV-728
100
AcDbLine
 10
-27.38383516327154
 20
58.63652569792423
 30
0.0
 11
-27.38383516327154
 21
58.55079355692681
 31
0.0
  0
LINE
  5
68
330
3B
100
AcDbEntity
  8
PV-728
100
AcDbLine
 10
-27.38992507092702
 20
58.51335280044686
 30
0.0
 11
-27.38383516327154
 21
58.55079355692681
 31
0.0
  0
LINE
  5
69
330
3B
100
AcDbEntity
  8
PV-728
100
AcDbLine
 10
-28.39042394633434
 20
58.74552931370207
 30
0.0
 11
-28.34113061397451
 21
58.74253809775233
 31
0.0
  0
LINE
  5
6A
330
3B
100
AcDbEntity
  8
PV-728
100
AcDbLine
 10
-28.23414981470843
 20
58.73604629332843
 30
0.0
 11
-27.38992507092702
 21
58.68481708244169
 31
0.0
  0
LINE
  5
6B
330
3B
100
AcDbEntity
  8
PV-728
100
AcDbLine
 10
-28.23414981470843
 20
58.65031415233102
 30
0.0
 11
-27.38992507092702
 21
58.59908494144427
 31
0.0
  0
LINE
  5
6C
330
3B
100
AcDbEntity
  8
PV-728
100
AcDbLine
 10
-28.19113620803891
 20
58.87566611002277
 30
0.0
 11
-28.26756853959211
 21
58.83993177622541
 31
0.0
  0
LINE
  5
6D
330
3B
100
AcDbEntity
  8
PV-728
100
AcDbLine
 10
-28.19113620803891
 20
58.87566611002277
 30
0.0
 11
-27.36431559742645
 21
58.82549301602312
 31
0.0
  0
LINE
  5
6E
330
3B
100
AcDbEntity
  8
PV-728
100
AcDbLine
 10
-27.36431559742645
 20
58.82549301602312
 30
0.0
 11
-27.37190963368501
 21
58.78377805689672
 31
0.0
  0
LINE
  5
6F
330
3B
100
AcDbEntity
  8
PV-728
100
AcDbLine
 10
-27.36431559742645
 20
58.82549301602312
 30
0.0
 11
-27.36431559742645
 21
58.75435023713449
 31
0.0
  0
LINE
  5
70
330
3B
100
AcDbEntity
  8
PV-728
100
AcDbLine
 10
-27.37190963368501
 20
58.78377805689672
 30
0.0
 11
-27.40541866150662
 21
58.7729674739943
 31
0.0
  0
LINE
  5
71
330
3B
100
AcDbEntity
  8
PV-728
100
AcDbLine
 10
-27.37190963368501
 20
58.78377805689672
 30
0.0
 11
-27.37190963368501
 21
58.75778988269162
 31
0.0
  0
LINE
  5
72
330
3B
100
AcDbEntity
  8
PV-728
100
AcDbLine
 10
-27.40541866150662
 20
58.7729674739943
 30
0.0
 11
-27.33741260197537
 21
58.74216478454695
 31
0.0
  0
LINE
  5
73
330
3B
100
AcDbEntity
  8
PV-728
100
AcDbLine
 10
-27.33741260197537
 20
58.74216478454695
 30
0.0
 11
-27.38383516327154
 21
58.72225783892163
 31
0.0
  0
LINE
  5
74
330
3B
100
AcDbEntity
  8
PV-728
100
AcDbLine
 10
-27.33741260197537
 20
58.74216478454695
 30
0.0
 11
-27.33741260197537
 21
58.65643264354954
 31
0.0
  0
LINE
  5
75
330
3B
100
AcDbEntity
  8
PV-728
100
AcDbLine
 10
-27.38383516327154
 20
58.63652569792423
 30
0.0
 11
-27.33741260197537
 21
58.65643264354954
 31
0.0
  0
LINE
  5
76
330
3B
100
AcDbEntity
  8
PV-728
100
AcDbLine
 10
-27.38992507092702
 20
58.68481708244169
 30
0.0
 11
-27.38992507092702
 21
58.59908494144427
 31
0.0
  0
LINE
  5
77
330
3B
100
AcDbEntity
  8
PV-728
100
AcDbLine
 10
-27.38383516327154
 20
58.72225783892163
 30
0.0
 11
-27.38992507092702
 21
58.68481708244169
 31
0.0
  0
LINE
  5
78
330
3B
100
AcDbEntity
  8
PV-728
100
AcDbLine
 10
-27.38383516327154
 20
58.72225783892163
 30
0.0
 11
-27.38383516327154
 21
58.63652569792423
 31
0.0
  0
LINE
  5
79
330
3B
100
AcDbEntity
  8
PV-728
100
AcDbLine
 10
-27.38992507092702
 20
58.59908494144427
 30
0.0
 11
-27.38383516327154
 21
58.63652569792423
 31
0.0
  0
ELLIPSE
  5
7A
330
3B
100
AcDbEntity
  8
PV-728
100
AcDbEllipse
 10
-28.30376634738421
 20
58.59023951413135
 30
0.0
 11
0.0051651099154367
 21
-0.0009402869569749
 31
0.0
210
0.0
220
0.0
230
0.9999999999999998
 40
0.8120237272259531
 41
-2.60609120496697
 42
-0.623801662196364
  0
ELLIPSE
  5
7B
330
3B
100
AcDbEntity
  8
PV-728
100
AcDbEllipse
 10
-28.37338288005998
 20
58.63018570709534
 30
0.0
 11
0.0051651099154367
 21
-0.0009402869569749
 31
0.0
210
0.0
220
0.0
230
0.9999999999999998
 40
0.8120237272259531
 41
-2.60609120496697
 42
-0.6238016621958539
  0
ELLIPSE
  5
7C
330
3B
100
AcDbEntity
  8
PV-728
100
AcDbEllipse
 10
-28.3385746137221
 20
58.67808388890296
 30
0.0
 11
0.0051651099154367
 21
-0.0009402869569749
 31
0.0
210
0.0
220
0.0
230
0.9999999999999998
 40
0.8120237272259531
 41
-2.60609120496697
 42
-0.623801662196364
  0
ELLIPSE
  5
7D
330
3B
100
AcDbEntity
  8
PV-728
100
AcDbEllipse
 10
-28.26895808104632
 20
58.67385942135458
 30
0.0
 11
0.0051651099154367
 21
-0.0009402869569749
 31
0.0
210
0.0
220
0.0
230
0.9999999999999998
 40
0.8120237272259531
 41
-2.889780738242503
 42
-0.2518119153476714
  0
ELLIPSE
  5
7E
330
3B
100
AcDbEntity
  8
PV-728
100
AcDbEllipse
 10
-28.39078701322893
 20
58.71697396497984
 30
0.0
 11
0.0051651099154367
 21
-0.0009402869569749
 31
0.0
210
0.0
220
0.0
230
0.9999999999999998
 40
0.8120237272259531
 41
-2.606091204966097
 42
-0.6238016621958539
  0
LINE
  5
7F
330
3B
100
AcDbEntity
  8
PV-728
100
AcDbLine
 10
-28.30376634738421
 20
58.56880647888201
 30
0.0
 11
-28.30376634738421
 21
58.57026552049137
 31
0.0
  0
LINE
  5
80
330
3B
100
AcDbEntity
  8
PV-728
100
AcDbLine
 10
-28.30376634738421
 20
58.56880647888201
 30
0.0
 11
-28.3041468309905
 21
58.56671643644022
 31
0.0
  0
LINE
  5
81
330
3B
100
AcDbEntity
  8
PV-728
100
AcDbLine
 10
-28.23414981470842
 20
58.59673156420765
 30
0.0
 11
-28.23414981470842
 21
58.79320105399338
 31
0.0
  0
LINE
  5
82
330
3B
100
AcDbEntity
  8
PV-728
100
AcDbLine
 10
-28.23414981470842
 20
58.59673156420765
 30
0.0
 11
-28.23453029831472
 21
58.59464152176586
 31
0.0
  0
LINE
  5
83
330
3B
100
AcDbEntity
  8
PV-728
100
AcDbLine
 10
-28.25155394787737
 20
58.79425717088047
 30
0.0
 11
-28.23414981470843
 21
58.79320105399338
 31
0.0
  0
LINE
  5
84
330
3B
100
AcDbEntity
  8
PV-728
100
AcDbLine
 10
-28.23414981470843
 20
58.79320105399338
 30
0.0
 11
-28.23453029831473
 21
58.7911110115516
 31
0.0
  0
LINE
  5
85
330
3B
100
AcDbEntity
  8
PV-728
100
AcDbLine
 10
-28.25155394787737
 20
58.79425717088047
 30
0.0
 11
-28.30376634738421
 21
58.94317016123736
 31
0.0
  0
LINE
  5
86
330
3B
100
AcDbEntity
  8
PV-728
100
AcDbLine
 10
-28.25155394787737
 20
58.79425717088047
 30
0.0
 11
-28.25193443148367
 21
58.79216712843869
 31
0.0
  0
LINE
  5
87
330
3B
100
AcDbEntity
  8
PV-728
100
AcDbLine
 10
-28.30376634738421
 20
58.94317016123736
 30
0.0
 11
-28.30376634738421
 21
58.94774254209056
 31
0.0
  0
LINE
  5
88
330
3B
100
AcDbEntity
  8
PV-728
100
AcDbLine
 10
-28.30376634738421
 20
58.94317016123736
 30
0.0
 11
-28.3041468309905
 21
58.94108011879558
 31
0.0
  0
ELLIPSE
  5
89
330
3B
100
AcDbEntity
  8
PV-728
100
AcDbEllipse
 10
-28.3041468309905
 20
58.68459813031166
 30
0.0
 11
0.00875
 21
0.0
 31
0.0
210
0.0
220
0.0
230
1.0
 40
0.5773502691896347
 41
-3.141592653589812
 42
-0.1047197551198595
  0
ELLIPSE
  5
8A
330
3B
100
AcDbEntity
  8
PV-728
100
AcDbEllipse
 10
-28.3041468309905
 20
58.81319634180778
 30
0.0
 11
0.00875
 21
0.0
 31
0.0
210
0.0
220
0.0
230
1.0
 40
0.5773502691896347
 41
-3.141592653589812
 42
-0.1047197551198595
  0
LINE
  5
8B
330
3B
100
AcDbEntity
  8
PV-728
100
AcDbLine
 10
-28.29544476440603
 20
58.68407007186812
 30
0.0
 11
-28.29544476440603
 21
58.81266828336423
 31
0.0
  0
ELLIPSE
  5
8C
330
3B
100
AcDbEntity
  8
PV-728
100
AcDbEllipse
 10
-28.3041468309905
 20
58.81319634180778
 30
0.0
 11
0.0086085165257278
 21
-0.0015671449282915
 31
0.0
210
0.0
220
0.0
230
1.0
 40
0.8120237272259537
 41
0.1467626907403525
 42
3.141592653589825
  0
ELLIPSE
  5
8D
330
3B
100
AcDbEntity
  8
PV-728
100
AcDbEllipse
 10
-28.3041468309905
 20
58.68459813031166
 30
0.0
 11
0.0086085165257278
 21
-0.0015671449282915
 31
0.0
210
0.0
220
0.0
230
1.0
 40
0.8120237272259537
 41
0.0000000000000322
 42
0.1467626907403525
  0
ELLIPSE
  5
8E
330
3B
100
AcDbEntity
  8
PV-728
100
AcDbEllipse
 10
-28.3041468309905
 20
58.58814947168958
 30
0.0
 11
0.0051651099154367
 21
-0.0009402869569749
 31
0.0
210
0.0
220
0.0
230
0.9999999999999998
 40
0.8120237272259531
 41
0.0
 42
6.283185307179586
  0
ELLIPSE
  5
8F
330
3B
100
AcDbEntity
  8
PV-728
100
AcDbEllipse
 10
-28.37376336366628
 20
58.62809566465355
 30
0.0
 11
0.0051651099154367
 21
-0.0009402869569749
 31
0.0
210
0.0
220
0.0
230
0.9999999999999998
 40
0.8120237272259531
 41
0.0
 42
6.283185307179586
  0
ELLIPSE
  5
90
330
3B
100
AcDbEntity
  8
PV-728
100
AcDbEllipse
 10
-28.33895509732839
 20
58.67599384646118
 30
0.0
 11
0.0051651099154367
 21
-0.0009402869569749
 31
0.0
210
0.0
220
0.0
230
0.9999999999999998
 40
0.8120237272259531
 41
0.0
 42
6.283185307179586
  0
ELLIPSE
  5
91
330
3B
100
AcDbEntity
  8
PV-728
100
AcDbEllipse
 10
-28.26933856465261
 20
58.67176937891279
 30
0.0
 11
0.0051651099154367
 21
-0.0009402869569749
 31
0.0
210
0.0
220
0.0
230
0.9999999999999998
 40
0.8120237272259531
 41
0.0
 42
6.283185307179586
  0
ELLIPSE
  5
92
330
3B
100
AcDbEntity
  8
PV-728
100
AcDbEllipse
 10
-28.39116749683523
 20
58.71488392253806
 30
0.0
 11
0.0051651099154367
 21
-0.0009402869569749
 31
0.0
210
0.0
220
0.0
230
0.9999999999999998
 40
0.8120237272259531
 41
0.0
 42
6.283185307179586
  0
LINE
  5
93
330
3B
100
AcDbEntity
  8
PV-728
100
AcDbLine
 10
-28.3041468309905
 20
58.94565249964878
 30
0.0
 11
-28.3041468309905
 21
58.94108011879558
 31
0.0
  0
LINE
  5
94
330
3B
100
AcDbEntity
  8
PV-728
100
AcDbLine
 10
-28.3041468309905
 20
58.94108011879558
 30
0.0
 11
-28.25193443148366
 21
58.79216712843869
 31
0.0
  0
LINE
  5
95
330
3B
100
AcDbEntity
  8
PV-728
100
AcDbLine
 10
-28.25193443148366
 20
58.79216712843869
 30
0.0
 11
-28.23453029831472
 21
58.7911110115516
 31
0.0
  0
LINE
  5
96
330
3B
100
AcDbEntity
  8
PV-728
100
AcDbLine
 10
-28.23453029831472
 20
58.7911110115516
 30
0.0
 11
-28.23453029831472
 21
58.59464152176586
 31
0.0
  0
LINE
  5
97
330
3B
100
AcDbEntity
  8
PV-728
100
AcDbLine
 10
-28.23453029831472
 20
58.59464152176586
 30
0.0
 11
-28.26933856465261
 21
58.56817637520759
 31
0.0
  0
LINE
  5
98
330
3B
100
AcDbEntity
  8
PV-728
100
AcDbLine
 10
-28.26933856465261
 20
58.56817637520759
 30
0.0
 11
-28.3041468309905
 21
58.57028860898179
 31
0.0
  0
LINE
  5
99
330
3B
100
AcDbEntity
  8
PV-728
100
AcDbLine
 10
-28.3041468309905
 20
58.57028860898179
 30
0.0
 11
-28.3041468309905
 21
58.56671643644022
 31
0.0
  0
LINE
  5
9A
330
3B
100
AcDbEntity
  8
PV-728
100
AcDbLine
 10
-28.3041468309905
 20
58.56671643644022
 30
0.0
 11
-28.45208196292653
 21
58.57569342998054
 31
0.0
  0
LINE
  5
9B
330
3B
100
AcDbEntity
  8
PV-728
100
AcDbLine
 10
-28.45208196292653
 20
58.57569342998054
 30
0.0
 11
-28.45208196292653
 21
58.58105168879288
 31
0.0
  0
LINE
  5
9C
330
3B
100
AcDbEntity
  8
PV-728
100
AcDbLine
 10
-28.45208196292653
 20
58.58105168879288
 30
0.0
 11
-28.46440408921014
 21
58.58179941954895
 31
0.0
  0
LINE
  5
9D
330
3B
100
AcDbEntity
  8
PV-728
100
AcDbLine
 10
-28.46440408921014
 20
58.58179941954895
 30
0.0
 11
-28.46440408921014
 21
58.69205582170126
 31
0.0
  0
LINE
  5
9E
330
3B
100
AcDbEntity
  8
PV-728
100
AcDbLine
 10
-28.34113061397451
 20
58.74042496682013
 30
0.0
 11
-28.34113061397451
 21
58.74756931190325
 31
0.0
  0
LINE
  5
9F
330
3B
100
AcDbEntity
  8
PV-728
100
AcDbLine
 10
-28.34113061397451
 20
58.74756931190325
 30
0.0
 11
-28.38089893783486
 21
58.74998253168229
 31
0.0
  0
LINE
  5
A0
330
3B
100
AcDbEntity
  8
PV-728
100
AcDbLine
 10
-28.39042394633434
 20
58.74552931370207
 30
0.0
 11
-28.34113061397451
 21
58.74253809775233
 31
0.0
  0
LINE
  5
A1
330
3B
100
AcDbEntity
  8
PV-728
100
AcDbLine
 10
-28.39442448963978
 20
58.74365894357281
 30
0.0
 11
-28.34113061397451
 21
58.74042496682013
 31
0.0
  0
LINE
  5
A2
330
3B
100
AcDbEntity
  8
PV-728
100
AcDbLine
 10
-28.44394031294006
 20
59.04310974195216
 30
0.0
 11
-28.44394031294006
 21
59.04768212280536
 31
0.0
  0
LINE
  5
A3
330
3B
100
AcDbEntity
  8
PV-728
100
AcDbLine
 10
-28.44359596075613
 20
59.03585593416661
 30
0.0
 11
-28.44394031294006
 21
59.04310974195215
 31
0.0
  0
LINE
  5
A4
330
3B
100
AcDbEntity
  8
PV-728
100
AcDbLine
 10
-28.38201793205256
 20
58.9524910015058
 30
0.0
 11
-28.30376634738421
 21
58.94774254209056
 31
0.0
  0
LINE
  5
A5
330
3B
100
AcDbEntity
  8
PV-728
100
AcDbLine
 10
-28.30376634738421
 20
58.94774254209056
 30
0.0
 11
-28.3041468309905
 21
58.94565249964878
 31
0.0
  0
LINE
  5
A6
330
3B
100
AcDbEntity
  8
PV-728
100
AcDbLine
 10
-28.38089893783486
 20
58.95030996781291
 30
0.0
 11
-28.3041468309905
 21
58.94565249964878
 31
0.0
  0
LINE
  5
A7
330
3B
100
AcDbEntity
  8
PV-728
100
AcDbLine
 10
-28.38201793205256
 20
58.9524910015058
 30
0.0
 11
-28.44212813894526
 21
58.92438773481117
 31
0.0
  0
ELLIPSE
  5
A8
330
3B
100
AcDbEntity
  8
PV-728
100
AcDbEllipse
 10
-28.42852808461977
 20
58.81500776466531
 30
0.0
 11
0.0030477700328008
 21
0.0042747628971864
 31
0.0
210
0.0
220
0.0
230
0.9999999999999998
 40
0.6345370204113856
 41
-2.592674023316746
 42
-0.7272590230670013
  0
ELLIPSE
  5
A9
330
3B
100
AcDbEntity
  8
PV-728
100
AcDbEllipse
 10
-28.42852808461977
 20
58.81500776466531
 30
0.0
 11
0.0030477700328008
 21
0.0042747628971864
 31
0.0
210
0.0
220
0.0
230
0.9999999999999998
 40
0.6345370204113856
 41
-0.7272590230670013
 42
-0.5025573908861278
  0
ELLIPSE
  5
AA
330
3B
100
AcDbEntity
  8
PV-728
100
AcDbEllipse
 10
-28.42852808461977
 20
58.87787800139673
 30
0.0
 11
0.0030477700328008
 21
0.0042747628971864
 31
0.0
210
0.0
220
0.0
230
0.9999999999999998
 40
0.6345370204113856
 41
-2.592674023316746
 42
-0.7272590230670013
  0
ELLIPSE
  5
AB
330
3B
100
AcDbEntity
  8
PV-728
100
AcDbEllipse
 10
-28.42852808461977
 20
58.87787800139673
 30
0.0
 11
0.0030477700328008
 21
0.0042747628971864
 31
0.0
210
0.0
220
0.0
230
0.9999999999999998
 40
0.6345370204113856
 41
-0.7272590230670013
 42
-0.5025573908861278
  0
ELLIPSE
  5
AC
330
3B
100
AcDbEntity
  8
PV-728
100
AcDbEllipse
 10
-28.39860796510367
 20
58.79756117074099
 30
0.0
 11
0.0030477700328008
 21
0.0042747628971864
 31
0.0
210
0.0
220
0.0
230
0.9999999999999998
 40
0.6345370204113856
 41
-2.592674023316746
 42
-0.7272590230670013
  0
ELLIPSE
  5
AD
330
3B
100
AcDbEntity
  8
PV-728
100
AcDbEllipse
 10
-28.39860796510367
 20
58.79756117074099
 30
0.0
 11
0.0030477700328008
 21
0.0042747628971864
 31
0.0
210
0.0
220
0.0
230
0.9999999999999998
 40
0.6345370204113856
 41
-0.7272590230670013
 42
-0.5025573908861278
  0
ELLIPSE
  5
AE
330
3B
100
AcDbEntity
  8
PV-728
100
AcDbEllipse
 10
-28.39860796510367
 20
58.86043140747242
 30
0.0
 11
0.0030477700328008
 21
0.0042747628971864
 31
0.0
210
0.0
220
0.0
230
0.9999999999999998
 40
0.6345370204113856
 41
-2.592674023316746
 42
-0.7272590230670013
  0
ELLIPSE
  5
AF
330
3B
100
AcDbEntity
  8
PV-728
100
AcDbEllipse
 10
-28.39860796510367
 20
58.86043140747242
 30
0.0
 11
0.0030477700328008
 21
0.0042747628971864
 31
0.0
210
0.0
220
0.0
230
0.9999999999999998
 40
0.6345370204113856
 41
-0.7272590230670013
 42
-0.5025573908861278
  0
ELLIPSE
  5
B0
330
3B
100
AcDbEntity
  8
PV-728
100
AcDbEllipse
 10
-28.39860796510367
 20
58.92330164420386
 30
0.0
 11
0.0030477700328008
 21
0.0042747628971864
 31
0.0
210
0.0
220
0.0
230
0.9999999999999998
 40
0.6345370204113856
 41
-2.592674023316746
 42
-0.7272590230670013
  0
ELLIPSE
  5
B1
330
3B
100
AcDbEntity
  8
PV-728
100
AcDbEllipse
 10
-28.39860796510367
 20
58.92330164420386
 30
0.0
 11
0.0030477700328008
 21
0.0042747628971864
 31
0.0
210
0.0
220
0.0
230
0.9999999999999998
 40
0.6345370204113856
 41
-0.7272590230670013
 42
-0.5025573908861278
  0
LINE
  5
B2
330
3B
100
AcDbEntity
  8
PV-728
100
AcDbLine
 10
-28.44212813894526
 20
58.72406029868056
 30
0.0
 11
-28.43983741272184
 21
58.72242708371519
 31
0.0
  0
LINE
  5
B3
330
3B
100
AcDbEntity
  8
PV-728
100
AcDbLine
 10
-28.44212813894526
 20
58.72406029868056
 30
0.0
 11
-28.44212813894526
 21
58.92438773481117
 31
0.0
  0
LINE
  5
B4
330
3B
100
AcDbEntity
  8
PV-728
100
AcDbLine
 10
-28.44212813894527
 20
58.92438773481117
 30
0.0
 11
-28.43983741272185
 21
58.92275451984581
 31
0.0
  0
ELLIPSE
  5
B5
330
3B
100
AcDbEntity
  8
PV-728
100
AcDbEllipse
 10
-28.42623735839634
 20
58.81337454969994
 30
0.0
 11
0.0030477700328008
 21
0.0042747628971864
 31
0.0
210
0.0
220
0.0
230
0.9999999999999998
 40
0.6345370204113856
 41
-0.7272590230670013
 42
0.31996914556689
  0
ELLIPSE
  5
B6
330
3B
100
AcDbEntity
  8
PV-728
100
AcDbEllipse
 10
-28.42623735839634
 20
58.81337454969994
 30
0.0
 11
0.0030477700328008
 21
0.0042747628971864
 31
0.0
210
0.0
220
0.0
230
0.9999999999999998
 40
0.6345370204113856
 41
2.73266720700021
 42
5.555926284112585
  0
ELLIPSE
  5
B7
330
3B
100
AcDbEntity
  8
PV-728
100
AcDbEllipse
 10
-28.42623735839634
 20
58.87624478643137
 30
0.0
 11
0.0030477700328008
 21
0.0042747628971864
 31
0.0
210
0.0
220
0.0
230
0.9999999999999998
 40
0.6345370204113856
 41
-0.7272590230670013
 42
0.31996914556689
  0
ELLIPSE
  5
B8
330
3B
100
AcDbEntity
  8
PV-728
100
AcDbEllipse
 10
-28.42623735839634
 20
58.87624478643137
 30
0.0
 11
0.0030477700328008
 21
0.0042747628971864
 31
0.0
210
0.0
220
0.0
230
0.9999999999999998
 40
0.6345370204113856
 41
2.73266720700021
 42
5.555926284112585
  0
ELLIPSE
  5
B9
330
3B
100
AcDbEntity
  8
PV-728
100
AcDbEllipse
 10
-28.39631723888025
 20
58.79592795577561
 30
0.0
 11
0.0030477700328008
 21
0.0042747628971864
 31
0.0
210
0.0
220
0.0
230
0.9999999999999998
 40
0.6345370204113856
 41
-0.7272590230670013
 42
0.31996914556689
  0
ELLIPSE
  5
BA
330
3B
100
AcDbEntity
  8
PV-728
100
AcDbEllipse
 10
-28.39631723888025
 20
58.79592795577561
 30
0.0
 11
0.0030477700328008
 21
0.0042747628971864
 31
0.0
210
0.0
220
0.0
230
0.9999999999999998
 40
0.6345370204113856
 41
2.73266720700021
 42
5.555926284112585
  0
ELLIPSE
  5
BB
330
3B
100
AcDbEntity
  8
PV-728
100
AcDbEllipse
 10
-28.39631723888025
 20
58.85879819250705
 30
0.0
 11
0.0030477700328008
 21
0.0042747628971864
 31
0.0
210
0.0
220
0.0
230
0.9999999999999998
 40
0.6345370204113856
 41
-0.7272590230670013
 42
0.319969145566416
  0
ELLIPSE
  5
BC
330
3B
100
AcDbEntity
  8
PV-728
100
AcDbEllipse
 10
-28.39631723888025
 20
58.85879819250705
 30
0.0
 11
0.0030477700328008
 21
0.0042747628971864
 31
0.0
210
0.0
220
0.0
230
0.9999999999999998
 40
0.6345370204113856
 41
2.732667207001317
 42
5.555926284112585
  0
ELLIPSE
  5
BD
330
3B
100
AcDbEntity
  8
PV-728
100
AcDbEllipse
 10
-28.39631723888025
 20
58.92166842923849
 30
0.0
 11
0.0030477700328008
 21
0.0042747628971864
 31
0.0
210
0.0
220
0.0
230
0.9999999999999998
 40
0.6345370204113856
 41
-0.7272590230670013
 42
0.319969145566416
  0
ELLIPSE
  5
BE
330
3B
100
AcDbEntity
  8
PV-728
100
AcDbEllipse
 10
-28.39631723888025
 20
58.92166842923849
 30
0.0
 11
0.0030477700328008
 21
0.0042747628971864
 31
0.0
210
0.0
220
0.0
230
0.9999999999999998
 40
0.6345370204113856
 41
2.732667207001317
 42
5.555926284112585
  0
LINE
  5
BF
330
3B
100
AcDbEntity
  8
PV-728
100
AcDbLine
 10
-28.38089893783486
 20
58.74998253168229
 30
0.0
 11
-28.43983741272185
 21
58.72242708371519
 31
0.0
  0
LINE
  5
C0
330
3B
100
AcDbEntity
  8
PV-728
100
AcDbLine
 10
-28.43983741272184
 20
58.72242708371519
 30
0.0
 11
-28.43983741272184
 21
58.92275451984581
 31
0.0
  0
LINE
  5
C1
330
3B
100
AcDbEntity
  8
PV-728
100
AcDbLine
 10
-28.43983741272185
 20
58.92275451984581
 30
0.0
 11
-28.38089893783486
 21
58.9503099678129
 31
0.0
  0
LINE
  5
C2
330
3B
100
AcDbEntity
  8
PV-728
100
AcDbLine
 10
-28.38089893783487
 20
58.9503099678129
 30
0.0
 11
-28.38089893783487
 21
58.74998253168229
 31
0.0
  0
LINE
  5
C3
330
3B
100
AcDbEntity
  8
PV-728
100
AcDbLine
 10
-28.4475603726392
 20
59.04790179511787
 30
0.0
 11
-28.45098147009239
 21
59.02910929326933
 31
0.0
  0
LINE
  5
C4
330
3B
100
AcDbEntity
  8
PV-728
100
AcDbLine
 10
-28.44394031294006
 20
59.04768212280536
 30
0.0
 11
-28.4475603726392
 21
59.04790179511786
 31
0.0
  0
LINE
  5
C5
330
3B
100
AcDbEntity
  8
PV-728
100
AcDbLine
 10
-28.44659135017774
 20
59.03311965480455
 30
0.0
 11
-28.44394031294006
 21
59.04768212280536
 31
0.0
  0
LINE
  5
C6
330
3B
100
AcDbEntity
  8
PV-728
100
AcDbLine
 10
-28.51227509279766
 20
58.97440028263793
 30
0.0
 11
-28.50939925397013
 21
58.97574482077411
 31
0.0
  0
LINE
  5
C7
330
3B
100
AcDbEntity
  8
PV-728
100
AcDbLine
 10
-28.51227509279766
 20
58.97440028263793
 30
0.0
 11
-28.51456581902108
 21
58.97603349760331
 31
0.0
  0
LINE
  5
C8
330
3B
100
AcDbEntity
  8
PV-728
100
AcDbLine
 10
-28.51227509279766
 20
58.97311775052554
 30
0.0
 11
-28.51227509279766
 21
58.97440028263793
 31
0.0
  0
LINE
  5
C9
330
3B
100
AcDbEntity
  8
PV-728
100
AcDbLine
 10
-28.50333559934274
 20
58.98128395131116
 30
0.0
 11
-28.51456581902108
 21
58.97603349760331
 31
0.0
  0
LINE
  5
CA
330
3B
100
AcDbEntity
  8
PV-728
100
AcDbLine
 10
-28.51456581902108
 20
58.97603349760331
 30
0.0
 11
-28.51456581902108
 21
58.97102517890729
 31
0.0
  0
LINE
  5
CB
330
3B
100
AcDbEntity
  8
PV-728
100
AcDbLine
 10
-28.9035508013523
 20
58.29089660123992
 30
0.0
 11
-28.42205659506284
 21
58.73074013213991
 31
0.0
  0
LINE
  5
CC
330
3B
100
AcDbEntity
  8
PV-728
100
AcDbLine
 10
-28.27604875148619
 20
58.86411786466291
 30
0.0
 11
-27.72860322365247
 21
59.36420773239652
 31
0.0
  0
LINE
  5
CD
330
3B
100
AcDbEntity
  8
PV-728
100
AcDbLine
 10
-28.9035508013523
 20
58.29089660123992
 30
0.0
 11
-28.9035508013523
 21
58.50821393702259
 31
0.0
  0
LINE
  5
CE
330
3B
100
AcDbEntity
  8
PV-728
100
AcDbLine
 10
-28.9035508013523
 20
58.29089660123992
 30
0.0
 11
-28.96962944241254
 21
58.33800857139483
 31
0.0
  0
LINE
  5
CF
330
3B
100
AcDbEntity
  8
PV-728
100
AcDbLine
 10
-28.96962944241254
 20
58.5553259071775
 30
0.0
 11
-28.96962944241254
 21
58.33800857139483
 31
0.0
  0
LINE
  5
D0
330
3B
100
AcDbEntity
  8
PV-728
100
AcDbLine
 10
-28.9035508013523
 20
58.50821393702259
 30
0.0
 11
-27.72860322365247
 21
59.58152506817918
 31
0.0
  0
LINE
  5
D1
330
3B
100
AcDbEntity
  8
PV-728
100
AcDbLine
 10
-28.9035508013523
 20
58.50821393702259
 30
0.0
 11
-28.96962944241254
 21
58.5553259071775
 31
0.0
  0
LINE
  5
D2
330
3B
100
AcDbEntity
  8
PV-728
100
AcDbLine
 10
-27.7946818647127
 20
59.62863703833409
 30
0.0
 11
-28.96962944241254
 21
58.5553259071775
 31
0.0
  0
LINE
  5
D3
330
3B
100
AcDbEntity
  8
PV-728
100
AcDbLine
 10
-27.72860322365247
 20
59.58152506817918
 30
0.0
 11
-27.72860322365247
 21
59.36420773239652
 31
0.0
  0
LINE
  5
D4
330
3B
100
AcDbEntity
  8
PV-728
100
AcDbLine
 10
-27.72860322365247
 20
59.58152506817918
 30
0.0
 11
-27.7946818647127
 21
59.62863703833409
 31
0.0
  0
ELLIPSE
  5
D5
330
3B
100
AcDbEntity
  8
PV-728
100
AcDbEllipse
 10
-28.37365111016635
 20
58.62899550647886
 30
0.0
 11
0.0045497350179889
 21
-0.0005675705053391
 31
0.0
210
0.0
220
0.0
230
1.0
 40
0.8586018337649477
 41
-0.0121056680432853
 42
0.407032089588482
  0
ELLIPSE
  5
D6
330
3B
100
AcDbEntity
  8
PV-728
100
AcDbEllipse
 10
-28.37365111016635
 20
58.62899550647886
 30
0.0
 11
0.0045497350179889
 21
-0.0005675705053391
 31
0.0
210
0.0
220
0.0
230
1.0
 40
0.8586018337649477
 41
2.626519154067219
 42
6.2710796391363
  0
ELLIPSE
  5
D7
330
3B
100
AcDbEntity
  8
PV-728
100
AcDbEllipse
 10
-28.37376336366628
 20
58.62809566465355
 30
0.0
 11
0.0087764950192687
 21
-0.0010948505118425
 31
0.0
210
0.0
220
0.0
230
1.0
 40
0.858601833764948
 41
-3.021893567406535
 42
-0.3705313316647464
  0
ELLIPSE
  5
D8
330
3B
100
AcDbEntity
  8
PV-728
100
AcDbEllipse
 10
-28.37376336366628
 20
58.62809566465355
 30
0.0
 11
0.0087764950192687
 21
-0.0010948505118425
 31
0.0
210
0.0
220
0.0
230
1.0
 40
0.858601833764948
 41
2.771061321920223
 42
3.141592653589528
  0
ELLIPSE
  5
D9
330
3B
100
AcDbEntity
  8
PV-728
100
AcDbEllipse
 10
-28.37398787066613
 20
58.62629598100292
 30
0.0
 11
0.0087764950192687
 21
-0.0010948505118425
 31
0.0
210
0.0
220
0.0
230
1.0
 40
0.858601833764948
 41
0.0
 42
6.283185307179586
  0
ELLIPSE
  5
DA
330
3B
100
AcDbEntity
  8
PV-728
100
AcDbEllipse
 10
-28.37376336366628
 20
58.62809566465355
 30
0.0
 11
0.0087764950192687
 21
-0.0010948505118425
 31
0.0
210
0.0
220
0.0
230
1.0
 40
0.858601833764948
 41
-3.021893567406535
 42
-0.3705313316647464
  0
ELLIPSE
  5
DB
330
3B
100
AcDbEntity
  8
PV-728
100
AcDbEllipse
 10
-28.37376336366628
 20
58.62809566465355
 30
0.0
 11
0.0087764950192687
 21
-0.0010948505118425
 31
0.0
210
0.0
220
0.0
230
1.0
 40
0.858601833764948
 41
2.771061321920223
 42
3.141592653589528
  0
ELLIPSE
  5
DC
330
3B
100
AcDbEntity
  8
PV-728
100
AcDbEllipse
 10
-28.30437133799036
 20
58.58634978803896
 30
0.0
 11
0.0087764950192687
 21
-0.0010948505118425
 31
0.0
210
0.0
220
0.0
230
1.0
 40
0.858601833764948
 41
0.0
 42
6.283185307179586
  0
ELLIPSE
  5
DD
330
3B
100
AcDbEntity
  8
PV-728
100
AcDbEllipse
 10
-28.3041468309905
 20
58.58814947168958
 30
0.0
 11
0.0087764950192687
 21
-0.0010948505118425
 31
0.0
210
0.0
220
0.0
230
1.0
 40
0.858601833764948
 41
-3.021893567406535
 42
-0.3705313316652604
  0
ELLIPSE
  5
DE
330
3B
100
AcDbEntity
  8
PV-728
100
AcDbEllipse
 10
-28.3041468309905
 20
58.58814947168958
 30
0.0
 11
0.0087764950192687
 21
-0.0010948505118425
 31
0.0
210
0.0
220
0.0
230
1.0
 40
0.858601833764948
 41
2.771061321920322
 42
3.141592653589528
  0
ELLIPSE
  5
DF
330
3B
100
AcDbEntity
  8
PV-728
100
AcDbEllipse
 10
-28.30403457749057
 20
58.58904931351489
 30
0.0
 11
0.0045497350179889
 21
-0.0005675705053391
 31
0.0
210
0.0
220
0.0
230
1.0
 40
0.8586018337649477
 41
-0.0121056680441796
 42
0.407032089588482
  0
ELLIPSE
  5
E0
330
3B
100
AcDbEntity
  8
PV-728
100
AcDbEllipse
 10
-28.30403457749057
 20
58.58904931351489
 30
0.0
 11
0.0045497350179889
 21
-0.0005675705053391
 31
0.0
210
0.0
220
0.0
230
1.0
 40
0.8586018337649477
 41
2.626519154067219
 42
6.271079639135406
  0
ELLIPSE
  5
E1
330
3B
100
AcDbEntity
  8
PV-728
100
AcDbEllipse
 10
-28.3041468309905
 20
58.58814947168958
 30
0.0
 11
0.0087764950192687
 21
-0.0010948505118425
 31
0.0
210
0.0
220
0.0
230
1.0
 40
0.858601833764948
 41
-3.021893567406535
 42
-0.3705313316652604
  0
ELLIPSE
  5
E2
330
3B
100
AcDbEntity
  8
PV-728
100
AcDbEllipse
 10
-28.3041468309905
 20
58.58814947168958
 30
0.0
 11
0.0087764950192687
 21
-0.0010948505118425
 31
0.0
210
0.0
220
0.0
230
1.0
 40
0.858601833764948
 41
2.771061321920322
 42
3.141592653589528
  0
ELLIPSE
  5
E3
330
3B
100
AcDbEntity
  8
PV-728
100
AcDbEllipse
 10
-28.26956307165247
 20
58.66996969526216
 30
0.0
 11
0.0087764950192687
 21
-0.0010948505118425
 31
0.0
210
0.0
220
0.0
230
1.0
 40
0.858601833764948
 41
0.0
 42
6.283185307179586
  0
ELLIPSE
  5
E4
330
3B
100
AcDbEntity
  8
PV-728
100
AcDbEllipse
 10
-28.26933856465261
 20
58.67176937891279
 30
0.0
 11
0.0087764950192687
 21
-0.0010948505118425
 31
0.0
210
0.0
220
0.0
230
1.0
 40
0.858601833764948
 41
-3.021893567406535
 42
-0.3705313316647464
  0
ELLIPSE
  5
E5
330
3B
100
AcDbEntity
  8
PV-728
100
AcDbEllipse
 10
-28.26933856465261
 20
58.67176937891279
 30
0.0
 11
0.0087764950192687
 21
-0.0010948505118425
 31
0.0
210
0.0
220
0.0
230
1.0
 40
0.858601833764948
 41
2.771061321920737
 42
3.141592653589528
  0
ELLIPSE
  5
E6
330
3B
100
AcDbEntity
  8
PV-728
100
AcDbEllipse
 10
-28.39105524333529
 20
58.71578376436336
 30
0.0
 11
0.0045497350179889
 21
-0.0005675705053391
 31
0.0
210
0.0
220
0.0
230
1.0
 40
0.8586018337649477
 41
-0.0121056680432853
 42
0.4070320895904044
  0
ELLIPSE
  5
E7
330
3B
100
AcDbEntity
  8
PV-728
100
AcDbEllipse
 10
-28.39105524333529
 20
58.71578376436336
 30
0.0
 11
0.0045497350179889
 21
-0.0005675705053391
 31
0.0
210
0.0
220
0.0
230
1.0
 40
0.8586018337649477
 41
2.626519154064802
 42
6.2710796391363
  0
ELLIPSE
  5
E8
330
3B
100
AcDbEntity
  8
PV-728
100
AcDbEllipse
 10
-28.39116749683523
 20
58.71488392253806
 30
0.0
 11
0.0087764950192687
 21
-0.0010948505118425
 31
0.0
210
0.0
220
0.0
230
1.0
 40
0.858601833764948
 41
-3.021893567406068
 42
-0.370531331667415
  0
ELLIPSE
  5
E9
330
3B
100
AcDbEntity
  8
PV-728
100
AcDbEllipse
 10
-28.39116749683523
 20
58.71488392253806
 30
0.0
 11
0.0087764950192687
 21
-0.0010948505118425
 31
0.0
210
0.0
220
0.0
230
1.0
 40
0.858601833764948
 41
2.771061321922891
 42
3.141592653589528
  0
ELLIPSE
  5
EA
330
3B
100
AcDbEntity
  8
PV-728
100
AcDbEllipse
 10
-28.39139200383508
 20
58.71308423888743
 30
0.0
 11
0.0087764950192687
 21
-0.0010948505118425
 31
0.0
210
0.0
220
0.0
230
1.0
 40
0.858601833764948
 41
0.0
 42
6.283185307179586
  0
ELLIPSE
  5
EB
330
3B
100
AcDbEntity
  8
PV-728
100
AcDbEllipse
 10
-28.39116749683523
 20
58.71488392253806
 30
0.0
 11
0.0087764950192687
 21
-0.0010948505118425
 31
0.0
210
0.0
220
0.0
230
1.0
 40
0.858601833764948
 41
-3.021893567406068
 42
-0.370531331667415
  0
ELLIPSE
  5
EC
330
3B
100
AcDbEntity
  8
PV-728
100
AcDbEllipse
 10
-28.39116749683523
 20
58.71488392253806
 30
0.0
 11
0.0087764950192687
 21
-0.0010948505118425
 31
0.0
210
0.0
220
0.0
230
1.0
 40
0.858601833764948
 41
2.771061321922891
 42
3.141592653589528
  0
ELLIPSE
  5
ED
330
3B
100
AcDbEntity
  8
PV-728
100
AcDbEllipse
 10
-28.39693011586375
 20
58.7964839755205
 30
0.0
 11
0.0027736356999648
 21
0.0036509135865323
 31
0.0
210
0.0
220
0.0
230
1.0
 40
0.6168206383673093
 41
-0.8805416414636985
 42
0.1837673279706093
  0
ELLIPSE
  5
EE
330
3B
100
AcDbEntity
  8
PV-728
100
AcDbEllipse
 10
-28.39693011586375
 20
58.7964839755205
 30
0.0
 11
0.0027736356999648
 21
0.0036509135865323
 31
0.0
210
0.0
220
0.0
230
1.0
 40
0.6168206383673093
 41
2.957825325619411
 42
5.402643665715888
  0
ELLIPSE
  5
EF
330
3B
100
AcDbEntity
  8
PV-728
100
AcDbEllipse
 10
-28.39582145546857
 20
58.79564171508942
 30
0.0
 11
0.0053503775076481
 21
0.007042657381428
 31
0.0
210
0.0
220
0.0
230
1.0
 40
0.6168206383673093
 41
-2.883524489403121
 42
-0.8805416414636624
  0
ELLIPSE
  5
F0
330
3B
100
AcDbEntity
  8
PV-728
100
AcDbEllipse
 10
-28.39582145546857
 20
58.79564171508942
 30
0.0
 11
0.0053503775076481
 21
0.007042657381428
 31
0.0
210
0.0
220
0.0
230
1.0
 40
0.6168206383673093
 41
0.0000000000001441
 42
3.141592653589937
  0
ELLIPSE
  5
F1
330
3B
100
AcDbEntity
  8
PV-728
100
AcDbEllipse
 10
-28.39582145546857
 20
58.79564171508942
 30
0.0
 11
0.0053503775076481
 21
0.007042657381428
 31
0.0
210
0.0
220
0.0
230
1.0
 40
0.6168206383673093
 41
-0.8805416414636624
 42
-0.2580681641872823
  0
ELLIPSE
  5
F2
330
3B
100
AcDbEntity
  8
PV-728
100
AcDbEllipse
 10
-28.3936041346782
 20
58.79395719422726
 30
0.0
 11
0.0053503775076481
 21
0.007042657381428
 31
0.0
210
0.0
220
0.0
230
1.0
 40
0.6168206383673093
 41
0.0
 42
6.283185307179586
  0
ELLIPSE
  5
F3
330
3B
100
AcDbEntity
  8
PV-728
100
AcDbEllipse
 10
-28.39582145546857
 20
58.79564171508942
 30
0.0
 11
0.0053503775076481
 21
0.007042657381428
 31
0.0
210
0.0
220
0.0
230
1.0
 40
0.6168206383673093
 41
-2.883524489403121
 42
-0.8805416414636624
  0
ELLIPSE
  5
F4
330
3B
100
AcDbEntity
  8
PV-728
100
AcDbEllipse
 10
-28.39582145546857
 20
58.79564171508942
 30
0.0
 11
0.0053503775076481
 21
0.007042657381428
 31
0.0
210
0.0
220
0.0
230
1.0
 40
0.6168206383673093
 41
0.0000000000001441
 42
3.141592653589937
  0
ELLIPSE
  5
F5
330
3B
100
AcDbEntity
  8
PV-728
100
AcDbEllipse
 10
-28.39582145546857
 20
58.79564171508942
 30
0.0
 11
0.0053503775076481
 21
0.007042657381428
 31
0.0
210
0.0
220
0.0
230
1.0
 40
0.6168206383673093
 41
-0.8805416414636624
 42
-0.2580681641872823
  0
ELLIPSE
  5
F6
330
3B
100
AcDbEntity
  8
PV-728
100
AcDbEllipse
 10
-28.39693011586375
 20
58.85935421225193
 30
0.0
 11
0.0027736356999648
 21
0.0036509135865323
 31
0.0
210
0.0
220
0.0
230
1.0
 40
0.6168206383673093
 41
-0.8805416414646581
 42
0.1837673279694405
  0
ELLIPSE
  5
F7
330
3B
100
AcDbEntity
  8
PV-728
100
AcDbEllipse
 10
-28.39693011586375
 20
58.85935421225193
 30
0.0
 11
0.0027736356999648
 21
0.0036509135865323
 31
0.0
210
0.0
220
0.0
230
1.0
 40
0.6168206383673093
 41
2.95782532561986
 42
5.402643665714927
  0
ELLIPSE
  5
F8
330
3B
100
AcDbEntity
  8
PV-728
100
AcDbEllipse
 10
-28.39582145546856
 20
58.85851195182086
 30
0.0
 11
0.0053503775076481
 21
0.007042657381428
 31
0.0
210
0.0
220
0.0
230
1.0
 40
0.6168206383673093
 41
-2.883524489403121
 42
-0.8805416414636624
  0
ELLIPSE
  5
F9
330
3B
100
AcDbEntity
  8
PV-728
100
AcDbEllipse
 10
-28.39582145546856
 20
58.85851195182086
 30
0.0
 11
0.0053503775076481
 21
0.007042657381428
 31
0.0
210
0.0
220
0.0
230
1.0
 40
0.6168206383673093
 41
0.0000000000001441
 42
3.141592653589937
  0
ELLIPSE
  5
FA
330
3B
100
AcDbEntity
  8
PV-728
100
AcDbEllipse
 10
-28.39582145546856
 20
58.85851195182086
 30
0.0
 11
0.0053503775076481
 21
0.007042657381428
 31
0.0
210
0.0
220
0.0
230
1.0
 40
0.6168206383673093
 41
-0.8805416414636624
 42
-0.2580681641872823
  0
ELLIPSE
  5
FB
330
3B
100
AcDbEntity
  8
PV-728
100
AcDbEllipse
 10
-28.3936041346782
 20
58.8568274309587
 30
0.0
 11
0.0053503775076481
 21
0.007042657381428
 31
0.0
210
0.0
220
0.0
230
1.0
 40
0.6168206383673093
 41
0.0
 42
6.283185307179586
  0
ELLIPSE
  5
FC
330
3B
100
AcDbEntity
  8
PV-728
100
AcDbEllipse
 10
-28.39582145546856
 20
58.85851195182086
 30
0.0
 11
0.0053503775076481
 21
0.007042657381428
 31
0.0
210
0.0
220
0.0
230
1.0
 40
0.6168206383673093
 41
-2.883524489403121
 42
-0.8805416414636624
  0
ELLIPSE
  5
FD
330
3B
100
AcDbEntity
  8
PV-728
100
AcDbEllipse
 10
-28.39582145546856
 20
58.85851195182086
 30
0.0
 11
0.0053503775076481
 21
0.007042657381428
 31
0.0
210
0.0
220
0.0
230
1.0
 40
0.6168206383673093
 41
0.0000000000001441
 42
3.141592653589937
  0
ELLIPSE
  5
FE
330
3B
100
AcDbEntity
  8
PV-728
100
AcDbEllipse
 10
-28.39582145546856
 20
58.85851195182086
 30
0.0
 11
0.0053503775076481
 21
0.007042657381428
 31
0.0
210
0.0
220
0.0
230
1.0
 40
0.6168206383673093
 41
-0.8805416414636624
 42
-0.2580681641872823
  0
ELLIPSE
  5
FF
330
3B
100
AcDbEntity
  8
PV-728
100
AcDbEllipse
 10
-28.42352425419429
 20
58.81140378815158
 30
0.0
 11
0.0053503775076481
 21
0.007042657381428
 31
0.0
210
0.0
220
0.0
230
1.0
 40
0.6168206383673093
 41
0.0
 42
6.283185307179586
  0
ELLIPSE
  5
100
330
3B
100
AcDbEntity
  8
PV-728
100
AcDbEllipse
 10
-28.42574157498466
 20
58.81308830901374
 30
0.0
 11
0.0053503775076481
 21
0.007042657381428
 31
0.0
210
0.0
220
0.0
230
1.0
 40
0.6168206383673093
 41
-2.883524489403121
 42
-0.8805416414636624
  0
ELLIPSE
  5
101
330
3B
100
AcDbEntity
  8
PV-728
100
AcDbEllipse
 10
-28.42574157498466
 20
58.81308830901374
 30
0.0
 11
0.0053503775076481
 21
0.007042657381428
 31
0.0
210
0.0
220
0.0
230
1.0
 40
0.6168206383673093
 41
0.0000000000001441
 42
3.141592653589937
  0
ELLIPSE
  5
102
330
3B
100
AcDbEntity
  8
PV-728
100
AcDbEllipse
 10
-28.42574157498466
 20
58.81308830901374
 30
0.0
 11
0.0053503775076481
 21
0.007042657381428
 31
0.0
210
0.0
220
0.0
230
1.0
 40
0.6168206383673093
 41
-0.8805416414636624
 42
-0.2580681641872823
  0
ELLIPSE
  5
103
330
3B
100
AcDbEntity
  8
PV-728
100
AcDbEllipse
 10
-28.42685023537985
 20
58.81393056944482
 30
0.0
 11
0.0027736356999648
 21
0.0036509135865323
 31
0.0
210
0.0
220
0.0
230
1.0
 40
0.6168206383673093
 41
-0.8805416414636985
 42
0.1837673279706093
  0
ELLIPSE
  5
104
330
3B
100
AcDbEntity
  8
PV-728
100
AcDbEllipse
 10
-28.42685023537985
 20
58.81393056944482
 30
0.0
 11
0.0027736356999648
 21
0.0036509135865323
 31
0.0
210
0.0
220
0.0
230
1.0
 40
0.6168206383673093
 41
2.957825325619411
 42
5.402643665715888
  0
ELLIPSE
  5
105
330
3B
100
AcDbEntity
  8
PV-728
100
AcDbEllipse
 10
-28.42574157498466
 20
58.81308830901374
 30
0.0
 11
0.0053503775076481
 21
0.007042657381428
 31
0.0
210
0.0
220
0.0
230
1.0
 40
0.6168206383673093
 41
-2.883524489403121
 42
-0.8805416414636624
  0
ELLIPSE
  5
106
330
3B
100
AcDbEntity
  8
PV-728
100
AcDbEllipse
 10
-28.42574157498466
 20
58.81308830901374
 30
0.0
 11
0.0053503775076481
 21
0.007042657381428
 31
0.0
210
0.0
220
0.0
230
1.0
 40
0.6168206383673093
 41
0.0000000000001441
 42
3.141592653589937
  0
ELLIPSE
  5
107
330
3B
100
AcDbEntity
  8
PV-728
100
AcDbEllipse
 10
-28.42574157498466
 20
58.81308830901374
 30
0.0
 11
0.0053503775076481
 21
0.007042657381428
 31
0.0
210
0.0
220
0.0
230
1.0
 40
0.6168206383673093
 41
-0.8805416414636624
 42
-0.2580681641872823
  0
ELLIPSE
  5
108
330
3B
100
AcDbEntity
  8
PV-728
100
AcDbEllipse
 10
-28.39693011586375
 20
58.92222444898337
 30
0.0
 11
0.0027736356999648
 21
0.0036509135865323
 31
0.0
210
0.0
220
0.0
230
0.9999999999999998
 40
0.6168206383673091
 41
-0.8805416414646586
 42
0.1837673279694404
  0
ELLIPSE
  5
109
330
3B
100
AcDbEntity
  8
PV-728
100
AcDbEllipse
 10
-28.39693011586375
 20
58.92222444898337
 30
0.0
 11
0.0027736356999648
 21
0.0036509135865323
 31
0.0
210
0.0
220
0.0
230
0.9999999999999998
 40
0.6168206383673091
 41
2.95782532561986
 42
5.402643665714927
  0
ELLIPSE
  5
10A
330
3B
100
AcDbEntity
  8
PV-728
100
AcDbEllipse
 10
-28.39582145546856
 20
58.92138218855229
 30
0.0
 11
0.0053503775076481
 21
0.007042657381428
 31
0.0
210
0.0
220
0.0
230
1.0
 40
0.6168206383673093
 41
-2.883524489403121
 42
-0.8805416414636624
  0
ELLIPSE
  5
10B
330
3B
100
AcDbEntity
  8
PV-728
100
AcDbEllipse
 10
-28.39582145546856
 20
58.92138218855229
 30
0.0
 11
0.0053503775076481
 21
0.007042657381428
 31
0.0
210
0.0
220
0.0
230
1.0
 40
0.6168206383673093
 41
0.0000000000001441
 42
3.141592653589937
  0
ELLIPSE
  5
10C
330
3B
100
AcDbEntity
  8
PV-728
100
AcDbEllipse
 10
-28.39582145546856
 20
58.92138218855229
 30
0.0
 11
0.0053503775076481
 21
0.007042657381428
 31
0.0
210
0.0
220
0.0
230
1.0
 40
0.6168206383673093
 41
-0.8805416414636624
 42
-0.2580681641872823
  0
ELLIPSE
  5
10D
330
3B
100
AcDbEntity
  8
PV-728
100
AcDbEllipse
 10
-28.3936041346782
 20
58.91969766769013
 30
0.0
 11
0.0053503775076481
 21
0.007042657381428
 31
0.0
210
0.0
220
0.0
230
1.0
 40
0.6168206383673093
 41
0.0
 42
6.283185307179586
  0
ELLIPSE
  5
10E
330
3B
100
AcDbEntity
  8
PV-728
100
AcDbEllipse
 10
-28.39582145546856
 20
58.92138218855229
 30
0.0
 11
0.0053503775076481
 21
0.007042657381428
 31
0.0
210
0.0
220
0.0
230
1.0
 40
0.6168206383673093
 41
-2.883524489403121
 42
-0.8805416414636624
  0
ELLIPSE
  5
10F
330
3B
100
AcDbEntity
  8
PV-728
100
AcDbEllipse
 10
-28.39582145546856
 20
58.92138218855229
 30
0.0
 11
0.0053503775076481
 21
0.007042657381428
 31
0.0
210
0.0
220
0.0
230
1.0
 40
0.6168206383673093
 41
0.0000000000001441
 42
3.141592653589937
  0
ELLIPSE
  5
110
330
3B
100
AcDbEntity
  8
PV-728
100
AcDbEllipse
 10
-28.39582145546856
 20
58.92138218855229
 30
0.0
 11
0.0053503775076481
 21
0.007042657381428
 31
0.0
210
0.0
220
0.0
230
1.0
 40
0.6168206383673093
 41
-0.8805416414636624
 42
-0.2580681641872823
  0
ELLIPSE
  5
111
330
3B
100
AcDbEntity
  8
PV-728
100
AcDbEllipse
 10
-28.42685023537985
 20
58.87680080617625
 30
0.0
 11
0.0027736356999648
 21
0.0036509135865323
 31
0.0
210
0.0
220
0.0
230
1.0
 40
0.6168206383673093
 41
-0.8805416414646581
 42
0.1837673279706093
  0
ELLIPSE
  5
112
330
3B
100
AcDbEntity
  8
PV-728
100
AcDbEllipse
 10
-28.42685023537985
 20
58.87680080617625
 30
0.0
 11
0.0027736356999648
 21
0.0036509135865323
 31
0.0
210
0.0
220
0.0
230
1.0
 40
0.6168206383673093
 41
2.957825325619411
 42
5.402643665714927
  0
ELLIPSE
  5
113
330
3B
100
AcDbEntity
  8
PV-728
100
AcDbEllipse
 10
-28.42574157498466
 20
58.87595854574517
 30
0.0
 11
0.0053503775076481
 21
0.007042657381428
 31
0.0
210
0.0
220
0.0
230
1.0
 40
0.6168206383673093
 41
-2.883524489403121
 42
-0.8805416414636624
  0
ELLIPSE
  5
114
330
3B
100
AcDbEntity
  8
PV-728
100
AcDbEllipse
 10
-28.42574157498466
 20
58.87595854574517
 30
0.0
 11
0.0053503775076481
 21
0.007042657381428
 31
0.0
210
0.0
220
0.0
230
1.0
 40
0.6168206383673093
 41
0.0000000000001441
 42
3.141592653589937
  0
ELLIPSE
  5
115
330
3B
100
AcDbEntity
  8
PV-728
100
AcDbEllipse
 10
-28.42574157498466
 20
58.87595854574517
 30
0.0
 11
0.0053503775076481
 21
0.007042657381428
 31
0.0
210
0.0
220
0.0
230
1.0
 40
0.6168206383673093
 41
-0.8805416414636624
 42
-0.2580681641872823
  0
ELLIPSE
  5
116
330
3B
100
AcDbEntity
  8
PV-728
100
AcDbEllipse
 10
-28.42352425419429
 20
58.87427402488302
 30
0.0
 11
0.0053503775076481
 21
0.007042657381428
 31
0.0
210
0.0
220
0.0
230
1.0
 40
0.6168206383673093
 41
0.0
 42
6.283185307179586
  0
ELLIPSE
  5
117
330
3B
100
AcDbEntity
  8
PV-728
100
AcDbEllipse
 10
-28.42574157498466
 20
58.87595854574517
 30
0.0
 11
0.0053503775076481
 21
0.007042657381428
 31
0.0
210
0.0
220
0.0
230
1.0
 40
0.6168206383673093
 41
-2.883524489403121
 42
-0.8805416414636624
  0
ELLIPSE
  5
118
330
3B
100
AcDbEntity
  8
PV-728
100
AcDbEllipse
 10
-28.42574157498466
 20
58.87595854574517
 30
0.0
 11
0.0053503775076481
 21
0.007042657381428
 31
0.0
210
0.0
220
0.0
230
1.0
 40
0.6168206383673093
 41
0.0000000000001441
 42
3.141592653589937
  0
ELLIPSE
  5
119
330
3B
100
AcDbEntity
  8
PV-728
100
AcDbEllipse
 10
-28.42574157498466
 20
58.87595854574517
 30
0.0
 11
0.0053503775076481
 21
0.007042657381428
 31
0.0
210
0.0
220
0.0
230
1.0
 40
0.6168206383673093
 41
-0.8805416414636624
 42
-0.2580681641872823
  0
LINE
  5
11A
330
3B
100
AcDbEntity
  8
PV-728
100
AcDbLine
 10
-28.41817387668664
 20
58.88131668226445
 30
0.0
 11
-28.42039119747701
 21
58.8830012031266
 31
0.0
  0
LINE
  5
11B
330
3B
100
AcDbEntity
  8
PV-728
100
AcDbLine
 10
-28.42887463170194
 20
58.86723136750159
 30
0.0
 11
-28.43109195249231
 21
58.86891588836374
 31
0.0
  0
LINE
  5
11C
330
3B
100
AcDbEntity
  8
PV-728
100
AcDbLine
 10
-28.38825375717055
 20
58.92674032507156
 30
0.0
 11
-28.39047107796092
 21
58.92842484593372
 31
0.0
  0
LINE
  5
11D
330
3B
100
AcDbEntity
  8
PV-728
100
AcDbLine
 10
-28.39895451218584
 20
58.9126550103087
 30
0.0
 11
-28.40117183297622
 21
58.91433953117086
 31
0.0
  0
LINE
  5
11E
330
3B
100
AcDbEntity
  8
PV-728
100
AcDbLine
 10
-28.41817387668664
 20
58.81844644553301
 30
0.0
 11
-28.42039119747701
 21
58.82013096639517
 31
0.0
  0
LINE
  5
11F
330
3B
100
AcDbEntity
  8
PV-728
100
AcDbLine
 10
-28.42887463170194
 20
58.80436113077015
 30
0.0
 11
-28.43109195249231
 21
58.80604565163231
 31
0.0
  0
LINE
  5
120
330
3B
100
AcDbEntity
  8
PV-728
100
AcDbLine
 10
-28.38825375717055
 20
58.86387008834013
 30
0.0
 11
-28.39047107796092
 21
58.86555460920228
 31
0.0
  0
LINE
  5
121
330
3B
100
AcDbEntity
  8
PV-728
100
AcDbLine
 10
-28.39895451218584
 20
58.84978477357726
 30
0.0
 11
-28.40117183297622
 21
58.85146929443942
 31
0.0
  0
LINE
  5
122
330
3B
100
AcDbEntity
  8
PV-728
100
AcDbLine
 10
-28.38825375717055
 20
58.80099985160869
 30
0.0
 11
-28.39047107796092
 21
58.80268437247085
 31
0.0
  0
LINE
  5
123
330
3B
100
AcDbEntity
  8
PV-728
100
AcDbLine
 10
-28.39895451218584
 20
58.78691453684584
 30
0.0
 11
-28.40117183297622
 21
58.78859905770799
 31
0.0
  0
LINE
  5
124
330
3B
100
AcDbEntity
  8
PV-728
100
AcDbLine
 10
-28.38261550881581
 20
58.71198938837559
 30
0.0
 11
-28.38240940025002
 21
58.71364158726624
 31
0.0
  0
LINE
  5
125
330
3B
100
AcDbEntity
  8
PV-728
100
AcDbLine
 10
-28.40016849885435
 20
58.71417908939928
 30
0.0
 11
-28.39994399185449
 21
58.7159787730499
 31
0.0
  0
LINE
  5
126
330
3B
100
AcDbEntity
  8
PV-728
100
AcDbLine
 10
-28.2607865766332
 20
58.66887484475032
 30
0.0
 11
-28.26058046806741
 21
58.67052704364097
 31
0.0
  0
LINE
  5
127
330
3B
100
AcDbEntity
  8
PV-728
100
AcDbLine
 10
-28.27833956667174
 20
58.67106454577402
 30
0.0
 11
-28.27811505967188
 21
58.67286422942463
 31
0.0
  0
LINE
  5
128
330
3B
100
AcDbEntity
  8
PV-728
100
AcDbLine
 10
-28.29559484297109
 20
58.58525493752711
 30
0.0
 11
-28.2953887344053
 21
58.58690713641776
 31
0.0
  0
LINE
  5
129
330
3B
100
AcDbEntity
  8
PV-728
100
AcDbLine
 10
-28.31314783300963
 20
58.5874446385508
 30
0.0
 11
-28.31292332600977
 21
58.58924432220142
 31
0.0
  0
LINE
  5
12A
330
3B
100
AcDbEntity
  8
PV-728
100
AcDbLine
 10
-28.36521137564687
 20
58.62520113049108
 30
0.0
 11
-28.36500526708107
 21
58.62685332938173
 31
0.0
  0
LINE
  5
12B
330
3B
100
AcDbEntity
  8
PV-728
100
AcDbLine
 10
-28.3827643656854
 20
58.62739083151478
 30
0.0
 11
-28.38253985868555
 21
58.62919051516539
 31
0.0
  0
ARC
  5
12C
330
3B
100
AcDbEntity
  8
PV-728
100
AcDbCircle
 10
-28.3041468309905
 20
58.81319634180778
 30
0.0
 40
0.00875
100
AcDbArc
 50
169.6825256149612
 51
180.0
  0
ARC
  5
12D
330
3B
100
AcDbEntity
  8
PV-728
100
AcDbCircle
 10
-28.3041468309905
 20
58.68459813031166
 30
0.0
 40
0.00875
100
AcDbArc
 50
180.0
 51
349.6825256149616
  0
LINE
  5
12E
330
3B
100
AcDbEntity
  8
PV-728
100
AcDbLine
 10
-28.3128968309905
 20
58.68459813031166
 30
0.0
 11
-28.3128968309905
 21
58.81319634180778
 31
0.0
  0
LINE
  5
12F
330
3B
100
AcDbEntity
  8
PV-728
100
AcDbLine
 10
-28.33040310930897
 20
58.67309931229872
 30
0.0
 11
-28.33019700074319
 21
58.67475151118936
 31
0.0
  0
LINE
  5
130
330
3B
100
AcDbEntity
  8
PV-728
100
AcDbLine
 10
-28.34795609934751
 20
58.6752890133224
 30
0.0
 11
-28.34773159234766
 21
58.67708869697302
 31
0.0
  0
ENDBLK
  5
132
330
3B
100
AcDbEntity
  8
0
100
AcDbBlockEnd
  0
ENDSEC
  0
SECTION
  2
ENTITIES
  0
INSERT
  5
3A
330
2
100
AcDbEntity
  8
USP-GEO
100
AcDbBlockReference
  2
*U1
 10
30.21230850311034
 20
-57.11484223266322
 30
0.0
  0
TEXT
  5
1A4
330
2
100
AcDbEntity
  8
0
100
AcDbText
 10
1.355582251214919
 20
0.3769519545049391
 30
0.0
 40
0.125
  1
USP  HHCP2
100
AcDbText
  0
TEXT
  5
1A5
330
2
100
AcDbEntity
  8
0
100
AcDbText
 10
0.898395582292494
 20
0.1656845613191145
 30
0.0
 40
0.125
  1
SIMPSON  HCP2
100
AcDbText
  0
ENDSEC
  0
SECTION
  2
OBJECTS
  0
DICTIONARY
  5
14B
330
0
100
AcDbDictionary
281
     1
  3
ACAD_COLOR
350
154
  3
ACAD_GROUP
350
149
  3
ACAD_LAYOUT
350
155
  3
ACAD_MATERIAL
350
153
  3
ACAD_MLINESTYLE
350
14A
  3
ACAD_PLOTSETTINGS
350
156
  3
ACAD_PLOTSTYLENAME
350
151
  3
AcDbVariableDictionary
350
198
  0
DICTIONARY
  5
133
330
2
100
AcDbDictionary
280
     1
281
     1
  3
ACAD_LAYOUTSELFREF
360
134
  0
DICTIONARY
  5
138
330
137
100
AcDbDictionary
280
     1
281
     1
  3
ACAD_LAYOUTSELFREF
360
139
  0
DICTIONARY
  5
18E
330
1A
100
AcDbDictionary
280
     1
281
     1
  3
ACAD_SORTENTS
360
18F
  0
DICTIONARY
  5
154
102
{ACAD_REACTORS
330
14B
102
}
330
14B
100
AcDbDictionary
281
     1
  0
DICTIONARY
  5
149
102
{ACAD_REACTORS
330
14B
102
}
330
14B
100
AcDbDictionary
281
     1
  0
DICTIONARY
  5
155
102
{ACAD_REACTORS
330
14B
102
}
330
14B
100
AcDbDictionary
281
     1
  3
Layout1
350
158
  3
Model
350
157
  0
DICTIONARY
  5
153
102
{ACAD_REACTORS
330
14B
102
}
330
14B
100
AcDbDictionary
281
     1
  0
DICTIONARY
  5
14A
102
{ACAD_REACTORS
330
14B
102
}
330
14B
100
AcDbDictionary
281
     1
  3
STANDARD
350
14E
  0
DICTIONARY
  5
156
102
{ACAD_REACTORS
330
14B
102
}
330
14B
100
AcDbDictionary
281
     1
  0
ACDBDICTIONARYWDFLT
  5
151
102
{ACAD_REACTORS
330
14B
102
}
330
14B
100
AcDbDictionary
281
     1
  3
Normal
350
152
100
AcDbDictionaryWithDefault
340
152
  0
DICTIONARY
  5
198
102
{ACAD_REACTORS
330
14B
102
}
330
14B
100
AcDbDictionary
281
     1
  3
DIMASSOC
350
199
  3
PROJECTNAME
350
19A
  0
XRECORD
  5
134
102
{ACAD_REACTORS
330
133
102
}
330
133
100
AcDbXrecord
280
     1
340
0
  0
XRECORD
  5
139
102
{ACAD_REACTORS
330
138
102
}
330
138
100
AcDbXrecord
280
     1
340
0
  0
SORTENTSTABLE
  5
18F
102
{ACAD_REACTORS
330
18E
102
}
330
18E
100
AcDbSortentsTable
330
1A
  0
LAYOUT
  5
158
102
{ACAD_REACTORS
330
155
102
}
330
155
100
AcDbPlotSettings
  1

  2
\\MNPS6\laser4050
  4

  6

 40
0.0
 41
0.0
 42
0.0
 43
0.0
 44
0.0
 45
0.0
 46
0.0
 47
0.0
 48
0.0
 49
0.0
140
0.0
141
0.0
142
1.0
143
1.0
 70
   688
 72
     0
 73
     0
 74
     5
  7
USP.ctb
 75
    16
147
1.0
 76
     0
 77
     2
 78
   300
148
0.0
149
0.0
100
AcDbLayout
  1
Layout1
 70
     0
 71
     1
 10
0.0
 20
0.0
 11
12.0
 21
9.0
 12
0.0
 22
0.0
 32
0.0
 14
1.049999952316284
 24
0.7999999523162842
 34
0.0
 15
9.449999570846555
 25
7.199999570846556
 35
0.0
146
0.0
 13
0.0
 23
0.0
 33
0.0
 16
1.0
 26
0.0
 36
0.0
 17
0.0
 27
1.0
 37
0.0
 76
     0
330
137
  0
LAYOUT
  5
157
102
{ACAD_REACTORS
330
155
102
}
330
155
100
AcDbPlotSettings
  1

  2
\\MNPS6\laser4050
  4
Letter
  6

 40
5.365749835968017
 41
5.450419902801513
 42
5.154083251953125
 43
5.069427490234375
 44
215.8999938964844
 45
279.3999938964844
 46
0.0
 47
0.0
 48
-23.0953869918029
 49
10.27363741333886
140
-20.0953869918029
141
13.27363741333886
142
1.0
143
0.3710192829726467
 70
 11952
 72
     0
 73
     1
 74
     4
  7
USP.ctb
 75
     0
147
2.695277700899779
 76
     0
 77
     2
 78
   300
148
586.6228295917935
149
-260.950390298807
100
AcDbLayout
  1
Model
 70
     1
 71
     0
 10
0.0
 20
0.0
 11
12.0
 21
9.0
 12
0.0
 22
0.0
 32
0.0
 14
0.0
 24
0.0
 34
0.0
 15
0.0
 25
0.0
 35
0.0
146
0.0
 13
0.0
 23
0.0
 33
0.0
 16
1.0
 26
0.0
 36
0.0
 17
0.0
 27
1.0
 37
0.0
 76
     0
330
2
  0
MLINESTYLE
  5
14E
102
{ACAD_REACTORS
330
14A
102
}
330
14A
100
AcDbMlineStyle
  2
STANDARD
 70
     0
  3

 62
     0
 51
90.0
 52
90.0
 71
     2
 49
0.5
 62
   256
  6
BYLAYER
 49
-0.5
 62
   256
  6
BYLAYER
  0
ACDBPLACEHOLDER
  5
152
102
{ACAD_REACTORS
330
151
102
}
330
151
  0
DICTIONARYVAR
  5
199
102
{ACAD_REACTORS
330
198
102
}
330
198
100
DictionaryVariables
280
     0
  1
1
  0
DICTIONARYVAR
  5
19A
102
{ACAD_REACTORS
330
198
102
}
330
198
100
DictionaryVariables
280
     0
  1

  0
ENDSEC
  0
EOF
