  0
SECTION
  2
HEADER
  9
$ACADVER
  1
AC1018
  9
$ACADMAINTVER
 70
     0
  9
$DWGCODEPAGE
  3
ANSI_1252
  9
$INSBASE
 10
0.0
 20
0.0
 30
0.0
  9
$EXTMIN
 10
2.248711769874782
 20
2.961978319298445
 30
0.0
  9
$EXTMAX
 10
6.038387821525054
 20
10.04102351739426
 30
0.0
  9
$LIMMIN
 10
0.0
 20
0.0
  9
$LIMMAX
 10
8.5
 20
11.0
  9
$ORTHOMODE
 70
     0
  9
$REGENMODE
 70
     1
  9
$FILLMODE
 70
     1
  9
$QTEXTMODE
 70
     0
  9
$MIRRTEXT
 70
     1
  9
$LTSCALE
 40
1.0
  9
$ATTMODE
 70
     1
  9
$TEXTSIZE
 40
0.25
  9
$TRACEWID
 40
0.05
  9
$TEXTSTYLE
  7
Standard
  9
$CLAYER
  8
0
  9
$CELTYPE
  6
ByLayer
  9
$CECOLOR
 62
   256
  9
$CELTSCALE
 40
1.0
  9
$DISPSILH
 70
     0
  9
$DIMSCALE
 40
1.0
  9
$DIMASZ
 40
0.156
  9
$DIMEXO
 40
0.05
  9
$DIMDLI
 40
0.38
  9
$DIMRND
 40
0.0
  9
$DIMDLE
 40
0.0
  9
$DIMEXE
 40
0.125
  9
$DIMTP
 40
0.0
  9
$DIMTM
 40
0.0
  9
$DIMTXT
 40
0.125
  9
$DIMCEN
 40
0.09
  9
$DIMTSZ
 40
0.0
  9
$DIMTOL
 70
     0
  9
$DIMLIM
 70
     0
  9
$DIMTIH
 70
     1
  9
$DIMTOH
 70
     1
  9
$DIMSE1
 70
     0
  9
$DIMSE2
 70
     0
  9
$DIMTAD
 70
     0
  9
$DIMZIN
 70
     0
  9
$DIMBLK
  1

  9
$DIMASO
 70
     1
  9
$DIMSHO
 70
     1
  9
$DIMPOST
  1

  9
$DIMAPOST
  1

  9
$DIMALT
 70
     0
  9
$DIMALTD
 70
     2
  9
$DIMALTF
 40
25.4
  9
$DIMLFAC
 40
8.0
  9
$DIMTOFL
 70
     0
  9
$DIMTVP
 40
0.0
  9
$DIMTIX
 70
     0
  9
$DIMSOXD
 70
     0
  9
$DIMSAH
 70
     0
  9
$DIMBLK1
  1

  9
$DIMBLK2
  1

  9
$DIMSTYLE
  2
Standard
  9
$DIMCLRD
 70
     0
  9
$DIMCLRE
 70
     0
  9
$DIMCLRT
 70
     0
  9
$DIMTFAC
 40
1.0
  9
$DIMGAP
 40
0.06
  9
$DIMJUST
 70
     0
  9
$DIMSD1
 70
     0
  9
$DIMSD2
 70
     0
  9
$DIMTOLJ
 70
     1
  9
$DIMTZIN
 70
     0
  9
$DIMALTZ
 70
     0
  9
$DIMALTTZ
 70
     0
  9
$DIMUPT
 70
     0
  9
$DIMDEC
 70
     3
  9
$DIMTDEC
 70
     3
  9
$DIMALTU
 70
     2
  9
$DIMALTTD
 70
     2
  9
$DIMTXSTY
  7
Standard
  9
$DIMAUNIT
 70
     0
  9
$DIMADEC
 70
     0
  9
$DIMALTRND
 40
0.0
  9
$DIMAZIN
 70
     0
  9
$DIMDSEP
 70
    46
  9
$DIMATFIT
 70
     3
  9
$DIMFRAC
 70
     0
  9
$DIMLDRBLK
  1

  9
$DIMLUNIT
 70
     2
  9
$DIMLWD
 70
    -2
  9
$DIMLWE
 70
    -2
  9
$DIMTMOVE
 70
     0
  9
$LUNITS
 70
     2
  9
$LUPREC
 70
     3
  9
$SKETCHINC
 40
0.1
  9
$FILLETRAD
 40
0.5
  9
$AUNITS
 70
     0
  9
$AUPREC
 70
     0
  9
$MENU
  1
.
  9
$ELEVATION
 40
0.0
  9
$PELEVATION
 40
0.0
  9
$THICKNESS
 40
0.0
  9
$LIMCHECK
 70
     0
  9
$CHAMFERA
 40
0.5
  9
$CHAMFERB
 40
0.5
  9
$CHAMFERC
 40
1.0
  9
$CHAMFERD
 40
0.0
  9
$SKPOLY
 70
     0
  9
$TDCREATE
 40
2456528.487128102
  9
$TDUCREATE
 40
2456528.695461436
  9
$TDUPDATE
 40
2456528.487862338
  9
$TDUUPDATE
 40
2456528.696195672
  9
$TDINDWG
 40
0.0005706713
  9
$TDUSRTIMER
 40
0.0005706713
  9
$USRTIMER
 70
     1
  9
$ANGBASE
 50
0.0
  9
$ANGDIR
 70
     0
  9
$PDMODE
 70
     0
  9
$PDSIZE
 40
-1.0
  9
$PLINEWID
 40
0.0
  9
$SPLFRAME
 70
     0
  9
$SPLINETYPE
 70
     6
  9
$SPLINESEGS
 70
     8
  9
$HANDSEED
  5
F1
  9
$SURFTAB1
 70
     6
  9
$SURFTAB2
 70
     6
  9
$SURFTYPE
 70
     6
  9
$SURFU
 70
     6
  9
$SURFV
 70
     6
  9
$UCSBASE
  2

  9
$UCSNAME
  2

  9
$UCSORG
 10
0.0
 20
0.0
 30
0.0
  9
$UCSXDIR
 10
1.0
 20
0.0
 30
0.0
  9
$UCSYDIR
 10
0.0
 20
1.0
 30
0.0
  9
$UCSORTHOREF
  2

  9
$UCSORTHOVIEW
 70
     0
  9
$UCSORGTOP
 10
0.0
 20
0.0
 30
0.0
  9
$UCSORGBOTTOM
 10
0.0
 20
0.0
 30
0.0
  9
$UCSORGLEFT
 10
0.0
 20
0.0
 30
0.0
  9
$UCSORGRIGHT
 10
0.0
 20
0.0
 30
0.0
  9
$UCSORGFRONT
 10
0.0
 20
0.0
 30
0.0
  9
$UCSORGBACK
 10
0.0
 20
0.0
 30
0.0
  9
$PUCSBASE
  2

  9
$PUCSNAME
  2

  9
$PUCSORG
 10
0.0
 20
0.0
 30
0.0
  9
$PUCSXDIR
 10
1.0
 20
0.0
 30
0.0
  9
$PUCSYDIR
 10
0.0
 20
1.0
 30
0.0
  9
$PUCSORTHOREF
  2

  9
$PUCSORTHOVIEW
 70
     0
  9
$PUCSORGTOP
 10
0.0
 20
0.0
 30
0.0
  9
$PUCSORGBOTTOM
 10
0.0
 20
0.0
 30
0.0
  9
$PUCSORGLEFT
 10
0.0
 20
0.0
 30
0.0
  9
$PUCSORGRIGHT
 10
0.0
 20
0.0
 30
0.0
  9
$PUCSORGFRONT
 10
0.0
 20
0.0
 30
0.0
  9
$PUCSORGBACK
 10
0.0
 20
0.0
 30
0.0
  9
$USERI1
 70
     0
  9
$USERI2
 70
     0
  9
$USERI3
 70
     0
  9
$USERI4
 70
     0
  9
$USERI5
 70
     0
  9
$USERR1
 40
0.0
  9
$USERR2
 40
0.0
  9
$USERR3
 40
0.0
  9
$USERR4
 40
0.0
  9
$USERR5
 40
0.0
  9
$WORLDVIEW
 70
     1
  9
$SHADEDGE
 70
     3
  9
$SHADEDIF
 70
    70
  9
$TILEMODE
 70
     1
  9
$MAXACTVP
 70
    64
  9
$PINSBASE
 10
0.0
 20
0.0
 30
0.0
  9
$PLIMCHECK
 70
     0
  9
$PEXTMIN
 10
1.000000000000000E+20
 20
1.000000000000000E+20
 30
1.000000000000000E+20
  9
$PEXTMAX
 10
-1.000000000000000E+20
 20
-1.000000000000000E+20
 30
-1.000000000000000E+20
  9
$PLIMMIN
 10
0.0
 20
0.0
  9
$PLIMMAX
 10
12.0
 20
9.0
  9
$UNITMODE
 70
     0
  9
$VISRETAIN
 70
     1
  9
$PLINEGEN
 70
     0
  9
$PSLTSCALE
 70
     1
  9
$TREEDEPTH
 70
  3020
  9
$CMLSTYLE
  2
Standard
  9
$CMLJUST
 70
     0
  9
$CMLSCALE
 40
1.0
  9
$PROXYGRAPHICS
 70
     1
  9
$MEASUREMENT
 70
     0
  9
$CELWEIGHT
370
    -1
  9
$ENDCAPS
280
     0
  9
$JOINSTYLE
280
     0
  9
$LWDISPLAY
290
     1
  9
$INSUNITS
 70
     1
  9
$HYPERLINKBASE
  1

  9
$STYLESHEET
  1

  9
$XEDIT
290
     1
  9
$CEPSNTYPE
380
     0
  9
$PSTYLEMODE
290
     1
  9
$FINGERPRINTGUID
  2
{EEDE705B-E184-4630-8EC4-914AD5800AED}
  9
$VERSIONGUID
  2
{6C227940-4F86-448E-8A6F-7B0497539214}
  9
$EXTNAMES
290
     1
  9
$PSVPSCALE
 40
0.0
  9
$OLESTARTUP
290
     0
  9
$SORTENTS
280
   127
  9
$INDEXCTL
280
     0
  9
$HIDETEXT
280
     0
  9
$XCLIPFRAME
290
     0
  9
$HALOGAP
280
     0
  9
$OBSCOLOR
 70
   257
  9
$OBSLTYPE
280
     0
  9
$INTERSECTIONDISPLAY
280
     0
  9
$INTERSECTIONCOLOR
 70
   257
  9
$DIMASSOC
280
     1
  9
$PROJECTNAME
  1

  0
ENDSEC
  0
SECTION
  2
CLASSES
  0
CLASS
  1
ACDBDICTIONARYWDFLT
  2
AcDbDictionaryWithDefault
  3
ObjectDBX Classes
 90
        0
 91
        1
280
     0
281
     0
  0
CLASS
  1
VISUALSTYLE
  2
AcDbVisualStyle
  3
ObjectDBX Classes
 90
     4095
 91
        0
280
     0
281
     0
  0
CLASS
  1
MATERIAL
  2
AcDbMaterial
  3
ObjectDBX Classes
 90
        0
 91
        0
280
     0
281
     0
  0
ENDSEC
  0
SECTION
  2
TABLES
  0
TABLE
  2
VPORT
  5
8
330
0
100
AcDbSymbolTable
 70
     3
  0
VPORT
  5
F0
330
8
100
AcDbSymbolTableRecord
100
AcDbViewportTableRecord
  2
*Active
 70
     0
 10
0.0
 20
0.0
 11
1.0
 21
1.0
 12
4.007245771219945
 22
5.759656285876088
 13
0.0
 23
0.0
 14
0.5
 24
0.5
 15
0.5
 25
0.5
 16
0.0
 26
0.0
 36
1.0
 17
0.0
 27
0.0
 37
0.0
 40
9.562005912477193
 41
2.27239263803681
 42
50.0
 43
0.0
 44
0.0
 50
0.0
 51
0.0
 71
     0
 72
  2000
 73
     1
 74
     3
 75
     0
 76
     0
 77
     0
 78
     0
281
     0
 65
     1
110
0.0
120
0.0
130
0.0
111
1.0
121
0.0
131
0.0
112
0.0
122
1.0
132
0.0
 79
     0
146
0.0
  0
ENDTAB
  0
TABLE
  2
LTYPE
  5
5
330
0
100
AcDbSymbolTable
 70
     6
  0
LTYPE
  5
14
330
5
100
AcDbSymbolTableRecord
100
AcDbLinetypeTableRecord
  2
ByBlock
 70
     0
  3

 72
    65
 73
     0
 40
0.0
  0
LTYPE
  5
15
330
5
100
AcDbSymbolTableRecord
100
AcDbLinetypeTableRecord
  2
ByLayer
 70
     0
  3

 72
    65
 73
     0
 40
0.0
  0
LTYPE
  5
16
330
5
100
AcDbSymbolTableRecord
100
AcDbLinetypeTableRecord
  2
Continuous
 70
     0
  3
Solid line
 72
    65
 73
     0
 40
0.0
  0
LTYPE
  5
3F
330
5
100
AcDbSymbolTableRecord
100
AcDbLinetypeTableRecord
  2
HIDDEN
 70
     0
  3
Hidden __ __ __ __ __ __ __ __ __ __ __ __ __ __
 72
    65
 73
     2
 40
0.075
 49
0.05
 74
     0
 49
-0.025
 74
     0
  0
LTYPE
  5
40
330
5
100
AcDbSymbolTableRecord
100
AcDbLinetypeTableRecord
  2
PHANTOM
 70
     0
  3
Phantom ______  __  __  ______  __  __  ______
 72
    65
 73
     6
 40
0.5
 49
0.25
 74
     0
 49
-0.05
 74
     0
 49
0.05
 74
     0
 49
-0.05
 74
     0
 49
0.05
 74
     0
 49
-0.05
 74
     0
  0
LTYPE
  5
41
330
5
100
AcDbSymbolTableRecord
100
AcDbLinetypeTableRecord
  2
CENTER
 70
     0
  3
Center ____ _ ____ _ ____ _ ____ _ ____ _ ____
 72
    65
 73
     4
 40
0.4
 49
0.25
 74
     0
 49
-0.05
 74
     0
 49
0.05
 74
     0
 49
-0.05
 74
     0
  0
LTYPE
  5
42
330
5
100
AcDbSymbolTableRecord
100
AcDbLinetypeTableRecord
  2
CENTERX2
 70
     0
  3
Center (2x) ________  __  ________  __  _____
 72
    65
 73
     4
 40
0.8
 49
0.5
 74
     0
 49
-0.1
 74
     0
 49
0.1
 74
     0
 49
-0.1
 74
     0
  0
LTYPE
  5
43
330
5
100
AcDbSymbolTableRecord
100
AcDbLinetypeTableRecord
  2
DOT2
 70
     0
  3
Dot (.5x) ........................................
 72
    65
 73
     2
 40
0.025
 49
0.0
 74
     0
 49
-0.025
 74
     0
  0
ENDTAB
  0
TABLE
  2
LAYER
  5
2
330
0
100
AcDbSymbolTable
 70
     7
  0
LAYER
  5
10
330
2
100
AcDbSymbolTableRecord
100
AcDbLayerTableRecord
  2
0
 70
     0
 62
     7
  6
Continuous
370
    -3
390
F
  0
LAYER
  5
44
330
2
100
AcDbSymbolTableRecord
100
AcDbLayerTableRecord
  2
SLD-0
 70
     0
 62
   179
  6
Continuous
370
    -3
390
F
  0
LAYER
  5
45
330
2
100
AcDbSymbolTableRecord
100
AcDbLayerTableRecord
  2
SLD-DEFPOINTS
 70
     0
 62
   179
  6
Continuous
370
    -3
390
F
  0
LAYER
  5
46
330
2
100
AcDbSymbolTableRecord
100
AcDbLayerTableRecord
  2
OBJ
 70
     0
 62
   179
  6
Continuous
370
    -3
390
F
  0
LAYER
  5
47
330
2
100
AcDbSymbolTableRecord
100
AcDbLayerTableRecord
  2
FORMAT
 70
     0
 62
     7
  6
Continuous
370
    -3
390
F
  0
LAYER
  5
48
330
2
100
AcDbSymbolTableRecord
100
AcDbLayerTableRecord
  2
TOLERANCES
 70
     0
 62
     7
  6
Continuous
370
    -3
390
F
  0
LAYER
  5
49
330
2
100
AcDbSymbolTableRecord
100
AcDbLayerTableRecord
  2
QTY-BLANK-SIZE-1
 70
     0
 62
     7
  6
Continuous
370
    -3
390
F
  0
ENDTAB
  0
TABLE
  2
STYLE
  5
3
330
0
100
AcDbSymbolTable
 70
     2
  0
STYLE
  5
11
330
3
100
AcDbSymbolTableRecord
100
AcDbTextStyleTableRecord
  2
Standard
 70
     0
 40
0.0
 41
1.0
 50
0.0
 71
     0
 42
0.25
  3
txt
  4

  0
STYLE
  5
E6
330
3
100
AcDbSymbolTableRecord
100
AcDbTextStyleTableRecord
  2
SLDTEXTSTYLE0
 70
     0
 40
0.0
 41
0.7
 50
0.0
 71
     0
 42
0.2
  3
TXT
  4

  0
ENDTAB
  0
TABLE
  2
VIEW
  5
6
330
0
100
AcDbSymbolTable
 70
     0
  0
ENDTAB
  0
TABLE
  2
UCS
  5
7
330
0
100
AcDbSymbolTable
 70
     0
  0
ENDTAB
  0
TABLE
  2
APPID
  5
9
330
0
100
AcDbSymbolTable
 70
     1
  0
APPID
  5
12
330
9
100
AcDbSymbolTableRecord
100
AcDbRegAppTableRecord
  2
ACAD
 70
     0
  0
ENDTAB
  0
TABLE
  2
DIMSTYLE
  5
A
330
0
100
AcDbSymbolTable
 70
     1
100
AcDbDimStyleTable
 71
     0
  0
DIMSTYLE
105
27
330
A
100
AcDbSymbolTableRecord
100
AcDbDimStyleTableRecord
  2
Standard
 70
     0
340
11
  0
ENDTAB
  0
TABLE
  2
BLOCK_RECORD
  5
1
330
0
100
AcDbSymbolTable
 70
     1
  0
BLOCK_RECORD
  5
1F
330
1
100
AcDbSymbolTableRecord
100
AcDbBlockTableRecord
  2
*Model_Space
340
22
  0
BLOCK_RECORD
  5
1B
330
1
100
AcDbSymbolTableRecord
100
AcDbBlockTableRecord
  2
*Paper_Space
340
1E
  0
BLOCK_RECORD
  5
23
330
1
100
AcDbSymbolTableRecord
100
AcDbBlockTableRecord
  2
*Paper_Space0
340
26
  0
ENDTAB
  0
ENDSEC
  0
SECTION
  2
BLOCKS
  0
BLOCK
  5
20
330
1F
100
AcDbEntity
  8
0
100
AcDbBlockBegin
  2
*Model_Space
 70
     0
 10
0.0
 20
0.0
 30
0.0
  3
*Model_Space
  1

  0
ENDBLK
  5
21
330
1F
100
AcDbEntity
  8
0
100
AcDbBlockEnd
  0
BLOCK
  5
1C
330
1B
100
AcDbEntity
 67
     1
  8
0
100
AcDbBlockBegin
  2
*Paper_Space
 70
     0
 10
0.0
 20
0.0
 30
0.0
  3
*Paper_Space
  1

  0
ENDBLK
  5
1D
330
1B
100
AcDbEntity
 67
     1
  8
0
100
AcDbBlockEnd
  0
BLOCK
  5
24
330
23
100
AcDbEntity
  8
0
100
AcDbBlockBegin
  2
*Paper_Space0
 70
     0
 10
0.0
 20
0.0
 30
0.0
  3
*Paper_Space0
  1

  0
ENDBLK
  5
25
330
23
100
AcDbEntity
  8
0
100
AcDbBlockEnd
  0
ENDSEC
  0
SECTION
  2
ENTITIES
  0
LINE
  5
4A
330
1F
100
AcDbEntity
  8
0
  6
Continuous
 62
     7
370
    15
100
AcDbLine
 10
5.157514403447978
 20
7.163110401562287
 30
0.0
 11
5.145140058304225
 21
7.159795177738666
 31
0.0
  0
LINE
  5
4B
330
1F
100
AcDbEntity
  8
0
  6
Continuous
 62
     7
370
    15
100
AcDbLine
 10
5.173304457775436
 20
7.054669238739918
 30
0.0
 11
5.185678802919188
 21
7.057984462563538
 31
0.0
  0
LINE
  5
4C
330
1F
100
AcDbEntity
  8
0
  6
Continuous
 62
     7
370
    15
100
AcDbLine
 10
5.63139380571961
 20
7.848128342224906
 30
0.0
 11
5.64376817679031
 21
7.844813111455168
 31
0.0
  0
LINE
  5
4D
330
1F
100
AcDbEntity
  8
0
  6
Continuous
 62
     7
370
    15
100
AcDbLine
 10
5.671932587064416
 20
7.949939053348132
 30
0.0
 11
5.659558215993715
 21
7.953254284117869
 31
0.0
  0
LINE
  5
4E
330
1F
100
AcDbEntity
  8
0
  6
Continuous
 62
     7
370
    15
100
AcDbLine
 10
5.425154328205398
 20
8.374955078606294
 30
0.0
 11
5.437528699276099
 21
8.371639847836558
 31
0.0
  0
LINE
  5
4F
330
1F
100
AcDbEntity
  8
0
  6
Continuous
 62
     7
370
    15
100
AcDbLine
 10
5.465693109550205
 20
8.476765789729522
 30
0.0
 11
5.453318738479504
 21
8.480081020499259
 31
0.0
  0
LINE
  5
50
330
1F
100
AcDbEntity
  8
0
  6
Continuous
 62
     7
370
    15
100
AcDbLine
 10
4.568258737974667
 20
7.320978506717514
 30
0.0
 11
4.555884392830915
 21
7.317663282893892
 31
0.0
  0
LINE
  5
51
330
1F
100
AcDbEntity
  8
0
  6
Continuous
 62
     7
370
    15
100
AcDbLine
 10
4.58404880310502
 20
7.212537341000929
 30
0.0
 11
4.596423148248772
 21
7.21585256482455
 31
0.0
  0
LINE
  5
52
330
1F
100
AcDbEntity
  8
0
  6
Continuous
 62
     7
370
    15
100
AcDbLine
 10
5.130526493308162
 20
8.235805790642318
 30
0.0
 11
5.142900864378864
 21
8.23249055987258
 31
0.0
  0
LINE
  5
53
330
1F
100
AcDbEntity
  8
0
  6
Continuous
 62
     7
370
    15
100
AcDbLine
 10
5.171065274652969
 20
8.337616501765545
 30
0.0
 11
5.158690903582268
 21
8.340931732535281
 31
0.0
  0
LINE
  5
54
330
1F
100
AcDbEntity
  8
0
  6
Continuous
 62
     7
370
    15
100
AcDbLine
 10
4.924287015793951
 20
7.999906250862531
 30
0.0
 11
4.936661386864652
 21
7.996591020092794
 31
0.0
  0
LINE
  5
55
330
1F
100
AcDbEntity
  8
0
  6
Continuous
 62
     7
370
    15
100
AcDbLine
 10
4.964825797138757
 20
8.101716961985758
 30
0.0
 11
4.952451426068056
 21
8.105032192755496
 31
0.0
  0
LINE
  5
56
330
1F
100
AcDbEntity
  8
0
  6
Continuous
 62
     7
370
    15
100
AcDbLine
 10
5.63139380571961
 20
8.249563209540953
 30
0.0
 11
5.64376817679031
 21
8.246247978771215
 31
0.0
  0
LINE
  5
57
330
1F
100
AcDbEntity
  8
0
  6
Continuous
 62
     7
370
    15
100
AcDbLine
 10
5.671932587064416
 20
8.35137392066418
 30
0.0
 11
5.659558215993715
 21
8.354689151433916
 31
0.0
  0
LINE
  5
58
330
1F
100
AcDbEntity
  8
0
  6
Continuous
 62
     7
370
    15
100
AcDbLine
 10
4.831168347037793
 20
7.39400180248354
 30
0.0
 11
5.281620084612996
 21
7.514682801312388
 31
0.0
  0
LINE
  5
59
330
1F
100
AcDbEntity
  8
0
  6
Continuous
 62
     7
370
    15
100
AcDbLine
 10
3.603999850156718
 20
8.691027084312905
 30
0.0
 11
6.019947985692399
 21
9.338286290559082
 31
0.0
  0
LINE
  5
5A
330
1F
100
AcDbEntity
  8
0
  6
Continuous
 62
     7
370
    15
100
AcDbLine
 10
3.603999850156718
 20
8.691027084312905
 30
0.0
 11
3.232619404735622
 21
8.790524010088304
 31
0.0
  0
LINE
  5
5B
330
1F
100
AcDbEntity
  8
0
  6
Continuous
 62
     7
370
    15
100
AcDbLine
 10
3.232619404735622
 20
8.790524010088304
 30
0.0
 11
3.014744189004565
 21
8.754174317113507
 31
0.0
  0
LINE
  5
5C
330
1F
100
AcDbEntity
  8
0
  6
Continuous
 62
     7
370
    15
100
AcDbLine
 10
3.014744085296768
 20
8.817321542967993
 30
0.0
 11
2.720116250399533
 21
8.896255596124449
 31
0.0
  0
LINE
  5
5D
330
1F
100
AcDbEntity
  8
0
  6
Continuous
 62
     7
370
    15
100
AcDbLine
 10
3.603999850156718
 20
8.209305205852732
 30
0.0
 11
3.603999850156718
 21
8.691027084312905
 31
0.0
  0
LINE
  5
5E
330
1F
100
AcDbEntity
  8
0
  6
Continuous
 62
     7
370
    15
100
AcDbLine
 10
3.232619404735622
 20
8.308802131628132
 30
0.0
 11
3.232619404735622
 21
8.790524010088304
 31
0.0
  0
LINE
  5
5F
330
1F
100
AcDbEntity
  8
0
  6
Continuous
 62
     7
370
    15
100
AcDbLine
 10
3.603999850156718
 20
8.209305205852732
 30
0.0
 11
3.232619404735622
 21
8.308802131628132
 31
0.0
  0
LINE
  5
60
330
1F
100
AcDbEntity
  8
0
  6
Continuous
 62
     7
370
    15
100
AcDbLine
 10
6.019947985692399
 20
9.338286290559082
 30
0.0
 11
6.019947985692399
 21
8.85656441209891
 31
0.0
  0
LINE
  5
61
330
1F
100
AcDbEntity
  8
0
  6
Continuous
 62
     7
370
    15
100
AcDbLine
 10
3.603999850156718
 20
8.209305205852732
 30
0.0
 11
6.019947985692399
 21
8.85656441209891
 31
0.0
  0
LINE
  5
62
330
1F
100
AcDbEntity
  8
0
  6
Continuous
 62
     7
370
    15
100
AcDbLine
 10
3.014744189004565
 20
8.272452438653333
 30
0.0
 11
3.014744189004565
 21
8.754174317113507
 31
0.0
  0
LINE
  5
63
330
1F
100
AcDbEntity
  8
0
  6
Continuous
 62
     7
370
    15
100
AcDbLine
 10
3.232619404735622
 20
8.308802131628132
 30
0.0
 11
3.014744189004565
 21
8.272452438653333
 31
0.0
  0
LINE
  5
64
330
1F
100
AcDbEntity
  8
0
  6
Continuous
 62
     7
370
    15
100
AcDbLine
 10
2.720116250399533
 20
8.414533717664276
 30
0.0
 11
2.720116250399533
 21
8.896255596124449
 31
0.0
  0
LINE
  5
65
330
1F
100
AcDbEntity
  8
0
  6
Continuous
 62
     7
370
    15
100
AcDbLine
 10
3.014744085296768
 20
8.335599664507819
 30
0.0
 11
2.720116250399533
 21
8.414533717664276
 31
0.0
  0
LINE
  5
66
330
1F
100
AcDbEntity
  8
0
  6
Continuous
 62
     7
370
    15
100
AcDbLine
 10
5.194990049708606
 20
10.04102351739426
 30
0.0
 11
2.720116250399533
 21
9.377977474584621
 31
0.0
  0
LINE
  5
67
330
1F
100
AcDbEntity
  8
0
  6
Continuous
 62
     7
370
    15
100
AcDbLine
 10
6.019947985692399
 20
9.820008169019255
 30
0.0
 11
5.194990049708606
 21
10.04102351739426
 31
0.0
  0
LINE
  5
68
330
1F
100
AcDbEntity
  8
0
  6
Continuous
 62
     7
370
    15
100
AcDbLine
 10
3.603999850156718
 20
9.172748962773077
 30
0.0
 11
6.019947985692399
 21
9.820008169019255
 31
0.0
  0
LINE
  5
69
330
1F
100
AcDbEntity
  8
0
  6
Continuous
 62
     7
370
    15
100
AcDbLine
 10
3.603999850156718
 20
9.172748962773077
 30
0.0
 11
3.232619404735622
 21
9.272245888548477
 31
0.0
  0
LINE
  5
6A
330
1F
100
AcDbEntity
  8
0
  6
Continuous
 62
     7
370
    15
100
AcDbLine
 10
3.232619404735622
 20
9.272245888548477
 30
0.0
 11
3.014744189004565
 21
9.23589619557368
 31
0.0
  0
LINE
  5
6B
330
1F
100
AcDbEntity
  8
0
  6
Continuous
 62
     7
370
    15
100
AcDbLine
 10
3.014744189004565
 20
9.23589619557368
 30
0.0
 11
3.059205380702883
 21
9.287131749008567
 31
0.0
  0
LINE
  5
6C
330
1F
100
AcDbEntity
  8
0
  6
Continuous
 62
     7
370
    15
100
AcDbLine
 10
3.059205380702883
 20
9.287131749008567
 30
0.0
 11
2.720116250399533
 21
9.377977474584621
 31
0.0
  0
LINE
  5
6D
330
1F
100
AcDbEntity
  8
0
  6
Continuous
 62
     7
370
    15
100
AcDbLine
 10
6.019947985692399
 20
9.820008169019255
 30
0.0
 11
6.019947985692399
 21
9.338286290559082
 31
0.0
  0
LINE
  5
6E
330
1F
100
AcDbEntity
  8
0
  6
Continuous
 62
     7
370
    15
100
AcDbLine
 10
3.603999850156718
 20
8.691027084312905
 30
0.0
 11
3.603999850156718
 21
9.172748962773077
 31
0.0
  0
LINE
  5
6F
330
1F
100
AcDbEntity
  8
0
  6
Continuous
 62
     7
370
    15
100
AcDbLine
 10
3.232619404735622
 20
8.790524010088304
 30
0.0
 11
3.232619404735622
 21
9.272245888548477
 31
0.0
  0
LINE
  5
70
330
1F
100
AcDbEntity
  8
0
  6
Continuous
 62
     7
370
    15
100
AcDbLine
 10
3.014744189004565
 20
8.754174317113507
 30
0.0
 11
3.014744189004565
 21
9.23589619557368
 31
0.0
  0
LINE
  5
71
330
1F
100
AcDbEntity
  8
0
  6
Continuous
 62
     7
370
    15
100
AcDbLine
 10
2.720116250399533
 20
8.896255596124449
 30
0.0
 11
2.720116250399533
 21
9.377977474584621
 31
0.0
  0
LINE
  5
72
330
1F
100
AcDbEntity
  8
0
  6
Continuous
 62
     7
370
    15
100
AcDbLine
 10
3.250446463836206
 20
8.304026065472809
 30
0.0
 11
2.83796737053072
 21
8.193518357712413
 31
0.0
  0
LINE
  5
73
330
1F
100
AcDbEntity
  8
0
  6
Continuous
 62
     7
370
    15
100
AcDbLine
 10
2.896893034304111
 20
7.085287650573001
 30
0.0
 11
2.896893034304111
 21
7.552575524304648
 31
0.0
  0
LINE
  5
74
330
1F
100
AcDbEntity
  8
0
  6
Continuous
 62
     7
370
    15
100
AcDbLine
 10
2.720116319538063
 20
7.599935963275395
 30
0.0
 11
2.83796737053072
 21
7.731504352138875
 31
0.0
  0
LINE
  5
75
330
1F
100
AcDbEntity
  8
0
  6
Continuous
 62
     7
370
    15
100
AcDbLine
 10
2.83796737053072
 20
7.731504352138875
 30
0.0
 11
2.83796737053072
 21
8.193518357712413
 31
0.0
  0
LINE
  5
76
330
1F
100
AcDbEntity
  8
0
  6
Continuous
 62
     7
370
    15
100
AcDbLine
 10
2.720116215830267
 20
8.225091984531887
 30
0.0
 11
2.83796737053072
 21
8.193518357712413
 31
0.0
  0
LINE
  5
77
330
1F
100
AcDbEntity
  8
0
  6
Continuous
 62
     7
370
    15
100
AcDbLine
 10
3.014744119866033
 20
8.304026056211322
 30
0.0
 11
2.720116215830267
 21
8.225091984531887
 31
0.0
  0
LINE
  5
78
330
1F
100
AcDbEntity
  8
0
  6
Continuous
 62
     7
370
    15
100
AcDbLine
 10
2.720116215830267
 20
7.76307797895835
 30
0.0
 11
2.83796737053072
 21
7.731504352138875
 31
0.0
  0
LINE
  5
79
330
1F
100
AcDbEntity
  8
0
  6
Continuous
 62
     7
370
    15
100
AcDbLine
 10
2.720116215830267
 20
7.76307797895835
 30
0.0
 11
2.720116215830267
 21
8.225091984531887
 31
0.0
  0
LINE
  5
7A
330
1F
100
AcDbEntity
  8
0
  6
Continuous
 62
     7
370
    15
100
AcDbLine
 10
2.60226516483761
 20
7.63150959009487
 30
0.0
 11
2.720116319538063
 21
7.599935963275395
 31
0.0
  0
LINE
  5
7B
330
1F
100
AcDbEntity
  8
0
  6
Continuous
 62
     7
370
    15
100
AcDbLine
 10
2.60226516483761
 20
7.63150959009487
 30
0.0
 11
2.720116215830267
 21
7.76307797895835
 31
0.0
  0
LINE
  5
7C
330
1F
100
AcDbEntity
  8
0
  6
Continuous
 62
     7
370
    15
100
AcDbLine
 10
2.779041879603658
 20
7.116861277392477
 30
0.0
 11
2.896893034304111
 21
7.085287650573001
 31
0.0
  0
LINE
  5
7D
330
1F
100
AcDbEntity
  8
0
  6
Continuous
 62
     7
370
    15
100
AcDbLine
 10
2.779041879603658
 20
7.116861277392477
 30
0.0
 11
2.779041879603658
 21
7.584149151124124
 31
0.0
  0
LINE
  5
7E
330
1F
100
AcDbEntity
  8
0
  6
Continuous
 62
     7
370
    15
100
AcDbLine
 10
2.366562820867439
 20
7.857798840893801
 30
0.0
 11
2.720116215830267
 21
7.76307797895835
 31
0.0
  0
LINE
  5
7F
330
1F
100
AcDbEntity
  8
0
  6
Continuous
 62
     7
370
    15
100
AcDbLine
 10
2.366562820867439
 20
7.857798840893801
 30
0.0
 11
2.366562820867439
 21
8.319812846467337
 31
0.0
  0
LINE
  5
80
330
1F
100
AcDbEntity
  8
0
  6
Continuous
 62
     7
370
    15
100
AcDbLine
 10
2.366562820867439
 20
8.319812846467337
 30
0.0
 11
2.720116215830267
 21
8.225091984531887
 31
0.0
  0
LINE
  5
81
330
1F
100
AcDbEntity
  8
0
  6
Continuous
 62
     7
370
    15
100
AcDbLine
 10
2.720116250399533
 20
8.414533717664276
 30
0.0
 11
2.366562820867439
 21
8.319812846467337
 31
0.0
  0
LINE
  5
82
330
1F
100
AcDbEntity
  8
0
  6
Continuous
 62
     7
370
    15
100
AcDbLine
 10
2.248711769874782
 20
7.72623045203032
 30
0.0
 11
2.60226516483761
 21
7.63150959009487
 31
0.0
  0
LINE
  5
83
330
1F
100
AcDbEntity
  8
0
  6
Continuous
 62
     7
370
    15
100
AcDbLine
 10
2.248711769874782
 20
7.72623045203032
 30
0.0
 11
2.366562820867439
 21
7.857798840893801
 31
0.0
  0
LINE
  5
84
330
1F
100
AcDbEntity
  8
0
  6
Continuous
 62
     7
370
    15
100
AcDbLine
 10
2.42548848464083
 20
7.211582139327926
 30
0.0
 11
2.779041879603658
 21
7.116861277392477
 31
0.0
  0
LINE
  5
85
330
1F
100
AcDbEntity
  8
0
  6
Continuous
 62
     7
370
    15
100
AcDbLine
 10
2.42548848464083
 20
7.211582139327926
 30
0.0
 11
2.42548848464083
 21
7.678870013059574
 31
0.0
  0
LINE
  5
86
330
1F
100
AcDbEntity
  8
0
  6
Continuous
 62
     7
370
    15
100
AcDbLine
 10
5.312841195766741
 20
8.66712268822801
 30
0.0
 11
3.191520756851232
 21
8.098797498092334
 31
0.0
  0
LINE
  5
87
330
1F
100
AcDbEntity
  8
0
  6
Continuous
 62
     7
370
    15
100
AcDbLine
 10
5.312841195766741
 20
7.54310514452514
 30
0.0
 11
5.312841195766741
 21
7.559587625171682
 31
0.0
  0
LINE
  5
88
330
1F
100
AcDbEntity
  8
0
  6
Continuous
 62
     7
370
    15
100
AcDbLine
 10
5.312841195766741
 20
8.582889072104219
 30
0.0
 11
5.312841195766741
 21
8.66712268822801
 31
0.0
  0
LINE
  5
89
330
1F
100
AcDbEntity
  8
0
  6
Continuous
 62
     7
370
    15
100
AcDbLine
 10
3.250446420624623
 20
6.990566790952924
 30
0.0
 11
4.826587418103248
 21
7.412832383477274
 31
0.0
  0
LINE
  5
8A
330
1F
100
AcDbEntity
  8
0
  6
Continuous
 62
     7
370
    15
100
AcDbLine
 10
5.300498827193586
 20
7.539798487578183
 30
0.0
 11
5.312841195766741
 21
7.54310514452514
 31
0.0
  0
LINE
  5
8B
330
1F
100
AcDbEntity
  8
0
  6
Continuous
 62
     7
370
    15
100
AcDbLine
 10
3.250446420624623
 20
6.990566790952924
 30
0.0
 11
3.250446420624623
 21
7.496578212023885
 31
0.0
  0
LINE
  5
8C
330
1F
100
AcDbEntity
  8
0
  6
Continuous
 62
     7
370
    15
100
AcDbLine
 10
3.250446420624623
 20
7.496578212023885
 30
0.0
 11
3.073669705858575
 21
7.505215103655316
 31
0.0
  0
LINE
  5
8D
330
1F
100
AcDbEntity
  8
0
  6
Continuous
 62
     7
370
    15
100
AcDbLine
 10
3.073669705858575
 20
7.505215103655316
 30
0.0
 11
3.191520756851232
 21
7.636783492518797
 31
0.0
  0
LINE
  5
8E
330
1F
100
AcDbEntity
  8
0
  6
Continuous
 62
     7
370
    15
100
AcDbLine
 10
3.191520756851232
 20
7.636783492518797
 30
0.0
 11
3.191520756851232
 21
8.098797498092334
 31
0.0
  0
LINE
  5
8F
330
1F
100
AcDbEntity
  8
0
  6
Continuous
 62
     7
370
    15
100
AcDbLine
 10
2.83796737053072
 20
8.193518357712413
 30
0.0
 11
3.191520756851232
 21
8.098797498092334
 31
0.0
  0
LINE
  5
90
330
1F
100
AcDbEntity
  8
0
  6
Continuous
 62
     7
370
    15
100
AcDbLine
 10
2.83796737053072
 20
7.731504352138875
 30
0.0
 11
3.191520756851232
 21
7.636783492518797
 31
0.0
  0
LINE
  5
91
330
1F
100
AcDbEntity
  8
0
  6
Continuous
 62
     7
370
    15
100
AcDbLine
 10
2.720116319538063
 20
7.599935963275395
 30
0.0
 11
3.073669705858575
 21
7.505215103655316
 31
0.0
  0
LINE
  5
92
330
1F
100
AcDbEntity
  8
0
  6
Continuous
 62
     7
370
    15
100
AcDbLine
 10
2.896893034304111
 20
7.085287650573001
 30
0.0
 11
3.250446420624623
 21
6.990566790952924
 31
0.0
  0
LINE
  5
93
330
1F
100
AcDbEntity
  8
0
  6
Continuous
 62
     7
370
    15
100
AcDbLine
 10
5.66639459072957
 20
8.76184355016346
 30
0.0
 11
6.019947985692399
 21
8.85656441209891
 31
0.0
  0
LINE
  5
94
330
1F
100
AcDbEntity
  8
0
  6
Continuous
 62
     7
370
    15
100
AcDbLine
 10
6.019947985692399
 20
4.528446559812637
 30
0.0
 11
6.019947985692399
 21
8.85656441209891
 31
0.0
  0
LINE
  5
95
330
1F
100
AcDbEntity
  8
0
  6
Continuous
 62
     7
370
    15
100
AcDbLine
 10
6.019947985692399
 20
4.528446559812637
 30
0.0
 11
5.66639459072957
 21
4.433725697877187
 31
0.0
  0
LINE
  5
96
330
1F
100
AcDbEntity
  8
0
  6
Continuous
 62
     7
370
    15
100
AcDbLine
 10
5.66639459072957
 20
4.433725697877187
 30
0.0
 11
5.66639459072957
 21
7.656030363682399
 31
0.0
  0
LINE
  5
97
330
1F
100
AcDbEntity
  8
0
  6
Continuous
 62
     7
370
    15
100
AcDbLine
 10
5.66639459072957
 20
8.677609934039669
 30
0.0
 11
5.66639459072957
 21
8.76184355016346
 31
0.0
  0
LINE
  5
98
330
1F
100
AcDbEntity
  8
0
  6
Continuous
 62
     7
370
    15
100
AcDbLine
 10
5.66639459072957
 20
4.433725697877187
 30
0.0
 11
5.30758102397649
 21
4.529855817969962
 31
0.0
  0
LINE
  5
99
330
1F
100
AcDbEntity
  8
0
  6
Continuous
 62
     7
370
    15
100
AcDbLine
 10
5.30758102397649
 20
4.529855817969962
 30
0.0
 11
5.253915644343464
 21
4.295993938404636
 31
0.0
  0
LINE
  5
9A
330
1F
100
AcDbEntity
  8
0
  6
Continuous
 62
     7
370
    15
100
AcDbLine
 10
5.253915644343464
 20
4.295993938404636
 30
0.0
 11
5.186743585990245
 21
4.481942397739289
 31
0.0
  0
LINE
  5
9B
330
1F
100
AcDbEntity
  8
0
  6
Continuous
 62
     7
370
    15
100
AcDbLine
 10
5.186743585990245
 20
4.481942397739289
 30
0.0
 11
4.841436654745776
 21
4.574453940905774
 31
0.0
  0
LINE
  5
9C
330
1F
100
AcDbEntity
  8
0
  6
Continuous
 62
     7
370
    15
100
AcDbLine
 10
4.841436654745776
 20
5.006689095070992
 30
0.0
 11
4.841436654745776
 21
4.574453940905774
 31
0.0
  0
LINE
  5
9D
330
1F
100
AcDbEntity
  8
0
  6
Continuous
 62
     7
370
    15
100
AcDbLine
 10
5.607469039306294
 20
4.390714800340086
 30
0.0
 11
5.253915644343464
 21
4.295993938404636
 31
0.0
  0
LINE
  5
9E
330
1F
100
AcDbEntity
  8
0
  6
Continuous
 62
     7
370
    15
100
AcDbLine
 10
5.620180158234653
 20
4.446107029830782
 30
0.0
 11
5.607469039306294
 21
4.390714800340086
 31
0.0
  0
LINE
  5
9F
330
1F
100
AcDbEntity
  8
0
  6
Continuous
 62
     7
370
    15
100
AcDbLine
 10
5.312841195766741
 20
8.66712268822801
 30
0.0
 11
5.66639459072957
 21
8.76184355016346
 31
0.0
  0
LINE
  5
A0
330
1F
100
AcDbEntity
  8
0
  6
Continuous
 62
     7
370
    15
100
AcDbLine
 10
5.66639459072957
 20
5.07602141022103
 30
0.0
 11
5.66639459072957
 21
7.656030363682399
 31
0.0
  0
LINE
  5
A1
330
1F
100
AcDbEntity
  8
0
  6
Continuous
 62
     7
370
    15
100
AcDbLine
 10
5.66639459072957
 20
5.07602141022103
 30
0.0
 11
5.312841195766741
 21
4.981300548285579
 31
0.0
  0
LINE
  5
A2
330
1F
100
AcDbEntity
  8
0
  6
Continuous
 62
     7
370
    15
100
AcDbLine
 10
5.312841195766741
 20
4.981300548285579
 30
0.0
 11
5.312841195766741
 21
7.559587625171682
 31
0.0
  0
LINE
  5
A3
330
1F
100
AcDbEntity
  8
0
  6
Continuous
 62
     7
370
    15
100
AcDbLine
 10
5.312841195766741
 20
4.981300548285579
 30
0.0
 11
4.95402762901366
 21
5.077430668378354
 31
0.0
  0
LINE
  5
A4
330
1F
100
AcDbEntity
  8
0
  6
Continuous
 62
     7
370
    15
100
AcDbLine
 10
4.95402762901366
 20
5.077430668378354
 30
0.0
 11
4.900362249380634
 21
4.843568788813029
 31
0.0
  0
LINE
  5
A5
330
1F
100
AcDbEntity
  8
0
  6
Continuous
 62
     7
370
    15
100
AcDbLine
 10
4.900362249380634
 20
4.843568788813029
 30
0.0
 11
4.833190191027414
 21
5.029517436552263
 31
0.0
  0
LINE
  5
A6
330
1F
100
AcDbEntity
  8
0
  6
Continuous
 62
     7
370
    15
100
AcDbLine
 10
4.833190191027414
 20
5.029517436552263
 30
0.0
 11
4.487883259782948
 21
5.122028979718749
 31
0.0
  0
LINE
  5
A7
330
1F
100
AcDbEntity
  8
0
  6
Continuous
 62
     7
370
    15
100
AcDbLine
 10
4.487883259782948
 20
7.173922810019528
 30
0.0
 11
4.487883259782948
 21
5.122028979718749
 31
0.0
  0
LINE
  5
A8
330
1F
100
AcDbEntity
  8
0
  6
Continuous
 62
     7
370
    15
100
AcDbLine
 10
5.253915644343464
 20
4.938289650748478
 30
0.0
 11
4.900362249380634
 21
4.843568788813029
 31
0.0
  0
LINE
  5
A9
330
1F
100
AcDbEntity
  8
0
  6
Continuous
 62
     7
370
    15
100
AcDbLine
 10
5.266626763271823
 20
4.993681880239175
 30
0.0
 11
5.253915644343464
 21
4.938289650748478
 31
0.0
  0
LWPOLYLINE
  5
AA
330
1F
100
AcDbEntity
  8
0
  6
Continuous
 62
     7
370
    15
100
AcDbPolyline
 90
        7
 70
   128
 43
0.0
 10
5.194765829131342
 20
7.117791949062548
 10
5.197531156474884
 20
7.101884282955301
 10
5.19689257085643
 20
7.086451829153998
 10
5.192906812864015
 20
7.07286578489461
 10
5.185928034360047
 20
7.062333344820062
 10
5.176576328566509
 20
7.0557903692779
 10
5.173304457775436
 20
7.054669238739918
  0
LWPOLYLINE
  5
AB
330
1F
100
AcDbEntity
  8
0
  6
Continuous
 62
     7
370
    15
100
AcDbPolyline
 90
        7
 70
   128
 43
0.0
 10
5.145140058304225
 20
7.159795177738666
 10
5.147180535127956
 20
7.160252307508382
 10
5.158487532593268
 20
7.15984687788461
 10
5.169859811955918
 20
7.154766408849535
 10
5.180286898460969
 20
7.145462321302264
 10
5.188842297982596
 20
7.132761329527367
 10
5.194765829131342
 20
7.117791949062548
  0
LWPOLYLINE
  5
AC
330
1F
100
AcDbEntity
  8
0
  6
Continuous
 62
     7
370
    15
100
AcDbPolyline
 90
       22
 70
   128
 43
0.0
 10
5.192498669750471
 20
7.117152790491548
 10
5.186756564588863
 20
7.131663690761361
 10
5.178463196858942
 20
7.143975677220147
 10
5.168355469870997
 20
7.152994802123883
 10
5.15733149746416
 20
7.157919664611158
 10
5.146370810579577
 20
7.15831266835716
 10
5.136447314010436
 20
7.154138884800336
 10
5.128442753048646
 20
7.1457691948467
 10
5.123068364405146
 20
7.133947254440323
 10
5.120801692234861
 20
7.119723524232507
 10
5.121844137078659
 20
7.10436183086542
 10
5.126103079231919
 20
7.089227121747998
 10
5.133200080302776
 20
7.075664184296792
 10
5.142504553676731
 20
7.064878149509661
 10
5.153189745120982
 20
7.057827411403763
 10
5.164306235685222
 20
7.055138440633305
 10
5.174866275585427
 20
7.057050184382333
 10
5.183931557729574
 20
7.063392764620973
 10
5.19069659122402
 20
7.073602610382854
 10
5.194560273796876
 20
7.086772544956322
 10
5.195179301313221
 20
7.101732350367305
 10
5.192498669750471
 20
7.117152790491548
  0
LWPOLYLINE
  5
AD
330
1F
100
AcDbEntity
  8
0
  6
Continuous
 62
     7
370
    15
100
AcDbPolyline
 90
        7
 70
   128
 43
0.0
 10
5.207140174275094
 20
7.121107172886168
 10
5.201216643126348
 20
7.136076553350988
 10
5.192661243604721
 20
7.148777545125885
 10
5.18223415709967
 20
7.158081632673156
 10
5.17086187773702
 20
7.163162101708231
 10
5.159554880271708
 20
7.163567531332002
 10
5.157514403447978
 20
7.163110401562287
  0
LWPOLYLINE
  5
AE
330
1F
100
AcDbEntity
  8
0
  6
Continuous
 62
     7
370
    15
100
AcDbPolyline
 90
        7
 70
   128
 43
0.0
 10
5.185678802919188
 20
7.057984462563538
 10
5.188950673710261
 20
7.059105593101521
 10
5.198302379503799
 20
7.065648568643682
 10
5.205281158007768
 20
7.076181008718232
 10
5.209266916000182
 20
7.089767052977619
 10
5.209905501618636
 20
7.105199506778921
 10
5.207140174275094
 20
7.121107172886168
  0
LWPOLYLINE
  5
AF
330
1F
100
AcDbEntity
  8
0
  6
Continuous
 62
     7
370
    15
100
AcDbPolyline
 90
        8
 70
   128
 43
0.0
 10
5.619371989303221
 20
7.887067295759586
 10
5.621081474052002
 20
7.902978606234612
 10
5.626058048230318
 20
7.918392019279959
 10
5.633859501793756
 20
7.931938055513569
 10
5.643792651830293
 20
7.942413147818547
 10
5.654974893137534
 20
7.948886565622381
 10
5.666412635886167
 20
7.950782943309854
 10
5.671932587064416
 20
7.949939053348132
  0
ARC
  5
B0
330
1F
100
AcDbEntity
  8
0
  6
Continuous
 62
     7
370
    15
100
AcDbCircle
 10
5.659647214371493
 20
7.88215102322616
 30
0.0
 40
0.0405741726954836
100
AcDbArc
 50
173.040510818056
 51
246.9609593325523
  0
LWPOLYLINE
  5
B1
330
1F
100
AcDbEntity
  8
0
  6
Continuous
 62
     7
370
    15
100
AcDbPolyline
 90
       22
 70
   128
 43
0.0
 10
5.621729016891235
 20
7.887067298074958
 10
5.623386146487399
 20
7.872531307302375
 10
5.628210287489444
 20
7.860174872258045
 10
5.635772798289672
 20
7.851095821209471
 10
5.645401721505079
 20
7.846100992547432
 10
5.656241467814271
 20
7.84563405140118
 10
5.667328902910849
 20
7.849736620933132
 10
5.677678837297016
 20
7.858044055739614
 10
5.686371642087022
 20
7.869818335322008
 10
5.692634927539237
 20
7.884013091317465
 10
5.695912171690518
 20
7.899367261498986
 10
5.695912171690518
 20
7.914516402919317
 10
5.692634927539237
 20
7.928114459042962
 10
5.686371642087022
 20
7.938953302453422
 10
5.677678837297016
 20
7.946069785085898
 10
5.667328902910849
 20
7.948831496276086
 10
5.656241467814271
 20
7.946993173009587
 10
5.645401721505079
 20
7.940718056192012
 10
5.635772798289672
 20
7.930563743433721
 10
5.628210287489444
 20
7.917432626140956
 10
5.623386146487399
 20
7.902491215513915
 10
5.621729016891235
 20
7.887067298074958
  0
ARC
  5
B2
330
1F
100
AcDbEntity
  8
0
  6
Continuous
 62
     7
370
    15
100
AcDbCircle
 10
5.647272843300789
 20
7.885466253995896
 30
0.0
 40
0.0405741726954814
100
AcDbArc
 50
173.0405108180543
 51
246.9609593325564
  0
LWPOLYLINE
  5
B3
330
1F
100
AcDbEntity
  8
0
  6
Continuous
 62
     7
370
    15
100
AcDbPolyline
 90
        8
 70
   128
 43
0.0
 10
5.659558215993715
 20
7.953254284117869
 10
5.654038264815465
 20
7.954098174079592
 10
5.642600522066834
 20
7.952201796392118
 10
5.631418280759592
 20
7.945728378588284
 10
5.621485130723056
 20
7.935253286283306
 10
5.613683677159618
 20
7.921707250049697
 10
5.608707102981299
 20
7.90629383700435
 10
5.60699761823252
 20
7.890382526529323
  0
LWPOLYLINE
  5
B4
330
1F
100
AcDbEntity
  8
0
  6
Continuous
 62
     7
370
    15
100
AcDbPolyline
 90
        8
 70
   128
 43
0.0
 10
5.413132511789009
 20
8.413894032140976
 10
5.41484199653779
 20
8.42980524841371
 10
5.419818553431473
 20
8.445218656828314
 10
5.427620006994912
 20
8.458764787264216
 10
5.43755317431608
 20
8.469239884199936
 10
5.448735398338689
 20
8.475713203170736
 10
5.460173158371955
 20
8.477609679691244
 10
5.465693109550205
 20
8.476765789729522
  0
ARC
  5
B5
330
1F
100
AcDbEntity
  8
0
  6
Continuous
 62
     7
370
    15
100
AcDbCircle
 10
5.453407687681899
 20
8.408977731215287
 30
0.0
 40
0.0405741273226566
100
AcDbArc
 50
173.0404626059137
 51
246.9610075446933
  0
LWPOLYLINE
  5
B6
330
1F
100
AcDbEntity
  8
0
  6
Continuous
 62
     7
370
    15
100
AcDbPolyline
 90
       22
 70
   128
 43
0.0
 10
5.41548952209239
 20
8.413894029825604
 10
5.417146668973186
 20
8.399358043683765
 10
5.421970809975233
 20
8.387001608639435
 10
5.429533320775461
 20
8.37792255759086
 10
5.439162243990867
 20
8.372927634726531
 10
5.450001990300059
 20
8.37246078778257
 10
5.461089425396637
 20
8.376563263112231
 10
5.471439359782806
 20
8.384870792121004
 10
5.480132181857443
 20
8.396644982131853
 10
5.486395441382708
 20
8.410839825383483
 10
5.489672676891673
 20
8.426193899047342
 10
5.489672676891673
 20
8.441343134669962
 10
5.486395441382708
 20
8.454941193108981
 10
5.480132181857443
 20
8.465780043465558
 10
5.471439359782806
 20
8.472896427264997
 10
5.461089425396637
 20
8.475658232657476
 10
5.450001990300059
 20
8.473819815188686
 10
5.439162243990867
 20
8.467544792573402
 10
5.429533320775461
 20
8.457390479815112
 10
5.421970809975233
 20
8.444259268320054
 10
5.417146668973186
 20
8.429317951895304
 10
5.41548952209239
 20
8.413894029825604
  0
ARC
  5
B7
330
1F
100
AcDbEntity
  8
0
  6
Continuous
 62
     7
370
    15
100
AcDbCircle
 10
5.441033316611197
 20
8.412292961985023
 30
0.0
 40
0.0405741273226561
100
AcDbArc
 50
173.0404626059135
 51
246.9610075446933
  0
LWPOLYLINE
  5
B8
330
1F
100
AcDbEntity
  8
0
  6
Continuous
 62
     7
370
    15
100
AcDbPolyline
 90
        8
 70
   128
 43
0.0
 10
5.453318738479504
 20
8.480081020499259
 10
5.447798787301253
 20
8.480924910460982
 10
5.436361027267988
 20
8.479028433940474
 10
5.425178803245379
 20
8.472555114969674
 10
5.415245635924211
 20
8.462080018033953
 10
5.407444182360772
 20
8.448533887598053
 10
5.402467625467087
 20
8.433120479183449
 10
5.400758140718308
 20
8.417209262910713
  0
LWPOLYLINE
  5
B9
330
1F
100
AcDbEntity
  8
0
  6
Continuous
 62
     7
370
    15
100
AcDbPolyline
 90
        7
 70
   128
 43
0.0
 10
4.60551016365803
 20
7.275660054217774
 10
4.60827549748331
 20
7.259752386373998
 10
4.607636934010793
 20
7.244319926639555
 10
4.603651166835916
 20
7.23073388484025
 10
4.596672392653106
 20
7.220201443608014
 10
4.587320645808565
 20
7.21365847906387
 10
4.58404880310502
 20
7.212537341000929
  0
LWPOLYLINE
  5
BA
330
1F
100
AcDbEntity
  8
0
  6
Continuous
 62
     7
370
    15
100
AcDbPolyline
 90
        7
 70
   128
 43
0.0
 10
4.555884392830915
 20
7.317663282893892
 10
4.557924878296962
 20
7.318120410348237
 10
4.569231862798798
 20
7.317714984197523
 10
4.580604183212452
 20
7.31263450416443
 10
4.591031241629974
 20
7.303330424142119
 10
4.599586650874207
 20
7.290629429762428
 10
4.60551016365803
 20
7.275660054217774
  0
LWPOLYLINE
  5
BB
330
1F
100
AcDbEntity
  8
0
  6
Continuous
 62
     7
370
    15
100
AcDbPolyline
 90
       22
 70
   128
 43
0.0
 10
4.603243042087295
 20
7.275020885517022
 10
4.597500879670341
 20
7.289531801126175
 10
4.589207574597212
 20
7.301843770798514
 10
4.579099797915948
 20
7.310862909015638
 10
4.568075866560114
 20
7.315787760504896
 10
4.557115127821634
 20
7.316180778143131
 10
4.547191674464074
 20
7.312006983009447
 10
4.539187091896493
 20
7.303637298844241
 10
4.533812746464575
 20
7.291815346861004
 10
4.531546039725025
 20
7.277591625914675
 10
4.532588510495772
 20
7.262229925601473
 10
4.536847444006715
 20
7.247095218799422
 10
4.543944445077572
 20
7.233532281348217
 10
4.553248901166894
 20
7.22274625119183
 10
4.563934122859253
 20
7.215695504982128
 10
4.575050561569594
 20
7.213006548103903
 10
4.585610642520803
 20
7.214918280854915
 10
4.594675879292789
 20
7.221260873249256
 10
4.601440946276212
 20
7.231470710039072
 10
4.605304614805303
 20
7.244640648375019
 10
4.605923681212073
 20
7.25960044336683
 10
4.603243042087295
 20
7.275020885517022
  0
LWPOLYLINE
  5
BC
330
1F
100
AcDbEntity
  8
0
  6
Continuous
 62
     7
370
    15
100
AcDbPolyline
 90
        7
 70
   128
 43
0.0
 10
4.617884508801783
 20
7.278975278041396
 10
4.611960996017959
 20
7.293944653586049
 10
4.603405586773726
 20
7.306645647965741
 10
4.592978528356204
 20
7.315949727988051
 10
4.581606207942551
 20
7.321030208021144
 10
4.570299223440714
 20
7.321435634171858
 10
4.568258737974667
 20
7.320978506717514
  0
LWPOLYLINE
  5
BD
330
1F
100
AcDbEntity
  8
0
  6
Continuous
 62
     7
370
    15
100
AcDbPolyline
 90
        7
 70
   128
 43
0.0
 10
4.596423148248772
 20
7.21585256482455
 10
4.599694990952317
 20
7.216973702887493
 10
4.609046737796858
 20
7.223516667431636
 10
4.616025511979668
 20
7.234049108663872
 10
4.620011279154545
 20
7.247635150463175
 10
4.620649842627062
 20
7.26306761019762
 10
4.617884508801783
 20
7.278975278041396
  0
LWPOLYLINE
  5
BE
330
1F
100
AcDbEntity
  8
0
  6
Continuous
 62
     7
370
    15
100
AcDbPolyline
 90
        8
 70
   128
 43
0.0
 10
5.11850471146104
 20
8.274744753438486
 10
5.120214161640554
 20
8.290655960449733
 10
5.125190753103503
 20
8.306069378125824
 10
5.132992206666942
 20
8.319615508561726
 10
5.142925339418845
 20
8.330090596235958
 10
5.154107598010719
 20
8.336563924468247
 10
5.165545323474719
 20
8.338460391727267
 10
5.171065274652969
 20
8.337616501765545
  0
ARC
  5
BF
330
1F
100
AcDbEntity
  8
0
  6
Continuous
 62
     7
370
    15
100
AcDbCircle
 10
5.158779880957765
 20
8.269828427644929
 30
0.0
 40
0.0405741239868273
100
AcDbArc
 50
173.0404266536726
 51
246.9609623091364
  0
LWPOLYLINE
  5
C0
330
1F
100
AcDbEntity
  8
0
  6
Continuous
 62
     7
370
    15
100
AcDbPolyline
 90
       22
 70
   128
 43
0.0
 10
5.120861687195154
 20
8.274744741861626
 10
5.122518868645216
 20
8.260208764981276
 10
5.127343009647264
 20
8.247852329936945
 10
5.134905520447491
 20
8.238773278888372
 10
5.144534443662898
 20
8.233778356024043
 10
5.15537418997209
 20
8.233311509080081
 10
5.166461590499402
 20
8.237413975148253
 10
5.176811559454836
 20
8.245721513418514
 10
5.185504346960208
 20
8.257495694167873
 10
5.191767606485473
 20
8.271690537419505
 10
5.195044841994437
 20
8.287044705285655
 10
5.195044841994437
 20
8.302193846705984
 10
5.191767606485473
 20
8.315791905145001
 10
5.185504346960208
 20
8.326630755501579
 10
5.176811559454836
 20
8.333747148562508
 10
5.166461590499402
 20
8.336508944693497
 10
5.15537418997209
 20
8.334670536486196
 10
5.144534443662898
 20
8.328395513870912
 10
5.134905520447491
 20
8.318241201112622
 10
5.127343009647264
 20
8.305109989617566
 10
5.122518868645216
 20
8.290168673192816
 10
5.120861687195154
 20
8.274744741861626
  0
ARC
  5
C1
330
1F
100
AcDbEntity
  8
0
  6
Continuous
 62
     7
370
    15
100
AcDbCircle
 10
5.146405509887063
 20
8.273143658414666
 30
0.0
 40
0.0405741239868263
100
AcDbArc
 50
173.0404266536726
 51
246.9609623091343
  0
LWPOLYLINE
  5
C2
330
1F
100
AcDbEntity
  8
0
  6
Continuous
 62
     7
370
    15
100
AcDbPolyline
 90
        8
 70
   128
 43
0.0
 10
5.158690903582268
 20
8.340931732535281
 10
5.153170952404018
 20
8.341775622497005
 10
5.141733226940019
 20
8.339879155237984
 10
5.130550968348144
 20
8.333405827005696
 10
5.120617835596241
 20
8.322930739331463
 10
5.112816382032803
 20
8.309384608895562
 10
5.107839790569853
 20
8.293971191219471
 10
5.106130340390338
 20
8.278059984208223
  0
LWPOLYLINE
  5
C3
330
1F
100
AcDbEntity
  8
0
  6
Continuous
 62
     7
370
    15
100
AcDbPolyline
 90
        8
 70
   128
 43
0.0
 10
4.912265233946827
 20
8.038845213658699
 10
4.913974684126341
 20
8.054756420669946
 10
4.918951275589292
 20
8.07016993254833
 10
4.926752729152731
 20
8.083715968781939
 10
4.936685861904634
 20
8.094191056456173
 10
4.947868120496507
 20
8.100664478890751
 10
4.959305845960507
 20
8.10256085194748
 10
4.964825797138757
 20
8.101716961985758
  0
ARC
  5
C4
330
1F
100
AcDbEntity
  8
0
  6
Continuous
 62
     7
370
    15
100
AcDbCircle
 10
4.952540403443555
 20
8.033928887865144
 30
0.0
 40
0.0405741239868291
100
AcDbArc
 50
173.0404266536755
 51
246.9609623091335
  0
LWPOLYLINE
  5
C5
330
1F
100
AcDbEntity
  8
0
  6
Continuous
 62
     7
370
    15
100
AcDbPolyline
 90
       22
 70
   128
 43
0.0
 10
4.914622209680943
 20
8.038845202081839
 10
4.916279391131005
 20
8.02430922520149
 10
4.921103532133051
 20
8.01195279015716
 10
4.928666042933278
 20
8.002873739108585
 10
4.938294966148686
 20
7.997878910446547
 10
4.949134712457878
 20
7.997411969300293
 10
4.96022211298519
 20
8.001514529570759
 10
4.970572081940623
 20
8.009821973638727
 10
4.979264869445995
 20
8.021596248590379
 10
4.985528128971261
 20
8.035790997639718
 10
4.988805364480225
 20
8.051145165505868
 10
4.988805364480225
 20
8.066294306926197
 10
4.985528128971261
 20
8.079892365365216
 10
4.979264869445995
 20
8.090731215721794
 10
4.970572081940623
 20
8.097847702985012
 10
4.96022211298519
 20
8.100609404913711
 10
4.949134712457878
 20
8.098771090908702
 10
4.938294966148686
 20
8.092495974091127
 10
4.928666042933278
 20
8.082341661332835
 10
4.921103532133051
 20
8.069210544040071
 10
4.916279391131005
 20
8.054269133413029
 10
4.914622209680943
 20
8.038845202081839
  0
ARC
  5
C6
330
1F
100
AcDbEntity
  8
0
  6
Continuous
 62
     7
370
    15
100
AcDbCircle
 10
4.940166032372851
 20
8.037244118634879
 30
0.0
 40
0.0405741239868257
100
AcDbArc
 50
173.04042665367
 51
246.9609623091366
  0
LWPOLYLINE
  5
C7
330
1F
100
AcDbEntity
  8
0
  6
Continuous
 62
     7
370
    15
100
AcDbPolyline
 90
        8
 70
   128
 43
0.0
 10
4.952451426068056
 20
8.105032192755496
 10
4.946931474889806
 20
8.105876082717218
 10
4.935493749425806
 20
8.103979709660489
 10
4.924311490833932
 20
8.097506287225909
 10
4.914378358082029
 20
8.087031199551677
 10
4.90657690451859
 20
8.073485163318068
 10
4.901600313055641
 20
8.058071651439686
 10
4.899890862876127
 20
8.042160444428438
  0
LWPOLYLINE
  5
C8
330
1F
100
AcDbEntity
  8
0
  6
Continuous
 62
     7
370
    15
100
AcDbPolyline
 90
        8
 70
   128
 43
0.0
 10
5.619371989303221
 20
8.288502163075632
 10
5.621081474052002
 20
8.304413379348368
 10
5.626058048230318
 20
8.319826886596008
 10
5.633859501793756
 20
8.333372922829616
 10
5.643792651830293
 20
8.343848015134593
 10
5.654974893137534
 20
8.350321432938429
 10
5.666412635886167
 20
8.352217810625901
 10
5.671932587064416
 20
8.35137392066418
  0
ARC
  5
C9
330
1F
100
AcDbEntity
  8
0
  6
Continuous
 62
     7
370
    15
100
AcDbCircle
 10
5.659647214371496
 20
8.283585890542205
 30
0.0
 40
0.0405741726954857
100
AcDbArc
 50
173.0405108180564
 51
246.9609593325484
  0
LWPOLYLINE
  5
CA
330
1F
100
AcDbEntity
  8
0
  6
Continuous
 62
     7
370
    15
100
AcDbPolyline
 90
       22
 70
   128
 43
0.0
 10
5.621729016891235
 20
8.288502165391005
 10
5.623386146487399
 20
8.273966174618422
 10
5.628210287489444
 20
8.261609739574092
 10
5.635772798289672
 20
8.252530688525517
 10
5.645401721505079
 20
8.247535859863479
 10
5.656241467814271
 20
8.247068918717227
 10
5.667328902910849
 20
8.251171488249179
 10
5.677678837297016
 20
8.259478923055661
 10
5.686371642087022
 20
8.271253108435765
 10
5.692634927539237
 20
8.285447958633511
 10
5.695912171690518
 20
8.300802128815034
 10
5.695912171690518
 20
8.315951270235363
 10
5.692634927539237
 20
8.329549326359009
 10
5.686371642087022
 20
8.340388169769468
 10
5.677678837297016
 20
8.347504558199654
 10
5.667328902910849
 20
8.350266363592131
 10
5.656241467814271
 20
8.348428040325634
 10
5.645401721505079
 20
8.342152923508059
 10
5.635772798289672
 20
8.331998610749767
 10
5.628210287489444
 20
8.318867399254711
 10
5.623386146487399
 20
8.303926082829962
 10
5.621729016891235
 20
8.288502165391005
  0
ARC
  5
CB
330
1F
100
AcDbEntity
  8
0
  6
Continuous
 62
     7
370
    15
100
AcDbCircle
 10
5.647272843300787
 20
8.286901121311942
 30
0.0
 40
0.0405741726954791
100
AcDbArc
 50
173.0405108180527
 51
246.9609593325578
  0
LWPOLYLINE
  5
CC
330
1F
100
AcDbEntity
  8
0
  6
Continuous
 62
     7
370
    15
100
AcDbPolyline
 90
        8
 70
   128
 43
0.0
 10
5.659558215993715
 20
8.354689151433916
 10
5.654038264815465
 20
8.35553304139564
 10
5.642600522066834
 20
8.353636663708165
 10
5.631418280759592
 20
8.347163245904331
 10
5.621485130723056
 20
8.336688153599352
 10
5.613683677159618
 20
8.323142117365744
 10
5.608707102981299
 20
8.307728610118106
 10
5.60699761823252
 20
8.29181739384537
  0
ARC
  5
CD
330
1F
100
AcDbEntity
  8
0
  6
Continuous
 62
     7
370
    15
100
AcDbCircle
 10
5.330300090325304
 20
7.534898184345865
 30
0.0
 40
0.0301257760873666
100
AcDbArc
 50
109.5746606286359
 51
158.2855825662528
  0
LINE
  5
CE
330
1F
100
AcDbEntity
  8
0
  6
Continuous
 62
     7
370
    15
100
AcDbLine
 10
5.302312054308163
 20
7.546044135394088
 30
0.0
 11
4.848802354075131
 21
7.424543874573013
 31
0.0
  0
LINE
  5
CF
330
1F
100
AcDbEntity
  8
0
  6
Continuous
 62
     7
370
    15
100
AcDbLine
 10
4.848802354075131
 20
8.450611383374937
 30
0.0
 11
4.848802354075131
 21
7.424543874573013
 31
0.0
  0
LINE
  5
D0
330
1F
100
AcDbEntity
  8
0
  6
Continuous
 62
     7
370
    15
100
AcDbLine
 10
5.732685850124522
 20
8.687413540528932
 30
0.0
 11
4.848802354075131
 21
8.450611383374937
 31
0.0
  0
LINE
  5
D1
330
1F
100
AcDbEntity
  8
0
  6
Continuous
 62
     7
370
    15
100
AcDbLine
 10
5.732685850124522
 20
7.673790531171658
 30
0.0
 11
5.732685850124522
 21
8.687413540528932
 31
0.0
  0
LINE
  5
D2
330
1F
100
AcDbEntity
  8
0
  6
Continuous
 62
     7
370
    15
100
AcDbLine
 10
5.732685850124522
 20
7.673790531171658
 30
0.0
 11
5.320206903738415
 21
7.563282862772586
 31
0.0
  0
LINE
  5
D3
330
1F
100
AcDbEntity
  8
0
  6
Continuous
 62
     7
370
    15
100
AcDbLine
 10
4.833953108790289
 20
8.454589660298621
 30
0.0
 11
4.833953108790289
 21
7.428522151496698
 31
0.0
  0
LINE
  5
D4
330
1F
100
AcDbEntity
  8
0
  6
Continuous
 62
     7
370
    15
100
AcDbLine
 10
4.848802354075131
 20
8.450611383374937
 30
0.0
 11
4.833953108790289
 21
8.454589660298621
 31
0.0
  0
LINE
  5
D5
330
1F
100
AcDbEntity
  8
0
  6
Continuous
 62
     7
370
    15
100
AcDbLine
 10
4.833953108790289
 20
7.428522151496698
 30
0.0
 11
4.848802354075131
 21
7.424543874573013
 31
0.0
  0
LINE
  5
D6
330
1F
100
AcDbEntity
  8
0
  6
Continuous
 62
     7
370
    15
100
AcDbLine
 10
5.732685850124522
 20
8.687413540528932
 30
0.0
 11
5.71783660483968
 21
8.691391817452617
 31
0.0
  0
LINE
  5
D7
330
1F
100
AcDbEntity
  8
0
  6
Continuous
 62
     7
370
    15
100
AcDbLine
 10
5.71783660483968
 20
8.691391817452617
 30
0.0
 11
4.833953108790289
 21
8.454589660298621
 31
0.0
  0
SPLINE
  5
D8
330
1F
100
AcDbEntity
  8
0
  6
Continuous
 62
     7
370
    15
100
AcDbSpline
210
0.0
220
0.0
230
1.0
 70
     8
 71
     3
 72
    14
 73
    10
 74
     0
 42
0.0000000001
 43
0.0000000001
 40
0.0
 40
0.0
 40
0.0
 40
0.0
 40
0.0002644223104348
 40
0.1704193655178958
 40
0.3239361383078258
 40
0.4709685759485051
 40
0.6319469686691118
 40
0.8080028880975895
 40
0.9999999999999998
 40
0.9999999999999998
 40
0.9999999999999998
 40
0.9999999999999998
 10
5.281619859912771
 20
7.514683944838408
 30
0.0
 10
5.281621893614873
 20
7.514684087501017
 30
0.0
 10
5.282932608362944
 20
7.514776033112934
 30
0.0
 10
5.285715426594381
 20
7.516425717591307
 30
0.0
 10
5.289506697723955
 20
7.519595144693126
 30
0.0
 10
5.293257778120158
 20
7.524169612520815
 30
0.0
 10
5.296791269781015
 20
7.530032751554504
 30
0.0
 10
5.30005956456134
 20
7.537423950632504
 30
0.0
 10
5.301539852870122
 20
7.543088952544326
 30
0.0
 10
5.302312054308163
 20
7.546044135394088
 30
0.0
  0
LWPOLYLINE
  5
D9
330
1F
100
AcDbEntity
  8
0
  6
Continuous
 62
     7
370
    15
100
AcDbPolyline
 90
        9
 70
   128
 43
0.0
 10
4.848802354075131
 20
7.424543874573013
 10
4.848267939157282
 20
7.417294007340298
 10
4.846685228547446
 20
7.410609104218616
 10
4.844115038225977
 20
7.404746058578481
 10
4.840656149869069
 20
7.399930208440846
 10
4.836441490944928
 20
7.396346562833304
 10
4.831633009820158
 20
7.394132885004122
 10
4.826415505145863
 20
7.393374280426077
 10
4.820989487304322
 20
7.394099786864348
  0
ARC
  5
DA
330
1F
100
AcDbEntity
  8
0
  6
Continuous
 62
     7
370
    15
100
AcDbCircle
 10
4.819948347376887
 20
7.426989982560758
 30
0.0
 40
0.0140883243820762
100
AcDbArc
 50
298.1152269612327
 51
6.243524009230625
  0
LINE
  5
DB
330
1F
100
AcDbEntity
  8
0
  6
Continuous
 62
     7
370
    15
100
AcDbLine
 10
4.78882802299015
 20
7.402716198598324
 30
0.0
 11
4.820989487304322
 21
7.394099786864348
 31
0.0
  0
ARC
  5
DC
330
1F
100
AcDbEntity
  8
0
  6
Continuous
 62
     7
370
    15
100
AcDbCircle
 10
5.256910812405137
 20
7.509849498034211
 30
0.0
 40
0.0414732860791464
100
AcDbArc
 50
358.9434845443999
 51
24.09611247075909
  0
ARC
  5
DD
330
1F
100
AcDbEntity
  8
0
  6
Continuous
 62
     7
370
    15
100
AcDbCircle
 10
5.26472269400998
 20
7.505522489879724
 30
0.0
 40
0.0188097259434996
100
AcDbArc
 50
358.7328079727071
 51
28.16304491310683
  0
LINE
  5
DE
330
1F
100
AcDbEntity
  8
0
  6
Continuous
 62
     7
370
    15
100
AcDbLine
 10
5.283527819778322
 20
7.505106515233419
 30
0.0
 11
5.298377047778533
 21
7.50908478752636
 31
0.0
  0
LINE
  5
DF
330
1F
100
AcDbEntity
  8
0
  6
Continuous
 62
     7
370
    15
100
AcDbLine
 10
4.487498227303687
 20
7.321986604913724
 30
0.0
 11
4.487498227303687
 21
7.174025975002521
 31
0.0
  0
LINE
  5
E0
330
1F
100
AcDbEntity
  8
0
  6
Continuous
 62
     7
370
    15
100
AcDbLine
 10
5.283527819778322
 20
7.505106515233419
 30
0.0
 11
5.283527819778322
 21
6.96076084956581
 31
0.0
  0
LINE
  5
E1
330
1F
100
AcDbEntity
  8
0
  6
Continuous
 62
     7
370
    15
100
AcDbLine
 10
5.283527819778322
 20
6.96076084956581
 30
0.0
 11
4.487498227303687
 21
7.174025975002521
 31
0.0
  0
LINE
  5
E2
330
1F
100
AcDbEntity
  8
0
  6
Continuous
 62
     7
370
    15
100
AcDbLine
 10
5.298377047778533
 20
7.50908478752636
 30
0.0
 11
5.298377047778533
 21
6.964739121858751
 31
0.0
  0
LINE
  5
E3
330
1F
100
AcDbEntity
  8
0
  6
Continuous
 62
     7
370
    15
100
AcDbLine
 10
5.283527819778322
 20
6.96076084956581
 30
0.0
 11
5.298377047778533
 21
6.964739121858751
 31
0.0
  0
LINE
  5
E4
330
1F
100
AcDbEntity
  8
0
  6
Continuous
 62
     8
370
    15
100
AcDbLine
 10
4.820989487304322
 20
7.411332635859513
 30
0.0
 11
4.820989487304322
 21
7.394099786864348
 31
0.0
  0
LINE
  5
E5
330
1F
100
AcDbEntity
  8
0
  6
Continuous
 62
     8
370
    15
100
AcDbLine
 10
5.264701803969955
 20
7.510150212931093
 30
0.0
 11
5.283527819778322
 21
7.505106515233419
 31
0.0
  0
TEXT
  5
ED
330
1F
100
AcDbEntity
  8
0
100
AcDbText
 10
3.45505448819172
 20
3.431471012236048
 30
0.0
 40
0.25
  1
USP  HH
100
AcDbText
  0
TEXT
  5
EE
330
1F
100
AcDbEntity
  8
0
100
AcDbText
 10
2.521230700588958
 20
2.961978319298445
 30
0.0
 40
0.25
  1
SIMPSON  HH
100
AcDbText
  0
ENDSEC
  0
SECTION
  2
OBJECTS
  0
DICTIONARY
  5
C
330
0
100
AcDbDictionary
281
     1
  3
ACAD_COLOR
350
EA
  3
ACAD_GROUP
350
D
  3
ACAD_LAYOUT
350
1A
  3
ACAD_MATERIAL
350
E9
  3
ACAD_MLINESTYLE
350
17
  3
ACAD_PLOTSETTINGS
350
19
  3
ACAD_PLOTSTYLENAME
350
E
  0
DICTIONARY
  5
EA
102
{ACAD_REACTORS
330
C
102
}
330
C
100
AcDbDictionary
281
     1
  0
DICTIONARY
  5
D
102
{ACAD_REACTORS
330
C
102
}
330
C
100
AcDbDictionary
281
     1
  0
DICTIONARY
  5
1A
102
{ACAD_REACTORS
330
C
102
}
330
C
100
AcDbDictionary
281
     1
  3
Layout1
350
1E
  3
Layout2
350
26
  3
Model
350
22
  0
DICTIONARY
  5
E9
102
{ACAD_REACTORS
330
C
102
}
330
C
100
AcDbDictionary
281
     1
  0
DICTIONARY
  5
17
102
{ACAD_REACTORS
330
C
102
}
330
C
100
AcDbDictionary
281
     1
  3
Standard
350
18
  0
DICTIONARY
  5
19
102
{ACAD_REACTORS
330
C
102
}
330
C
100
AcDbDictionary
281
     1
  0
ACDBDICTIONARYWDFLT
  5
E
102
{ACAD_REACTORS
330
C
102
}
330
C
100
AcDbDictionary
281
     1
  3
Normal
350
F
100
AcDbDictionaryWithDefault
340
F
  0
LAYOUT
  5
1E
102
{ACAD_REACTORS
330
1A
102
}
330
1A
100
AcDbPlotSettings
  1

  2
none_device
  4

  6

 40
0.0
 41
0.0
 42
0.0
 43
0.0
 44
0.0
 45
0.0
 46
0.0
 47
0.0
 48
0.0
 49
0.0
140
0.0
141
0.0
142
1.0
143
1.0
 70
   688
 72
     0
 73
     0
 74
     5
  7

 75
    16
147
1.0
 76
     0
 77
     2
 78
   300
148
0.0
149
0.0
100
AcDbLayout
  1
Layout1
 70
     1
 71
     1
 10
0.0
 20
0.0
 11
12.0
 21
9.0
 12
0.0
 22
0.0
 32
0.0
 14
1.000000000000000E+20
 24
1.000000000000000E+20
 34
1.000000000000000E+20
 15
-1.000000000000000E+20
 25
-1.000000000000000E+20
 35
-1.000000000000000E+20
146
0.0
 13
0.0
 23
0.0
 33
0.0
 16
1.0
 26
0.0
 36
0.0
 17
0.0
 27
1.0
 37
0.0
 76
     0
330
1B
  0
LAYOUT
  5
26
102
{ACAD_REACTORS
330
1A
102
}
330
1A
100
AcDbPlotSettings
  1

  2
none_device
  4

  6

 40
0.0
 41
0.0
 42
0.0
 43
0.0
 44
0.0
 45
0.0
 46
0.0
 47
0.0
 48
0.0
 49
0.0
140
0.0
141
0.0
142
1.0
143
1.0
 70
   688
 72
     0
 73
     0
 74
     5
  7

 75
    16
147
1.0
 76
     0
 77
     2
 78
   300
148
0.0
149
0.0
100
AcDbLayout
  1
Layout2
 70
     1
 71
     2
 10
0.0
 20
0.0
 11
0.0
 21
0.0
 12
0.0
 22
0.0
 32
0.0
 14
0.0
 24
0.0
 34
0.0
 15
0.0
 25
0.0
 35
0.0
146
0.0
 13
0.0
 23
0.0
 33
0.0
 16
1.0
 26
0.0
 36
0.0
 17
0.0
 27
1.0
 37
0.0
 76
     0
330
23
  0
LAYOUT
  5
22
102
{ACAD_REACTORS
330
1A
102
}
330
1A
100
AcDbPlotSettings
  1

  2
none_device
  4

  6

 40
0.0
 41
0.0
 42
0.0
 43
0.0
 44
0.0
 45
0.0
 46
0.0
 47
0.0
 48
0.0
 49
0.0
140
0.0
141
0.0
142
1.0
143
1.0
 70
  1712
 72
     0
 73
     0
 74
     0
  7

 75
     0
147
1.0
 76
     0
 77
     2
 78
   300
148
0.0
149
0.0
100
AcDbLayout
  1
Model
 70
     1
 71
     0
 10
0.0
 20
0.0
 11
8.5
 21
11.0
 12
0.0
 22
0.0
 32
0.0
 14
0.0
 24
0.0
 34
0.0
 15
8.5
 25
11.0
 35
0.0
146
0.0
 13
0.0
 23
0.0
 33
0.0
 16
1.0
 26
0.0
 36
0.0
 17
0.0
 27
1.0
 37
0.0
 76
     0
330
1F
  0
MLINESTYLE
  5
18
102
{ACAD_REACTORS
330
17
102
}
330
17
100
AcDbMlineStyle
  2
STANDARD
 70
     0
  3

 62
   256
 51
90.0
 52
90.0
 71
     2
 49
0.5
 62
   256
  6
BYLAYER
 49
-0.5
 62
   256
  6
BYLAYER
  0
ACDBPLACEHOLDER
  5
F
102
{ACAD_REACTORS
330
E
102
}
330
E
  0
ENDSEC
  0
EOF
