  0
SECTION
  2
HEADER
  9
$ACADVER
  1
AC1015
  9
$ACADMAINTVER
 70
    20
  9
$DWGCODEPAGE
  3
ANSI_1252
  9
$INSBASE
 10
0.0
 20
0.0
 30
0.0
  9
$EXTMIN
 10
0.5903727014852649
 20
2.244296742132197
 30
0.0
  9
$EXTMAX
 10
6.80620957495055
 20
9.297425550791771
 30
0.0
  9
$LIMMIN
 10
0.0
 20
0.0
  9
$LIMMAX
 10
8.5
 20
11.0
  9
$ORTHOMODE
 70
     0
  9
$REGENMODE
 70
     1
  9
$FILLMODE
 70
     1
  9
$QTEXTMODE
 70
     0
  9
$MIRRTEXT
 70
     1
  9
$LTSCALE
 40
1.0
  9
$ATTMODE
 70
     1
  9
$TEXTSIZE
 40
0.1388888888888889
  9
$TRACEWID
 40
0.05
  9
$TEXTSTYLE
  7
Standard
  9
$CLAYER
  8
0
  9
$CELTYPE
  6
ByLayer
  9
$CECOLOR
 62
   256
  9
$CELTSCALE
 40
1.0
  9
$DISPSILH
 70
     0
  9
$DIMSCALE
 40
1.0
  9
$DIMASZ
 40
0.156
  9
$DIMEXO
 40
0.05
  9
$DIMDLI
 40
0.38
  9
$DIMRND
 40
0.0
  9
$DIMDLE
 40
0.0
  9
$DIMEXE
 40
0.125
  9
$DIMTP
 40
0.0
  9
$DIMTM
 40
0.0
  9
$DIMTXT
 40
0.125
  9
$DIMCEN
 40
0.09
  9
$DIMTSZ
 40
0.0
  9
$DIMTOL
 70
     0
  9
$DIMLIM
 70
     0
  9
$DIMTIH
 70
     1
  9
$DIMTOH
 70
     1
  9
$DIMSE1
 70
     0
  9
$DIMSE2
 70
     0
  9
$DIMTAD
 70
     0
  9
$DIMZIN
 70
     0
  9
$DIMBLK
  1

  9
$DIMASO
 70
     1
  9
$DIMSHO
 70
     1
  9
$DIMPOST
  1

  9
$DIMAPOST
  1

  9
$DIMALT
 70
     0
  9
$DIMALTD
 70
     2
  9
$DIMALTF
 40
25.4
  9
$DIMLFAC
 40
8.0
  9
$DIMTOFL
 70
     0
  9
$DIMTVP
 40
0.0
  9
$DIMTIX
 70
     0
  9
$DIMSOXD
 70
     0
  9
$DIMSAH
 70
     0
  9
$DIMBLK1
  1

  9
$DIMBLK2
  1

  9
$DIMSTYLE
  2
Standard
  9
$DIMCLRD
 70
     0
  9
$DIMCLRE
 70
     0
  9
$DIMCLRT
 70
     0
  9
$DIMTFAC
 40
1.0
  9
$DIMGAP
 40
0.06
  9
$DIMJUST
 70
     0
  9
$DIMSD1
 70
     0
  9
$DIMSD2
 70
     0
  9
$DIMTOLJ
 70
     1
  9
$DIMTZIN
 70
     0
  9
$DIMALTZ
 70
     0
  9
$DIMALTTZ
 70
     0
  9
$DIMUPT
 70
     0
  9
$DIMDEC
 70
     3
  9
$DIMTDEC
 70
     3
  9
$DIMALTU
 70
     2
  9
$DIMALTTD
 70
     2
  9
$DIMTXSTY
  7
Standard
  9
$DIMAUNIT
 70
     0
  9
$DIMADEC
 70
     0
  9
$DIMALTRND
 40
0.0
  9
$DIMAZIN
 70
     0
  9
$DIMDSEP
 70
    46
  9
$DIMATFIT
 70
     3
  9
$DIMFRAC
 70
     0
  9
$DIMLDRBLK
  1

  9
$DIMLUNIT
 70
     2
  9
$DIMLWD
 70
    -2
  9
$DIMLWE
 70
    -2
  9
$DIMTMOVE
 70
     0
  9
$LUNITS
 70
     2
  9
$LUPREC
 70
     3
  9
$SKETCHINC
 40
0.1
  9
$FILLETRAD
 40
0.5
  9
$AUNITS
 70
     0
  9
$AUPREC
 70
     0
  9
$MENU
  1
.
  9
$ELEVATION
 40
0.0
  9
$PELEVATION
 40
0.0
  9
$THICKNESS
 40
0.0
  9
$LIMCHECK
 70
     0
  9
$CHAMFERA
 40
0.0
  9
$CHAMFERB
 40
0.0
  9
$CHAMFERC
 40
0.0
  9
$CHAMFERD
 40
0.0
  9
$SKPOLY
 70
     0
  9
$TDCREATE
 40
2456700.411942269
  9
$TDUCREATE
 40
2456700.661942269
  9
$TDUPDATE
 40
2456703.361196412
  9
$TDUUPDATE
 40
2456703.611196412
  9
$TDINDWG
 40
0.0035655093
  9
$TDUSRTIMER
 40
0.0035655093
  9
$USRTIMER
 70
     1
  9
$ANGBASE
 50
0.0
  9
$ANGDIR
 70
     0
  9
$PDMODE
 70
     0
  9
$PDSIZE
 40
-1.0
  9
$PLINEWID
 40
0.0
  9
$SPLFRAME
 70
     0
  9
$SPLINETYPE
 70
     6
  9
$SPLINESEGS
 70
     8
  9
$HANDSEED
  5
245
  9
$SURFTAB1
 70
     6
  9
$SURFTAB2
 70
     6
  9
$SURFTYPE
 70
     6
  9
$SURFU
 70
     6
  9
$SURFV
 70
     6
  9
$UCSBASE
  2

  9
$UCSNAME
  2

  9
$UCSORG
 10
0.0
 20
0.0
 30
0.0
  9
$UCSXDIR
 10
1.0
 20
0.0
 30
0.0
  9
$UCSYDIR
 10
0.0
 20
1.0
 30
0.0
  9
$UCSORTHOREF
  2

  9
$UCSORTHOVIEW
 70
     0
  9
$UCSORGTOP
 10
0.0
 20
0.0
 30
0.0
  9
$UCSORGBOTTOM
 10
0.0
 20
0.0
 30
0.0
  9
$UCSORGLEFT
 10
0.0
 20
0.0
 30
0.0
  9
$UCSORGRIGHT
 10
0.0
 20
0.0
 30
0.0
  9
$UCSORGFRONT
 10
0.0
 20
0.0
 30
0.0
  9
$UCSORGBACK
 10
0.0
 20
0.0
 30
0.0
  9
$PUCSBASE
  2

  9
$PUCSNAME
  2

  9
$PUCSORG
 10
0.0
 20
0.0
 30
0.0
  9
$PUCSXDIR
 10
1.0
 20
0.0
 30
0.0
  9
$PUCSYDIR
 10
0.0
 20
1.0
 30
0.0
  9
$PUCSORTHOREF
  2

  9
$PUCSORTHOVIEW
 70
     0
  9
$PUCSORGTOP
 10
0.0
 20
0.0
 30
0.0
  9
$PUCSORGBOTTOM
 10
0.0
 20
0.0
 30
0.0
  9
$PUCSORGLEFT
 10
0.0
 20
0.0
 30
0.0
  9
$PUCSORGRIGHT
 10
0.0
 20
0.0
 30
0.0
  9
$PUCSORGFRONT
 10
0.0
 20
0.0
 30
0.0
  9
$PUCSORGBACK
 10
0.0
 20
0.0
 30
0.0
  9
$USERI1
 70
     0
  9
$USERI2
 70
     0
  9
$USERI3
 70
     0
  9
$USERI4
 70
     0
  9
$USERI5
 70
     0
  9
$USERR1
 40
0.0
  9
$USERR2
 40
0.0
  9
$USERR3
 40
0.0
  9
$USERR4
 40
0.0
  9
$USERR5
 40
0.0
  9
$WORLDVIEW
 70
     1
  9
$SHADEDGE
 70
     3
  9
$SHADEDIF
 70
    70
  9
$TILEMODE
 70
     1
  9
$MAXACTVP
 70
    64
  9
$PINSBASE
 10
0.0
 20
0.0
 30
0.0
  9
$PLIMCHECK
 70
     0
  9
$PEXTMIN
 10
1.000000000000000E+20
 20
1.000000000000000E+20
 30
1.000000000000000E+20
  9
$PEXTMAX
 10
-1.000000000000000E+20
 20
-1.000000000000000E+20
 30
-1.000000000000000E+20
  9
$PLIMMIN
 10
0.0
 20
0.0
  9
$PLIMMAX
 10
12.0
 20
9.0
  9
$UNITMODE
 70
     0
  9
$VISRETAIN
 70
     1
  9
$PLINEGEN
 70
     0
  9
$PSLTSCALE
 70
     1
  9
$TREEDEPTH
 70
  3020
  9
$CMLSTYLE
  2
Standard
  9
$CMLJUST
 70
     0
  9
$CMLSCALE
 40
1.0
  9
$PROXYGRAPHICS
 70
     1
  9
$MEASUREMENT
 70
     0
  9
$CELWEIGHT
370
    -1
  9
$ENDCAPS
280
     0
  9
$JOINSTYLE
280
     0
  9
$LWDISPLAY
290
     1
  9
$INSUNITS
 70
     1
  9
$HYPERLINKBASE
  1

  9
$STYLESHEET
  1

  9
$XEDIT
290
     1
  9
$CEPSNTYPE
380
     0
  9
$PSTYLEMODE
290
     1
  9
$FINGERPRINTGUID
  2
{4EE7DE4B-AB10-4D73-9DBE-D2BA850F8592}
  9
$VERSIONGUID
  2
{3A28ADCB-74E7-4F86-B8BB-A5AB92F1E341}
  9
$EXTNAMES
290
     1
  9
$PSVPSCALE
 40
0.0
  9
$OLESTARTUP
290
     0
  0
ENDSEC
  0
SECTION
  2
CLASSES
  0
CLASS
  1
ACDBDICTIONARYWDFLT
  2
AcDbDictionaryWithDefault
  3
ObjectDBX Classes
 90
        0
280
     0
281
     0
  0
CLASS
  1
VISUALSTYLE
  2
AcDbVisualStyle
  3
ObjectDBX Classes
 90
    36863
280
     0
281
     0
  0
CLASS
  1
MATERIAL
  2
AcDbMaterial
  3
ObjectDBX Classes
 90
    32768
280
     0
281
     0
  0
CLASS
  1
SCALE
  2
AcDbScale
  3
ObjectDBX Classes
 90
     1153
280
     0
281
     0
  0
CLASS
  1
SUN
  2
AcDbSun
  3
SCENEOE
 90
    33921
280
     0
281
     0
  0
CLASS
  1
ACDBPLACEHOLDER
  2
AcDbPlaceHolder
  3
ObjectDBX Classes
 90
        0
280
     0
281
     0
  0
CLASS
  1
LAYOUT
  2
AcDbLayout
  3
ObjectDBX Classes
 90
        0
280
     0
281
     0
  0
CLASS
  1
DICTIONARYVAR
  2
AcDbDictionaryVar
  3
ObjectDBX Classes
 90
        0
280
     0
281
     0
  0
ENDSEC
  0
SECTION
  2
TABLES
  0
TABLE
  2
VPORT
  5
8
330
0
100
AcDbSymbolTable
 70
     3
  0
VPORT
  5
23B
330
8
100
AcDbSymbolTableRecord
100
AcDbViewportTableRecord
  2
*Active
 70
     0
 10
0.0
 20
0.0
 11
1.0
 21
1.0
 12
2.690481887460935
 22
4.705144939013845
 13
0.0
 23
0.0
 14
0.5
 24
0.5
 15
0.5
 25
0.5
 16
0.0
 26
0.0
 36
1.0
 17
0.0
 27
0.0
 37
0.0
 40
6.292052020461916
 41
2.144353899883585
 42
50.0
 43
0.0
 44
0.0
 50
0.0
 51
0.0
 71
     0
 72
  2000
 73
     1
 74
     3
 75
     0
 76
     0
 77
     0
 78
     0
281
     0
 65
     1
110
0.0
120
0.0
130
0.0
111
1.0
121
0.0
131
0.0
112
0.0
122
1.0
132
0.0
 79
     0
146
0.0
  0
ENDTAB
  0
TABLE
  2
LTYPE
  5
5
330
0
100
AcDbSymbolTable
 70
     6
  0
LTYPE
  5
14
330
5
100
AcDbSymbolTableRecord
100
AcDbLinetypeTableRecord
  2
ByBlock
 70
     0
  3

 72
    65
 73
     0
 40
0.0
  0
LTYPE
  5
15
330
5
100
AcDbSymbolTableRecord
100
AcDbLinetypeTableRecord
  2
ByLayer
 70
     0
  3

 72
    65
 73
     0
 40
0.0
  0
LTYPE
  5
16
330
5
100
AcDbSymbolTableRecord
100
AcDbLinetypeTableRecord
  2
Continuous
 70
     0
  3
Solid line
 72
    65
 73
     0
 40
0.0
  0
LTYPE
  5
6A
330
5
100
AcDbSymbolTableRecord
100
AcDbLinetypeTableRecord
  2
HIDDEN
 70
     0
  3
Hidden __ __ __ __ __ __ __ __ __ __ __ __ __ __
 72
    65
 73
     2
 40
0.075
 49
0.05
 74
     0
 49
-0.025
 74
     0
  0
LTYPE
  5
6B
330
5
100
AcDbSymbolTableRecord
100
AcDbLinetypeTableRecord
  2
PHANTOM
 70
     0
  3
Phantom ______  __  __  ______  __  __  ______
 72
    65
 73
     6
 40
0.5
 49
0.25
 74
     0
 49
-0.05
 74
     0
 49
0.05
 74
     0
 49
-0.05
 74
     0
 49
0.05
 74
     0
 49
-0.05
 74
     0
  0
LTYPE
  5
6C
330
5
100
AcDbSymbolTableRecord
100
AcDbLinetypeTableRecord
  2
CENTER
 70
     0
  3
Center ____ _ ____ _ ____ _ ____ _ ____ _ ____
 72
    65
 73
     4
 40
0.4
 49
0.25
 74
     0
 49
-0.05
 74
     0
 49
0.05
 74
     0
 49
-0.05
 74
     0
  0
LTYPE
  5
6D
330
5
100
AcDbSymbolTableRecord
100
AcDbLinetypeTableRecord
  2
CENTERX2
 70
     0
  3
Center (2x) ________  __  ________  __  _____
 72
    65
 73
     4
 40
0.8
 49
0.5
 74
     0
 49
-0.1
 74
     0
 49
0.1
 74
     0
 49
-0.1
 74
     0
  0
LTYPE
  5
6E
330
5
100
AcDbSymbolTableRecord
100
AcDbLinetypeTableRecord
  2
DOT2
 70
     0
  3
Dot (.5x) ........................................
 72
    65
 73
     2
 40
0.025
 49
0.0
 74
     0
 49
-0.025
 74
     0
  0
ENDTAB
  0
TABLE
  2
LAYER
  5
2
330
0
100
AcDbSymbolTable
 70
     7
  0
LAYER
  5
10
330
2
100
AcDbSymbolTableRecord
100
AcDbLayerTableRecord
  2
0
 70
     0
 62
     7
  6
Continuous
370
    -3
390
F
  0
LAYER
  5
6F
330
2
100
AcDbSymbolTableRecord
100
AcDbLayerTableRecord
  2
SLD-0
 70
     0
 62
   179
  6
Continuous
370
    -3
390
F
  0
LAYER
  5
70
330
2
100
AcDbSymbolTableRecord
100
AcDbLayerTableRecord
  2
SLD-DEFPOINTS
 70
     0
 62
   179
  6
Continuous
370
    -3
390
F
  0
LAYER
  5
71
330
2
100
AcDbSymbolTableRecord
100
AcDbLayerTableRecord
  2
OBJ
 70
     0
 62
   179
  6
Continuous
370
    -3
390
F
  0
LAYER
  5
72
330
2
100
AcDbSymbolTableRecord
100
AcDbLayerTableRecord
  2
FORMAT
 70
     0
 62
     7
  6
Continuous
370
    -3
390
F
  0
LAYER
  5
73
330
2
100
AcDbSymbolTableRecord
100
AcDbLayerTableRecord
  2
TOLERANCES
 70
     0
 62
     7
  6
Continuous
370
    -3
390
F
  0
LAYER
  5
74
330
2
100
AcDbSymbolTableRecord
100
AcDbLayerTableRecord
  2
QTY-BLANK-SIZE-1
 70
     0
 62
     7
  6
Continuous
370
    -3
390
F
  0
ENDTAB
  0
TABLE
  2
STYLE
  5
3
330
0
100
AcDbSymbolTable
 70
     2
  0
STYLE
  5
11
330
3
100
AcDbSymbolTableRecord
100
AcDbTextStyleTableRecord
  2
Standard
 70
     0
 40
0.0
 41
1.0
 50
0.0
 71
     0
 42
0.1388888888888889
  3
txt
  4

  0
STYLE
  5
20E
330
3
100
AcDbSymbolTableRecord
100
AcDbTextStyleTableRecord
  2
SLDTEXTSTYLE0
 70
     0
 40
0.0
 41
0.7
 50
0.0
 71
     0
 42
0.1388888888888889
  3
TXT
  4

  0
ENDTAB
  0
TABLE
  2
VIEW
  5
6
330
0
100
AcDbSymbolTable
 70
     0
  0
ENDTAB
  0
TABLE
  2
UCS
  5
7
330
0
100
AcDbSymbolTable
 70
     0
  0
ENDTAB
  0
TABLE
  2
APPID
  5
9
330
0
100
AcDbSymbolTable
 70
     1
  0
APPID
  5
12
330
9
100
AcDbSymbolTableRecord
100
AcDbRegAppTableRecord
  2
ACAD
 70
     0
  0
ENDTAB
  0
TABLE
  2
DIMSTYLE
  5
A
330
0
100
AcDbSymbolTable
 70
     1
100
AcDbDimStyleTable
 71
     0
  0
DIMSTYLE
105
27
330
A
100
AcDbSymbolTableRecord
100
AcDbDimStyleTableRecord
  2
Standard
 70
     0
340
11
  0
ENDTAB
  0
TABLE
  2
BLOCK_RECORD
  5
1
330
0
100
AcDbSymbolTable
 70
     2
  0
BLOCK_RECORD
  5
1F
330
1
100
AcDbSymbolTableRecord
100
AcDbBlockTableRecord
  2
*Model_Space
340
22
  0
BLOCK_RECORD
  5
1B
330
1
100
AcDbSymbolTableRecord
100
AcDbBlockTableRecord
  2
*Paper_Space
340
1E
  0
BLOCK_RECORD
  5
23
330
1
100
AcDbSymbolTableRecord
100
AcDbBlockTableRecord
  2
*Paper_Space0
340
26
  0
BLOCK_RECORD
  5
20B
330
1
100
AcDbSymbolTableRecord
100
AcDbBlockTableRecord
  2
SW_NOTE_0
340
0
  0
ENDTAB
  0
ENDSEC
  0
SECTION
  2
BLOCKS
  0
BLOCK
  5
20
330
1F
100
AcDbEntity
  8
0
100
AcDbBlockBegin
  2
*Model_Space
 70
     0
 10
0.0
 20
0.0
 30
0.0
  3
*Model_Space
  1

  0
ENDBLK
  5
21
330
1F
100
AcDbEntity
  8
0
100
AcDbBlockEnd
  0
BLOCK
  5
1C
330
1B
100
AcDbEntity
 67
     1
  8
0
100
AcDbBlockBegin
  2
*Paper_Space
 70
     0
 10
0.0
 20
0.0
 30
0.0
  3
*Paper_Space
  1

  0
ENDBLK
  5
1D
330
1B
100
AcDbEntity
 67
     1
  8
0
100
AcDbBlockEnd
  0
BLOCK
  5
24
330
23
100
AcDbEntity
  8
0
100
AcDbBlockBegin
  2
*Paper_Space0
 70
     0
 10
0.0
 20
0.0
 30
0.0
  3
*Paper_Space0
  1

  0
ENDBLK
  5
25
330
23
100
AcDbEntity
  8
0
100
AcDbBlockEnd
  0
BLOCK
  5
20C
330
20B
100
AcDbEntity
  8
0
100
AcDbBlockBegin
  2
SW_NOTE_0
 70
     0
 10
0.0
 20
0.0
 30
0.0
  3
SW_NOTE_0
  1

  0
MTEXT
  5
20F
330
20B
100
AcDbEntity
  8
OBJ
 62
     0
100
AcDbMText
 10
0.5390624999999999
 20
0.3222669349429915
 30
0.0
 40
0.25
 41
0.0
 71
     2
 72
     1
  1
HH66
  7
SLDTEXTSTYLE0
 73
     1
 44
1.0
1001
ACAD
1000
MTEXTBEGIN
1070
    73
1070
     1
1070
    44
1040
1.0
1070
    74
1070
     0
1000
MTEXTEND
  0
MTEXT
  5
210
330
20B
100
AcDbEntity
  8
OBJ
 62
     0
100
AcDbMText
 10
0.5328414295396703
 20
-0.011066394361944
 30
0.0
 40
0.25
 41
0.0
 71
     2
 72
     1
  1
&
  7
SLDTEXTSTYLE0
 73
     1
 44
1.0
1001
ACAD
1000
MTEXTBEGIN
1070
    73
1070
     1
1070
    44
1040
1.0
1070
    74
1070
     0
1000
MTEXTEND
  0
MTEXT
  5
211
330
20B
100
AcDbEntity
  8
OBJ
 62
     0
100
AcDbMText
 10
0.5378761808351266
 20
-0.3443997236668797
 30
0.0
 40
0.25
 41
0.0
 71
     2
 72
     1
  1
SPT24
  7
SLDTEXTSTYLE0
 73
     1
 44
1.0
1001
ACAD
1000
MTEXTBEGIN
1070
    73
1070
     1
1070
    44
1040
1.0
1070
    74
1070
     0
1000
MTEXTEND
  0
ENDBLK
  5
20D
330
20B
100
AcDbEntity
  8
0
100
AcDbBlockEnd
  0
ENDSEC
  0
SECTION
  2
ENTITIES
  0
LINE
  5
75
330
1F
100
AcDbEntity
  8
0
  6
Continuous
 62
     7
370
    15
100
AcDbLine
 10
5.136323967019383
 20
7.200293244834266
 30
0.0
 11
5.131401160030405
 21
7.198974370435711
 31
0.0
  0
LINE
  5
76
330
1F
100
AcDbEntity
  8
0
  6
Continuous
 62
     7
370
    15
100
AcDbLine
 10
5.147575202001067
 20
7.138603430685437
 30
0.0
 11
5.154601785995946
 21
7.140485930194534
 31
0.0
  0
LINE
  5
77
330
1F
100
AcDbEntity
  8
0
  6
Continuous
 62
     7
370
    15
100
AcDbLine
 10
3.227135657815702
 20
6.688800596704355
 30
0.0
 11
3.222212850826724
 21
6.687481722305802
 31
0.0
  0
LINE
  5
78
330
1F
100
AcDbEntity
  8
0
  6
Continuous
 62
     7
370
    15
100
AcDbLine
 10
3.238386892797386
 20
6.627110782555528
 30
0.0
 11
3.245413476792265
 21
6.628993282064625
 31
0.0
  0
LINE
  5
79
330
1F
100
AcDbEntity
  8
0
  6
Continuous
 62
     7
370
    15
100
AcDbLine
 10
5.468428516103054
 20
7.086864356688852
 30
0.0
 11
5.468428516103054
 21
7.263367233517406
 31
0.0
  0
SPLINE
  5
7A
330
1F
100
AcDbEntity
  8
0
  6
Continuous
 62
     7
370
    15
100
AcDbSpline
210
0.0
220
0.0
230
1.0
 70
     8
 71
     3
 72
    21
 73
    17
 74
     0
 42
0.0000000001
 43
0.0000000001
 40
0.0
 40
0.0
 40
0.0
 40
0.0
 40
0.024987165489505
 40
0.1020199971193899
 40
0.1788913186769411
 40
0.2555575114221906
 40
0.3320487373471339
 40
0.4084020465430693
 40
0.4846542041357714
 40
0.5608376282591311
 40
0.6369786781862292
 40
0.7130974442198671
 40
0.7892083384545437
 40
0.865318260064326
 40
0.9414342116063133
 40
0.9999999999999998
 40
0.9999999999999998
 40
0.9999999999999998
 40
0.9999999999999998
 10
5.60586865032893
 20
6.754444140939198
 30
0.0
 10
5.603775315682279
 20
6.755946859420995
 30
0.0
 10
5.595228448102962
 20
6.76208230264478
 30
0.0
 10
5.580938491681349
 20
6.774410933897287
 30
0.0
 10
5.563523957688239
 20
6.792219821965649
 30
0.0
 10
5.547367692434828
 20
6.812099229959494
 30
0.0
 10
5.532520977539679
 20
6.833864390679491
 30
0.0
 10
5.519065585561443
 20
6.857424756529263
 30
0.0
 10
5.507066640281933
 20
6.882656241541624
 30
0.0
 10
5.496586724137276
 20
6.909433526048256
 30
0.0
 10
5.487680494477284
 20
6.937620787382142
 30
0.0
 10
5.480399251622269
 20
6.967075372834584
 30
0.0
 10
5.47477397704826
 20
6.997643055812492
 30
0.0
 10
5.470874393076104
 20
7.029175402669206
 30
0.0
 10
5.468761281092884
 20
7.05898762712461
 30
0.0
 10
5.468529364192278
 20
7.078416007264249
 30
0.0
 10
5.468428516103054
 20
7.086864356688852
 30
0.0
  0
LINE
  5
7B
330
1F
100
AcDbEntity
  8
0
  6
Continuous
 62
     7
370
    15
100
AcDbLine
 10
3.559240206899374
 20
6.575371708558944
 30
0.0
 11
3.559240206899374
 21
6.751874585387498
 31
0.0
  0
SPLINE
  5
7C
330
1F
100
AcDbEntity
  8
0
  6
Continuous
 62
     7
370
    15
100
AcDbSpline
210
0.0
220
0.0
230
1.0
 70
     8
 71
     3
 72
    21
 73
    17
 74
     0
 42
0.0000000001
 43
0.0000000001
 40
0.0
 40
0.0
 40
0.0
 40
0.0
 40
0.0249871654895046
 40
0.1020199971193889
 40
0.1788913186769411
 40
0.2555575114221899
 40
0.3320487373471341
 40
0.4084020465430688
 40
0.4846542041357709
 40
0.5608376282591313
 40
0.636978678186229
 40
0.713097444219867
 40
0.7892083384545437
 40
0.8653182600643257
 40
0.9414342116063131
 40
0.9999999999999998
 40
0.9999999999999998
 40
0.9999999999999998
 40
0.9999999999999998
 10
3.69668034112525
 20
6.24295149280929
 30
0.0
 10
3.694587006478598
 20
6.244454211291087
 30
0.0
 10
3.686040138899281
 20
6.250589654514873
 30
0.0
 10
3.671750182477667
 20
6.262918285767379
 30
0.0
 10
3.654335648484559
 20
6.280727173835741
 30
0.0
 10
3.638179383231148
 20
6.300606581829585
 30
0.0
 10
3.623332668335997
 20
6.322371742549584
 30
0.0
 10
3.609877276357761
 20
6.345932108399354
 30
0.0
 10
3.597878331078252
 20
6.371163593411718
 30
0.0
 10
3.587398414933596
 20
6.397940877918347
 30
0.0
 10
3.578492185273602
 20
6.426128139252234
 30
0.0
 10
3.571210942418589
 20
6.455582724704676
 30
0.0
 10
3.56558566784458
 20
6.486150407682585
 30
0.0
 10
3.561686083872423
 20
6.517682754539297
 30
0.0
 10
3.559572971889203
 20
6.547494978994703
 30
0.0
 10
3.559341054988597
 20
6.56692335913434
 30
0.0
 10
3.559240206899374
 20
6.575371708558944
 30
0.0
  0
LINE
  5
7D
330
1F
100
AcDbEntity
  8
0
  6
Continuous
 62
     7
370
    15
100
AcDbLine
 10
6.148813006991133
 20
5.375113036881595
 30
0.0
 11
6.156237628193593
 21
5.373123898805534
 31
0.0
  0
LINE
  5
7E
330
1F
100
AcDbEntity
  8
0
  6
Continuous
 62
     7
370
    15
100
AcDbLine
 10
6.17313626724454
 20
5.436199456656621
 30
0.0
 11
6.165711646042082
 21
5.438188594732682
 31
0.0
  0
LINE
  5
7F
330
1F
100
AcDbEntity
  8
0
  6
Continuous
 62
     7
370
    15
100
AcDbLine
 10
6.449333388995418
 20
5.600142316153302
 30
0.0
 11
6.456758010197876
 21
5.598153178077241
 31
0.0
  0
LINE
  5
80
330
1F
100
AcDbEntity
  8
0
  6
Continuous
 62
     7
370
    15
100
AcDbLine
 10
6.473656649248826
 20
5.661228735928328
 30
0.0
 11
6.466232028046366
 21
5.663217874004389
 31
0.0
  0
LINE
  5
81
330
1F
100
AcDbEntity
  8
0
  6
Continuous
 62
     7
370
    15
100
AcDbLine
 10
6.272556693698779
 20
5.516652748865498
 30
0.0
 11
6.279981314901239
 21
5.514663610789436
 31
0.0
  0
LINE
  5
82
330
1F
100
AcDbEntity
  8
0
  6
Continuous
 62
     7
370
    15
100
AcDbLine
 10
6.296879953952187
 20
5.577739168640523
 30
0.0
 11
6.289455332749729
 21
5.579728306716583
 31
0.0
  0
LINE
  5
83
330
1F
100
AcDbEntity
  8
0
  6
Continuous
 62
     7
370
    15
100
AcDbLine
 10
5.935196048394669
 20
4.967756365695512
 30
0.0
 11
5.927771427192211
 21
4.965767227619452
 31
0.0
  0
LINE
  5
84
330
1F
100
AcDbEntity
  8
0
  6
Continuous
 62
     7
370
    15
100
AcDbLine
 10
5.944670066243159
 20
4.902691669768365
 30
0.0
 11
5.952094687445618
 21
4.904680807844425
 31
0.0
  0
LINE
  5
85
330
1F
100
AcDbEntity
  8
0
  6
Continuous
 62
     7
370
    15
100
AcDbLine
 10
6.573077075703062
 20
5.524907206704755
 30
0.0
 11
6.580501696905522
 21
5.522918068628694
 31
0.0
  0
LINE
  5
86
330
1F
100
AcDbEntity
  8
0
  6
Continuous
 62
     7
370
    15
100
AcDbLine
 10
6.59740033595647
 20
5.585993626479781
 30
0.0
 11
6.589975714754012
 21
5.587982764555841
 31
0.0
  0
LINE
  5
87
330
1F
100
AcDbEntity
  8
0
  6
Continuous
 62
     7
370
    15
100
AcDbLine
 10
6.573077075703061
 20
5.284046294002033
 30
0.0
 11
6.580501696905519
 21
5.282057155925973
 31
0.0
  0
LINE
  5
88
330
1F
100
AcDbEntity
  8
0
  6
Continuous
 62
     7
370
    15
100
AcDbLine
 10
6.597400335956468
 20
5.345132713777059
 30
0.0
 11
6.589975714754008
 21
5.347121851853119
 31
0.0
  0
LINE
  5
89
330
1F
100
AcDbEntity
  8
0
  6
Continuous
 62
     7
370
    15
100
AcDbLine
 10
3.392263286552563
 20
6.386955404208654
 30
0.0
 11
3.399687907755021
 21
6.384966266132594
 31
0.0
  0
LINE
  5
8A
330
1F
100
AcDbEntity
  8
0
  6
Continuous
 62
     7
370
    15
100
AcDbLine
 10
3.41658654680597
 20
6.44804182398368
 30
0.0
 11
3.409161925603511
 21
6.450030962059742
 31
0.0
  0
LINE
  5
8B
330
1F
100
AcDbEntity
  8
0
  6
Continuous
 62
     7
370
    15
100
AcDbLine
 10
3.383424451787733
 20
6.553190021581439
 30
0.0
 11
3.390849072990191
 21
6.551200883505379
 31
0.0
  0
LINE
  5
8C
330
1F
100
AcDbEntity
  8
0
  6
Continuous
 62
     7
370
    15
100
AcDbLine
 10
3.40774771204114
 20
6.614276441356466
 30
0.0
 11
3.400323090838681
 21
6.616265579432526
 31
0.0
  0
LINE
  5
8D
330
1F
100
AcDbEntity
  8
0
  6
Continuous
 62
     7
370
    15
100
AcDbLine
 10
3.480651634200882
 20
6.482893893210669
 30
0.0
 11
3.488076255403341
 21
6.480904755134608
 31
0.0
  0
LINE
  5
8E
330
1F
100
AcDbEntity
  8
0
  6
Continuous
 62
     7
370
    15
100
AcDbLine
 10
3.50497489445429
 20
6.543980312985695
 30
0.0
 11
3.497550273251831
 21
6.545969451061756
 31
0.0
  0
LINE
  5
8F
330
1F
100
AcDbEntity
  8
0
  6
Continuous
 62
     7
370
    15
100
AcDbLine
 10
3.639821370645967
 20
5.793320050110706
 30
0.0
 11
3.647245991848426
 21
5.791330912034645
 31
0.0
  0
LINE
  5
90
330
1F
100
AcDbEntity
  8
0
  6
Continuous
 62
     7
370
    15
100
AcDbLine
 10
3.664144630899375
 20
5.854406469885732
 30
0.0
 11
3.656720009696917
 21
5.856395607961792
 31
0.0
  0
LINE
  5
91
330
1F
100
AcDbEntity
  8
0
  6
Continuous
 62
     7
370
    15
100
AcDbLine
 10
6.288749438987943
 20
4.873035504930716
 30
0.0
 11
6.281324817785483
 21
4.871046366854655
 31
0.0
  0
LINE
  5
92
330
1F
100
AcDbEntity
  8
0
  6
Continuous
 62
     7
370
    15
100
AcDbLine
 10
6.298223456836432
 20
4.807970809003569
 30
0.0
 11
6.30564807803889
 21
4.809959947079629
 31
0.0
  0
LINE
  5
93
330
1F
100
AcDbEntity
  8
0
  6
Continuous
 62
     7
370
    15
100
AcDbLine
 10
3.374656327701012
 20
5.948688662477668
 30
0.0
 11
3.382080948903471
 21
5.946699524401608
 31
0.0
  0
LINE
  5
94
330
1F
100
AcDbEntity
  8
0
  6
Continuous
 62
     7
370
    15
100
AcDbLine
 10
3.39897958795442
 20
6.009775082252694
 30
0.0
 11
3.391554966751962
 21
6.011764220328754
 31
0.0
  0
LINE
  5
95
330
1F
100
AcDbEntity
  8
0
  6
Continuous
 62
     7
370
    15
100
AcDbLine
 10
3.516077683938322
 20
5.697543911540323
 30
0.0
 11
3.523502305140781
 21
5.695554773464261
 31
0.0
  0
LINE
  5
96
330
1F
100
AcDbEntity
  8
0
  6
Continuous
 62
     7
370
    15
100
AcDbLine
 10
3.54040094419173
 20
5.758630331315348
 30
0.0
 11
3.532976322989271
 21
5.760619469391409
 31
0.0
  0
LINE
  5
97
330
1F
100
AcDbEntity
  8
0
  6
Continuous
 62
     7
370
    15
100
AcDbLine
 10
3.498400014408665
 20
6.656251519312966
 30
0.0
 11
3.505824635611123
 21
6.654262381236907
 31
0.0
  0
LINE
  5
98
330
1F
100
AcDbEntity
  8
0
  6
Continuous
 62
     7
370
    15
100
AcDbLine
 10
3.522723274662073
 20
6.717337939087991
 30
0.0
 11
3.515298653459614
 21
6.719327077164053
 31
0.0
  0
LINE
  5
99
330
1F
100
AcDbEntity
  8
0
  6
Continuous
 62
     7
370
    15
100
AcDbLine
 10
3.639821370645969
 20
6.019729308051265
 30
0.0
 11
3.647245991848428
 21
6.017740169975204
 31
0.0
  0
LINE
  5
9A
330
1F
100
AcDbEntity
  8
0
  6
Continuous
 62
     7
370
    15
100
AcDbLine
 10
3.664144630899377
 20
6.08081572782629
 30
0.0
 11
3.656720009696918
 21
6.082804865902351
 31
0.0
  0
LINE
  5
9B
330
1F
100
AcDbEntity
  8
0
  6
Continuous
 62
     7
370
    15
100
AcDbLine
 10
3.383495162465844
 20
5.724647426056231
 30
0.0
 11
3.390919783668302
 21
5.722658287980169
 31
0.0
  0
LINE
  5
9C
330
1F
100
AcDbEntity
  8
0
  6
Continuous
 62
     7
370
    15
100
AcDbLine
 10
3.407818422719251
 20
5.785733845831256
 30
0.0
 11
3.400393801516792
 21
5.787722983907316
 31
0.0
  0
LINE
  5
9D
330
1F
100
AcDbEntity
  8
0
  6
Continuous
 62
     7
370
    15
100
AcDbLine
 10
5.425265993142002
 20
6.209036559670206
 30
0.0
 11
5.432690614344462
 21
6.207047421594145
 31
0.0
  0
LINE
  5
9E
330
1F
100
AcDbEntity
  8
0
  6
Continuous
 62
     7
370
    15
100
AcDbLine
 10
5.44958925339541
 20
6.270122979445232
 30
0.0
 11
5.442164632192952
 21
6.272112117521292
 31
0.0
  0
LINE
  5
9F
330
1F
100
AcDbEntity
  8
0
  6
Continuous
 62
     7
370
    15
100
AcDbLine
 10
5.292612760991414
 20
7.064682669711325
 30
0.0
 11
5.300037382193873
 21
7.062693531635264
 31
0.0
  0
LINE
  5
A0
330
1F
100
AcDbEntity
  8
0
  6
Continuous
 62
     7
370
    15
100
AcDbLine
 10
5.316936021244821
 20
7.12576908948635
 30
0.0
 11
5.309511400042363
 21
7.127758227562411
 31
0.0
  0
LINE
  5
A1
330
1F
100
AcDbEntity
  8
0
  6
Continuous
 62
     7
370
    15
100
AcDbLine
 10
5.292683471669525
 20
6.236140074186116
 30
0.0
 11
5.300108092871984
 21
6.234150936110055
 31
0.0
  0
LINE
  5
A2
330
1F
100
AcDbEntity
  8
0
  6
Continuous
 62
     7
370
    15
100
AcDbLine
 10
5.317006731922933
 20
6.297226493961142
 30
0.0
 11
5.309582110720474
 21
6.299215632037202
 31
0.0
  0
LINE
  5
A3
330
1F
100
AcDbEntity
  8
0
  6
Continuous
 62
     7
370
    15
100
AcDbLine
 10
5.407588323612348
 20
7.167744167442853
 30
0.0
 11
5.415012944814807
 21
7.165755029366792
 31
0.0
  0
LINE
  5
A4
330
1F
100
AcDbEntity
  8
0
  6
Continuous
 62
     7
370
    15
100
AcDbLine
 10
5.431911583865756
 20
7.228830587217878
 30
0.0
 11
5.424486962663296
 21
7.230819725293938
 31
0.0
  0
LINE
  5
A5
330
1F
100
AcDbEntity
  8
0
  6
Continuous
 62
     7
370
    15
100
AcDbLine
 10
5.549009679849651
 20
6.531221956181149
 30
0.0
 11
5.55643430105211
 21
6.529232818105088
 31
0.0
  0
LINE
  5
A6
330
1F
100
AcDbEntity
  8
0
  6
Continuous
 62
     7
370
    15
100
AcDbLine
 10
5.573332940103059
 20
6.592308375956174
 30
0.0
 11
5.565908318900599
 21
6.594297514032235
 31
0.0
  0
LINE
  5
A7
330
1F
100
AcDbEntity
  8
0
  6
Continuous
 62
     7
370
    15
100
AcDbLine
 10
5.151262115432215
 20
6.135627892577492
 30
0.0
 11
5.158686736634674
 21
6.13363875450143
 31
0.0
  0
LINE
  5
A8
330
1F
100
AcDbEntity
  8
0
  6
Continuous
 62
     7
370
    15
100
AcDbLine
 10
5.175585375685622
 20
6.196714312352517
 30
0.0
 11
5.168160754483164
 21
6.198703450428578
 31
0.0
  0
LINE
  5
A9
330
1F
100
AcDbEntity
  8
0
  6
Continuous
 62
     7
370
    15
100
AcDbLine
 10
5.301451595756245
 20
6.898448052338539
 30
0.0
 11
5.308876216958703
 21
6.896458914262479
 31
0.0
  0
LINE
  5
AA
330
1F
100
AcDbEntity
  8
0
  6
Continuous
 62
     7
370
    15
100
AcDbLine
 10
5.325774856009652
 20
6.959534472113565
 30
0.0
 11
5.318350234807192
 21
6.961523610189626
 31
0.0
  0
LINE
  5
AB
330
1F
100
AcDbEntity
  8
0
  6
Continuous
 62
     7
370
    15
100
AcDbLine
 10
5.389839943404564
 20
6.994386541340555
 30
0.0
 11
5.397264564607023
 21
6.992397403264494
 31
0.0
  0
LINE
  5
AC
330
1F
100
AcDbEntity
  8
0
  6
Continuous
 62
     7
370
    15
100
AcDbLine
 10
5.414163203657971
 20
7.055472961115579
 30
0.0
 11
5.406738582455513
 21
7.057462099191641
 31
0.0
  0
LINE
  5
AD
330
1F
100
AcDbEntity
  8
0
  6
Continuous
 62
     7
370
    15
100
AcDbLine
 10
5.283844636904696
 20
6.460181310607555
 30
0.0
 11
5.291269258107154
 21
6.458192172531494
 31
0.0
  0
LINE
  5
AE
330
1F
100
AcDbEntity
  8
0
  6
Continuous
 62
     7
370
    15
100
AcDbLine
 10
5.308167897158103
 20
6.52126773038258
 30
0.0
 11
5.300743275955644
 21
6.52325686845864
 31
0.0
  0
LINE
  5
AF
330
1F
100
AcDbEntity
  8
0
  6
Continuous
 62
     7
370
    15
100
AcDbLine
 10
3.242073806228533
 20
5.624135244447606
 30
0.0
 11
3.249498427430991
 21
5.622146106371545
 31
0.0
  0
LINE
  5
B0
330
1F
100
AcDbEntity
  8
0
  6
Continuous
 62
     7
370
    15
100
AcDbLine
 10
3.266397066481941
 20
5.68522166422263
 30
0.0
 11
3.258972445279482
 21
5.687210802298692
 31
0.0
  0
LINE
  5
B1
330
1F
100
AcDbEntity
  8
0
  6
Continuous
 62
     7
370
    15
100
AcDbLine
 10
5.549009679849651
 20
6.30481269824059
 30
0.0
 11
5.556434301052108
 21
6.302823560164531
 31
0.0
  0
LINE
  5
B2
330
1F
100
AcDbEntity
  8
0
  6
Continuous
 62
     7
370
    15
100
AcDbLine
 10
5.573332940103058
 20
6.365899118015617
 30
0.0
 11
5.565908318900598
 21
6.367888256091677
 31
0.0
  0
LINE
  5
B3
330
1F
100
AcDbEntity
  8
0
  6
Continuous
 62
     7
370
    15
100
AcDbLine
 10
6.09294180935854
 20
5.011570351662038
 30
0.0
 11
6.363212832662825
 21
5.083978945804513
 31
0.0
  0
LWPOLYLINE
  5
B4
330
1F
100
AcDbEntity
  8
0
  6
Continuous
 62
     7
370
    15
100
AcDbPolyline
 90
       12
 70
   128
 43
0.0
 10
5.131401160030405
 20
7.198974370435711
 10
5.135778160829215
 20
7.199463082068883
 10
5.142363759761821
 20
7.19787009331979
 10
5.148693850903569
 20
7.193693112973328
 10
5.154205977877366
 20
7.187303284063657
 10
5.158410364012021
 20
7.179268370930704
 10
5.160933431148821
 20
7.170302310866965
 10
5.161550993700369
 20
7.161201777656013
 10
5.160208178523827
 20
7.152775393610671
 10
5.15702430064048
 20
7.145771879931946
 10
5.152282261572481
 20
7.140813529544606
 10
5.147575202001067
 20
7.138603430685437
  0
LWPOLYLINE
  5
B5
330
1F
100
AcDbEntity
  8
0
  6
Continuous
 62
     7
370
    15
100
AcDbPolyline
 90
       21
 70
   128
 43
0.0
 10
5.119022550211585
 20
7.162729340216635
 10
5.122521504349562
 20
7.154019184278522
 10
5.127612058474968
 20
7.146736247201137
 10
5.133795913682027
 20
7.141593433608825
 10
5.140467751137625
 20
7.139094157928088
 10
5.146974484906181
 20
7.139483066676036
 10
5.152679190551347
 20
7.14272209075473
 10
5.157023451737556
 20
7.148494171919744
 10
5.159582021911652
 20
7.15623429865019
 10
5.16010445039839
 20
7.165184813413058
 10
5.158539598257512
 20
7.174469577461454
 10
5.155040644119535
 20
7.183179733399569
 10
5.149950089994131
 20
7.190462670476953
 10
5.14376623478707
 20
7.195605484069265
 10
5.137094397331472
 20
7.198104759750002
 10
5.130587663562918
 20
7.197715851002054
 10
5.12488295791775
 20
7.194476826923358
 10
5.120538696731542
 20
7.188704745758345
 10
5.117980126557446
 20
7.180964619027899
 10
5.117457698070709
 20
7.172014104265032
 10
5.119022550211585
 20
7.162729340216635
  0
LWPOLYLINE
  5
B6
330
1F
100
AcDbEntity
  8
0
  6
Continuous
 62
     7
370
    15
100
AcDbPolyline
 90
        9
 70
   128
 43
0.0
 10
5.154999823203525
 20
7.140592568761499
 10
5.159706882774939
 20
7.142802667620667
 10
5.164448921842938
 20
7.147761018008008
 10
5.167632799726285
 20
7.154764531686732
 10
5.168975614902826
 20
7.163190915732075
 10
5.168358052351281
 20
7.172291448943027
 10
5.165834985214479
 20
7.181257509006765
 10
5.161630599079824
 20
7.189292422139717
 10
5.159613906535748
 20
7.192012438655344
  0
LWPOLYLINE
  5
B7
330
1F
100
AcDbEntity
  8
0
  6
Continuous
 62
     7
370
    15
100
AcDbPolyline
 90
       12
 70
   128
 43
0.0
 10
3.222212850826724
 20
6.687481722305802
 10
3.226589851625532
 20
6.687970433938974
 10
3.233175450558141
 20
6.686377445189881
 10
3.239505541699888
 20
6.682200464843419
 10
3.245017668673686
 20
6.675810635933748
 10
3.24922205480834
 20
6.667775722800795
 10
3.251745121945141
 20
6.658809662737056
 10
3.252362684496688
 20
6.649709129526105
 10
3.251019869320146
 20
6.641282745480763
 10
3.247835991436799
 20
6.634279231802038
 10
3.2430939523688
 20
6.629320881414697
 10
3.238386892797386
 20
6.627110782555528
  0
LWPOLYLINE
  5
B8
330
1F
100
AcDbEntity
  8
0
  6
Continuous
 62
     7
370
    15
100
AcDbPolyline
 90
       21
 70
   128
 43
0.0
 10
3.209834241007905
 20
6.651236692086727
 10
3.213333195145882
 20
6.642526536148612
 10
3.218423749271286
 20
6.635243599071229
 10
3.224607604478347
 20
6.630100785478917
 10
3.231279441933944
 20
6.627601509798179
 10
3.237786175702499
 20
6.627990418546127
 10
3.243490881347666
 20
6.631229442624822
 10
3.247835142533875
 20
6.637001523789836
 10
3.250393712707972
 20
6.644741650520281
 10
3.250916141194708
 20
6.653692165283149
 10
3.249351289053831
 20
6.662976929331545
 10
3.245852334915854
 20
6.67168708526966
 10
3.24076178079045
 20
6.678970022347042
 10
3.23457792558339
 20
6.684112835939356
 10
3.227906088127792
 20
6.686612111620093
 10
3.221399354359237
 20
6.686223202872145
 10
3.21569464871407
 20
6.682984178793448
 10
3.211350387527861
 20
6.677212097628436
 10
3.208791817353765
 20
6.669471970897991
 10
3.208269388867027
 20
6.660521456135123
 10
3.209834241007905
 20
6.651236692086727
  0
LWPOLYLINE
  5
B9
330
1F
100
AcDbEntity
  8
0
  6
Continuous
 62
     7
370
    15
100
AcDbPolyline
 90
        9
 70
   128
 43
0.0
 10
3.245811513999845
 20
6.629099920631588
 10
3.250518573571258
 20
6.631310019490758
 10
3.255260612639258
 20
6.636268369878099
 10
3.258444490522605
 20
6.643271883556824
 10
3.259787305699146
 20
6.651698267602166
 10
3.2591697431476
 20
6.660798800813118
 10
3.256646676010798
 20
6.669764860876856
 10
3.252442289876144
 20
6.677799774009809
 10
3.250425597332063
 20
6.68051979052544
  0
LINE
  5
BA
330
1F
100
AcDbEntity
  8
0
  6
Continuous
 62
     7
370
    15
100
AcDbLine
 10
5.609784901182909
 20
6.721673853564558
 30
0.0
 11
5.618623735947741
 21
6.724041875083678
 31
0.0
  0
LINE
  5
BB
330
1F
100
AcDbEntity
  8
0
  6
Continuous
 62
     7
370
    15
100
AcDbLine
 10
5.618623735947741
 20
6.724041875083678
 30
0.0
 11
5.618623735947741
 21
6.218233958407964
 31
0.0
  0
LINE
  5
BC
330
1F
100
AcDbEntity
  8
0
  6
Continuous
 62
     7
370
    15
100
AcDbLine
 10
5.618623735947741
 20
6.218233958407964
 30
0.0
 11
5.105971319587493
 21
6.080888710299007
 31
0.0
  0
LINE
  5
BD
330
1F
100
AcDbEntity
  8
0
  6
Continuous
 62
     7
370
    15
100
AcDbLine
 10
5.105971319587493
 20
6.080888710299007
 30
0.0
 11
5.105971319587493
 21
6.586696626974722
 31
0.0
  0
LINE
  5
BE
330
1F
100
AcDbEntity
  8
0
  6
Continuous
 62
     7
370
    15
100
AcDbLine
 10
5.105971319587493
 20
6.586696626974722
 30
0.0
 11
5.114810154352325
 21
6.589064648493842
 31
0.0
  0
LINE
  5
BF
330
1F
100
AcDbEntity
  8
0
  6
Continuous
 62
     7
370
    15
100
AcDbLine
 10
5.114810154352325
 20
6.589064648493842
 30
0.0
 11
5.114810154352325
 21
6.606627145496813
 31
0.0
  0
ARC
  5
C0
330
1F
100
AcDbEntity
  8
0
  6
Continuous
 62
     7
370
    15
100
AcDbCircle
 10
4.572308504473699
 20
7.029447967929239
 30
0.0
 40
0.6878121022513812
100
AcDbArc
 50
322.067475163635
 51
0.009185489532322
  0
LINE
  5
C1
330
1F
100
AcDbEntity
  8
0
  6
Continuous
 62
     7
370
    15
100
AcDbLine
 10
5.260120597886161
 20
7.206061112754705
 30
0.0
 11
5.260120597886161
 21
7.02955823592615
 31
0.0
  0
LINE
  5
C2
330
1F
100
AcDbEntity
  8
0
  6
Continuous
 62
     7
370
    15
100
AcDbLine
 10
5.260120597886161
 20
7.206061112754705
 30
0.0
 11
5.464474457649074
 21
7.260809770276756
 31
0.0
  0
LINE
  5
C3
330
1F
100
AcDbEntity
  8
0
  6
Continuous
 62
     7
370
    15
100
AcDbLine
 10
5.464474457649074
 20
7.084306893448202
 30
0.0
 11
5.464474457649074
 21
7.260809770276756
 31
0.0
  0
LWPOLYLINE
  5
C4
330
1F
100
AcDbEntity
  8
0
  6
Continuous
 62
     7
370
    15
100
AcDbPolyline
 90
       13
 70
   128
 43
0.0
 10
5.609784901182909
 20
6.739236350567528
 10
5.58807885003137
 20
6.756297568852669
 10
5.567771805141342
 20
6.776005651875969
 10
5.54899153064299
 20
6.798236603945377
 10
5.531856184813331
 20
6.822850556445386
 10
5.516473576669715
 20
6.849692647836659
 10
5.502940487676892
 20
6.878593997985384
 10
5.491342062835174
 20
6.909372770692239
 10
5.481751274980799
 20
6.941835317735945
 10
5.474228465668846
 20
6.975777397233533
 10
5.46882096552735
 20
7.010985458651854
 10
5.46556279647115
 20
7.047237986385551
 10
5.464474457649074
 20
7.084306893448202
  0
LINE
  5
C5
330
1F
100
AcDbEntity
  8
0
  6
Continuous
 62
     7
370
    15
100
AcDbLine
 10
5.609784901182909
 20
6.739236350567528
 30
0.0
 11
5.609784901182909
 21
6.721673853564558
 31
0.0
  0
ARC
  5
C6
330
1F
100
AcDbEntity
  8
0
  6
Continuous
 62
     7
370
    15
100
AcDbCircle
 10
5.092907445204692
 20
6.593647917890909
 30
0.0
 40
0.0288652166841018
100
AcDbArc
 50
43.10501631701063
 51
71.7520151801396
  0
ARC
  5
C7
330
1F
100
AcDbEntity
  8
0
  6
Continuous
 62
     7
370
    15
100
AcDbCircle
 10
4.571378601801451
 20
7.029631564092117
 30
0.0
 40
0.669650117007471
100
AcDbArc
 50
322.4014819755541
 51
359.9937259856595
  0
ARC
  5
C8
330
1F
100
AcDbEntity
  8
0
  6
Continuous
 62
     7
370
    15
100
AcDbCircle
 10
5.250574656340143
 20
7.07085220682543
 30
0.0
 40
0.0423829804595025
100
AcDbArc
 50
256.9835649313879
 51
283.0164350686126
  0
LINE
  5
C9
330
1F
100
AcDbEntity
  8
0
  6
Continuous
 62
     7
370
    15
100
AcDbLine
 10
5.114810154352325
 20
6.606627145496813
 30
0.0
 11
5.113982010693388
 21
6.613372608602877
 31
0.0
  0
ARC
  5
CA
330
1F
100
AcDbEntity
  8
0
  6
Continuous
 62
     7
370
    15
100
AcDbCircle
 10
4.494072552953178
 20
7.049237072392904
 30
0.0
 40
0.684737371933907
100
AcDbArc
 50
332.5758101745324
 51
359.7483060525224
  0
LINE
  5
CB
330
1F
100
AcDbEntity
  8
0
  6
Continuous
 62
     7
370
    15
100
AcDbLine
 10
5.241028714794124
 20
7.02955823592615
 30
0.0
 11
5.178803318049708
 21
7.046229107420755
 31
0.0
  0
LINE
  5
CC
330
1F
100
AcDbEntity
  8
0
  6
Continuous
 62
     7
370
    15
100
AcDbLine
 10
5.101946022164229
 20
6.621061506870951
 30
0.0
 11
5.099656907303157
 21
6.621674786041224
 31
0.0
  0
SPLINE
  5
CD
330
1F
100
AcDbEntity
  8
0
  6
Continuous
 62
     7
370
    15
100
AcDbSpline
210
0.0
220
0.0
230
1.0
 70
     8
 71
     3
 72
     9
 73
     5
 74
     0
 42
0.0000000001
 43
0.0000000001
 40
0.0
 40
0.0
 40
0.0
 40
0.0
 40
0.4967562051779651
 40
1.0
 40
1.0
 40
1.0
 40
1.0
 10
5.099656907303157
 20
6.621674786041223
 30
0.0
 10
5.100114711571552
 20
6.638870805889947
 30
0.0
 10
5.101036298989329
 20
6.673487424000561
 30
0.0
 10
5.101584136864762
 20
6.71365191782086
 30
0.0
 10
5.101859832876143
 20
6.733864450108095
 30
0.0
  0
ARC
  5
CE
330
1F
100
AcDbEntity
  8
0
  6
Continuous
 62
     7
370
    15
100
AcDbCircle
 10
5.250574656340143
 20
7.247355083653988
 30
0.0
 40
0.042382980459506
100
AcDbArc
 50
256.983564931389
 51
283.0164350686115
  0
LINE
  5
CF
330
1F
100
AcDbEntity
  8
0
  6
Continuous
 62
     7
370
    15
100
AcDbLine
 10
5.241028714794124
 20
7.206061112754705
 30
0.0
 11
5.178803318049708
 21
7.22273198424931
 31
0.0
  0
ARC
  5
D0
330
1F
100
AcDbEntity
  8
0
  6
Continuous
 62
     7
370
    15
100
AcDbCircle
 10
4.999963991285195
 20
6.5349819217578
 30
0.0
 40
0.7106220185546316
100
AcDbArc
 50
75.42388677335502
 51
82.60108521741587
  0
LINE
  5
D1
330
1F
100
AcDbEntity
  8
0
  6
Continuous
 62
     7
370
    15
100
AcDbLine
 10
5.091475630573169
 20
7.239687018326207
 30
0.0
 11
5.097132484822663
 21
7.241202552098444
 31
0.0
  0
ARC
  5
D2
330
1F
100
AcDbEntity
  8
0
  6
Continuous
 62
     7
370
    15
100
AcDbCircle
 10
5.005620845534718
 20
6.53649745553027
 30
0.0
 40
0.7106220185543979
100
AcDbArc
 50
75.42388677335265
 51
82.60108521741582
  0
LINE
  5
D3
330
1F
100
AcDbEntity
  8
0
  6
Continuous
 62
     7
370
    15
100
AcDbLine
 10
5.184460172299201
 20
7.224247518021545
 30
0.0
 11
5.241028714794124
 21
7.209092180299178
 31
0.0
  0
LINE
  5
D4
330
1F
100
AcDbEntity
  8
0
  6
Continuous
 62
     7
370
    15
100
AcDbLine
 10
5.464474457649072
 20
7.265924696758055
 30
0.0
 11
5.462706690696108
 21
7.266398301061879
 31
0.0
  0
LWPOLYLINE
  5
D5
330
1F
100
AcDbEntity
  8
0
  6
Continuous
 62
     7
370
    15
100
AcDbPolyline
 90
        9
 70
   128
 43
0.0
 10
5.464474457649074
 20
7.260809770276756
 10
5.466153355869139
 20
7.261357847542967
 10
5.467400889791957
 20
7.2619831443853
 10
5.468169117388498
 20
7.262661630996772
 10
5.468428516103054
 20
7.263367233517406
 10
5.468169117388498
 20
7.26407283603804
 10
5.467400889791957
 20
7.264751322649513
 10
5.466153355869139
 20
7.265376619491845
 10
5.464474457649072
 20
7.265924696758055
  0
LINE
  5
D6
330
1F
100
AcDbEntity
  8
0
  6
Continuous
 62
     7
370
    15
100
AcDbLine
 10
5.260120597886161
 20
7.209092180299178
 30
0.0
 11
5.453160749150089
 21
7.260809770276756
 31
0.0
  0
LINE
  5
D7
330
1F
100
AcDbEntity
  8
0
  6
Continuous
 62
     7
370
    15
100
AcDbLine
 10
5.241028714794124
 20
7.02955823592615
 30
0.0
 11
5.241028714794124
 21
7.206061112754705
 31
0.0
  0
LINE
  5
D8
330
1F
100
AcDbEntity
  8
0
  6
Continuous
 62
     7
370
    15
100
AcDbLine
 10
5.178803318049708
 20
7.046229107420755
 30
0.0
 11
5.178803318049708
 21
7.22273198424931
 31
0.0
  0
ARC
  5
D9
330
1F
100
AcDbEntity
  8
0
  6
Continuous
 62
     7
370
    15
100
AcDbCircle
 10
4.999963991285182
 20
6.358479044929254
 30
0.0
 40
0.7106220185546264
100
AcDbArc
 50
75.4238867733538
 51
82.60108521741473
  0
SPLINE
  5
DA
330
1F
100
AcDbEntity
  8
0
  6
Continuous
 62
     7
370
    15
100
AcDbSpline
210
0.0
220
0.0
230
1.0
 70
     8
 71
     3
 72
    17
 73
    13
 74
     0
 42
0.0000000001
 43
0.0000000001
 40
0.0
 40
0.0
 40
0.0
 40
0.0
 40
0.0979636479443178
 40
0.195924610029659
 40
0.2966887437174788
 40
0.3974503580606897
 40
0.4954504135133141
 40
0.5934490805872558
 40
0.6944676512784288
 40
0.795485532777315
 40
0.8973282968702511
 40
1.0
 40
1.0
 40
1.0
 40
1.0
 10
5.101859832876143
 20
6.733864450108095
 30
0.0
 10
5.101891699431882
 20
6.743385132252083
 30
0.0
 10
5.101955431669677
 20
6.762426235512526
 30
0.0
 10
5.101121116613366
 20
6.792949083557535
 30
0.0
 10
5.099847327203767
 20
6.824828929959424
 30
0.0
 10
5.098254094630116
 20
6.857711001402757
 30
0.0
 10
5.096578592809555
 20
6.891017695634814
 30
0.0
 10
5.094950554402237
 20
6.924842515779238
 30
0.0
 10
5.093508480553376
 20
6.959275731780283
 30
0.0
 10
5.092374265151839
 20
6.994130022427504
 30
0.0
 10
5.09162042828227
 20
7.028956570704748
 30
0.0
 10
5.091524026721295
 20
7.051744163639049
 30
0.0
 10
5.091475630573169
 20
7.063184141497654
 30
0.0
  0
LINE
  5
DB
330
1F
100
AcDbEntity
  8
0
  6
Continuous
 62
     7
370
    15
100
AcDbLine
 10
5.109153300102833
 20
6.61466627353635
 30
0.0
 11
5.113982010693388
 21
6.613372608602877
 31
0.0
  0
ELLIPSE
  5
DC
330
1F
100
AcDbEntity
  8
0
  6
Continuous
 62
     7
370
    15
100
AcDbEllipse
 10
5.109153300102832
 20
6.88462846116569
 30
0.0
 11
0.397286094790589
 21
-0.3820007242945085
 31
0.0
210
0.0
220
0.0
230
1.0
 40
0.3753757767335483
 41
5.036285239444544
 42
5.058770619966661
  0
LINE
  5
DD
330
1F
100
AcDbEntity
  8
0
  6
Continuous
 62
     7
370
    15
100
AcDbLine
 10
5.100314465338001
 20
6.082404244071244
 30
0.0
 11
5.105971319587493
 21
6.080888710299007
 31
0.0
  0
LINE
  5
DE
330
1F
100
AcDbEntity
  8
0
  6
Continuous
 62
     7
370
    15
100
AcDbLine
 10
5.100314465338001
 20
6.588212160746959
 30
0.0
 11
5.105971319587493
 21
6.586696626974722
 31
0.0
  0
LINE
  5
DF
330
1F
100
AcDbEntity
  8
0
  6
Continuous
 62
     7
370
    15
100
AcDbLine
 10
5.100314465338001
 20
6.082404244071244
 30
0.0
 11
5.100314465338001
 21
6.588212160746959
 31
0.0
  0
LINE
  5
E0
330
1F
100
AcDbEntity
  8
0
  6
Continuous
 62
     7
370
    15
100
AcDbLine
 10
5.109153300102833
 20
6.590580182266078
 30
0.0
 11
5.114810154352325
 21
6.589064648493842
 31
0.0
  0
LINE
  5
E1
330
1F
100
AcDbEntity
  8
0
  6
Continuous
 62
     7
370
    15
100
AcDbLine
 10
5.100314465338001
 20
6.588212160746959
 30
0.0
 11
5.109153300102833
 21
6.590580182266078
 31
0.0
  0
LINE
  5
E2
330
1F
100
AcDbEntity
  8
0
  6
Continuous
 62
     7
370
    15
100
AcDbLine
 10
5.109153300102833
 20
6.590580182266078
 30
0.0
 11
5.109153300102833
 21
6.61466627353635
 31
0.0
  0
LINE
  5
E3
330
1F
100
AcDbEntity
  8
0
  6
Continuous
 62
     7
370
    15
100
AcDbLine
 10
5.091475630573169
 20
7.063184141497654
 30
0.0
 11
5.091475630573169
 21
7.239687018326207
 31
0.0
  0
ARC
  5
E4
330
1F
100
AcDbEntity
  8
0
  6
Continuous
 62
     7
370
    15
100
AcDbCircle
 10
5.600128138197934
 20
6.747477468064217
 30
0.0
 40
0.008954412390563
100
AcDbArc
 50
350.3848255605465
 51
50.4421232410824
  0
LINE
  5
E5
330
1F
100
AcDbEntity
  8
0
  6
Continuous
 62
     7
370
    15
100
AcDbLine
 10
5.608956757523971
 20
6.745981813673592
 30
0.0
 11
5.609784901182909
 21
6.739236350567528
 31
0.0
  0
LINE
  5
E6
330
1F
100
AcDbEntity
  8
0
  6
Continuous
 62
     7
370
    15
100
AcDbLine
 10
5.612966881698248
 20
6.725557408855914
 30
0.0
 11
5.618623735947741
 21
6.724041875083678
 31
0.0
  0
LINE
  5
E7
330
1F
100
AcDbEntity
  8
0
  6
Continuous
 62
     7
370
    15
100
AcDbLine
 10
5.609784901182909
 20
6.724704921109031
 30
0.0
 11
5.612966881698248
 21
6.725557408855914
 31
0.0
  0
LINE
  5
E8
330
1F
100
AcDbEntity
  8
0
  6
Continuous
 62
     7
370
    15
100
AcDbLine
 10
3.700596591979228
 20
6.210181205434651
 30
0.0
 11
3.709435426744059
 21
6.21254922695377
 31
0.0
  0
LINE
  5
E9
330
1F
100
AcDbEntity
  8
0
  6
Continuous
 62
     7
370
    15
100
AcDbLine
 10
3.709435426744059
 20
6.21254922695377
 30
0.0
 11
3.70943542674406
 21
5.706741310278055
 31
0.0
  0
LINE
  5
EA
330
1F
100
AcDbEntity
  8
0
  6
Continuous
 62
     7
370
    15
100
AcDbLine
 10
3.70943542674406
 20
5.706741310278055
 30
0.0
 11
3.196783010383813
 21
5.569396062169099
 31
0.0
  0
LINE
  5
EB
330
1F
100
AcDbEntity
  8
0
  6
Continuous
 62
     7
370
    15
100
AcDbLine
 10
3.196783010383813
 20
5.569396062169099
 30
0.0
 11
3.196783010383812
 21
6.075203978844814
 31
0.0
  0
LINE
  5
EC
330
1F
100
AcDbEntity
  8
0
  6
Continuous
 62
     7
370
    15
100
AcDbLine
 10
3.196783010383812
 20
6.075203978844814
 30
0.0
 11
3.205621845148644
 21
6.077572000363933
 31
0.0
  0
LINE
  5
ED
330
1F
100
AcDbEntity
  8
0
  6
Continuous
 62
     7
370
    15
100
AcDbLine
 10
3.205621845148644
 20
6.077572000363933
 30
0.0
 11
3.205621845148644
 21
6.095134497366904
 31
0.0
  0
ARC
  5
EE
330
1F
100
AcDbEntity
  8
0
  6
Continuous
 62
     7
370
    15
100
AcDbCircle
 10
2.663120195270006
 20
6.517955319799335
 30
0.0
 40
0.6878121022513931
100
AcDbArc
 50
322.0674751636353
 51
0.0091854895320259
  0
LINE
  5
EF
330
1F
100
AcDbEntity
  8
0
  6
Continuous
 62
     7
370
    15
100
AcDbLine
 10
3.35093228868248
 20
6.694568464624797
 30
0.0
 11
3.35093228868248
 21
6.518065587796242
 31
0.0
  0
LINE
  5
F0
330
1F
100
AcDbEntity
  8
0
  6
Continuous
 62
     7
370
    15
100
AcDbLine
 10
3.35093228868248
 20
6.694568464624797
 30
0.0
 11
3.555286148445392
 21
6.749317122146848
 31
0.0
  0
LINE
  5
F1
330
1F
100
AcDbEntity
  8
0
  6
Continuous
 62
     7
370
    15
100
AcDbLine
 10
3.555286148445392
 20
6.572814245318294
 30
0.0
 11
3.555286148445392
 21
6.749317122146848
 31
0.0
  0
LWPOLYLINE
  5
F2
330
1F
100
AcDbEntity
  8
0
  6
Continuous
 62
     7
370
    15
100
AcDbPolyline
 90
       13
 70
   128
 43
0.0
 10
3.700596591979228
 20
6.227743702437621
 10
3.678890540827688
 20
6.244804920722762
 10
3.658583495937662
 20
6.264513003746061
 10
3.63980322143931
 20
6.286743955815469
 10
3.622667875609649
 20
6.311357908315478
 10
3.607285267466034
 20
6.338199999706752
 10
3.593752178473211
 20
6.367101349855476
 10
3.582153753631493
 20
6.397880122562331
 10
3.572562965777118
 20
6.430342669606037
 10
3.565040156465166
 20
6.464284749103625
 10
3.559632656323669
 20
6.499492810521947
 10
3.556374487267469
 20
6.535745338255643
 10
3.555286148445392
 20
6.572814245318294
  0
LINE
  5
F3
330
1F
100
AcDbEntity
  8
0
  6
Continuous
 62
     7
370
    15
100
AcDbLine
 10
3.700596591979228
 20
6.227743702437621
 30
0.0
 11
3.700596591979228
 21
6.210181205434651
 31
0.0
  0
ARC
  5
F4
330
1F
100
AcDbEntity
  8
0
  6
Continuous
 62
     7
370
    15
100
AcDbCircle
 10
3.183719136001018
 20
6.08215526976102
 30
0.0
 40
0.0288652166840818
100
AcDbArc
 50
43.10501631699186
 51
71.75201518014138
  0
ARC
  5
F5
330
1F
100
AcDbEntity
  8
0
  6
Continuous
 62
     7
370
    15
100
AcDbCircle
 10
2.662190292597777
 20
6.518138915962206
 30
0.0
 40
0.6696501170074639
100
AcDbArc
 50
322.401481975554
 51
359.9937259856599
  0
ARC
  5
F6
330
1F
100
AcDbEntity
  8
0
  6
Continuous
 62
     7
370
    15
100
AcDbCircle
 10
3.341386347136461
 20
6.559359558695512
 30
0.0
 40
0.042382980459493
100
AcDbArc
 50
256.9835649313855
 51
283.0164350686167
  0
LINE
  5
F7
330
1F
100
AcDbEntity
  8
0
  6
Continuous
 62
     7
370
    15
100
AcDbLine
 10
3.205621845148644
 20
6.095134497366904
 30
0.0
 11
3.204793701489707
 21
6.101879960472968
 31
0.0
  0
ARC
  5
F8
330
1F
100
AcDbEntity
  8
0
  6
Continuous
 62
     7
370
    15
100
AcDbCircle
 10
2.584884243749494
 20
6.537744424262993
 30
0.0
 40
0.6847373719339086
100
AcDbArc
 50
332.5758101745327
 51
359.7483060525227
  0
LINE
  5
F9
330
1F
100
AcDbEntity
  8
0
  6
Continuous
 62
     7
370
    15
100
AcDbLine
 10
3.331840405590443
 20
6.518065587796242
 30
0.0
 11
3.269615008846026
 21
6.534736459290847
 31
0.0
  0
LINE
  5
FA
330
1F
100
AcDbEntity
  8
0
  6
Continuous
 62
     7
370
    15
100
AcDbLine
 10
3.192757712960548
 20
6.109568858741043
 30
0.0
 11
3.190468598099475
 21
6.110182137911317
 31
0.0
  0
SPLINE
  5
FB
330
1F
100
AcDbEntity
  8
0
  6
Continuous
 62
     7
370
    15
100
AcDbSpline
210
0.0
220
0.0
230
1.0
 70
     8
 71
     3
 72
     9
 73
     5
 74
     0
 42
0.0000000001
 43
0.0000000001
 40
0.0
 40
0.0
 40
0.0
 40
0.0
 40
0.4967562051779651
 40
1.0
 40
1.0
 40
1.0
 40
1.0
 10
3.190468598099476
 20
6.110182137911316
 30
0.0
 10
3.190926402367871
 20
6.127378157760039
 30
0.0
 10
3.191847989785648
 20
6.161994775870653
 30
0.0
 10
3.192395827661082
 20
6.202159269690953
 30
0.0
 10
3.192671523672462
 20
6.222371801978187
 30
0.0
  0
ARC
  5
FC
330
1F
100
AcDbEntity
  8
0
  6
Continuous
 62
     7
370
    15
100
AcDbCircle
 10
3.341386347136459
 20
6.735862435524103
 30
0.0
 40
0.0423829804595288
100
AcDbArc
 50
256.9835649313991
 51
283.016435068608
  0
LINE
  5
FD
330
1F
100
AcDbEntity
  8
0
  6
Continuous
 62
     7
370
    15
100
AcDbLine
 10
3.331840405590443
 20
6.694568464624796
 30
0.0
 11
3.269615008846026
 21
6.711239336119401
 31
0.0
  0
ARC
  5
FE
330
1F
100
AcDbEntity
  8
0
  6
Continuous
 62
     7
370
    15
100
AcDbCircle
 10
3.090775682081567
 20
6.023489273628207
 30
0.0
 40
0.710622018554313
100
AcDbArc
 50
75.42388677335281
 51
82.60108521741686
  0
LINE
  5
FF
330
1F
100
AcDbEntity
  8
0
  6
Continuous
 62
     7
370
    15
100
AcDbLine
 10
3.182287321369488
 20
6.728194370196299
 30
0.0
 11
3.187944175618981
 21
6.729709903968537
 31
0.0
  0
ARC
  5
100
330
1F
100
AcDbEntity
  8
0
  6
Continuous
 62
     7
370
    15
100
AcDbCircle
 10
3.096432536330889
 20
6.025004807399612
 30
0.0
 40
0.7106220185551612
100
AcDbArc
 50
75.4238867733564
 51
82.60108521741186
  0
LINE
  5
101
330
1F
100
AcDbEntity
  8
0
  6
Continuous
 62
     7
370
    15
100
AcDbLine
 10
3.27527186309552
 20
6.712754869891638
 30
0.0
 11
3.331840405590443
 21
6.69759953216927
 31
0.0
  0
LINE
  5
102
330
1F
100
AcDbEntity
  8
0
  6
Continuous
 62
     7
370
    15
100
AcDbLine
 10
3.555286148445392
 20
6.754432048628148
 30
0.0
 11
3.553518381492426
 21
6.754905652931972
 31
0.0
  0
LWPOLYLINE
  5
103
330
1F
100
AcDbEntity
  8
0
  6
Continuous
 62
     7
370
    15
100
AcDbPolyline
 90
        9
 70
   128
 43
0.0
 10
3.555286148445392
 20
6.749317122146848
 10
3.556965046665458
 20
6.74986519941306
 10
3.558212580588276
 20
6.750490496255392
 10
3.558980808184817
 20
6.751168982866864
 10
3.559240206899374
 20
6.751874585387498
 10
3.558980808184817
 20
6.752580187908132
 10
3.558212580588276
 20
6.753258674519606
 10
3.556965046665458
 20
6.753883971361937
 10
3.555286148445392
 20
6.754432048628148
  0
LINE
  5
104
330
1F
100
AcDbEntity
  8
0
  6
Continuous
 62
     7
370
    15
100
AcDbLine
 10
3.35093228868248
 20
6.69759953216927
 30
0.0
 11
3.543972439946407
 21
6.749317122146848
 31
0.0
  0
LINE
  5
105
330
1F
100
AcDbEntity
  8
0
  6
Continuous
 62
     7
370
    15
100
AcDbLine
 10
3.331840405590443
 20
6.518065587796242
 30
0.0
 11
3.331840405590443
 21
6.694568464624796
 31
0.0
  0
LINE
  5
106
330
1F
100
AcDbEntity
  8
0
  6
Continuous
 62
     7
370
    15
100
AcDbLine
 10
3.269615008846026
 20
6.534736459290847
 30
0.0
 11
3.269615008846026
 21
6.711239336119401
 31
0.0
  0
ARC
  5
107
330
1F
100
AcDbEntity
  8
0
  6
Continuous
 62
     7
370
    15
100
AcDbCircle
 10
3.090775682081508
 20
5.846986396799391
 30
0.0
 40
0.7106220185545812
100
AcDbArc
 50
75.42388677335356
 51
82.60108521741491
  0
SPLINE
  5
108
330
1F
100
AcDbEntity
  8
0
  6
Continuous
 62
     7
370
    15
100
AcDbSpline
210
0.0
220
0.0
230
1.0
 70
     8
 71
     3
 72
    17
 73
    13
 74
     0
 42
0.0000000001
 43
0.0000000001
 40
0.0
 40
0.0
 40
0.0
 40
0.0
 40
0.0979636479443171
 40
0.1959246100296589
 40
0.2966887437174784
 40
0.3974503580606898
 40
0.4954504135133136
 40
0.5934490805872557
 40
0.6944676512784286
 40
0.795485532777315
 40
0.8973282968702511
 40
1.0
 40
1.0
 40
1.0
 40
1.0
 10
3.192671523672462
 20
6.222371801978187
 30
0.0
 10
3.192703390228201
 20
6.231892484122174
 30
0.0
 10
3.192767122465995
 20
6.250933587382617
 30
0.0
 10
3.191932807409683
 20
6.281456435427627
 30
0.0
 10
3.190659018000086
 20
6.313336281829515
 30
0.0
 10
3.189065785426435
 20
6.346218353272849
 30
0.0
 10
3.187390283605872
 20
6.379525047504906
 30
0.0
 10
3.185762245198556
 20
6.413349867649331
 30
0.0
 10
3.184320171349694
 20
6.447783083650374
 30
0.0
 10
3.183185955948158
 20
6.482637374297596
 30
0.0
 10
3.18243211907859
 20
6.517463922574839
 30
0.0
 10
3.182335717517614
 20
6.540251515509139
 30
0.0
 10
3.182287321369488
 20
6.551691493367746
 30
0.0
  0
LINE
  5
109
330
1F
100
AcDbEntity
  8
0
  6
Continuous
 62
     7
370
    15
100
AcDbLine
 10
3.199964990899152
 20
6.103173625406443
 30
0.0
 11
3.204793701489706
 21
6.101879960472968
 31
0.0
  0
ELLIPSE
  5
10A
330
1F
100
AcDbEntity
  8
0
  6
Continuous
 62
     7
370
    15
100
AcDbEllipse
 10
3.199964990899151
 20
6.373135813035782
 30
0.0
 11
0.3972860947905889
 21
-0.3820007242945077
 31
0.0
210
0.0
220
0.0
230
1.0
 40
0.3753757767335504
 41
5.036285239444543
 42
5.058770619966661
  0
LINE
  5
10B
330
1F
100
AcDbEntity
  8
0
  6
Continuous
 62
     7
370
    15
100
AcDbLine
 10
3.19112615613432
 20
5.570911595941336
 30
0.0
 11
3.196783010383813
 21
5.569396062169099
 31
0.0
  0
LINE
  5
10C
330
1F
100
AcDbEntity
  8
0
  6
Continuous
 62
     7
370
    15
100
AcDbLine
 10
3.19112615613432
 20
6.076719512617051
 30
0.0
 11
3.196783010383812
 21
6.075203978844814
 31
0.0
  0
LINE
  5
10D
330
1F
100
AcDbEntity
  8
0
  6
Continuous
 62
     7
370
    15
100
AcDbLine
 10
3.19112615613432
 20
5.570911595941336
 30
0.0
 11
3.19112615613432
 21
6.076719512617051
 31
0.0
  0
LINE
  5
10E
330
1F
100
AcDbEntity
  8
0
  6
Continuous
 62
     7
370
    15
100
AcDbLine
 10
3.199964990899152
 20
6.079087534136171
 30
0.0
 11
3.205621845148644
 21
6.077572000363933
 31
0.0
  0
LINE
  5
10F
330
1F
100
AcDbEntity
  8
0
  6
Continuous
 62
     7
370
    15
100
AcDbLine
 10
3.19112615613432
 20
6.076719512617051
 30
0.0
 11
3.199964990899152
 21
6.079087534136171
 31
0.0
  0
LINE
  5
110
330
1F
100
AcDbEntity
  8
0
  6
Continuous
 62
     7
370
    15
100
AcDbLine
 10
3.199964990899152
 20
6.079087534136171
 30
0.0
 11
3.199964990899152
 21
6.103173625406443
 31
0.0
  0
LINE
  5
111
330
1F
100
AcDbEntity
  8
0
  6
Continuous
 62
     7
370
    15
100
AcDbLine
 10
3.182287321369488
 20
6.551691493367746
 30
0.0
 11
3.182287321369488
 21
6.728194370196299
 31
0.0
  0
ARC
  5
112
330
1F
100
AcDbEntity
  8
0
  6
Continuous
 62
     7
370
    15
100
AcDbCircle
 10
3.690939828994256
 20
6.235984819934308
 30
0.0
 40
0.0089544123905606
100
AcDbArc
 50
350.3848255605496
 51
50.44212324109773
  0
LINE
  5
113
330
1F
100
AcDbEntity
  8
0
  6
Continuous
 62
     7
370
    15
100
AcDbLine
 10
3.699768448320291
 20
6.234489165543684
 30
0.0
 11
3.700596591979228
 21
6.227743702437621
 31
0.0
  0
LINE
  5
114
330
1F
100
AcDbEntity
  8
0
  6
Continuous
 62
     7
370
    15
100
AcDbLine
 10
3.703778572494567
 20
6.214064760726007
 30
0.0
 11
3.709435426744059
 21
6.21254922695377
 31
0.0
  0
LINE
  5
115
330
1F
100
AcDbEntity
  8
0
  6
Continuous
 62
     7
370
    15
100
AcDbLine
 10
3.700596591979228
 20
6.213212272979124
 30
0.0
 11
3.703778572494567
 21
6.214064760726007
 31
0.0
  0
LINE
  5
116
330
1F
100
AcDbEntity
  8
0
  6
Continuous
 62
     7
370
    15
100
AcDbLine
 10
2.457502870653275
 20
7.710716663070778
 30
0.0
 11
6.594077540594585
 21
8.818950734018908
 31
0.0
  0
LINE
  5
117
330
1F
100
AcDbEntity
  8
0
  6
Continuous
 62
     7
370
    15
100
AcDbLine
 10
2.457502870653275
 20
7.710716663070778
 30
0.0
 11
2.234674599060804
 21
7.770414819698701
 31
0.0
  0
LINE
  5
118
330
1F
100
AcDbEntity
  8
0
  6
Continuous
 62
     7
370
    15
100
AcDbLine
 10
2.234674599060804
 20
7.770414819698701
 30
0.0
 11
2.103949480060001
 21
7.748605007376696
 31
0.0
  0
LINE
  5
119
330
1F
100
AcDbEntity
  8
0
  6
Continuous
 62
     7
370
    15
100
AcDbLine
 10
2.103949480060001
 20
7.786493351682616
 30
0.0
 11
1.927172784763364
 21
7.833853782065014
 31
0.0
  0
LINE
  5
11A
330
1F
100
AcDbEntity
  8
0
  6
Continuous
 62
     7
370
    15
100
AcDbLine
 10
2.457502870653275
 20
7.421683567827511
 30
0.0
 11
2.457502870653275
 21
7.710716663070778
 31
0.0
  0
LINE
  5
11B
330
1F
100
AcDbEntity
  8
0
  6
Continuous
 62
     7
370
    15
100
AcDbLine
 10
2.234674599060804
 20
7.481381724455436
 30
0.0
 11
2.234674599060804
 21
7.770414819698701
 31
0.0
  0
LINE
  5
11C
330
1F
100
AcDbEntity
  8
0
  6
Continuous
 62
     7
370
    15
100
AcDbLine
 10
2.457502870653275
 20
7.421683567827511
 30
0.0
 11
2.234674599060804
 21
7.481381724455436
 31
0.0
  0
LINE
  5
11D
330
1F
100
AcDbEntity
  8
0
  6
Continuous
 62
     7
370
    15
100
AcDbLine
 10
6.594077540594585
 20
8.818950734018908
 30
0.0
 11
6.594077540594585
 21
8.529917638775643
 31
0.0
  0
LINE
  5
11E
330
1F
100
AcDbEntity
  8
0
  6
Continuous
 62
     7
370
    15
100
AcDbLine
 10
2.457502870653275
 20
7.421683567827511
 30
0.0
 11
6.594077540594585
 21
8.529917638775643
 31
0.0
  0
LINE
  5
11F
330
1F
100
AcDbEntity
  8
0
  6
Continuous
 62
     7
370
    15
100
AcDbLine
 10
2.103949480060001
 20
7.459571912133431
 30
0.0
 11
2.103949480060001
 21
7.748605007376696
 31
0.0
  0
LINE
  5
120
330
1F
100
AcDbEntity
  8
0
  6
Continuous
 62
     7
370
    15
100
AcDbLine
 10
2.234674599060804
 20
7.481381724455436
 30
0.0
 11
2.103949480060001
 21
7.459571912133431
 31
0.0
  0
LINE
  5
121
330
1F
100
AcDbEntity
  8
0
  6
Continuous
 62
     7
370
    15
100
AcDbLine
 10
1.927172784763364
 20
7.544820686821749
 30
0.0
 11
1.927172784763364
 21
7.833853782065014
 31
0.0
  0
LINE
  5
122
330
1F
100
AcDbEntity
  8
0
  6
Continuous
 62
     7
370
    15
100
AcDbLine
 10
2.103949480060002
 20
7.49746025643935
 30
0.0
 11
1.927172784763364
 21
7.544820686821749
 31
0.0
  0
LINE
  5
123
330
1F
100
AcDbEntity
  8
0
  6
Continuous
 62
     7
370
    15
100
AcDbLine
 10
6.099102793764003
 20
9.24059303433289
 30
0.0
 11
1.927172784763364
 21
8.122886877308278
 31
0.0
  0
LINE
  5
124
330
1F
100
AcDbEntity
  8
0
  6
Continuous
 62
     7
370
    15
100
AcDbLine
 10
6.594077540594585
 20
9.107983829262174
 30
0.0
 11
6.099102793764003
 21
9.24059303433289
 31
0.0
  0
LINE
  5
125
330
1F
100
AcDbEntity
  8
0
  6
Continuous
 62
     7
370
    15
100
AcDbLine
 10
2.457502870653275
 20
7.999749758314043
 30
0.0
 11
6.594077540594585
 21
9.107983829262174
 31
0.0
  0
LINE
  5
126
330
1F
100
AcDbEntity
  8
0
  6
Continuous
 62
     7
370
    15
100
AcDbLine
 10
2.457502870653275
 20
7.999749758314043
 30
0.0
 11
2.234674599060804
 21
8.059447914941967
 31
0.0
  0
LINE
  5
127
330
1F
100
AcDbEntity
  8
0
  6
Continuous
 62
     7
370
    15
100
AcDbLine
 10
2.234674599060804
 20
8.059447914941967
 30
0.0
 11
2.103949480060001
 21
8.037638102619961
 31
0.0
  0
LINE
  5
128
330
1F
100
AcDbEntity
  8
0
  6
Continuous
 62
     7
370
    15
100
AcDbLine
 10
2.103949480060001
 20
8.037638102619961
 30
0.0
 11
2.130626247692975
 21
8.068379446048934
 31
0.0
  0
LINE
  5
129
330
1F
100
AcDbEntity
  8
0
  6
Continuous
 62
     7
370
    15
100
AcDbLine
 10
2.130626247692975
 20
8.068379446048934
 30
0.0
 11
1.927172784763364
 21
8.122886877308278
 31
0.0
  0
LINE
  5
12A
330
1F
100
AcDbEntity
  8
0
  6
Continuous
 62
     7
370
    15
100
AcDbLine
 10
2.457502870653275
 20
7.710716663070778
 30
0.0
 11
2.457502870653275
 21
7.999749758314043
 31
0.0
  0
LINE
  5
12B
330
1F
100
AcDbEntity
  8
0
  6
Continuous
 62
     7
370
    15
100
AcDbLine
 10
2.234674599060804
 20
7.770414819698701
 30
0.0
 11
2.234674599060804
 21
8.059447914941967
 31
0.0
  0
LINE
  5
12C
330
1F
100
AcDbEntity
  8
0
  6
Continuous
 62
     7
370
    15
100
AcDbLine
 10
6.594077540594585
 20
9.107983829262174
 30
0.0
 11
6.594077540594585
 21
8.818950734018908
 31
0.0
  0
LINE
  5
12D
330
1F
100
AcDbEntity
  8
0
  6
Continuous
 62
     7
370
    15
100
AcDbLine
 10
2.103949480060001
 20
7.748605007376696
 30
0.0
 11
2.103949480060001
 21
8.037638102619961
 31
0.0
  0
LINE
  5
12E
330
1F
100
AcDbEntity
  8
0
  6
Continuous
 62
     7
370
    15
100
AcDbLine
 10
1.927172784763364
 20
7.833853782065014
 30
0.0
 11
1.927172784763364
 21
8.122886877308278
 31
0.0
  0
LINE
  5
12F
330
1F
100
AcDbEntity
  8
0
  6
Continuous
 62
     7
370
    15
100
AcDbLine
 10
6.594077540594585
 20
6.988407797478227
 30
0.0
 11
5.609784901182909
 21
6.724704921109031
 31
0.0
  0
LINE
  5
130
330
1F
100
AcDbEntity
  8
0
  6
Continuous
 62
     7
370
    15
100
AcDbLine
 10
5.109153300102832
 20
6.590580182266077
 30
0.0
 11
3.700596591979228
 21
6.213212272979125
 31
0.0
  0
LINE
  5
131
330
1F
100
AcDbEntity
  8
0
  6
Continuous
 62
     7
370
    15
100
AcDbLine
 10
3.199964990899152
 20
6.079087534136171
 30
0.0
 11
2.422147531593948
 21
5.870701640453616
 31
0.0
  0
LINE
  5
132
330
1F
100
AcDbEntity
  8
0
  6
Continuous
 62
     7
370
    15
100
AcDbLine
 10
6.594077540594585
 20
5.157864860937546
 30
0.0
 11
6.594077540594585
 21
5.168787476488583
 31
0.0
  0
LINE
  5
133
330
1F
100
AcDbEntity
  8
0
  6
Continuous
 62
     7
370
    15
100
AcDbLine
 10
6.594077540594585
 20
5.781735212445497
 30
0.0
 11
6.594077540594585
 21
6.988407797478227
 31
0.0
  0
LINE
  5
134
330
1F
100
AcDbEntity
  8
0
  6
Continuous
 62
     7
370
    15
100
AcDbLine
 10
2.457502870653276
 20
4.049630789989414
 30
0.0
 11
6.090193248321052
 21
5.022868690175557
 31
0.0
  0
LINE
  5
135
330
1F
100
AcDbEntity
  8
0
  6
Continuous
 62
     7
370
    15
100
AcDbLine
 10
6.374540079109145
 20
5.099048348706889
 30
0.0
 11
6.594077540594585
 21
5.157864860937546
 31
0.0
  0
LINE
  5
136
330
1F
100
AcDbEntity
  8
0
  6
Continuous
 62
     7
370
    15
100
AcDbLine
 10
2.457502870653276
 20
4.049630789989414
 30
0.0
 11
2.457502870653276
 21
4.931303860227099
 31
0.0
  0
LINE
  5
137
330
1F
100
AcDbEntity
  8
0
  6
Continuous
 62
     7
370
    15
100
AcDbLine
 10
2.457502870653276
 20
4.931303860227099
 30
0.0
 11
2.351436853475293
 21
4.936486000030317
 31
0.0
  0
LINE
  5
138
330
1F
100
AcDbEntity
  8
0
  6
Continuous
 62
     7
370
    15
100
AcDbLine
 10
2.351436853475293
 20
4.936486000030317
 30
0.0
 11
2.422147531593948
 21
5.015427039143899
 31
0.0
  0
LINE
  5
139
330
1F
100
AcDbEntity
  8
0
  6
Continuous
 62
     7
370
    15
100
AcDbLine
 10
2.422147531593948
 20
5.015427039143899
 30
0.0
 11
2.422147531593948
 21
5.870701640453616
 31
0.0
  0
LINE
  5
13A
330
1F
100
AcDbEntity
  8
0
  6
Continuous
 62
     7
370
    15
100
AcDbLine
 10
6.594077540594585
 20
6.988407797478227
 30
0.0
 11
6.099102793764003
 21
7.121017002548945
 31
0.0
  0
LINE
  5
13B
330
1F
100
AcDbEntity
  8
0
  6
Continuous
 62
     7
370
    15
100
AcDbLine
 10
1.927172784763366
 20
6.003310845524334
 30
0.0
 11
2.422147531593948
 21
5.870701640453616
 31
0.0
  0
LINE
  5
13C
330
1F
100
AcDbEntity
  8
0
  6
Continuous
 62
     7
370
    15
100
AcDbLine
 10
6.099102793764003
 20
7.121017002548945
 30
0.0
 11
5.483440985672952
 21
6.956074399949265
 31
0.0
  0
LINE
  5
13D
330
1F
100
AcDbEntity
  8
0
  6
Continuous
 62
     7
370
    15
100
AcDbLine
 10
4.755599909509561
 20
6.761077731642713
 30
0.0
 11
3.574252676469271
 21
6.444581751819358
 31
0.0
  0
LINE
  5
13E
330
1F
100
AcDbEntity
  8
0
  6
Continuous
 62
     7
370
    15
100
AcDbLine
 10
2.846411600305874
 20
6.249585083512806
 30
0.0
 11
1.927172784763366
 21
6.003310845524334
 31
0.0
  0
LINE
  5
13F
330
1F
100
AcDbEntity
  8
0
  6
Continuous
 62
     7
370
    15
100
AcDbLine
 10
1.927172784763366
 20
5.148036244214616
 30
0.0
 11
2.422147531593948
 21
5.015427039143899
 31
0.0
  0
LINE
  5
140
330
1F
100
AcDbEntity
  8
0
  6
Continuous
 62
     7
370
    15
100
AcDbLine
 10
1.927172784763366
 20
5.148036244214616
 30
0.0
 11
1.927172784763366
 21
6.003310845524334
 31
0.0
  0
LINE
  5
141
330
1F
100
AcDbEntity
  8
0
  6
Continuous
 62
     7
370
    15
100
AcDbLine
 10
1.856462106644711
 20
5.069095205101033
 30
0.0
 11
2.351436853475293
 21
4.936486000030317
 31
0.0
  0
LINE
  5
142
330
1F
100
AcDbEntity
  8
0
  6
Continuous
 62
     7
370
    15
100
AcDbLine
 10
1.856462106644711
 20
5.069095205101033
 30
0.0
 11
1.927172784763366
 21
5.148036244214616
 31
0.0
  0
LINE
  5
143
330
1F
100
AcDbEntity
  8
0
  6
Continuous
 62
     7
370
    15
100
AcDbLine
 10
1.962528123822693
 20
4.182239995060132
 30
0.0
 11
2.457502870653276
 21
4.049630789989414
 31
0.0
  0
LINE
  5
144
330
1F
100
AcDbEntity
  8
0
  6
Continuous
 62
     7
370
    15
100
AcDbLine
 10
1.962528123822693
 20
4.182239995060132
 30
0.0
 11
1.962528123822693
 21
5.040678946871594
 31
0.0
  0
LINE
  5
145
330
1F
100
AcDbEntity
  8
0
  6
Continuous
 62
     7
370
    15
100
AcDbLine
 10
4.755599909509561
 20
6.761077731642712
 30
0.0
 11
5.100792088538377
 21
6.668596931863026
 31
0.0
  0
LINE
  5
146
330
1F
100
AcDbEntity
  8
0
  6
Continuous
 62
     7
370
    15
100
AcDbLine
 10
4.755599909509561
 20
8.037369162798697
 30
0.0
 11
4.755599909509561
 21
6.761077731642712
 31
0.0
  0
LINE
  5
147
330
1F
100
AcDbEntity
  8
0
  6
Continuous
 62
     7
370
    15
100
AcDbLine
 10
5.250574656340144
 20
7.206534717058528
 30
0.0
 11
5.250574656340144
 21
8.169978367869413
 31
0.0
  0
LINE
  5
148
330
1F
100
AcDbEntity
  8
0
  6
Continuous
 62
     7
370
    15
100
AcDbLine
 10
5.250574656340144
 20
8.169978367869413
 30
0.0
 11
5.462706690696109
 21
8.226810884328292
 31
0.0
  0
LINE
  5
149
330
1F
100
AcDbEntity
  8
0
  6
Continuous
 62
     7
370
    15
100
AcDbLine
 10
5.462706690696108
 20
7.263367233517406
 30
0.0
 11
5.462706690696109
 21
8.226810884328292
 31
0.0
  0
LINE
  5
14A
330
1F
100
AcDbEntity
  8
0
  6
Continuous
 62
     7
370
    15
100
AcDbLine
 10
3.553518381492426
 20
7.715318236198384
 30
0.0
 11
3.341386347136461
 21
7.658485719739505
 31
0.0
  0
LINE
  5
14B
330
1F
100
AcDbEntity
  8
0
  6
Continuous
 62
     7
370
    15
100
AcDbLine
 10
3.553518381492426
 20
7.715318236198384
 30
0.0
 11
3.553518381492425
 21
6.751874585387498
 31
0.0
  0
LINE
  5
14C
330
1F
100
AcDbEntity
  8
0
  6
Continuous
 62
     7
370
    15
100
AcDbLine
 10
3.341386347136461
 20
7.658485719739505
 30
0.0
 11
3.34138634713646
 21
6.69504206892862
 31
0.0
  0
LINE
  5
14D
330
1F
100
AcDbEntity
  8
0
  6
Continuous
 62
     7
370
    15
100
AcDbLine
 10
3.191603779334696
 20
6.157104283733118
 30
0.0
 11
2.846411600305877
 21
6.249585083512805
 31
0.0
  0
LINE
  5
14E
330
1F
100
AcDbEntity
  8
0
  6
Continuous
 62
     7
370
    15
100
AcDbLine
 10
2.846411600305877
 20
6.249585083512805
 30
0.0
 11
2.846411600305879
 21
7.525876514668789
 31
0.0
  0
LINE
  5
14F
330
1F
100
AcDbEntity
  8
0
  6
Continuous
 62
     7
370
    15
100
AcDbLine
 10
6.594077540594585
 20
3.476265571683353
 30
0.0
 11
6.594077540594585
 21
5.168787476488583
 31
0.0
  0
LINE
  5
150
330
1F
100
AcDbEntity
  8
0
  6
Continuous
 62
     7
370
    15
100
AcDbLine
 10
6.594077540594585
 20
5.781735212445497
 30
0.0
 11
6.594077540594585
 21
9.107983829262172
 31
0.0
  0
LINE
  5
151
330
1F
100
AcDbEntity
  8
0
  6
Continuous
 62
     7
370
    15
100
AcDbLine
 10
6.594077540594585
 20
3.476265571683353
 30
0.0
 11
6.378789403553635
 21
3.533943642932365
 31
0.0
  0
LINE
  5
152
330
1F
100
AcDbEntity
  8
0
  6
Continuous
 62
     7
370
    15
100
AcDbLine
 10
6.378789403553635
 20
3.533943642932365
 30
0.0
 11
6.346590167179294
 21
3.393626526932222
 31
0.0
  0
LINE
  5
153
330
1F
100
AcDbEntity
  8
0
  6
Continuous
 62
     7
370
    15
100
AcDbLine
 10
6.346590167179294
 20
3.393626526932222
 30
0.0
 11
6.306286935442641
 21
3.505195672886352
 31
0.0
  0
LINE
  5
154
330
1F
100
AcDbEntity
  8
0
  6
Continuous
 62
     7
370
    15
100
AcDbLine
 10
6.306286935442641
 20
3.505195672886352
 30
0.0
 11
6.099102793764003
 21
3.560702594213526
 31
0.0
  0
LINE
  5
155
330
1F
100
AcDbEntity
  8
0
  6
Continuous
 62
     7
370
    15
100
AcDbLine
 10
6.099102793764003
 20
8.397308433704926
 30
0.0
 11
6.099102793764003
 21
7.121017002548944
 31
0.0
  0
LINE
  5
156
330
1F
100
AcDbEntity
  8
0
  6
Continuous
 62
     7
370
    15
100
AcDbLine
 10
6.099102793764003
 20
3.723699281564497
 30
0.0
 11
6.099102793764003
 21
3.560702594213526
 31
0.0
  0
LINE
  5
157
330
1F
100
AcDbEntity
  8
0
  6
Continuous
 62
     7
370
    15
100
AcDbLine
 10
6.594077540594585
 20
9.107983829262172
 30
0.0
 11
6.80620957495055
 21
9.164816345721053
 31
0.0
  0
LINE
  5
158
330
1F
100
AcDbEntity
  8
0
  6
Continuous
 62
     7
370
    15
100
AcDbLine
 10
6.80620957495055
 20
3.533098088142232
 30
0.0
 11
6.80620957495055
 21
9.164816345721053
 31
0.0
  0
LINE
  5
159
330
1F
100
AcDbEntity
  8
0
  6
Continuous
 62
     7
370
    15
100
AcDbLine
 10
6.80620957495055
 20
3.533098088142232
 30
0.0
 11
6.594077540594585
 21
3.476265571683353
 31
0.0
  0
LINE
  5
15A
330
1F
100
AcDbEntity
  8
0
  6
Continuous
 62
     7
370
    15
100
AcDbLine
 10
6.099102793764003
 20
9.24059303433289
 30
0.0
 11
6.311234828119967
 21
9.297425550791771
 31
0.0
  0
LINE
  5
15B
330
1F
100
AcDbEntity
  8
0
  6
Continuous
 62
     7
370
    15
100
AcDbLine
 10
6.80620957495055
 20
9.164816345721053
 30
0.0
 11
6.311234828119967
 21
9.297425550791771
 31
0.0
  0
LINE
  5
15C
330
1F
100
AcDbEntity
  8
0
  6
Continuous
 62
     7
370
    15
100
AcDbLine
 10
6.558722201535259
 20
3.450459043391101
 30
0.0
 11
6.346590167179294
 21
3.393626526932222
 31
0.0
  0
LINE
  5
15D
330
1F
100
AcDbEntity
  8
0
  6
Continuous
 62
     7
370
    15
100
AcDbLine
 10
6.566348874197793
 20
3.483694387864571
 30
0.0
 11
6.558722201535259
 21
3.450459043391101
 31
0.0
  0
LINE
  5
15E
330
1F
100
AcDbEntity
  8
0
  6
Continuous
 62
     7
370
    15
100
AcDbLine
 10
6.381945506238621
 20
5.101032344478667
 30
0.0
 11
6.594077540594586
 21
5.157864860937546
 31
0.0
  0
LINE
  5
15F
330
1F
100
AcDbEntity
  8
0
  6
Continuous
 62
     7
370
    15
100
AcDbLine
 10
6.594077540594586
 20
3.765298666926619
 30
0.0
 11
6.594077540594586
 21
5.157864860937546
 31
0.0
  0
LINE
  5
160
330
1F
100
AcDbEntity
  8
0
  6
Continuous
 62
     7
370
    15
100
AcDbLine
 10
6.594077540594586
 20
3.765298666926619
 30
0.0
 11
6.381945506238621
 21
3.70846615046774
 31
0.0
  0
LINE
  5
161
330
1F
100
AcDbEntity
  8
0
  6
Continuous
 62
     7
370
    15
100
AcDbLine
 10
6.381945506238621
 20
3.70846615046774
 30
0.0
 11
6.381945506238621
 21
5.101032344478667
 31
0.0
  0
LINE
  5
162
330
1F
100
AcDbEntity
  8
0
  6
Continuous
 62
     7
370
    15
100
AcDbLine
 10
6.381945506238621
 20
3.70846615046774
 30
0.0
 11
6.16665736919767
 21
3.766144221716752
 31
0.0
  0
LINE
  5
163
330
1F
100
AcDbEntity
  8
0
  6
Continuous
 62
     7
370
    15
100
AcDbLine
 10
6.16665736919767
 20
3.766144221716752
 30
0.0
 11
6.13445813282333
 21
3.62582710571661
 31
0.0
  0
LINE
  5
164
330
1F
100
AcDbEntity
  8
0
  6
Continuous
 62
     7
370
    15
100
AcDbLine
 10
6.13445813282333
 20
3.62582710571661
 30
0.0
 11
6.094154901086677
 21
3.737396251670739
 31
0.0
  0
LINE
  5
165
330
1F
100
AcDbEntity
  8
0
  6
Continuous
 62
     7
370
    15
100
AcDbLine
 10
6.094154901086677
 20
3.737396251670739
 30
0.0
 11
5.886970759408039
 21
3.792903172997913
 31
0.0
  0
LINE
  5
166
330
1F
100
AcDbEntity
  8
0
  6
Continuous
 62
     7
370
    15
100
AcDbLine
 10
5.886970759408039
 20
4.879522950382814
 30
0.0
 11
5.886970759408039
 21
3.792903172997913
 31
0.0
  0
LINE
  5
167
330
1F
100
AcDbEntity
  8
0
  6
Continuous
 62
     7
370
    15
100
AcDbLine
 10
6.346590167179294
 20
3.682659622175488
 30
0.0
 11
6.13445813282333
 21
3.62582710571661
 31
0.0
  0
LINE
  5
168
330
1F
100
AcDbEntity
  8
0
  6
Continuous
 62
     7
370
    15
100
AcDbLine
 10
6.354216839841829
 20
3.715894966648959
 30
0.0
 11
6.346590167179294
 21
3.682659622175488
 31
0.0
  0
LWPOLYLINE
  5
169
330
1F
100
AcDbEntity
  8
0
  6
Continuous
 62
     7
370
    15
100
AcDbPolyline
 90
        8
 70
   128
 43
0.0
 10
6.141599911313325
 20
5.398476405523136
 10
6.142625603563546
 20
5.408023146856204
 10
6.145611543056598
 20
5.417271206905939
 10
6.150292415964945
 20
5.425398854952481
 10
6.156252306189009
 20
5.431683913799298
 10
6.162961651327831
 20
5.435567928386323
 10
6.169824296622355
 20
5.436705786972782
 10
6.17313626724454
 20
5.436199456656621
  0
ARC
  5
16A
330
1F
100
AcDbEntity
  8
0
  6
Continuous
 62
     7
370
    15
100
AcDbCircle
 10
6.165765004583652
 20
5.395526622950423
 30
0.0
 40
0.0243444644629917
100
AcDbArc
 50
173.0404543953037
 51
246.9610381949543
  0
LWPOLYLINE
  5
16B
330
1F
100
AcDbEntity
  8
0
  6
Continuous
 62
     7
370
    15
100
AcDbPolyline
 90
       22
 70
   128
 43
0.0
 10
6.143014124875699
 20
5.398476405523136
 10
6.144008402355621
 20
5.38975481640654
 10
6.146902888877982
 20
5.382340934608004
 10
6.151440396613027
 20
5.376893516060611
 10
6.157217748085971
 20
5.373896587807899
 10
6.163721600264952
 20
5.373616440076927
 10
6.170374057342185
 20
5.376077965222998
 10
6.17658401931253
 20
5.381062445934658
 10
6.181799703802952
 20
5.388126989226647
 10
6.185557674357823
 20
5.396643879425227
 10
6.18752401880176
 20
5.405856353460503
 10
6.18752401880176
 20
5.414945842586162
 10
6.185557674357823
 20
5.423104705804822
 10
6.181799703802952
 20
5.429607992314926
 10
6.17658401931253
 20
5.433877856570849
 10
6.170374057342185
 20
5.435534902395458
 10
6.163721600264952
 20
5.434431893995414
 10
6.157217748085971
 20
5.430666838507531
 10
6.151440396613027
 20
5.424574277634583
 10
6.146902888877982
 20
5.416695562146894
 10
6.144008402355621
 20
5.407730750490719
 10
6.143014124875699
 20
5.398476405523136
  0
ARC
  5
16C
330
1F
100
AcDbEntity
  8
0
  6
Continuous
 62
     7
370
    15
100
AcDbCircle
 10
6.158340383381188
 20
5.397515761026481
 30
0.0
 40
0.0243444644629868
100
AcDbArc
 50
173.0404543952939
 51
246.9610381949606
  0
LWPOLYLINE
  5
16D
330
1F
100
AcDbEntity
  8
0
  6
Continuous
 62
     7
370
    15
100
AcDbPolyline
 90
        8
 70
   128
 43
0.0
 10
6.165711646042082
 20
5.438188594732682
 10
6.162399675419896
 20
5.438694925048842
 10
6.155537030125374
 20
5.437557066462383
 10
6.148827684986549
 20
5.433673051875357
 10
6.142867794762487
 20
5.42738799302854
 10
6.138186921854139
 20
5.419260344981998
 10
6.135200982361086
 20
5.410012284932263
 10
6.134175290110866
 20
5.400465543599197
  0
LWPOLYLINE
  5
16E
330
1F
100
AcDbEntity
  8
0
  6
Continuous
 62
     7
370
    15
100
AcDbPolyline
 90
        8
 70
   128
 43
0.0
 10
6.442120293317611
 20
5.623505684794843
 10
6.44314598556783
 20
5.63305242612791
 10
6.446131925060883
 20
5.642300486177647
 10
6.45081279796923
 20
5.650428134224187
 10
6.456772688193293
 20
5.656713193071004
 10
6.463482033332117
 20
5.66059720765803
 10
6.47034467862664
 20
5.66173506624449
 10
6.473656649248826
 20
5.661228735928328
  0
ARC
  5
16F
330
1F
100
AcDbEntity
  8
0
  6
Continuous
 62
     7
370
    15
100
AcDbCircle
 10
6.466285386587935
 20
5.620555902222129
 30
0.0
 40
0.0243444644629897
100
AcDbArc
 50
173.0404543952988
 51
246.9610381949546
  0
LWPOLYLINE
  5
170
330
1F
100
AcDbEntity
  8
0
  6
Continuous
 62
     7
370
    15
100
AcDbPolyline
 90
       22
 70
   128
 43
0.0
 10
6.443534506879983
 20
5.623505684794843
 10
6.444528784359905
 20
5.614784095678247
 10
6.447423270882268
 20
5.60737021387971
 10
6.451960778617311
 20
5.601922795332317
 10
6.457738130090255
 20
5.598925867079606
 10
6.464241982269236
 20
5.598645719348634
 10
6.470894439346469
 20
5.601107244494705
 10
6.477104401316815
 20
5.606091725206366
 10
6.482320085807237
 20
5.613156268498352
 10
6.486078056362108
 20
5.621673158696935
 10
6.488044400806046
 20
5.63088563273221
 10
6.488044400806046
 20
5.639975121857869
 10
6.486078056362108
 20
5.64813398507653
 10
6.482320085807237
 20
5.654637271586634
 10
6.477104401316815
 20
5.658907135842556
 10
6.470894439346469
 20
5.660564181667165
 10
6.464241982269236
 20
5.65946117326712
 10
6.457738130090255
 20
5.655696117779238
 10
6.451960778617311
 20
5.64960355690629
 10
6.447423270882268
 20
5.641724841418601
 10
6.444528784359905
 20
5.632760029762425
 10
6.443534506879983
 20
5.623505684794843
  0
ARC
  5
171
330
1F
100
AcDbEntity
  8
0
  6
Continuous
 62
     7
370
    15
100
AcDbCircle
 10
6.458860765385474
 20
5.622545040298188
 30
0.0
 40
0.0243444644629883
100
AcDbArc
 50
173.0404543952985
 51
246.9610381949568
  0
LWPOLYLINE
  5
172
330
1F
100
AcDbEntity
  8
0
  6
Continuous
 62
     7
370
    15
100
AcDbPolyline
 90
        8
 70
   128
 43
0.0
 10
6.466232028046366
 20
5.663217874004389
 10
6.462920057424181
 20
5.66372420432055
 10
6.456057412129657
 20
5.662586345734089
 10
6.449348066990834
 20
5.658702331147064
 10
6.443388176766771
 20
5.652417272300247
 10
6.438707303858423
 20
5.644289624253706
 10
6.435721364365372
 20
5.63504156420397
 10
6.434695672115151
 20
5.625494822870902
  0
LWPOLYLINE
  5
173
330
1F
100
AcDbEntity
  8
0
  6
Continuous
 62
     7
370
    15
100
AcDbPolyline
 90
        8
 70
   128
 43
0.0
 10
6.265343598020972
 20
5.540016117507038
 10
6.266369290271192
 20
5.549562858840106
 10
6.269355229764245
 20
5.558810918889841
 10
6.274036102672593
 20
5.566938566936383
 10
6.279995992896655
 20
5.5732236257832
 10
6.28670533803548
 20
5.577107640370225
 10
6.293567983330003
 20
5.578245498956685
 10
6.296879953952187
 20
5.577739168640523
  0
ARC
  5
174
330
1F
100
AcDbEntity
  8
0
  6
Continuous
 62
     7
370
    15
100
AcDbCircle
 10
6.289508691291299
 20
5.537066334934324
 30
0.0
 40
0.0243444644629917
100
AcDbArc
 50
173.0404543953016
 51
246.9610381949516
  0
LWPOLYLINE
  5
175
330
1F
100
AcDbEntity
  8
0
  6
Continuous
 62
     7
370
    15
100
AcDbPolyline
 90
       22
 70
   128
 43
0.0
 10
6.266757811583346
 20
5.540016117507038
 10
6.267752089063268
 20
5.531294528390442
 10
6.27064657558563
 20
5.523880646591906
 10
6.275184083320674
 20
5.518433228044512
 10
6.280961434793617
 20
5.515436299791802
 10
6.2874652869726
 20
5.515156152060829
 10
6.294117744049833
 20
5.5176176772069
 10
6.300327706020177
 20
5.522602157918561
 10
6.305543390510599
 20
5.529666701210548
 10
6.309301361065471
 20
5.538183591409129
 10
6.311267705509409
 20
5.547396065444406
 10
6.311267705509409
 20
5.556485554570063
 10
6.309301361065471
 20
5.564644417788726
 10
6.305543390510599
 20
5.57114770429883
 10
6.300327706020177
 20
5.575417568554751
 10
6.294117744049833
 20
5.577074614379361
 10
6.2874652869726
 20
5.575971605979316
 10
6.280961434793617
 20
5.572206550491433
 10
6.275184083320674
 20
5.566113989618486
 10
6.270646575585629
 20
5.558235274130796
 10
6.267752089063268
 20
5.549270462474621
 10
6.266757811583346
 20
5.540016117507038
  0
ARC
  5
176
330
1F
100
AcDbEntity
  8
0
  6
Continuous
 62
     7
370
    15
100
AcDbCircle
 10
6.282084070088838
 20
5.539055473010385
 30
0.0
 40
0.02434446446299
100
AcDbArc
 50
173.0404543953011
 51
246.9610381949527
  0
LWPOLYLINE
  5
177
330
1F
100
AcDbEntity
  8
0
  6
Continuous
 62
     7
370
    15
100
AcDbPolyline
 90
        8
 70
   128
 43
0.0
 10
6.289455332749729
 20
5.579728306716583
 10
6.286143362127543
 20
5.580234637032745
 10
6.27928071683302
 20
5.579096778446285
 10
6.272571371694197
 20
5.575212763859259
 10
6.266611481470134
 20
5.568927705012442
 10
6.261930608561786
 20
5.5608000569659
 10
6.258944669068734
 20
5.551551996916165
 10
6.257918976818514
 20
5.542005255583099
  0
LWPOLYLINE
  5
178
330
1F
100
AcDbEntity
  8
0
  6
Continuous
 62
     7
370
    15
100
AcDbPolyline
 90
        7
 70
   128
 43
0.0
 10
5.957546889175527
 20
4.940565295735947
 10
5.959206085982181
 20
4.93102070218527
 10
5.958822934525684
 20
4.921761219843238
 10
5.956431479494378
 20
4.91360959435051
 10
5.952244212162524
 20
4.907290133404933
 10
5.946633189608075
 20
4.903364348844019
 10
5.944670066243159
 20
4.902691669768365
  0
LWPOLYLINE
  5
179
330
1F
100
AcDbEntity
  8
0
  6
Continuous
 62
     7
370
    15
100
AcDbPolyline
 90
        7
 70
   128
 43
0.0
 10
5.927771427192211
 20
4.965767227619452
 10
5.928995713070718
 20
4.966041505428599
 10
5.93577991073551
 20
4.965798253680017
 10
5.942603278611894
 20
4.962749975071002
 10
5.948859530520199
 20
4.957167522533112
 10
5.95399277102326
 20
4.94954692147253
 10
5.957546889175527
 20
4.940565295735947
  0
LWPOLYLINE
  5
17A
330
1F
100
AcDbEntity
  8
0
  6
Continuous
 62
     7
370
    15
100
AcDbPolyline
 90
       22
 70
   128
 43
0.0
 10
5.956186608046474
 20
4.940181800506239
 10
5.952741344967782
 20
4.948888338165133
 10
5.947765324694525
 20
4.956275536436722
 10
5.941700688464881
 20
4.961687010336391
 10
5.935086305822077
 20
4.964641926660292
 10
5.928509893690662
 20
4.96487772812561
 10
5.922555795148626
 20
4.962373462737351
 10
5.917753057980557
 20
4.957351645465052
 10
5.914528426460303
 20
4.95025848681124
 10
5.913168423249502
 20
4.941724245050118
 10
5.913793890601709
 20
4.932507225014064
 10
5.916349252997862
 20
4.923426399381511
 10
5.920607455275038
 20
4.915288639360456
 10
5.9261901374741
 20
4.908817020640741
 10
5.932601253782463
 20
4.904586574945845
 10
5.939271148381409
 20
4.902973195940764
 10
5.945607171865469
 20
4.904120239430296
 10
5.951046340742904
 20
4.90792578556668
 10
5.955105360989557
 20
4.914051694875333
 10
5.957423570843793
 20
4.921953653431072
 10
5.957794987186767
 20
4.930929537539045
 10
5.956186608046474
 20
4.940181800506239
  0
LWPOLYLINE
  5
17B
330
1F
100
AcDbEntity
  8
0
  6
Continuous
 62
     7
370
    15
100
AcDbPolyline
 90
        7
 70
   128
 43
0.0
 10
5.964971510377986
 20
4.942554433812008
 10
5.961417392225718
 20
4.951536059548592
 10
5.956284151722657
 20
4.959156660609174
 10
5.950027899814352
 20
4.964739113147063
 10
5.943204531937968
 20
4.967787391756079
 10
5.936420334273176
 20
4.96803064350466
 10
5.935196048394669
 20
4.967756365695512
  0
LWPOLYLINE
  5
17C
330
1F
100
AcDbEntity
  8
0
  6
Continuous
 62
     7
370
    15
100
AcDbPolyline
 90
        7
 70
   128
 43
0.0
 10
5.952094687445618
 20
4.904680807844425
 10
5.954057810810534
 20
4.90535348692008
 10
5.959668833364982
 20
4.909279271480994
 10
5.963856100696838
 20
4.915598732426571
 10
5.966247555728142
 20
4.9237503579193
 10
5.96663070718464
 20
4.933009840261331
 10
5.964971510377986
 20
4.942554433812008
  0
LWPOLYLINE
  5
17D
330
1F
100
AcDbEntity
  8
0
  6
Continuous
 62
     7
370
    15
100
AcDbPolyline
 90
        8
 70
   128
 43
0.0
 10
6.565863980025255
 20
5.548270575346296
 10
6.566889672275475
 20
5.557817316679363
 10
6.569875611768527
 20
5.567065376729098
 10
6.574556484676874
 20
5.575193024775639
 10
6.580516374900938
 20
5.581478083622457
 10
6.587225720039762
 20
5.585362098209482
 10
6.594088365334284
 20
5.586499956795942
 10
6.59740033595647
 20
5.585993626479781
  0
ARC
  5
17E
330
1F
100
AcDbEntity
  8
0
  6
Continuous
 62
     7
370
    15
100
AcDbCircle
 10
6.590029073295578
 20
5.54532079277358
 30
0.0
 40
0.0243444644629885
100
AcDbArc
 50
173.0404543952944
 51
246.9610381949568
  0
LWPOLYLINE
  5
17F
330
1F
100
AcDbEntity
  8
0
  6
Continuous
 62
     7
370
    15
100
AcDbPolyline
 90
       22
 70
   128
 43
0.0
 10
6.567278193587628
 20
5.548270575346296
 10
6.56827247106755
 20
5.539548986229699
 10
6.571166957589912
 20
5.532135104431163
 10
6.575704465324957
 20
5.52668768588377
 10
6.5814818167979
 20
5.523690757631059
 10
6.587985668976881
 20
5.523410609900087
 10
6.594638126054115
 20
5.525872135046158
 10
6.60084808802446
 20
5.530856615757818
 10
6.606063772514882
 20
5.537921159049806
 10
6.609821743069752
 20
5.546438049248387
 10
6.61178808751369
 20
5.555650523283663
 10
6.61178808751369
 20
5.564740012409322
 10
6.609821743069752
 20
5.572898875627983
 10
6.606063772514882
 20
5.579402162138086
 10
6.600848088024459
 20
5.583672026394008
 10
6.594638126054114
 20
5.585329072218617
 10
6.587985668976881
 20
5.584226063818572
 10
6.5814818167979
 20
5.58046100833069
 10
6.575704465324957
 20
5.574368447457742
 10
6.571166957589912
 20
5.566489731970054
 10
6.56827247106755
 20
5.557524920313879
 10
6.567278193587628
 20
5.548270575346296
  0
ARC
  5
180
330
1F
100
AcDbEntity
  8
0
  6
Continuous
 62
     7
370
    15
100
AcDbCircle
 10
6.582604452093121
 20
5.547309930849643
 30
0.0
 40
0.0243444644629905
100
AcDbArc
 50
173.0404543953032
 51
246.9610381949555
  0
LWPOLYLINE
  5
181
330
1F
100
AcDbEntity
  8
0
  6
Continuous
 62
     7
370
    15
100
AcDbPolyline
 90
        8
 70
   128
 43
0.0
 10
6.589975714754012
 20
5.587982764555841
 10
6.586663744131826
 20
5.588489094872002
 10
6.579801098837303
 20
5.587351236285543
 10
6.573091753698479
 20
5.583467221698517
 10
6.567131863474417
 20
5.5771821628517
 10
6.562450990566069
 20
5.569054514805158
 10
6.559465051073017
 20
5.559806454755423
 10
6.558439358822796
 20
5.550259713422356
  0
LWPOLYLINE
  5
182
330
1F
100
AcDbEntity
  8
0
  6
Continuous
 62
     7
370
    15
100
AcDbPolyline
 90
        8
 70
   128
 43
0.0
 10
6.565863980025253
 20
5.307409662643574
 10
6.566889672275474
 20
5.316956403976641
 10
6.569875611768525
 20
5.326204464026377
 10
6.574556484676873
 20
5.334332112072918
 10
6.580516374900936
 20
5.340617170919736
 10
6.587225720039759
 20
5.344501185506761
 10
6.594088365334282
 20
5.34563904409322
 10
6.597400335956468
 20
5.345132713777059
  0
ARC
  5
183
330
1F
100
AcDbEntity
  8
0
  6
Continuous
 62
     7
370
    15
100
AcDbCircle
 10
6.590029073295576
 20
5.304459880070859
 30
0.0
 40
0.0243444644629884
100
AcDbArc
 50
173.0404543952964
 51
246.9610381949549
  0
LWPOLYLINE
  5
184
330
1F
100
AcDbEntity
  8
0
  6
Continuous
 62
     7
370
    15
100
AcDbPolyline
 90
       22
 70
   128
 43
0.0
 10
6.567278193587625
 20
5.307409662643574
 10
6.568272471067547
 20
5.298688073526978
 10
6.57116695758991
 20
5.291274191728441
 10
6.575704465324954
 20
5.285826773181048
 10
6.581481816797897
 20
5.282829844928337
 10
6.587985668976879
 20
5.282549697197365
 10
6.594638126054112
 20
5.285011222343436
 10
6.600848088024457
 20
5.289995703055097
 10
6.606063772514879
 20
5.297060246347084
 10
6.60982174306975
 20
5.305577136545665
 10
6.611788087513688
 20
5.314789610580941
 10
6.611788087513688
 20
5.323879099706601
 10
6.60982174306975
 20
5.332037962925261
 10
6.606063772514879
 20
5.338541249435365
 10
6.600848088024457
 20
5.342811113691286
 10
6.594638126054112
 20
5.344468159515896
 10
6.587985668976879
 20
5.343365151115851
 10
6.581481816797897
 20
5.339600095627969
 10
6.575704465324954
 20
5.333507534755021
 10
6.57116695758991
 20
5.325628819267333
 10
6.568272471067547
 20
5.316664007611156
 10
6.567278193587625
 20
5.307409662643574
  0
ARC
  5
185
330
1F
100
AcDbEntity
  8
0
  6
Continuous
 62
     7
370
    15
100
AcDbCircle
 10
6.582604452093117
 20
5.306449018146921
 30
0.0
 40
0.0243444644629891
100
AcDbArc
 50
173.0404543953008
 51
246.9610381949585
  0
LWPOLYLINE
  5
186
330
1F
100
AcDbEntity
  8
0
  6
Continuous
 62
     7
370
    15
100
AcDbPolyline
 90
        8
 70
   128
 43
0.0
 10
6.589975714754008
 20
5.347121851853119
 10
6.586663744131823
 20
5.34762818216928
 10
6.579801098837299
 20
5.346490323582821
 10
6.573091753698477
 20
5.342606308995795
 10
6.567131863474413
 20
5.336321250148977
 10
6.562450990566067
 20
5.328193602102436
 10
6.559465051073014
 20
5.3189455420527
 10
6.558439358822793
 20
5.309398800719634
  0
LWPOLYLINE
  5
187
330
1F
100
AcDbEntity
  8
0
  6
Continuous
 62
     7
370
    15
100
AcDbPolyline
 90
        8
 70
   128
 43
0.0
 10
3.385050190874754
 20
6.410318772850196
 10
3.386075883124975
 20
6.419865514183262
 10
3.389061822618027
 20
6.429113574232998
 10
3.393742695526375
 20
6.437241222279539
 10
3.399702585750437
 20
6.443526281126357
 10
3.406411930889261
 20
6.447410295713382
 10
3.413274576183785
 20
6.448548154299841
 10
3.41658654680597
 20
6.44804182398368
  0
ARC
  5
188
330
1F
100
AcDbEntity
  8
0
  6
Continuous
 62
     7
370
    15
100
AcDbCircle
 10
3.409215284145079
 20
6.407368990277483
 30
0.0
 40
0.0243444644629903
100
AcDbArc
 50
173.0404543953009
 51
246.9610381949564
  0
LWPOLYLINE
  5
189
330
1F
100
AcDbEntity
  8
0
  6
Continuous
 62
     7
370
    15
100
AcDbPolyline
 90
       22
 70
   128
 43
0.0
 10
3.386464404437127
 20
6.410318772850194
 10
3.38745868191705
 20
6.401597183733599
 10
3.390353168439412
 20
6.394183301935062
 10
3.394890676174456
 20
6.388735883387669
 10
3.400668027647399
 20
6.385738955134959
 10
3.407171879826382
 20
6.385458807403986
 10
3.413824336903615
 20
6.387920332550057
 10
3.42003429887396
 20
6.392904813261718
 10
3.425249983364381
 20
6.399969356553705
 10
3.429007953919252
 20
6.408486246752287
 10
3.430974298363191
 20
6.417698720787562
 10
3.430974298363191
 20
6.426788209913222
 10
3.429007953919252
 20
6.434947073131882
 10
3.425249983364381
 20
6.441450359641986
 10
3.42003429887396
 20
6.445720223897907
 10
3.413824336903615
 20
6.447377269722517
 10
3.407171879826381
 20
6.446274261322471
 10
3.400668027647399
 20
6.442509205834589
 10
3.394890676174456
 20
6.436416644961641
 10
3.390353168439412
 20
6.428537929473953
 10
3.38745868191705
 20
6.419573117817777
 10
3.386464404437127
 20
6.410318772850194
  0
ARC
  5
18A
330
1F
100
AcDbEntity
  8
0
  6
Continuous
 62
     7
370
    15
100
AcDbCircle
 10
3.40179066294262
 20
6.409358128353542
 30
0.0
 40
0.0243444644629894
100
AcDbArc
 50
173.0404543953008
 51
246.9610381949565
  0
LWPOLYLINE
  5
18B
330
1F
100
AcDbEntity
  8
0
  6
Continuous
 62
     7
370
    15
100
AcDbPolyline
 90
        8
 70
   128
 43
0.0
 10
3.409161925603511
 20
6.450030962059742
 10
3.405849954981325
 20
6.450537292375902
 10
3.398987309686802
 20
6.449399433789442
 10
3.392277964547979
 20
6.445515419202416
 10
3.386318074323916
 20
6.439230360355598
 10
3.381637201415568
 20
6.431102712309057
 10
3.378651261922516
 20
6.421854652259321
 10
3.377625569672296
 20
6.412307910926255
  0
LWPOLYLINE
  5
18C
330
1F
100
AcDbEntity
  8
0
  6
Continuous
 62
     7
370
    15
100
AcDbPolyline
 90
        8
 70
   128
 43
0.0
 10
3.376211356109924
 20
6.57655339022298
 10
3.377237048360145
 20
6.586100131556048
 10
3.380222987853197
 20
6.595348191605783
 10
3.384903860761545
 20
6.603475839652324
 10
3.390863750985607
 20
6.609760898499141
 10
3.397573096124431
 20
6.613644913086167
 10
3.404435741418955
 20
6.614782771672627
 10
3.40774771204114
 20
6.614276441356466
  0
ARC
  5
18D
330
1F
100
AcDbEntity
  8
0
  6
Continuous
 62
     7
370
    15
100
AcDbCircle
 10
3.400376449380252
 20
6.573603607650269
 30
0.0
 40
0.0243444644629924
100
AcDbArc
 50
173.040454395306
 51
246.9610381949505
  0
LWPOLYLINE
  5
18E
330
1F
100
AcDbEntity
  8
0
  6
Continuous
 62
     7
370
    15
100
AcDbPolyline
 90
       22
 70
   128
 43
0.0
 10
3.377625569672298
 20
6.57655339022298
 10
3.37861984715222
 20
6.567831801106384
 10
3.381514333674582
 20
6.560417919307847
 10
3.386051841409627
 20
6.554970500760454
 10
3.391829192882569
 20
6.551973572507744
 10
3.398333045061552
 20
6.551693424776772
 10
3.404985502138785
 20
6.554154949922842
 10
3.411195464109129
 20
6.559139430634504
 10
3.416411148599551
 20
6.566203973926491
 10
3.420169119154422
 20
6.574720864125072
 10
3.42213546359836
 20
6.583933338160347
 10
3.42213546359836
 20
6.593022827286006
 10
3.420169119154422
 20
6.601181690504668
 10
3.416411148599551
 20
6.607684977014772
 10
3.411195464109129
 20
6.611954841270692
 10
3.404985502138785
 20
6.613611887095302
 10
3.39833304506155
 20
6.612508878695257
 10
3.391829192882569
 20
6.608743823207375
 10
3.386051841409627
 20
6.602651262334427
 10
3.381514333674582
 20
6.594772546846738
 10
3.37861984715222
 20
6.585807735190562
 10
3.377625569672298
 20
6.57655339022298
  0
ARC
  5
18F
330
1F
100
AcDbEntity
  8
0
  6
Continuous
 62
     7
370
    15
100
AcDbCircle
 10
3.39295182817779
 20
6.575592745726328
 30
0.0
 40
0.0243444644629902
100
AcDbArc
 50
173.0404543953009
 51
246.9610381949574
  0
LWPOLYLINE
  5
190
330
1F
100
AcDbEntity
  8
0
  6
Continuous
 62
     7
370
    15
100
AcDbPolyline
 90
        8
 70
   128
 43
0.0
 10
3.400323090838681
 20
6.616265579432526
 10
3.397011120216496
 20
6.616771909748687
 10
3.390148474921972
 20
6.615634051162227
 10
3.383439129783149
 20
6.611750036575201
 10
3.377479239559086
 20
6.605464977728385
 10
3.372798366650739
 20
6.597337329681842
 10
3.369812427157686
 20
6.588089269632106
 10
3.368786734907466
 20
6.578542528299041
  0
LWPOLYLINE
  5
191
330
1F
100
AcDbEntity
  8
0
  6
Continuous
 62
     7
370
    15
100
AcDbPolyline
 90
        8
 70
   128
 43
0.0
 10
3.473438538523074
 20
6.50625726185221
 10
3.474464230773295
 20
6.515804003185277
 10
3.477450170266347
 20
6.525052063235012
 10
3.482131043174695
 20
6.533179711281555
 10
3.488090933398757
 20
6.539464770128371
 10
3.494800278537581
 20
6.543348784715396
 10
3.501662923832104
 20
6.544486643301856
 10
3.50497489445429
 20
6.543980312985695
  0
ARC
  5
192
330
1F
100
AcDbEntity
  8
0
  6
Continuous
 62
     7
370
    15
100
AcDbCircle
 10
3.4976036317934
 20
6.503307479279498
 30
0.0
 40
0.0243444644629917
100
AcDbArc
 50
173.0404543953036
 51
246.9610381949543
  0
LWPOLYLINE
  5
193
330
1F
100
AcDbEntity
  8
0
  6
Continuous
 62
     7
370
    15
100
AcDbPolyline
 90
       22
 70
   128
 43
0.0
 10
3.474852752085447
 20
6.50625726185221
 10
3.475847029565371
 20
6.497535672735613
 10
3.478741516087731
 20
6.490121790937076
 10
3.483279023822775
 20
6.484674372389683
 10
3.489056375295719
 20
6.481677444136973
 10
3.495560227474701
 20
6.481397296406001
 10
3.502212684551934
 20
6.483858821552071
 10
3.508422646522279
 20
6.488843302263733
 10
3.513638331012701
 20
6.49590784555572
 10
3.517396301567572
 20
6.504424735754302
 10
3.51936264601151
 20
6.513637209789576
 10
3.51936264601151
 20
6.522726698915236
 10
3.517396301567572
 20
6.530885562133897
 10
3.513638331012701
 20
6.537388848644001
 10
3.508422646522279
 20
6.541658712899922
 10
3.502212684551934
 20
6.543315758724531
 10
3.495560227474701
 20
6.542212750324487
 10
3.489056375295719
 20
6.538447694836605
 10
3.483279023822775
 20
6.532355133963656
 10
3.478741516087731
 20
6.524476418475967
 10
3.475847029565371
 20
6.515511606819791
 10
3.474852752085447
 20
6.50625726185221
  0
ARC
  5
194
330
1F
100
AcDbEntity
  8
0
  6
Continuous
 62
     7
370
    15
100
AcDbCircle
 10
3.490179010590936
 20
6.505296617355554
 30
0.0
 40
0.0243444644629859
100
AcDbArc
 50
173.0404543952935
 51
246.9610381949598
  0
LWPOLYLINE
  5
195
330
1F
100
AcDbEntity
  8
0
  6
Continuous
 62
     7
370
    15
100
AcDbPolyline
 90
        8
 70
   128
 43
0.0
 10
3.497550273251831
 20
6.545969451061756
 10
3.494238302629645
 20
6.546475781377916
 10
3.487375657335123
 20
6.545337922791456
 10
3.480666312196299
 20
6.54145390820443
 10
3.474706421972236
 20
6.535168849357614
 10
3.470025549063889
 20
6.527041201311072
 10
3.467039609570836
 20
6.517793141261337
 10
3.466013917320617
 20
6.50824639992827
  0
LWPOLYLINE
  5
196
330
1F
100
AcDbEntity
  8
0
  6
Continuous
 62
     7
370
    15
100
AcDbPolyline
 90
        8
 70
   128
 43
0.0
 10
3.63260827496816
 20
5.816683418752247
 10
3.63363396721838
 20
5.826230160085314
 10
3.636619906711432
 20
5.835478220135049
 10
3.64130077961978
 20
5.843605868181591
 10
3.647260669843842
 20
5.849890927028408
 10
3.653970014982666
 20
5.853774941615434
 10
3.660832660277189
 20
5.854912800201893
 10
3.664144630899375
 20
5.854406469885732
  0
ARC
  5
197
330
1F
100
AcDbEntity
  8
0
  6
Continuous
 62
     7
370
    15
100
AcDbCircle
 10
3.656773368238484
 20
5.813733636179532
 30
0.0
 40
0.0243444644629893
100
AcDbArc
 50
173.0404543952967
 51
246.9610381949548
  0
LWPOLYLINE
  5
198
330
1F
100
AcDbEntity
  8
0
  6
Continuous
 62
     7
370
    15
100
AcDbPolyline
 90
       22
 70
   128
 43
0.0
 10
3.634022488530533
 20
5.816683418752247
 10
3.635016766010456
 20
5.807961829635651
 10
3.637911252532818
 20
5.800547947837114
 10
3.642448760267861
 20
5.795100529289721
 10
3.648226111740805
 20
5.792103601037011
 10
3.654729963919787
 20
5.791823453306038
 10
3.66138242099702
 20
5.794284978452109
 10
3.667592382967364
 20
5.799269459163769
 10
3.672808067457786
 20
5.806334002455757
 10
3.676566038012657
 20
5.814850892654338
 10
3.678532382456595
 20
5.824063366689614
 10
3.678532382456595
 20
5.833152855815272
 10
3.676566038012657
 20
5.841311719033933
 10
3.672808067457786
 20
5.847815005544037
 10
3.667592382967364
 20
5.852084869799959
 10
3.661382420997019
 20
5.853741915624569
 10
3.654729963919786
 20
5.852638907224523
 10
3.648226111740805
 20
5.848873851736642
 10
3.642448760267861
 20
5.842781290863693
 10
3.637911252532818
 20
5.834902575376004
 10
3.635016766010456
 20
5.825937763719829
 10
3.634022488530533
 20
5.816683418752247
  0
ARC
  5
199
330
1F
100
AcDbEntity
  8
0
  6
Continuous
 62
     7
370
    15
100
AcDbCircle
 10
3.649348747036025
 20
5.815722774255593
 30
0.0
 40
0.0243444644629899
100
AcDbArc
 50
173.0404543953011
 51
246.9610381949546
  0
LWPOLYLINE
  5
19A
330
1F
100
AcDbEntity
  8
0
  6
Continuous
 62
     7
370
    15
100
AcDbPolyline
 90
        8
 70
   128
 43
0.0
 10
3.656720009696917
 20
5.856395607961792
 10
3.65340803907473
 20
5.856901938277953
 10
3.646545393780207
 20
5.855764079691493
 10
3.639836048641384
 20
5.851880065104468
 10
3.633876158417321
 20
5.84559500625765
 10
3.629195285508973
 20
5.837467358211108
 10
3.626209346015921
 20
5.828219298161373
 10
3.6251836537657
 20
5.818672556828307
  0
LWPOLYLINE
  5
19B
330
1F
100
AcDbEntity
  8
0
  6
Continuous
 62
     7
370
    15
100
AcDbPolyline
 90
        7
 70
   128
 43
0.0
 10
6.3111002797688
 20
4.84584443497115
 10
6.312759476575454
 20
4.836299841420474
 10
6.312376325118957
 20
4.827040359078442
 10
6.309984870087651
 20
4.818888733585714
 10
6.305797602755797
 20
4.812569272640137
 10
6.300186580201349
 20
4.808643488079222
 10
6.298223456836432
 20
4.807970809003569
  0
LWPOLYLINE
  5
19C
330
1F
100
AcDbEntity
  8
0
  6
Continuous
 62
     7
370
    15
100
AcDbPolyline
 90
        7
 70
   128
 43
0.0
 10
6.281324817785483
 20
4.871046366854655
 10
6.282549103663991
 20
4.871320644663803
 10
6.289333301328783
 20
4.871077392915221
 10
6.296156669205167
 20
4.868029114306206
 10
6.302412921113471
 20
4.862446661768315
 10
6.307546161616532
 20
4.854826060707734
 10
6.3111002797688
 20
4.84584443497115
  0
LWPOLYLINE
  5
19D
330
1F
100
AcDbEntity
  8
0
  6
Continuous
 62
     7
370
    15
100
AcDbPolyline
 90
       22
 70
   128
 43
0.0
 10
6.309739998639747
 20
4.845460939741442
 10
6.306294735561056
 20
4.854167477400336
 10
6.301318715287798
 20
4.861554675671926
 10
6.295254079058155
 20
4.866966149571594
 10
6.28863969641535
 20
4.869921065895495
 10
6.282063284283936
 20
4.870156867360813
 10
6.276109185741899
 20
4.867652601972555
 10
6.27130644857383
 20
4.862630784700257
 10
6.268081817053577
 20
4.855537626046444
 10
6.266721813842774
 20
4.847003384285321
 10
6.267347281194981
 20
4.837786364249268
 10
6.269902643591134
 20
4.828705538616715
 10
6.274160845868311
 20
4.820567778595659
 10
6.279743528067373
 20
4.814096159875944
 10
6.286154644375736
 20
4.809865714181048
 10
6.292824538974681
 20
4.808252335175967
 10
6.299160562458741
 20
4.809399378665499
 10
6.304599731336177
 20
4.813204924801883
 10
6.308658751582829
 20
4.819330834110536
 10
6.310976961437066
 20
4.827232792666275
 10
6.31134837778004
 20
4.836208676774248
 10
6.309739998639747
 20
4.845460939741442
  0
LWPOLYLINE
  5
19E
330
1F
100
AcDbEntity
  8
0
  6
Continuous
 62
     7
370
    15
100
AcDbPolyline
 90
        7
 70
   128
 43
0.0
 10
6.318524900971259
 20
4.847833573047211
 10
6.314970782818992
 20
4.856815198783796
 10
6.309837542315929
 20
4.864435799844378
 10
6.303581290407626
 20
4.870018252382267
 10
6.296757922531242
 20
4.873066530991283
 10
6.28997372486645
 20
4.873309782739864
 10
6.288749438987943
 20
4.873035504930716
  0
LWPOLYLINE
  5
19F
330
1F
100
AcDbEntity
  8
0
  6
Continuous
 62
     7
370
    15
100
AcDbPolyline
 90
        7
 70
   128
 43
0.0
 10
6.30564807803889
 20
4.809959947079629
 10
6.307611201403807
 20
4.810632626155284
 10
6.313222223958256
 20
4.814558410716198
 10
6.31740949129011
 20
4.820877871661775
 10
6.319800946321415
 20
4.829029497154505
 10
6.320184097777913
 20
4.838288979496536
 10
6.318524900971259
 20
4.847833573047211
  0
LWPOLYLINE
  5
1A0
330
1F
100
AcDbEntity
  8
0
  6
Continuous
 62
     7
370
    15
100
AcDbPolyline
 90
        8
 70
   128
 43
0.0
 10
3.367443232023206
 20
5.97205203111921
 10
3.368468924273426
 20
5.981598772452278
 10
3.371454863766478
 20
5.990846832502012
 10
3.376135736674825
 20
5.998974480548554
 10
3.382095626898888
 20
6.005259539395371
 10
3.388804972037712
 20
6.009143553982395
 10
3.395667617332235
 20
6.010281412568856
 10
3.39897958795442
 20
6.009775082252694
  0
ARC
  5
1A1
330
1F
100
AcDbEntity
  8
0
  6
Continuous
 62
     7
370
    15
100
AcDbCircle
 10
3.391608325293527
 20
5.969102248546494
 30
0.0
 40
0.0243444644629872
100
AcDbArc
 50
173.0404543952959
 51
246.9610381949578
  0
LWPOLYLINE
  5
1A2
330
1F
100
AcDbEntity
  8
0
  6
Continuous
 62
     7
370
    15
100
AcDbPolyline
 90
       22
 70
   128
 43
0.0
 10
3.368857445585578
 20
5.972052031119209
 10
3.3698517230655
 20
5.963330442002614
 10
3.372746209587862
 20
5.955916560204076
 10
3.377283717322907
 20
5.950469141656683
 10
3.38306106879585
 20
5.947472213403973
 10
3.389564920974832
 20
5.947192065673
 10
3.396217378052065
 20
5.949653590819071
 10
3.40242734002241
 20
5.954638071530733
 10
3.407643024512831
 20
5.961702614822719
 10
3.411400995067703
 20
5.9702195050213
 10
3.413367339511641
 20
5.979431979056577
 10
3.413367339511641
 20
5.988521468182234
 10
3.411400995067703
 20
5.996680331400895
 10
3.407643024512831
 20
6.003183617911001
 10
3.40242734002241
 20
6.007453482166922
 10
3.396217378052064
 20
6.009110527991532
 10
3.389564920974831
 20
6.008007519591486
 10
3.38306106879585
 20
6.004242464103604
 10
3.377283717322907
 20
5.998149903230656
 10
3.372746209587862
 20
5.990271187742967
 10
3.3698517230655
 20
5.981306376086791
 10
3.368857445585578
 20
5.972052031119209
  0
ARC
  5
1A3
330
1F
100
AcDbEntity
  8
0
  6
Continuous
 62
     7
370
    15
100
AcDbCircle
 10
3.384183704091071
 20
5.971091386622556
 30
0.0
 40
0.0243444644629899
100
AcDbArc
 50
173.0404543953011
 51
246.9610381949537
  0
LWPOLYLINE
  5
1A4
330
1F
100
AcDbEntity
  8
0
  6
Continuous
 62
     7
370
    15
100
AcDbPolyline
 90
        8
 70
   128
 43
0.0
 10
3.391554966751962
 20
6.011764220328754
 10
3.388242996129776
 20
6.012270550644915
 10
3.381380350835252
 20
6.011132692058454
 10
3.37467100569643
 20
6.00724867747143
 10
3.368711115472367
 20
6.000963618624613
 10
3.364030242564019
 20
5.992835970578071
 10
3.361044303070966
 20
5.983587910528336
 10
3.360018610820746
 20
5.974041169195269
  0
LWPOLYLINE
  5
1A5
330
1F
100
AcDbEntity
  8
0
  6
Continuous
 62
     7
370
    15
100
AcDbPolyline
 90
        8
 70
   128
 43
0.0
 10
3.508864588260514
 20
5.720907280181863
 10
3.509890280510735
 20
5.730454021514931
 10
3.512876220003787
 20
5.739702081564667
 10
3.517557092912134
 20
5.747829729611207
 10
3.523516983136198
 20
5.754114788458024
 10
3.530226328275021
 20
5.757998803045048
 10
3.537088973569545
 20
5.759136661631509
 10
3.54040094419173
 20
5.758630331315348
  0
ARC
  5
1A6
330
1F
100
AcDbEntity
  8
0
  6
Continuous
 62
     7
370
    15
100
AcDbCircle
 10
3.533029681530841
 20
5.717957497609151
 30
0.0
 40
0.0243444644629919
100
AcDbArc
 50
173.0404543953036
 51
246.9610381949534
  0
LWPOLYLINE
  5
1A7
330
1F
100
AcDbEntity
  8
0
  6
Continuous
 62
     7
370
    15
100
AcDbPolyline
 90
       22
 70
   128
 43
0.0
 10
3.510278801822887
 20
5.720907280181863
 10
3.511273079302811
 20
5.712185691065267
 10
3.514167565825172
 20
5.704771809266731
 10
3.518705073560216
 20
5.699324390719338
 10
3.524482425033159
 20
5.696327462466626
 10
3.530986277212141
 20
5.696047314735654
 10
3.537638734289374
 20
5.698508839881726
 10
3.543848696259719
 20
5.703493320593386
 10
3.549064380750141
 20
5.710557863885374
 10
3.552822351305012
 20
5.719074754083955
 10
3.554788695748949
 20
5.72828722811923
 10
3.554788695748949
 20
5.737376717244889
 10
3.552822351305012
 20
5.74553558046355
 10
3.549064380750141
 20
5.752038866973654
 10
3.543848696259719
 20
5.756308731229577
 10
3.537638734289374
 20
5.757965777054184
 10
3.530986277212141
 20
5.75686276865414
 10
3.524482425033159
 20
5.753097713166258
 10
3.518705073560216
 20
5.74700515229331
 10
3.514167565825172
 20
5.739126436805621
 10
3.511273079302811
 20
5.730161625149446
 10
3.510278801822887
 20
5.720907280181863
  0
ARC
  5
1A8
330
1F
100
AcDbEntity
  8
0
  6
Continuous
 62
     7
370
    15
100
AcDbCircle
 10
3.525605060328375
 20
5.719946635685208
 30
0.0
 40
0.0243444644629855
100
AcDbArc
 50
173.0404543952932
 51
246.9610381949618
  0
LWPOLYLINE
  5
1A9
330
1F
100
AcDbEntity
  8
0
  6
Continuous
 62
     7
370
    15
100
AcDbPolyline
 90
        8
 70
   128
 43
0.0
 10
3.532976322989271
 20
5.760619469391409
 10
3.529664352367085
 20
5.761125799707569
 10
3.522801707072563
 20
5.759987941121109
 10
3.516092361933738
 20
5.756103926534083
 10
3.510132471709676
 20
5.749818867687268
 10
3.505451598801328
 20
5.741691219640726
 10
3.502465659308276
 20
5.732443159590991
 10
3.501439967058056
 20
5.722896418257924
  0
LWPOLYLINE
  5
1AA
330
1F
100
AcDbEntity
  8
0
  6
Continuous
 62
     7
370
    15
100
AcDbPolyline
 90
        8
 70
   128
 43
0.0
 10
3.491186918730857
 20
6.679614887954508
 10
3.492212610981078
 20
6.689161629287576
 10
3.49519855047413
 20
6.698409689337311
 10
3.499879423382477
 20
6.706537337383852
 10
3.50583931360654
 20
6.712822396230668
 10
3.512548658745364
 20
6.716706410817693
 10
3.519411304039887
 20
6.717844269404154
 10
3.522723274662073
 20
6.717337939087991
  0
ARC
  5
1AB
330
1F
100
AcDbEntity
  8
0
  6
Continuous
 62
     7
370
    15
100
AcDbCircle
 10
3.51535201200118
 20
6.676665105381794
 30
0.0
 40
0.0243444644629882
100
AcDbArc
 50
173.0404543952982
 51
246.9610381949577
  0
LWPOLYLINE
  5
1AC
330
1F
100
AcDbEntity
  8
0
  6
Continuous
 62
     7
370
    15
100
AcDbPolyline
 90
       22
 70
   128
 43
0.0
 10
3.492601132293231
 20
6.679614887954508
 10
3.493595409773153
 20
6.670893298837912
 10
3.496489896295515
 20
6.663479417039375
 10
3.501027404030558
 20
6.658031998491982
 10
3.506804755503502
 20
6.655035070239271
 10
3.513308607682484
 20
6.654754922508299
 10
3.519961064759717
 20
6.657216447654369
 10
3.526171026730062
 20
6.66220092836603
 10
3.531386711220484
 20
6.669265471658018
 10
3.535144681775355
 20
6.677782361856599
 10
3.537111026219293
 20
6.686994835891875
 10
3.537111026219293
 20
6.696084325017533
 10
3.535144681775355
 20
6.704243188236194
 10
3.531386711220484
 20
6.710746474746298
 10
3.526171026730062
 20
6.715016339002221
 10
3.519961064759717
 20
6.71667338482683
 10
3.513308607682483
 20
6.715570376426784
 10
3.506804755503502
 20
6.711805320938902
 10
3.501027404030558
 20
6.705712760065955
 10
3.496489896295515
 20
6.697834044578266
 10
3.493595409773153
 20
6.68886923292209
 10
3.492601132293231
 20
6.679614887954508
  0
ARC
  5
1AD
330
1F
100
AcDbEntity
  8
0
  6
Continuous
 62
     7
370
    15
100
AcDbCircle
 10
3.507927390798721
 20
6.678654243457853
 30
0.0
 40
0.0243444644629884
100
AcDbArc
 50
173.0404543952964
 51
246.9610381949577
  0
LWPOLYLINE
  5
1AE
330
1F
100
AcDbEntity
  8
0
  6
Continuous
 62
     7
370
    15
100
AcDbPolyline
 90
        8
 70
   128
 43
0.0
 10
3.515298653459614
 20
6.719327077164053
 10
3.511986682837428
 20
6.719833407480214
 10
3.505124037542906
 20
6.718695548893753
 10
3.498414692404082
 20
6.714811534306728
 10
3.492454802180019
 20
6.708526475459912
 10
3.48777392927167
 20
6.700398827413369
 10
3.484787989778618
 20
6.691150767363634
 10
3.483762297528398
 20
6.681604026030568
  0
LWPOLYLINE
  5
1AF
330
1F
100
AcDbEntity
  8
0
  6
Continuous
 62
     7
370
    15
100
AcDbPolyline
 90
        8
 70
   128
 43
0.0
 10
3.632608274968161
 20
6.043092676692806
 10
3.633633967218381
 20
6.052639418025872
 10
3.636619906711434
 20
6.061887478075608
 10
3.641300779619782
 20
6.070015126122149
 10
3.647260669843844
 20
6.076300184968966
 10
3.653970014982668
 20
6.080184199555991
 10
3.660832660277191
 20
6.081322058142451
 10
3.664144630899377
 20
6.08081572782629
  0
ARC
  5
1B0
330
1F
100
AcDbEntity
  8
0
  6
Continuous
 62
     7
370
    15
100
AcDbCircle
 10
3.656773368238484
 20
6.040142894120092
 30
0.0
 40
0.024344464462989
100
AcDbArc
 50
173.0404543952985
 51
246.9610381949585
  0
LWPOLYLINE
  5
1B1
330
1F
100
AcDbEntity
  8
0
  6
Continuous
 62
     7
370
    15
100
AcDbPolyline
 90
       22
 70
   128
 43
0.0
 10
3.634022488530534
 20
6.043092676692806
 10
3.635016766010457
 20
6.034371087576208
 10
3.637911252532818
 20
6.026957205777671
 10
3.642448760267862
 20
6.021509787230279
 10
3.648226111740806
 20
6.018512858977568
 10
3.654729963919787
 20
6.018232711246596
 10
3.661382420997021
 20
6.020694236392667
 10
3.667592382967365
 20
6.025678717104328
 10
3.672808067457788
 20
6.032743260396315
 10
3.676566038012659
 20
6.041260150594896
 10
3.678532382456596
 20
6.050472624630172
 10
3.678532382456596
 20
6.059562113755831
 10
3.676566038012659
 20
6.067720976974491
 10
3.672808067457788
 20
6.074224263484596
 10
3.667592382967365
 20
6.078494127740517
 10
3.66138242099702
 20
6.080151173565127
 10
3.654729963919787
 20
6.079048165165082
 10
3.648226111740806
 20
6.075283109677199
 10
3.642448760267862
 20
6.069190548804251
 10
3.637911252532818
 20
6.061311833316563
 10
3.635016766010457
 20
6.052347021660388
 10
3.634022488530534
 20
6.043092676692806
  0
ARC
  5
1B2
330
1F
100
AcDbEntity
  8
0
  6
Continuous
 62
     7
370
    15
100
AcDbCircle
 10
3.649348747036023
 20
6.04213203219615
 30
0.0
 40
0.0243444644629862
100
AcDbArc
 50
173.0404543952958
 51
246.9610381949598
  0
LWPOLYLINE
  5
1B3
330
1F
100
AcDbEntity
  8
0
  6
Continuous
 62
     7
370
    15
100
AcDbPolyline
 90
        8
 70
   128
 43
0.0
 10
3.656720009696918
 20
6.082804865902351
 10
3.653408039074732
 20
6.083311196218511
 10
3.646545393780209
 20
6.082173337632051
 10
3.639836048641385
 20
6.078289323045025
 10
3.633876158417322
 20
6.072004264198209
 10
3.629195285508975
 20
6.063876616151666
 10
3.626209346015922
 20
6.054628556101932
 10
3.625183653765702
 20
6.045081814768865
  0
LWPOLYLINE
  5
1B4
330
1F
100
AcDbEntity
  8
0
  6
Continuous
 62
     7
370
    15
100
AcDbPolyline
 90
        8
 70
   128
 43
0.0
 10
3.376282066788035
 20
5.748010794697771
 10
3.377307759038257
 20
5.757557536030838
 10
3.380293698531308
 20
5.766805596080573
 10
3.384974571439656
 20
5.774933244127115
 10
3.390934461663719
 20
5.781218302973932
 10
3.397643806802542
 20
5.785102317560958
 10
3.404506452097066
 20
5.786240176147416
 10
3.407818422719251
 20
5.785733845831256
  0
ARC
  5
1B5
330
1F
100
AcDbEntity
  8
0
  6
Continuous
 62
     7
370
    15
100
AcDbCircle
 10
3.400447160058365
 20
5.745061012125059
 30
0.0
 40
0.0243444644629941
100
AcDbArc
 50
173.0404543953065
 51
246.9610381949485
  0
LWPOLYLINE
  5
1B6
330
1F
100
AcDbEntity
  8
0
  6
Continuous
 62
     7
370
    15
100
AcDbPolyline
 90
       22
 70
   128
 43
0.0
 10
3.377696280350409
 20
5.748010794697772
 10
3.378690557830332
 20
5.739289205581176
 10
3.381585044352694
 20
5.731875323782639
 10
3.386122552087738
 20
5.726427905235246
 10
3.391899903560681
 20
5.723430976982534
 10
3.398403755739663
 20
5.723150829251562
 10
3.405056212816896
 20
5.725612354397633
 10
3.411266174787241
 20
5.730596835109294
 10
3.416481859277663
 20
5.737661378401281
 10
3.420239829832533
 20
5.746178268599863
 10
3.422206174276472
 20
5.755390742635139
 10
3.422206174276472
 20
5.764480231760797
 10
3.420239829832533
 20
5.772639094979457
 10
3.416481859277663
 20
5.779142381489561
 10
3.411266174787241
 20
5.783412245745484
 10
3.405056212816896
 20
5.785069291570092
 10
3.398403755739662
 20
5.783966283170047
 10
3.391899903560681
 20
5.780201227682166
 10
3.386122552087738
 20
5.774108666809217
 10
3.381585044352694
 20
5.766229951321529
 10
3.378690557830332
 20
5.757265139665353
 10
3.377696280350409
 20
5.748010794697772
  0
ARC
  5
1B7
330
1F
100
AcDbEntity
  8
0
  6
Continuous
 62
     7
370
    15
100
AcDbCircle
 10
3.3930225388559
 20
5.747050150201118
 30
0.0
 40
0.0243444644629888
100
AcDbArc
 50
173.0404543953006
 51
246.9610381949594
  0
LWPOLYLINE
  5
1B8
330
1F
100
AcDbEntity
  8
0
  6
Continuous
 62
     7
370
    15
100
AcDbPolyline
 90
        8
 70
   128
 43
0.0
 10
3.400393801516792
 20
5.787722983907316
 10
3.397081830894607
 20
5.788229314223477
 10
3.390219185600083
 20
5.787091455637018
 10
3.383509840461261
 20
5.783207441049991
 10
3.377549950237197
 20
5.776922382203175
 10
3.37286907732885
 20
5.768794734156633
 10
3.369883137835797
 20
5.759546674106898
 10
3.368857445585577
 20
5.749999932773832
  0
LWPOLYLINE
  5
1B9
330
1F
100
AcDbEntity
  8
0
  6
Continuous
 62
     7
370
    15
100
AcDbPolyline
 90
        8
 70
   128
 43
0.0
 10
5.418052897464195
 20
6.232399928311747
 10
5.419078589714415
 20
6.241946669644815
 10
5.422064529207468
 20
6.25119472969455
 10
5.426745402115814
 20
6.25932237774109
 10
5.432705292339878
 20
6.265607436587908
 10
5.439414637478702
 20
6.269491451174934
 10
5.446277282773224
 20
6.270629309761393
 10
5.44958925339541
 20
6.270122979445232
  0
ARC
  5
1BA
330
1F
100
AcDbEntity
  8
0
  6
Continuous
 62
     7
370
    15
100
AcDbCircle
 10
5.442217990734518
 20
6.229450145739034
 30
0.0
 40
0.0243444644629898
100
AcDbArc
 50
173.0404543953006
 51
246.9610381949593
  0
LWPOLYLINE
  5
1BB
330
1F
100
AcDbEntity
  8
0
  6
Continuous
 62
     7
370
    15
100
AcDbPolyline
 90
       22
 70
   128
 43
0.0
 10
5.419467111026568
 20
6.232399928311747
 10
5.420461388506491
 20
6.223678339195151
 10
5.423355875028852
 20
6.216264457396615
 10
5.427893382763897
 20
6.21081703884922
 10
5.43367073423684
 20
6.207820110596509
 10
5.440174586415821
 20
6.207539962865538
 10
5.446827043493055
 20
6.210001488011609
 10
5.453037005463399
 20
6.21498596872327
 10
5.458252689953821
 20
6.222050512015256
 10
5.462010660508694
 20
6.230567402213838
 10
5.463977004952631
 20
6.239779876249113
 10
5.463977004952631
 20
6.248869365374773
 10
5.462010660508692
 20
6.257028228593433
 10
5.458252689953821
 20
6.263531515103538
 10
5.453037005463399
 20
6.267801379359459
 10
5.446827043493055
 20
6.269458425184069
 10
5.440174586415821
 20
6.268355416784024
 10
5.43367073423684
 20
6.264590361296142
 10
5.427893382763896
 20
6.258497800423194
 10
5.423355875028852
 20
6.250619084935505
 10
5.42046138850649
 20
6.24165427327933
 10
5.419467111026568
 20
6.232399928311747
  0
ARC
  5
1BC
330
1F
100
AcDbEntity
  8
0
  6
Continuous
 62
     7
370
    15
100
AcDbCircle
 10
5.434793369532059
 20
6.231439283815092
 30
0.0
 40
0.0243444644629874
100
AcDbArc
 50
173.0404543952982
 51
246.9610381949568
  0
LWPOLYLINE
  5
1BD
330
1F
100
AcDbEntity
  8
0
  6
Continuous
 62
     7
370
    15
100
AcDbPolyline
 90
        8
 70
   128
 43
0.0
 10
5.442164632192952
 20
6.272112117521292
 10
5.438852661570765
 20
6.272618447837452
 10
5.431990016276242
 20
6.271480589250993
 10
5.42528067113742
 20
6.267596574663967
 10
5.419320780913357
 20
6.26131151581715
 10
5.414639908005009
 20
6.253183867770609
 10
5.411653968511957
 20
6.243935807720874
 10
5.410628276261737
 20
6.234389066387806
  0
LWPOLYLINE
  5
1BE
330
1F
100
AcDbEntity
  8
0
  6
Continuous
 62
     7
370
    15
100
AcDbPolyline
 90
        8
 70
   128
 43
0.0
 10
5.285399665313606
 20
7.088046038352866
 10
5.286425357563826
 20
7.097592779685933
 10
5.289411297056879
 20
7.106840839735668
 10
5.294092169965227
 20
7.11496848778221
 10
5.300052060189289
 20
7.121253546629026
 10
5.306761405328114
 20
7.125137561216051
 10
5.313624050622637
 20
7.126275419802512
 10
5.316936021244821
 20
7.12576908948635
  0
ARC
  5
1BF
330
1F
100
AcDbEntity
  8
0
  6
Continuous
 62
     7
370
    15
100
AcDbCircle
 10
5.309564758583932
 20
7.085096255780153
 30
0.0
 40
0.0243444644629917
100
AcDbArc
 50
173.0404543953034
 51
246.9610381949543
  0
LWPOLYLINE
  5
1C0
330
1F
100
AcDbEntity
  8
0
  6
Continuous
 62
     7
370
    15
100
AcDbPolyline
 90
       22
 70
   128
 43
0.0
 10
5.28681387887598
 20
7.088046038352866
 10
5.287808156355902
 20
7.07932444923627
 10
5.290702642878264
 20
7.071910567437734
 10
5.295240150613308
 20
7.066463148890339
 10
5.301017502086252
 20
7.063466220637628
 10
5.307521354265233
 20
7.063186072906656
 10
5.314173811342466
 20
7.065647598052728
 10
5.320383773312811
 20
7.070632078764388
 10
5.325599457803233
 20
7.077696622056374
 10
5.329357428358105
 20
7.086213512254957
 10
5.331323772802043
 20
7.095425986290232
 10
5.331323772802043
 20
7.104515475415891
 10
5.329357428358105
 20
7.112674338634552
 10
5.325599457803233
 20
7.119177625144656
 10
5.320383773312811
 20
7.123447489400579
 10
5.314173811342466
 20
7.125104535225187
 10
5.307521354265233
 20
7.124001526825143
 10
5.301017502086251
 20
7.120236471337261
 10
5.295240150613308
 20
7.114143910464312
 10
5.290702642878264
 20
7.106265194976623
 10
5.287808156355902
 20
7.097300383320448
 10
5.28681387887598
 20
7.088046038352866
  0
ARC
  5
1C1
330
1F
100
AcDbEntity
  8
0
  6
Continuous
 62
     7
370
    15
100
AcDbCircle
 10
5.302140137381466
 20
7.087085393856209
 30
0.0
 40
0.0243444644629841
100
AcDbArc
 50
173.0404543952931
 51
246.9610381949648
  0
LWPOLYLINE
  5
1C2
330
1F
100
AcDbEntity
  8
0
  6
Continuous
 62
     7
370
    15
100
AcDbPolyline
 90
        8
 70
   128
 43
0.0
 10
5.309511400042363
 20
7.127758227562411
 10
5.306199429420177
 20
7.128264557878572
 10
5.299336784125654
 20
7.127126699292111
 10
5.292627438986831
 20
7.123242684705085
 10
5.286667548762768
 20
7.116957625858269
 10
5.28198667585442
 20
7.108829977811728
 10
5.279000736361368
 20
7.099581917761993
 10
5.277975044111148
 20
7.090035176428926
  0
LWPOLYLINE
  5
1C3
330
1F
100
AcDbEntity
  8
0
  6
Continuous
 62
     7
370
    15
100
AcDbPolyline
 90
        8
 70
   128
 43
0.0
 10
5.285470375991717
 20
6.259503442827656
 10
5.286496068241937
 20
6.269050184160724
 10
5.28948200773499
 20
6.27829824421046
 10
5.294162880643338
 20
6.286425892257001
 10
5.300122770867401
 20
6.292710951103817
 10
5.306832116006225
 20
6.296594965690843
 10
5.313694761300748
 20
6.297732824277303
 10
5.317006731922933
 20
6.297226493961142
  0
ARC
  5
1C4
330
1F
100
AcDbEntity
  8
0
  6
Continuous
 62
     7
370
    15
100
AcDbCircle
 10
5.309635469262043
 20
6.256553660254943
 30
0.0
 40
0.0243444644629908
100
AcDbArc
 50
173.0404543953014
 51
246.9610381949527
  0
LWPOLYLINE
  5
1C5
330
1F
100
AcDbEntity
  8
0
  6
Continuous
 62
     7
370
    15
100
AcDbPolyline
 90
       22
 70
   128
 43
0.0
 10
5.286884589554091
 20
6.259503442827656
 10
5.287878867034013
 20
6.25078185371106
 10
5.290773353556375
 20
6.243367971912524
 10
5.29531086129142
 20
6.237920553365131
 10
5.301088212764363
 20
6.23492362511242
 10
5.307592064943345
 20
6.234643477381448
 10
5.314244522020578
 20
6.237105002527519
 10
5.320454483990922
 20
6.242089483239181
 10
5.325670168481344
 20
6.249154026531167
 10
5.329428139036216
 20
6.257670916729749
 10
5.331394483480154
 20
6.266883390765023
 10
5.331394483480154
 20
6.275972879890684
 10
5.329428139036216
 20
6.284131743109345
 10
5.325670168481345
 20
6.290635029619447
 10
5.320454483990922
 20
6.294904893875369
 10
5.314244522020578
 20
6.296561939699978
 10
5.307592064943345
 20
6.295458931299934
 10
5.301088212764362
 20
6.291693875812051
 10
5.29531086129142
 20
6.285601314939103
 10
5.290773353556375
 20
6.277722599451415
 10
5.287878867034013
 20
6.268757787795239
 10
5.286884589554091
 20
6.259503442827656
  0
ARC
  5
1C6
330
1F
100
AcDbEntity
  8
0
  6
Continuous
 62
     7
370
    15
100
AcDbCircle
 10
5.302210848059579
 20
6.258542798331002
 30
0.0
 40
0.0243444644629863
100
AcDbArc
 50
173.0404543952957
 51
246.9610381949626
  0
LWPOLYLINE
  5
1C7
330
1F
100
AcDbEntity
  8
0
  6
Continuous
 62
     7
370
    15
100
AcDbPolyline
 90
        8
 70
   128
 43
0.0
 10
5.309582110720474
 20
6.299215632037202
 10
5.306270140098289
 20
6.299721962353364
 10
5.299407494803765
 20
6.298584103766904
 10
5.292698149664942
 20
6.294700089179878
 10
5.286738259440879
 20
6.288415030333061
 10
5.282057386532531
 20
6.280287382286519
 10
5.279071447039479
 20
6.271039322236783
 10
5.278045754789259
 20
6.261492580903717
  0
LWPOLYLINE
  5
1C8
330
1F
100
AcDbEntity
  8
0
  6
Continuous
 62
     7
370
    15
100
AcDbPolyline
 90
        8
 70
   128
 43
0.0
 10
5.40037522793454
 20
7.191107536084392
 10
5.401400920184761
 20
7.20065427741746
 10
5.404386859677813
 20
7.209902337467195
 10
5.40906773258616
 20
7.218029985513737
 10
5.415027622810223
 20
7.224315044360553
 10
5.421736967949047
 20
7.228199058947579
 10
5.42859961324357
 20
7.229336917534039
 10
5.431911583865756
 20
7.228830587217878
  0
ARC
  5
1C9
330
1F
100
AcDbEntity
  8
0
  6
Continuous
 62
     7
370
    15
100
AcDbCircle
 10
5.424540321204862
 20
7.188157753511678
 30
0.0
 40
0.0243444644629867
100
AcDbArc
 50
173.040454395298
 51
246.9610381949606
  0
LWPOLYLINE
  5
1CA
330
1F
100
AcDbEntity
  8
0
  6
Continuous
 62
     7
370
    15
100
AcDbPolyline
 90
       22
 70
   128
 43
0.0
 10
5.401789441496913
 20
7.191107536084392
 10
5.402783718976835
 20
7.182385946967796
 10
5.405678205499198
 20
7.17497206516926
 10
5.410215713234243
 20
7.169524646621867
 10
5.415993064707185
 20
7.166527718369156
 10
5.422496916886167
 20
7.166247570638184
 10
5.429149373963401
 20
7.168709095784254
 10
5.435359335933744
 20
7.173693576495916
 10
5.440575020424167
 20
7.180758119787903
 10
5.444332990979038
 20
7.189275009986485
 10
5.446299335422976
 20
7.19848748402176
 10
5.446299335422976
 20
7.207576973147418
 10
5.444332990979038
 20
7.215735836366079
 10
5.440575020424167
 20
7.222239122876183
 10
5.435359335933744
 20
7.226508987132105
 10
5.4291493739634
 20
7.228166032956715
 10
5.422496916886167
 20
7.22706302455667
 10
5.415993064707185
 20
7.223297969068787
 10
5.410215713234241
 20
7.21720540819584
 10
5.405678205499198
 20
7.209326692708151
 10
5.402783718976835
 20
7.200361881051975
 10
5.401789441496913
 20
7.191107536084392
  0
ARC
  5
1CB
330
1F
100
AcDbEntity
  8
0
  6
Continuous
 62
     7
370
    15
100
AcDbCircle
 10
5.417115700002401
 20
7.19014689158774
 30
0.0
 40
0.0243444644629871
100
AcDbArc
 50
173.0404543952998
 51
246.9610381949634
  0
LWPOLYLINE
  5
1CC
330
1F
100
AcDbEntity
  8
0
  6
Continuous
 62
     7
370
    15
100
AcDbPolyline
 90
        8
 70
   128
 43
0.0
 10
5.424486962663296
 20
7.230819725293938
 10
5.421174992041111
 20
7.231326055610099
 10
5.414312346746587
 20
7.23018819702364
 10
5.407603001607765
 20
7.226304182436614
 10
5.401643111383701
 20
7.220019123589797
 10
5.396962238475355
 20
7.211891475543255
 10
5.393976298982302
 20
7.20264341549352
 10
5.392950606732081
 20
7.193096674160453
  0
LWPOLYLINE
  5
1CD
330
1F
100
AcDbEntity
  8
0
  6
Continuous
 62
     7
370
    15
100
AcDbPolyline
 90
        8
 70
   128
 43
0.0
 10
5.541796584171843
 20
6.55458532482269
 10
5.542822276422064
 20
6.564132066155758
 10
5.545808215915117
 20
6.573380126205494
 10
5.550489088823464
 20
6.581507774252036
 10
5.556448979047527
 20
6.587792833098851
 10
5.56315832418635
 20
6.591676847685877
 10
5.570020969480873
 20
6.592814706272338
 10
5.573332940103059
 20
6.592308375956174
  0
ARC
  5
1CE
330
1F
100
AcDbEntity
  8
0
  6
Continuous
 62
     7
370
    15
100
AcDbCircle
 10
5.565961677442171
 20
6.551635542249979
 30
0.0
 40
0.0243444644629932
100
AcDbArc
 50
173.040454395306
 51
246.9610381949513
  0
LWPOLYLINE
  5
1CF
330
1F
100
AcDbEntity
  8
0
  6
Continuous
 62
     7
370
    15
100
AcDbPolyline
 90
       22
 70
   128
 43
0.0
 10
5.543210797734216
 20
6.55458532482269
 10
5.544205075214139
 20
6.545863735706094
 10
5.547099561736501
 20
6.538449853907557
 10
5.551637069471546
 20
6.533002435360164
 10
5.557414420944488
 20
6.530005507107452
 10
5.563918273123471
 20
6.52972535937648
 10
5.570570730200704
 20
6.532186884522552
 10
5.576780692171049
 20
6.537171365234213
 10
5.581996376661471
 20
6.5442359085262
 10
5.585754347216341
 20
6.552752798724782
 10
5.587720691660279
 20
6.561965272760057
 10
5.587720691660279
 20
6.571054761885716
 10
5.585754347216341
 20
6.579213625104377
 10
5.581996376661471
 20
6.585716911614481
 10
5.576780692171047
 20
6.589986775870404
 10
5.570570730200704
 20
6.591643821695012
 10
5.56391827312347
 20
6.590540813294967
 10
5.557414420944488
 20
6.586775757807084
 10
5.551637069471546
 20
6.580683196934137
 10
5.547099561736501
 20
6.572804481446447
 10
5.544205075214139
 20
6.563839669790273
 10
5.543210797734216
 20
6.55458532482269
  0
ARC
  5
1D0
330
1F
100
AcDbEntity
  8
0
  6
Continuous
 62
     7
370
    15
100
AcDbCircle
 10
5.558537056239707
 20
6.553624680326036
 30
0.0
 40
0.0243444644629878
100
AcDbArc
 50
173.0404543952962
 51
246.9610381949596
  0
LWPOLYLINE
  5
1D1
330
1F
100
AcDbEntity
  8
0
  6
Continuous
 62
     7
370
    15
100
AcDbPolyline
 90
        8
 70
   128
 43
0.0
 10
5.565908318900599
 20
6.594297514032235
 10
5.562596348278414
 20
6.594803844348397
 10
5.555733702983891
 20
6.593665985761936
 10
5.549024357845068
 20
6.589781971174911
 10
5.543064467621004
 20
6.583496912328094
 10
5.538383594712658
 20
6.575369264281552
 10
5.535397655219605
 20
6.566121204231817
 10
5.534371962969385
 20
6.556574462898751
  0
LWPOLYLINE
  5
1D2
330
1F
100
AcDbEntity
  8
0
  6
Continuous
 62
     7
370
    15
100
AcDbPolyline
 90
        8
 70
   128
 43
0.0
 10
5.144049019754407
 20
6.158991261219032
 10
5.145074712004628
 20
6.168538002552099
 10
5.14806065149768
 20
6.177786062601835
 10
5.152741524406028
 20
6.185913710648376
 10
5.158701414630091
 20
6.192198769495194
 10
5.165410759768914
 20
6.196082784082219
 10
5.172273405063438
 20
6.197220642668678
 10
5.175585375685622
 20
6.196714312352517
  0
ARC
  5
1D3
330
1F
100
AcDbEntity
  8
0
  6
Continuous
 62
     7
370
    15
100
AcDbCircle
 10
5.168214113024733
 20
6.15604147864632
 30
0.0
 40
0.0243444644629917
100
AcDbArc
 50
173.0404543953034
 51
246.9610381949543
  0
LWPOLYLINE
  5
1D4
330
1F
100
AcDbEntity
  8
0
  6
Continuous
 62
     7
370
    15
100
AcDbPolyline
 90
       22
 70
   128
 43
0.0
 10
5.145463233316781
 20
6.158991261219032
 10
5.146457510796704
 20
6.150269672102435
 10
5.149351997319064
 20
6.142855790303899
 10
5.15388950505411
 20
6.137408371756506
 10
5.159666856527052
 20
6.134411443503795
 10
5.166170708706035
 20
6.134131295772823
 10
5.172823165783268
 20
6.136592820918894
 10
5.179033127753612
 20
6.141577301630555
 10
5.184248812244035
 20
6.148641844922542
 10
5.188006782798906
 20
6.157158735121124
 10
5.189973127242843
 20
6.166371209156399
 10
5.189973127242843
 20
6.175460698282059
 10
5.188006782798906
 20
6.183619561500719
 10
5.184248812244033
 20
6.190122848010823
 10
5.179033127753612
 20
6.194392712266746
 10
5.172823165783268
 20
6.196049758091356
 10
5.166170708706035
 20
6.194946749691309
 10
5.159666856527052
 20
6.191181694203428
 10
5.15388950505411
 20
6.185089133330479
 10
5.149351997319064
 20
6.177210417842791
 10
5.146457510796704
 20
6.168245606186616
 10
5.145463233316781
 20
6.158991261219032
  0
ARC
  5
1D5
330
1F
100
AcDbEntity
  8
0
  6
Continuous
 62
     7
370
    15
100
AcDbCircle
 10
5.160789491822271
 20
6.158030616722379
 30
0.0
 40
0.0243444644629882
100
AcDbArc
 50
173.0404543953006
 51
246.9610381949596
  0
LWPOLYLINE
  5
1D6
330
1F
100
AcDbEntity
  8
0
  6
Continuous
 62
     7
370
    15
100
AcDbPolyline
 90
        8
 70
   128
 43
0.0
 10
5.168160754483164
 20
6.198703450428578
 10
5.164848783860978
 20
6.199209780744739
 10
5.157986138566456
 20
6.198071922158279
 10
5.151276793427632
 20
6.194187907571253
 10
5.145316903203569
 20
6.187902848724436
 10
5.140636030295222
 20
6.179775200677894
 10
5.137650090802169
 20
6.170527140628159
 10
5.136624398551948
 20
6.160980399295092
  0
LWPOLYLINE
  5
1D7
330
1F
100
AcDbEntity
  8
0
  6
Continuous
 62
     7
370
    15
100
AcDbPolyline
 90
        8
 70
   128
 43
0.0
 10
5.294238500078437
 20
6.92181142098008
 10
5.295264192328657
 20
6.931358162313148
 10
5.298250131821709
 20
6.940606222362883
 10
5.302931004730057
 20
6.948733870409425
 10
5.30889089495412
 20
6.955018929256241
 10
5.315600240092943
 20
6.958902943843267
 10
5.322462885387467
 20
6.960040802429726
 10
5.325774856009652
 20
6.959534472113565
  0
ARC
  5
1D8
330
1F
100
AcDbEntity
  8
0
  6
Continuous
 62
     7
370
    15
100
AcDbCircle
 10
5.318403593348762
 20
6.918861638407367
 30
0.0
 40
0.0243444644629909
100
AcDbArc
 50
173.0404543953011
 51
246.9610381949535
  0
LWPOLYLINE
  5
1D9
330
1F
100
AcDbEntity
  8
0
  6
Continuous
 62
     7
370
    15
100
AcDbPolyline
 90
       22
 70
   128
 43
0.0
 10
5.29565271364081
 20
6.92181142098008
 10
5.296646991120733
 20
6.913089831863485
 10
5.299541477643094
 20
6.905675950064947
 10
5.304078985378139
 20
6.900228531517553
 10
5.309856336851082
 20
6.897231603264843
 10
5.316360189030064
 20
6.89695145553387
 10
5.323012646107297
 20
6.899412980679943
 10
5.329222608077641
 20
6.904397461391603
 10
5.334438292568064
 20
6.911462004683589
 10
5.338196263122934
 20
6.919978894882172
 10
5.340162607566872
 20
6.929191368917447
 10
5.340162607566872
 20
6.938280858043106
 10
5.338196263122934
 20
6.946439721261767
 10
5.334438292568064
 20
6.952943007771871
 10
5.329222608077641
 20
6.957212872027792
 10
5.323012646107296
 20
6.958869917852402
 10
5.316360189030064
 20
6.957766909452357
 10
5.309856336851082
 20
6.954001853964475
 10
5.304078985378138
 20
6.947909293091527
 10
5.299541477643094
 20
6.940030577603837
 10
5.296646991120733
 20
6.931065765947663
 10
5.29565271364081
 20
6.92181142098008
  0
ARC
  5
1DA
330
1F
100
AcDbEntity
  8
0
  6
Continuous
 62
     7
370
    15
100
AcDbCircle
 10
5.310978972146298
 20
6.920850776483425
 30
0.0
 40
0.0243444644629863
100
AcDbArc
 50
173.0404543952977
 51
246.9610381949626
  0
LWPOLYLINE
  5
1DB
330
1F
100
AcDbEntity
  8
0
  6
Continuous
 62
     7
370
    15
100
AcDbPolyline
 90
        8
 70
   128
 43
0.0
 10
5.318350234807192
 20
6.961523610189626
 10
5.315038264185007
 20
6.962029940505787
 10
5.308175618890484
 20
6.960892081919327
 10
5.301466273751661
 20
6.957008067332302
 10
5.295506383527597
 20
6.950723008485484
 10
5.290825510619251
 20
6.942595360438943
 10
5.287839571126198
 20
6.933347300389208
 10
5.286813878875978
 20
6.92380055905614
  0
LWPOLYLINE
  5
1DC
330
1F
100
AcDbEntity
  8
0
  6
Continuous
 62
     7
370
    15
100
AcDbPolyline
 90
        8
 70
   128
 43
0.0
 10
5.382626847726756
 20
7.017749909982096
 10
5.383652539976977
 20
7.027296651315163
 10
5.386638479470028
 20
7.036544711364898
 10
5.391319352378377
 20
7.044672359411441
 10
5.397279242602439
 20
7.050957418258256
 10
5.403988587741262
 20
7.054841432845282
 10
5.410851233035786
 20
7.055979291431742
 10
5.414163203657971
 20
7.055472961115579
  0
ARC
  5
1DD
330
1F
100
AcDbEntity
  8
0
  6
Continuous
 62
     7
370
    15
100
AcDbCircle
 10
5.406791940997084
 20
7.014800127409384
 30
0.0
 40
0.0243444644629935
100
AcDbArc
 50
173.0404543953062
 51
246.9610381949494
  0
LWPOLYLINE
  5
1DE
330
1F
100
AcDbEntity
  8
0
  6
Continuous
 62
     7
370
    15
100
AcDbPolyline
 90
       22
 70
   128
 43
0.0
 10
5.384041061289129
 20
7.017749909982096
 10
5.385035338769052
 20
7.009028320865499
 10
5.387929825291413
 20
7.001614439066963
 10
5.392467333026458
 20
6.996167020519569
 10
5.398244684499401
 20
6.993170092266858
 10
5.404748536678383
 20
6.992889944535885
 10
5.411400993755616
 20
6.995351469681957
 10
5.41761095572596
 20
7.000335950393619
 10
5.422826640216383
 20
7.007400493685605
 10
5.426584610771254
 20
7.015917383884187
 10
5.428550955215191
 20
7.025129857919463
 10
5.428550955215191
 20
7.034219347045121
 10
5.426584610771254
 20
7.042378210263782
 10
5.422826640216383
 20
7.048881496773886
 10
5.41761095572596
 20
7.053151361029808
 10
5.411400993755616
 20
7.054808406854418
 10
5.404748536678383
 20
7.053705398454372
 10
5.398244684499401
 20
7.04994034296649
 10
5.392467333026457
 20
7.043847782093543
 10
5.387929825291413
 20
7.035969066605852
 10
5.385035338769052
 20
7.027004254949678
 10
5.384041061289129
 20
7.017749909982096
  0
ARC
  5
1DF
330
1F
100
AcDbEntity
  8
0
  6
Continuous
 62
     7
370
    15
100
AcDbCircle
 10
5.39936731979462
 20
7.016789265485442
 30
0.0
 40
0.024344464462989
100
AcDbArc
 50
173.0404543953006
 51
246.9610381949585
  0
LWPOLYLINE
  5
1E0
330
1F
100
AcDbEntity
  8
0
  6
Continuous
 62
     7
370
    15
100
AcDbPolyline
 90
        8
 70
   128
 43
0.0
 10
5.406738582455513
 20
7.057462099191641
 10
5.403426611833326
 20
7.057968429507802
 10
5.396563966538804
 20
7.056830570921341
 10
5.38985462139998
 20
7.052946556334316
 10
5.383894731175916
 20
7.046661497487499
 10
5.37921385826757
 20
7.038533849440957
 10
5.376227918774517
 20
7.029285789391222
 10
5.375202226524297
 20
7.019739048058156
  0
LWPOLYLINE
  5
1E1
330
1F
100
AcDbEntity
  8
0
  6
Continuous
 62
     7
370
    15
100
AcDbPolyline
 90
        8
 70
   128
 43
0.0
 10
5.276631541226887
 20
6.483544679249096
 10
5.277657233477108
 20
6.493091420582162
 10
5.280643172970161
 20
6.502339480631897
 10
5.285324045878508
 20
6.510467128678439
 10
5.291283936102571
 20
6.516752187525256
 10
5.297993281241395
 20
6.520636202112283
 10
5.304855926535918
 20
6.521774060698742
 10
5.308167897158103
 20
6.52126773038258
  0
ARC
  5
1E2
330
1F
100
AcDbEntity
  8
0
  6
Continuous
 62
     7
370
    15
100
AcDbCircle
 10
5.300796634497212
 20
6.480594896676383
 30
0.0
 40
0.024344464462991
100
AcDbArc
 50
173.0404543953032
 51
246.9610381949582
  0
LWPOLYLINE
  5
1E3
330
1F
100
AcDbEntity
  8
0
  6
Continuous
 62
     7
370
    15
100
AcDbPolyline
 90
       22
 70
   128
 43
0.0
 10
5.278045754789261
 20
6.483544679249095
 10
5.279040032269183
 20
6.474823090132499
 10
5.281934518791546
 20
6.467409208333961
 10
5.286472026526589
 20
6.461961789786569
 10
5.292249377999533
 20
6.458964861533858
 10
5.298753230178514
 20
6.458684713802886
 10
5.305405687255747
 20
6.461146238948957
 10
5.311615649226093
 20
6.466130719660618
 10
5.316831333716515
 20
6.473195262952605
 10
5.320589304271385
 20
6.481712153151186
 10
5.322555648715323
 20
6.490924627186462
 10
5.322555648715323
 20
6.500014116312121
 10
5.320589304271385
 20
6.508172979530781
 10
5.316831333716515
 20
6.514676266040886
 10
5.311615649226093
 20
6.518946130296808
 10
5.305405687255747
 20
6.520603176121418
 10
5.298753230178514
 20
6.519500167721372
 10
5.292249377999533
 20
6.51573511223349
 10
5.286472026526589
 20
6.509642551360541
 10
5.281934518791546
 20
6.501763835872853
 10
5.279040032269183
 20
6.492799024216678
 10
5.278045754789261
 20
6.483544679249095
  0
ARC
  5
1E4
330
1F
100
AcDbEntity
  8
0
  6
Continuous
 62
     7
370
    15
100
AcDbCircle
 10
5.293372013294746
 20
6.482584034752439
 30
0.0
 40
0.0243444644629833
100
AcDbArc
 50
173.0404543952926
 51
246.9610381949687
  0
LWPOLYLINE
  5
1E5
330
1F
100
AcDbEntity
  8
0
  6
Continuous
 62
     7
370
    15
100
AcDbPolyline
 90
        8
 70
   128
 43
0.0
 10
5.300743275955644
 20
6.52325686845864
 10
5.297431305333459
 20
6.523763198774801
 10
5.290568660038935
 20
6.522625340188341
 10
5.283859314900111
 20
6.518741325601316
 10
5.277899424676049
 20
6.512456266754499
 10
5.273218551767701
 20
6.504328618707957
 10
5.270232612274648
 20
6.495080558658222
 10
5.269206920024429
 20
6.485533817325155
  0
LWPOLYLINE
  5
1E6
330
1F
100
AcDbEntity
  8
0
  6
Continuous
 62
     7
370
    15
100
AcDbPolyline
 90
        8
 70
   128
 43
0.0
 10
3.234860710550725
 20
5.647498613089147
 10
3.235886402800945
 20
5.657045354422214
 10
3.238872342293998
 20
5.666293414471949
 10
3.243553215202345
 20
5.674421062518491
 10
3.249513105426408
 20
5.680706121365307
 10
3.256222450565232
 20
5.684590135952332
 10
3.263085095859755
 20
5.685727994538793
 10
3.266397066481941
 20
5.68522166422263
  0
ARC
  5
1E7
330
1F
100
AcDbEntity
  8
0
  6
Continuous
 62
     7
370
    15
100
AcDbCircle
 10
3.259025803821051
 20
5.644548830516433
 30
0.0
 40
0.024344464462991
100
AcDbArc
 50
173.0404543953014
 51
246.9610381949526
  0
LWPOLYLINE
  5
1E8
330
1F
100
AcDbEntity
  8
0
  6
Continuous
 62
     7
370
    15
100
AcDbPolyline
 90
       22
 70
   128
 43
0.0
 10
3.236274924113097
 20
5.647498613089147
 10
3.237269201593021
 20
5.638777023972551
 10
3.240163688115382
 20
5.631363142174014
 10
3.244701195850426
 20
5.62591572362662
 10
3.25047854732337
 20
5.622918795373911
 10
3.256982399502351
 20
5.622638647642938
 10
3.263634856579585
 20
5.625100172789008
 10
3.269844818549929
 20
5.63008465350067
 10
3.275060503040351
 20
5.637149196792657
 10
3.278818473595222
 20
5.645666086991238
 10
3.280784818039161
 20
5.654878561026514
 10
3.280784818039161
 20
5.663968050152172
 10
3.278818473595223
 20
5.672126913370833
 10
3.275060503040352
 20
5.678630199880937
 10
3.26984481854993
 20
5.682900064136859
 10
3.263634856579585
 20
5.684557109961469
 10
3.256982399502351
 20
5.683454101561424
 10
3.25047854732337
 20
5.679689046073541
 10
3.244701195850427
 20
5.673596485200594
 10
3.240163688115383
 20
5.665717769712903
 10
3.237269201593021
 20
5.656752958056729
 10
3.236274924113097
 20
5.647498613089147
  0
ARC
  5
1E9
330
1F
100
AcDbEntity
  8
0
  6
Continuous
 62
     7
370
    15
100
AcDbCircle
 10
3.251601182618589
 20
5.646537968592492
 30
0.0
 40
0.0243444644629878
100
AcDbArc
 50
173.0404543952982
 51
246.9610381949596
  0
LWPOLYLINE
  5
1EA
330
1F
100
AcDbEntity
  8
0
  6
Continuous
 62
     7
370
    15
100
AcDbPolyline
 90
        8
 70
   128
 43
0.0
 10
3.258972445279482
 20
5.687210802298692
 10
3.255660474657296
 20
5.687717132614852
 10
3.248797829362773
 20
5.686579274028392
 10
3.242088484223949
 20
5.682695259441367
 10
3.236128593999886
 20
5.67641020059455
 10
3.231447721091539
 20
5.668282552548008
 10
3.228461781598487
 20
5.659034492498273
 10
3.227436089348266
 20
5.649487751165207
  0
LWPOLYLINE
  5
1EB
330
1F
100
AcDbEntity
  8
0
  6
Continuous
 62
     7
370
    15
100
AcDbPolyline
 90
        8
 70
   128
 43
0.0
 10
5.541796584171842
 20
6.328176066882133
 10
5.542822276422063
 20
6.337722808215199
 10
5.545808215915115
 20
6.346970868264935
 10
5.550489088823463
 20
6.355098516311477
 10
5.556448979047525
 20
6.361383575158292
 10
5.563158324186349
 20
6.365267589745318
 10
5.570020969480871
 20
6.366405448331779
 10
5.573332940103058
 20
6.365899118015617
  0
ARC
  5
1EC
330
1F
100
AcDbEntity
  8
0
  6
Continuous
 62
     7
370
    15
100
AcDbCircle
 10
5.565961677442164
 20
6.325226284309419
 30
0.0
 40
0.0243444644629887
100
AcDbArc
 50
173.0404543952982
 51
246.9610381949604
  0
LWPOLYLINE
  5
1ED
330
1F
100
AcDbEntity
  8
0
  6
Continuous
 62
     7
370
    15
100
AcDbPolyline
 90
       22
 70
   128
 43
0.0
 10
5.543210797734214
 20
6.328176066882131
 10
5.544205075214137
 20
6.319454477765535
 10
5.5470995617365
 20
6.312040595966998
 10
5.551637069471544
 20
6.306593177419606
 10
5.557414420944487
 20
6.303596249166895
 10
5.563918273123469
 20
6.303316101435923
 10
5.570570730200702
 20
6.305777626581994
 10
5.576780692171046
 20
6.310762107293656
 10
5.581996376661469
 20
6.317826650585642
 10
5.58575434721634
 20
6.326343540784223
 10
5.587720691660278
 20
6.335556014819499
 10
5.587720691660278
 20
6.344645503945157
 10
5.58575434721634
 20
6.352804367163819
 10
5.581996376661468
 20
6.359307653673923
 10
5.576780692171046
 20
6.363577517929845
 10
5.570570730200702
 20
6.365234563754453
 10
5.563918273123469
 20
6.364131555354409
 10
5.557414420944486
 20
6.360366499866526
 10
5.551637069471544
 20
6.354273938993578
 10
5.5470995617365
 20
6.346395223505889
 10
5.544205075214137
 20
6.337430411849714
 10
5.543210797734214
 20
6.328176066882131
  0
ARC
  5
1EE
330
1F
100
AcDbEntity
  8
0
  6
Continuous
 62
     7
370
    15
100
AcDbCircle
 10
5.558537056239706
 20
6.327215422385478
 30
0.0
 40
0.0243444644629887
100
AcDbArc
 50
173.0404543952985
 51
246.9610381949604
  0
LWPOLYLINE
  5
1EF
330
1F
100
AcDbEntity
  8
0
  6
Continuous
 62
     7
370
    15
100
AcDbPolyline
 90
        8
 70
   128
 43
0.0
 10
5.565908318900598
 20
6.367888256091677
 10
5.562596348278413
 20
6.368394586407839
 10
5.555733702983889
 20
6.367256727821379
 10
5.549024357845066
 20
6.363372713234352
 10
5.543064467621003
 20
6.357087654387536
 10
5.538383594712656
 20
6.348960006340995
 10
5.535397655219603
 20
6.339711946291259
 10
5.534371962969383
 20
6.330165204958192
  0
ARC
  5
1F0
330
1F
100
AcDbEntity
  8
0
  6
Continuous
 62
     7
370
    15
100
AcDbCircle
 10
6.392420869933973
 20
5.096108119293355
 30
0.0
 40
0.0180755190359973
100
AcDbArc
 50
109.5747160558381
 51
158.285460419498
  0
LINE
  5
1F1
330
1F
100
AcDbEntity
  8
0
  6
Continuous
 62
     7
370
    15
100
AcDbLine
 10
6.375628012985295
 20
5.102795745473262
 30
0.0
 11
6.103522211146422
 21
5.029895593883643
 31
0.0
  0
LINE
  5
1F2
330
1F
100
AcDbEntity
  8
0
  6
Continuous
 62
     7
370
    15
100
AcDbLine
 10
6.103522211146422
 20
5.645536086751795
 30
0.0
 11
6.103522211146422
 21
5.029895593883643
 31
0.0
  0
LINE
  5
1F3
330
1F
100
AcDbEntity
  8
0
  6
Continuous
 62
     7
370
    15
100
AcDbLine
 10
6.633852297036334
 20
5.787617377898992
 30
0.0
 11
6.103522211146422
 21
5.645536086751795
 31
0.0
  0
LINE
  5
1F4
330
1F
100
AcDbEntity
  8
0
  6
Continuous
 62
     7
370
    15
100
AcDbLine
 10
6.633852297036334
 20
5.179443573324623
 30
0.0
 11
6.633852297036334
 21
5.787617377898992
 31
0.0
  0
LINE
  5
1F5
330
1F
100
AcDbEntity
  8
0
  6
Continuous
 62
     7
370
    15
100
AcDbLine
 10
6.633852297036334
 20
5.179443573324623
 30
0.0
 11
6.386364923621042
 21
5.113138970789266
 31
0.0
  0
LINE
  5
1F6
330
1F
100
AcDbEntity
  8
0
  6
Continuous
 62
     7
370
    15
100
AcDbLine
 10
6.094612665703473
 20
5.647923052443069
 30
0.0
 11
6.09461266570347
 21
5.032282559574915
 31
0.0
  0
LINE
  5
1F7
330
1F
100
AcDbEntity
  8
0
  6
Continuous
 62
     7
370
    15
100
AcDbLine
 10
6.103522211146422
 20
5.645536086751795
 30
0.0
 11
6.094612665703473
 21
5.647923052443069
 31
0.0
  0
LINE
  5
1F8
330
1F
100
AcDbEntity
  8
0
  6
Continuous
 62
     7
370
    15
100
AcDbLine
 10
6.09461266570347
 20
5.032282559574915
 30
0.0
 11
6.103522211146422
 21
5.029895593883643
 31
0.0
  0
LINE
  5
1F9
330
1F
100
AcDbEntity
  8
0
  6
Continuous
 62
     7
370
    15
100
AcDbLine
 10
6.633852297036334
 20
5.787617377898992
 30
0.0
 11
6.624942751593383
 21
5.790004343590265
 31
0.0
  0
LINE
  5
1FA
330
1F
100
AcDbEntity
  8
0
  6
Continuous
 62
     7
370
    15
100
AcDbLine
 10
6.624942751593383
 20
5.790004343590265
 30
0.0
 11
6.094612665703473
 21
5.647923052443069
 31
0.0
  0
SPLINE
  5
1FB
330
1F
100
AcDbEntity
  8
0
  6
Continuous
 62
     7
370
    15
100
AcDbSpline
210
0.0
220
0.0
230
1.0
 70
     8
 71
     3
 72
    14
 73
    10
 74
     0
 42
0.0000000001
 43
0.0000000001
 40
0.0
 40
0.0
 40
0.0
 40
0.0
 40
0.0002644177325171
 40
0.1704193993668945
 40
0.3239362615474653
 40
0.4709683669172208
 40
0.6319468815159764
 40
0.8080032299691172
 40
1.0
 40
1.0
 40
1.0
 40
1.0
 10
6.363212694697832
 20
5.083979640449201
 30
0.0
 10
6.363213915266397
 20
5.083979723625379
 30
0.0
 10
6.364000581727148
 20
5.084033331354825
 30
0.0
 10
6.365669949980638
 20
5.085025345824863
 30
0.0
 10
6.367944823743426
 20
5.086926198478796
 30
0.0
 10
6.370195455662937
 20
5.08967107305707
 30
0.0
 10
6.372315549010202
 20
5.0931888976835
 30
0.0
 10
6.374276536807787
 20
5.097623641412821
 30
0.0
 10
6.375164698794583
 20
5.10102264044417
 30
0.0
 10
6.375628012985295
 20
5.102795745473262
 30
0.0
  0
LWPOLYLINE
  5
1FC
330
1F
100
AcDbEntity
  8
0
  6
Continuous
 62
     7
370
    15
100
AcDbPolyline
 90
        9
 70
   128
 43
0.0
 10
6.103522211146422
 20
5.029895593883643
 10
6.10320156128522
 20
5.025545678168124
 10
6.102251934095959
 20
5.021534738557283
 10
6.100709823218966
 20
5.018016913211002
 10
6.098634491110418
 20
5.01512739018452
 10
6.096105691619386
 20
5.012977212227283
 10
6.093220605092144
 20
5.011649009472352
 10
6.090090103785957
 20
5.011193824006734
 10
6.086834491110418
 20
5.011629148352604
  0
ARC
  5
1FD
330
1F
100
AcDbEntity
  8
0
  6
Continuous
 62
     7
370
    15
100
AcDbCircle
 10
6.086209757370615
 20
5.031363283473733
 30
0.0
 40
0.0084530430615595
100
AcDbArc
 50
298.1154243956101
 51
6.243315854655069
  0
LINE
  5
1FE
330
1F
100
AcDbEntity
  8
0
  6
Continuous
 62
     7
370
    15
100
AcDbLine
 10
6.067537613333906
 20
5.016798995175448
 30
0.0
 11
6.086834491110418
 21
5.011629148352604
 31
0.0
  0
ARC
  5
1FF
330
1F
100
AcDbEntity
  8
0
  6
Continuous
 62
     7
370
    15
100
AcDbCircle
 10
6.348388771161577
 20
5.081079228046542
 30
0.0
 40
0.0248824850890572
100
AcDbArc
 50
358.9428105849594
 51
24.09694036690322
  0
ARC
  5
200
330
1F
100
AcDbEntity
  8
0
  6
Continuous
 62
     7
370
    15
100
AcDbCircle
 10
6.353074452330366
 20
5.078482797057706
 30
0.0
 40
0.0112857839427381
100
AcDbArc
 50
358.732591703134
 51
28.1629756789544
  0
LINE
  5
201
330
1F
100
AcDbEntity
  8
0
  6
Continuous
 62
     7
370
    15
100
AcDbLine
 10
6.364357475238472
 20
5.078233170822485
 30
0.0
 11
6.373267020681423
 21
5.080620136513767
 31
0.0
  0
LINE
  5
202
330
1F
100
AcDbEntity
  8
0
  6
Continuous
 62
     7
370
    15
100
AcDbLine
 10
5.886739699522292
 20
4.968361235910917
 30
0.0
 11
5.886739699522292
 21
4.879584853879849
 31
0.0
  0
LINE
  5
203
330
1F
100
AcDbEntity
  8
0
  6
Continuous
 62
     7
370
    15
100
AcDbLine
 10
6.364357475238472
 20
5.078233170822485
 30
0.0
 11
6.364357475238472
 21
4.751625773197605
 31
0.0
  0
LINE
  5
204
330
1F
100
AcDbEntity
  8
0
  6
Continuous
 62
     7
370
    15
100
AcDbLine
 10
6.364357475238472
 20
4.751625773197605
 30
0.0
 11
5.886739699522292
 21
4.879584853879849
 31
0.0
  0
LINE
  5
205
330
1F
100
AcDbEntity
  8
0
  6
Continuous
 62
     7
370
    15
100
AcDbLine
 10
6.373267020681423
 20
5.080620136513767
 30
0.0
 11
6.373267020681423
 21
4.754012738888878
 31
0.0
  0
LINE
  5
206
330
1F
100
AcDbEntity
  8
0
  6
Continuous
 62
     7
370
    15
100
AcDbLine
 10
6.364357475238472
 20
4.751625773197605
 30
0.0
 11
6.373267020681423
 21
4.754012738888878
 31
0.0
  0
LWPOLYLINE
  5
207
330
1F
100
AcDbEntity
  8
0
  6
Continuous
 62
     7
370
    15
100
AcDbPolyline
 90
        5
 70
   128
 43
0.0
 10
5.468428516103054
 20
7.086864356688852
 10
5.468169117388498
 20
7.086158754168218
 10
5.467400889791957
 20
7.085480267556746
 10
5.466153355869138
 20
7.084854970714413
 10
5.464474457649074
 20
7.084306893448202
  0
LWPOLYLINE
  5
208
330
1F
100
AcDbEntity
  8
0
  6
Continuous
 62
     7
370
    15
100
AcDbPolyline
 90
        5
 70
   128
 43
0.0
 10
3.559240206899374
 20
6.575371708558944
 10
3.558980808184816
 20
6.57466610603831
 10
3.558212580588276
 20
6.573987619426836
 10
3.556965046665458
 20
6.573362322584506
 10
3.555286148445392
 20
6.572814245318294
  0
LINE
  5
209
330
1F
100
AcDbEntity
  8
0
  6
Continuous
 62
     7
370
    15
100
AcDbLine
 10
6.086834491110418
 20
5.021968841998291
 30
0.0
 11
6.086834491110418
 21
5.011629148352604
 31
0.0
  0
LINE
  5
20A
330
1F
100
AcDbEntity
  8
0
  6
Continuous
 62
     7
370
    15
100
AcDbLine
 10
6.353061865489796
 20
5.081259389511725
 30
0.0
 11
6.364357475238472
 21
5.078233170822485
 31
0.0
  0
TEXT
  5
218
330
1F
100
AcDbEntity
  8
0
100
AcDbText
 10
4.065671619665053
 20
2.509955705851265
 30
0.0
 40
0.1388888888888889
  1
USP: HH66
100
AcDbText
  0
TEXT
  5
21F
330
1F
100
AcDbEntity
  8
0
100
AcDbText
 10
3.550710712630717
 20
2.244296742132199
 30
0.0
 40
0.1388888888888889
  1
SIMPSON: HH6
100
AcDbText
  0
TEXT
  5
227
330
1F
100
AcDbEntity
  8
0
100
AcDbText
 10
0.5903727014852649
 20
3.214803425096715
 30
0.0
 40
0.1388888888888889
  1
SIMPSON: SP2
100
AcDbText
  0
TEXT
  5
228
330
1F
100
AcDbEntity
  8
0
100
AcDbText
 10
1.1053336085196
 20
3.48046238881578
 30
0.0
 40
0.1388888888888889
  1
USP: SPT24
100
AcDbText
  0
ARC
  5
229
330
1F
100
AcDbEntity
  8
0
 62
     4
100
AcDbCircle
 10
0.3888828181448188
 20
5.65380933841171
 30
0.0
 40
3.077476204209245
100
AcDbArc
 50
316.7341209433232
 51
359.2863846722606
  0
ARC
  5
231
330
1F
100
AcDbEntity
  8
0
 62
     4
100
AcDbCircle
 10
3.111921434707522
 20
4.813864993149854
 30
0.0
 40
3.077476204209245
100
AcDbArc
 50
316.7341209433232
 51
359.2863846722606
  0
ENDSEC
  0
SECTION
  2
OBJECTS
  0
DICTIONARY
  5
C
330
0
100
AcDbDictionary
281
     1
  3
ACAD_COLOR
350
215
  3
ACAD_GROUP
350
D
  3
ACAD_LAYOUT
350
1A
  3
ACAD_MATERIAL
350
214
  3
ACAD_MLINESTYLE
350
17
  3
ACAD_PLOTSETTINGS
350
19
  3
ACAD_PLOTSTYLENAME
350
E
  3
ACAD_SCALELIST
350
47
  3
ACDBHEADERROUNDTRIPXREC
350
23C
  3
AcDbVariableDictionary
350
238
  0
DICTIONARY
  5
215
102
{ACAD_REACTORS
330
C
102
}
330
C
100
AcDbDictionary
281
     1
  0
DICTIONARY
  5
D
102
{ACAD_REACTORS
330
C
102
}
330
C
100
AcDbDictionary
281
     1
  0
DICTIONARY
  5
1A
102
{ACAD_REACTORS
330
C
102
}
330
C
100
AcDbDictionary
281
     1
  3
Layout1
350
1E
  3
Layout2
350
26
  3
Model
350
22
  0
DICTIONARY
  5
214
102
{ACAD_REACTORS
330
C
102
}
330
C
100
AcDbDictionary
281
     1
  0
DICTIONARY
  5
17
102
{ACAD_REACTORS
330
C
102
}
330
C
100
AcDbDictionary
281
     1
  3
Standard
350
18
  0
DICTIONARY
  5
19
102
{ACAD_REACTORS
330
C
102
}
330
C
100
AcDbDictionary
281
     1
  0
ACDBDICTIONARYWDFLT
  5
E
102
{ACAD_REACTORS
330
C
102
}
330
C
100
AcDbDictionary
281
     1
  3
Normal
350
F
100
AcDbDictionaryWithDefault
340
F
  0
DICTIONARY
  5
47
102
{ACAD_REACTORS
330
C
102
}
330
C
100
AcDbDictionary
281
     1
  3
A0
350
48
  3
A1
350
49
  3
A2
350
4A
  3
A3
350
4B
  3
A4
350
4C
  3
A5
350
4D
  3
A6
350
4E
  3
A7
350
4F
  3
A8
350
50
  3
A9
350
51
  3
B0
350
52
  3
B1
350
53
  3
B2
350
54
  3
B3
350
55
  3
B4
350
56
  3
B5
350
57
  3
B6
350
58
  3
B7
350
59
  3
B8
350
5A
  3
B9
350
5B
  3
C0
350
5C
  3
C1
350
5D
  3
C2
350
5E
  3
C3
350
5F
  3
C4
350
60
  3
C5
350
61
  3
C6
350
62
  3
C7
350
63
  3
C8
350
64
  3
C9
350
65
  3
D0
350
66
  3
D1
350
67
  3
D2
350
68
  0
DICTIONARY
  5
23C
102
{ACAD_REACTORS
330
C
102
}
330
C
100
AcDbDictionary
281
     1
  3
COLORDICT
350
23E
  3
MATERIALDICT
350
23D
  0
DICTIONARY
  5
238
102
{ACAD_REACTORS
330
C
102
}
330
C
100
AcDbDictionary
281
     1
  3
DIMASSOC
350
239
  3
PROJECTNAME
350
23A
  0
LAYOUT
  5
1E
102
{ACAD_XDICTIONARY
360
23F
102
}
102
{ACAD_REACTORS
330
1A
102
}
330
1A
100
AcDbPlotSettings
  1

  2
none_device
  4

  6

 40
0.0
 41
0.0
 42
0.0
 43
0.0
 44
0.0
 45
0.0
 46
0.0
 47
0.0
 48
0.0
 49
0.0
140
0.0
141
0.0
142
1.0
143
1.0
 70
   688
 72
     0
 73
     0
 74
     5
  7

 75
    16
147
1.0
148
0.0
149
0.0
100
AcDbLayout
  1
Layout1
 70
     1
 71
     1
 10
0.0
 20
0.0
 11
12.0
 21
9.0
 12
0.0
 22
0.0
 32
0.0
 14
1.000000000000000E+20
 24
1.000000000000000E+20
 34
1.000000000000000E+20
 15
-1.000000000000000E+20
 25
-1.000000000000000E+20
 35
-1.000000000000000E+20
146
0.0
 13
0.0
 23
0.0
 33
0.0
 16
1.0
 26
0.0
 36
0.0
 17
0.0
 27
1.0
 37
0.0
 76
     0
330
1B
  0
LAYOUT
  5
26
102
{ACAD_XDICTIONARY
360
243
102
}
102
{ACAD_REACTORS
330
1A
102
}
330
1A
100
AcDbPlotSettings
  1

  2
none_device
  4

  6

 40
0.0
 41
0.0
 42
0.0
 43
0.0
 44
0.0
 45
0.0
 46
0.0
 47
0.0
 48
0.0
 49
0.0
140
0.0
141
0.0
142
1.0
143
1.0
 70
   688
 72
     0
 73
     0
 74
     5
  7

 75
    16
147
1.0
148
0.0
149
0.0
100
AcDbLayout
  1
Layout2
 70
     1
 71
     2
 10
0.0
 20
0.0
 11
0.0
 21
0.0
 12
0.0
 22
0.0
 32
0.0
 14
0.0
 24
0.0
 34
0.0
 15
0.0
 25
0.0
 35
0.0
146
0.0
 13
0.0
 23
0.0
 33
0.0
 16
1.0
 26
0.0
 36
0.0
 17
0.0
 27
1.0
 37
0.0
 76
     0
330
23
  0
LAYOUT
  5
22
102
{ACAD_XDICTIONARY
360
241
102
}
102
{ACAD_REACTORS
330
1A
102
}
330
1A
100
AcDbPlotSettings
  1

  2
none_device
  4
Letter_(8.50_x_11.00_Inches)
  6

 40
6.349999999999999
 41
6.349999999999999
 42
6.350005079999999
 43
6.350005079999999
 44
215.9
 45
279.4
 46
0.0
 47
0.0
 48
0.0
 49
0.0
140
0.0
141
0.0
142
1.0
143
1.0
 70
  1712
 72
     0
 73
     0
 74
     0
  7

 75
     0
147
1.0
148
0.0
149
0.0
100
AcDbLayout
  1
Model
 70
     1
 71
     0
 10
0.0
 20
0.0
 11
8.5
 21
11.0
 12
0.0
 22
0.0
 32
0.0
 14
0.0
 24
0.0
 34
0.0
 15
8.5
 25
11.0
 35
0.0
146
0.0
 13
0.0
 23
0.0
 33
0.0
 16
1.0
 26
0.0
 36
0.0
 17
0.0
 27
1.0
 37
0.0
 76
     0
330
1F
  0
MLINESTYLE
  5
18
102
{ACAD_REACTORS
330
17
102
}
330
17
100
AcDbMlineStyle
  2
STANDARD
 70
     0
  3

 62
   256
 51
90.0
 52
90.0
 71
     2
 49
0.5
 62
   256
  6
BYLAYER
 49
-0.5
 62
   256
  6
BYLAYER
  0
ACDBPLACEHOLDER
  5
F
102
{ACAD_REACTORS
330
E
102
}
330
E
  0
ACAD_PROXY_OBJECT
  5
48
102
{ACAD_REACTORS
330
47
102
}
330
47
100
AcDbProxyObject
 90
      499
 91
      503
 95
   393239
 70
     0
 93
       41
310
903313A31580
 94
        0
1001
ACAD
1000
AcRTDxfName
1000
SCALE
  0
ACAD_PROXY_OBJECT
  5
49
102
{ACAD_REACTORS
330
47
102
}
330
47
100
AcDbProxyObject
 90
      499
 91
      503
 95
   393239
 70
     0
 93
      105
310
903313A324000000000000004013
 94
        0
1001
ACAD
1000
AcRTDxfName
1000
SCALE
  0
ACAD_PROXY_OBJECT
  5
4A
102
{ACAD_REACTORS
330
47
102
}
330
47
100
AcDbProxyObject
 90
      499
 91
      503
 95
   393239
 70
     0
 93
      105
310
903313A34400000000000010400C
 94
        0
1001
ACAD
1000
AcRTDxfName
1000
SCALE
  0
ACAD_PROXY_OBJECT
  5
4B
102
{ACAD_REACTORS
330
47
102
}
330
47
100
AcDbProxyObject
 90
      499
 91
      503
 95
   393239
 70
     0
 93
      105
310
903313A354000000000000144013
 94
        0
1001
ACAD
1000
AcRTDxfName
1000
SCALE
  0
ACAD_PROXY_OBJECT
  5
4C
102
{ACAD_REACTORS
330
47
102
}
330
47
100
AcDbProxyObject
 90
      499
 91
      503
 95
   393239
 70
     0
 93
      105
310
903313A38400000000000020400C
 94
        0
1001
ACAD
1000
AcRTDxfName
1000
SCALE
  0
ACAD_PROXY_OBJECT
  5
4D
102
{ACAD_REACTORS
330
47
102
}
330
47
100
AcDbProxyObject
 90
      499
 91
      503
 95
   393239
 70
     0
 93
      113
310
904313A31304000000000000244023
 94
        0
1001
ACAD
1000
AcRTDxfName
1000
SCALE
  0
ACAD_PROXY_OBJECT
  5
4E
102
{ACAD_REACTORS
330
47
102
}
330
47
100
AcDbProxyObject
 90
      499
 91
      503
 95
   393239
 70
     0
 93
      113
310
904313A31364000000000000304057
 94
        0
1001
ACAD
1000
AcRTDxfName
1000
SCALE
  0
ACAD_PROXY_OBJECT
  5
4F
102
{ACAD_REACTORS
330
47
102
}
330
47
100
AcDbProxyObject
 90
      499
 91
      503
 95
   393239
 70
     0
 93
      113
310
904313A32304000000000000344057
 94
        0
1001
ACAD
1000
AcRTDxfName
1000
SCALE
  0
ACAD_PROXY_OBJECT
  5
50
102
{ACAD_REACTORS
330
47
102
}
330
47
100
AcDbProxyObject
 90
      499
 91
      503
 95
   393239
 70
     0
 93
      113
310
904313A333040000000000003E4000
 94
        0
1001
ACAD
1000
AcRTDxfName
1000
SCALE
  0
ACAD_PROXY_OBJECT
  5
51
102
{ACAD_REACTORS
330
47
102
}
330
47
100
AcDbProxyObject
 90
      499
 91
      503
 95
   393239
 70
     0
 93
      113
310
904313A34304000000000000444057
 94
        0
1001
ACAD
1000
AcRTDxfName
1000
SCALE
  0
ACAD_PROXY_OBJECT
  5
52
102
{ACAD_REACTORS
330
47
102
}
330
47
100
AcDbProxyObject
 90
      499
 91
      503
 95
   393239
 70
     0
 93
      113
310
904313A35304000000000000494000
 94
        0
1001
ACAD
1000
AcRTDxfName
1000
SCALE
  0
ACAD_PROXY_OBJECT
  5
53
102
{ACAD_REACTORS
330
47
102
}
330
47
100
AcDbProxyObject
 90
      499
 91
      503
 95
   393239
 70
     0
 93
      121
310
905313A3130304000000000000594000
 94
        0
1001
ACAD
1000
AcRTDxfName
1000
SCALE
  0
ACAD_PROXY_OBJECT
  5
54
102
{ACAD_REACTORS
330
47
102
}
330
47
100
AcDbProxyObject
 90
      499
 91
      503
 95
   393239
 70
     0
 93
      105
310
903323A310000000000000010140
 94
        0
1001
ACAD
1000
AcRTDxfName
1000
SCALE
  0
ACAD_PROXY_OBJECT
  5
55
102
{ACAD_REACTORS
330
47
102
}
330
47
100
AcDbProxyObject
 90
      499
 91
      503
 95
   393239
 70
     0
 93
      105
310
903343A310000000000000410159
 94
        0
1001
ACAD
1000
AcRTDxfName
1000
SCALE
  0
ACAD_PROXY_OBJECT
  5
56
102
{ACAD_REACTORS
330
47
102
}
330
47
100
AcDbProxyObject
 90
      499
 91
      503
 95
   393239
 70
     0
 93
      105
310
903383A310000000000000810140
 94
        0
1001
ACAD
1000
AcRTDxfName
1000
SCALE
  0
ACAD_PROXY_OBJECT
  5
57
102
{ACAD_REACTORS
330
47
102
}
330
47
100
AcDbProxyObject
 90
      499
 91
      503
 95
   393239
 70
     0
 93
      113
310
90431303A310000000000000910140
 94
        0
1001
ACAD
1000
AcRTDxfName
1000
SCALE
  0
ACAD_PROXY_OBJECT
  5
58
102
{ACAD_REACTORS
330
47
102
}
330
47
100
AcDbProxyObject
 90
      499
 91
      503
 95
   393239
 70
     0
 93
      121
310
9053130303A310000000000001650100
 94
        0
1001
ACAD
1000
AcRTDxfName
1000
SCALE
  0
ACAD_PROXY_OBJECT
  5
59
102
{ACAD_REACTORS
330
47
102
}
330
47
100
AcDbProxyObject
 90
      499
 91
      503
 95
   393239
 70
     0
 93
      257
310
90E312F31323822203D2031272D3022000000000000200FC000000000000284000
 94
        0
1001
ACAD
1000
AcRTDxfName
1000
SCALE
  0
ACAD_PROXY_OBJECT
  5
5A
102
{ACAD_REACTORS
330
47
102
}
330
47
100
AcDbProxyObject
 90
      499
 91
      503
 95
   393239
 70
     0
 93
      249
310
90D312F363422203D2031272D3022000000000000240FC000000000000284000
 94
        0
1001
ACAD
1000
AcRTDxfName
1000
SCALE
  0
ACAD_PROXY_OBJECT
  5
5B
102
{ACAD_REACTORS
330
47
102
}
330
47
100
AcDbProxyObject
 90
      499
 91
      503
 95
   393239
 70
     0
 93
      249
310
90D312F333222203D2031272D3022000000000000280FC000000000000284040
 94
        0
1001
ACAD
1000
AcRTDxfName
1000
SCALE
  0
ACAD_PROXY_OBJECT
  5
5C
102
{ACAD_REACTORS
330
47
102
}
330
47
100
AcDbProxyObject
 90
      499
 91
      503
 95
   393239
 70
     0
 93
      249
310
90D312F313622203D2031272D30220000000000002C0FC000000000000284000
 94
        0
1001
ACAD
1000
AcRTDxfName
1000
SCALE
  0
ACAD_PROXY_OBJECT
  5
5D
102
{ACAD_REACTORS
330
47
102
}
330
47
100
AcDbProxyObject
 90
      499
 91
      503
 95
   393239
 70
     0
 93
      249
310
90D332F333222203D2031272D30220000000000002E0FC000000000000284040
 94
        0
1001
ACAD
1000
AcRTDxfName
1000
SCALE
  0
ACAD_PROXY_OBJECT
  5
5E
102
{ACAD_REACTORS
330
47
102
}
330
47
100
AcDbProxyObject
 90
      499
 91
      503
 95
   393239
 70
     0
 93
      241
310
90C312F3822203D2031272D3022000000000000300FC000000000000284040
 94
        0
1001
ACAD
1000
AcRTDxfName
1000
SCALE
  0
ACAD_PROXY_OBJECT
  5
5F
102
{ACAD_REACTORS
330
47
102
}
330
47
100
AcDbProxyObject
 90
      499
 91
      503
 95
   393239
 70
     0
 93
      249
310
90D332F313622203D2031272D3022000000000000320FC000000000000284040
 94
        0
1001
ACAD
1000
AcRTDxfName
1000
SCALE
  0
ACAD_PROXY_OBJECT
  5
60
102
{ACAD_REACTORS
330
47
102
}
330
47
100
AcDbProxyObject
 90
      499
 91
      503
 95
   393239
 70
     0
 93
      241
310
90C312F3422203D2031272D3022000000000000340FC000000000000284040
 94
        0
1001
ACAD
1000
AcRTDxfName
1000
SCALE
  0
ACAD_PROXY_OBJECT
  5
61
102
{ACAD_REACTORS
330
47
102
}
330
47
100
AcDbProxyObject
 90
      499
 91
      503
 95
   393239
 70
     0
 93
      241
310
90C332F3822203D2031272D3022000000000000360FC000000000000284040
 94
        0
1001
ACAD
1000
AcRTDxfName
1000
SCALE
  0
ACAD_PROXY_OBJECT
  5
62
102
{ACAD_REACTORS
330
47
102
}
330
47
100
AcDbProxyObject
 90
      499
 91
      503
 95
   393239
 70
     0
 93
      241
310
90C312F3222203D2031272D3022000000000000380FC000000000000284040
 94
        0
1001
ACAD
1000
AcRTDxfName
1000
SCALE
  0
ACAD_PROXY_OBJECT
  5
63
102
{ACAD_REACTORS
330
47
102
}
330
47
100
AcDbProxyObject
 90
      499
 91
      503
 95
   393239
 70
     0
 93
      241
310
90C332F3422203D2031272D30220000000000003A0FC000000000000284040
 94
        0
1001
ACAD
1000
AcRTDxfName
1000
SCALE
  0
ACAD_PROXY_OBJECT
  5
64
102
{ACAD_REACTORS
330
47
102
}
330
47
100
AcDbProxyObject
 90
      499
 91
      503
 95
   393239
 70
     0
 93
      161
310
90A3122203D2031272D30224000000000000284020
 94
        0
1001
ACAD
1000
AcRTDxfName
1000
SCALE
  0
ACAD_PROXY_OBJECT
  5
65
102
{ACAD_REACTORS
330
47
102
}
330
47
100
AcDbProxyObject
 90
      499
 91
      503
 95
   393239
 70
     0
 93
      257
310
90E312D312F3222203D2031272D30220000000000003E0FC000000000000284000
 94
        0
1001
ACAD
1000
AcRTDxfName
1000
SCALE
  0
ACAD_PROXY_OBJECT
  5
66
102
{ACAD_REACTORS
330
47
102
}
330
47
100
AcDbProxyObject
 90
      499
 91
      503
 95
   393239
 70
     0
 93
      225
310
90A3322203D2031272D302200000000000002100000000000000284028
 94
        0
1001
ACAD
1000
AcRTDxfName
1000
SCALE
  0
ACAD_PROXY_OBJECT
  5
67
102
{ACAD_REACTORS
330
47
102
}
330
47
100
AcDbProxyObject
 90
      499
 91
      503
 95
   393239
 70
     0
 93
      225
310
90A3622203D2031272D302200000000000006100000000000000284000
 94
        0
1001
ACAD
1000
AcRTDxfName
1000
SCALE
  0
ACAD_PROXY_OBJECT
  5
68
102
{ACAD_REACTORS
330
47
102
}
330
47
100
AcDbProxyObject
 90
      499
 91
      503
 95
   393239
 70
     0
 93
      249
310
90D31272D3022203D2031272D30220000000000000A100000000000000284000
 94
        0
1001
ACAD
1000
AcRTDxfName
1000
SCALE
  0
XRECORD
  5
23E
102
{ACAD_REACTORS
330
23C
102
}
330
23C
100
AcDbXrecord
280
     1
340
215
  0
XRECORD
  5
23D
102
{ACAD_REACTORS
330
23C
102
}
330
23C
100
AcDbXrecord
280
     1
340
214
  0
DICTIONARYVAR
  5
239
102
{ACAD_REACTORS
330
238
102
}
330
238
100
DictionaryVariables
280
     0
  1
1
  0
DICTIONARYVAR
  5
23A
102
{ACAD_REACTORS
330
238
102
}
330
238
100
DictionaryVariables
280
     0
  1

  0
DICTIONARY
  5
23F
330
1E
100
AcDbDictionary
280
     1
281
     1
  3
ACAD_XREC_ROUNDTRIP
360
240
  0
DICTIONARY
  5
243
330
26
100
AcDbDictionary
280
     1
281
     1
  3
ACAD_XREC_ROUNDTRIP
360
244
  0
DICTIONARY
  5
241
330
22
100
AcDbDictionary
280
     1
281
     1
  3
ACAD_XREC_ROUNDTRIP
360
242
  0
XRECORD
  5
240
102
{ACAD_REACTORS
330
23F
102
}
330
23F
100
AcDbXrecord
280
     1
102
SHADEPLOT
 70
     0
102
SHADEPLOTRESLEVEL
 70
     2
102
SHADEPLOTCUSTOMDPI
 70
   300
  0
XRECORD
  5
244
102
{ACAD_REACTORS
330
243
102
}
330
243
100
AcDbXrecord
280
     1
102
SHADEPLOT
 70
     0
102
SHADEPLOTRESLEVEL
 70
     2
102
SHADEPLOTCUSTOMDPI
 70
   300
  0
XRECORD
  5
242
102
{ACAD_REACTORS
330
241
102
}
330
241
100
AcDbXrecord
280
     1
102
SHADEPLOT
 70
     0
102
SHADEPLOTRESLEVEL
 70
     2
102
SHADEPLOTCUSTOMDPI
 70
   300
  0
ENDSEC
  0
EOF
