  0
SECTION
  2
HEADER
  9
$ACADVER
  1
AC1018
  9
$ACADMAINTVER
 70
     0
  9
$DWGCODEPAGE
  3
ANSI_1252
  9
$INSBASE
 10
0.0
 20
0.0
 30
0.0
  9
$EXTMIN
 10
0.8718103154556727
 20
4.302109038248685
 30
0.0
  9
$EXTMAX
 10
7.896272823466029
 20
9.749382536098361
 30
0.0
  9
$LIMMIN
 10
0.0
 20
0.0
  9
$LIMMAX
 10
8.5
 20
11.0
  9
$ORTHOMODE
 70
     0
  9
$REGENMODE
 70
     1
  9
$FILLMODE
 70
     1
  9
$QTEXTMODE
 70
     0
  9
$MIRRTEXT
 70
     1
  9
$LTSCALE
 40
1.0
  9
$ATTMODE
 70
     1
  9
$TEXTSIZE
 40
0.25
  9
$TRACEWID
 40
0.05
  9
$TEXTSTYLE
  7
Standard
  9
$CLAYER
  8
0
  9
$CELTYPE
  6
ByLayer
  9
$CECOLOR
 62
   256
  9
$CELTSCALE
 40
1.0
  9
$DISPSILH
 70
     0
  9
$DIMSCALE
 40
1.0
  9
$DIMASZ
 40
0.156
  9
$DIMEXO
 40
0.05
  9
$DIMDLI
 40
0.38
  9
$DIMRND
 40
0.0
  9
$DIMDLE
 40
0.0
  9
$DIMEXE
 40
0.125
  9
$DIMTP
 40
0.0
  9
$DIMTM
 40
0.0
  9
$DIMTXT
 40
0.125
  9
$DIMCEN
 40
0.09
  9
$DIMTSZ
 40
0.0
  9
$DIMTOL
 70
     0
  9
$DIMLIM
 70
     0
  9
$DIMTIH
 70
     1
  9
$DIMTOH
 70
     1
  9
$DIMSE1
 70
     0
  9
$DIMSE2
 70
     0
  9
$DIMTAD
 70
     0
  9
$DIMZIN
 70
     0
  9
$DIMBLK
  1

  9
$DIMASO
 70
     1
  9
$DIMSHO
 70
     1
  9
$DIMPOST
  1

  9
$DIMAPOST
  1

  9
$DIMALT
 70
     0
  9
$DIMALTD
 70
     2
  9
$DIMALTF
 40
25.4
  9
$DIMLFAC
 40
16.0
  9
$DIMTOFL
 70
     0
  9
$DIMTVP
 40
0.0
  9
$DIMTIX
 70
     0
  9
$DIMSOXD
 70
     0
  9
$DIMSAH
 70
     0
  9
$DIMBLK1
  1

  9
$DIMBLK2
  1

  9
$DIMSTYLE
  2
Standard
  9
$DIMCLRD
 70
     0
  9
$DIMCLRE
 70
     0
  9
$DIMCLRT
 70
     0
  9
$DIMTFAC
 40
1.0
  9
$DIMGAP
 40
0.06
  9
$DIMJUST
 70
     0
  9
$DIMSD1
 70
     0
  9
$DIMSD2
 70
     0
  9
$DIMTOLJ
 70
     1
  9
$DIMTZIN
 70
     0
  9
$DIMALTZ
 70
     0
  9
$DIMALTTZ
 70
     0
  9
$DIMUPT
 70
     0
  9
$DIMDEC
 70
     3
  9
$DIMTDEC
 70
     3
  9
$DIMALTU
 70
     2
  9
$DIMALTTD
 70
     2
  9
$DIMTXSTY
  7
Standard
  9
$DIMAUNIT
 70
     0
  9
$DIMADEC
 70
     0
  9
$DIMALTRND
 40
0.0
  9
$DIMAZIN
 70
     0
  9
$DIMDSEP
 70
    46
  9
$DIMATFIT
 70
     3
  9
$DIMFRAC
 70
     0
  9
$DIMLDRBLK
  1

  9
$DIMLUNIT
 70
     2
  9
$DIMLWD
 70
    -2
  9
$DIMLWE
 70
    -2
  9
$DIMTMOVE
 70
     0
  9
$LUNITS
 70
     2
  9
$LUPREC
 70
     3
  9
$SKETCHINC
 40
0.1
  9
$FILLETRAD
 40
0.5
  9
$AUNITS
 70
     0
  9
$AUPREC
 70
     0
  9
$MENU
  1
.
  9
$ELEVATION
 40
0.0
  9
$PELEVATION
 40
0.0
  9
$THICKNESS
 40
0.0
  9
$LIMCHECK
 70
     0
  9
$CHAMFERA
 40
0.5
  9
$CHAMFERB
 40
0.5
  9
$CHAMFERC
 40
1.0
  9
$CHAMFERD
 40
0.0
  9
$SKPOLY
 70
     0
  9
$TDCREATE
 40
2456513.580068472
  9
$TDUCREATE
 40
2456513.788401805
  9
$TDUPDATE
 40
2456570.370849317
  9
$TDUUPDATE
 40
2456570.579182650
  9
$TDINDWG
 40
0.0014936574
  9
$TDUSRTIMER
 40
0.0014936574
  9
$USRTIMER
 70
     1
  9
$ANGBASE
 50
0.0
  9
$ANGDIR
 70
     0
  9
$PDMODE
 70
     0
  9
$PDSIZE
 40
-1.0
  9
$PLINEWID
 40
0.0
  9
$SPLFRAME
 70
     0
  9
$SPLINETYPE
 70
     6
  9
$SPLINESEGS
 70
     8
  9
$HANDSEED
  5
312
  9
$SURFTAB1
 70
     6
  9
$SURFTAB2
 70
     6
  9
$SURFTYPE
 70
     6
  9
$SURFU
 70
     6
  9
$SURFV
 70
     6
  9
$UCSBASE
  2

  9
$UCSNAME
  2

  9
$UCSORG
 10
0.0
 20
0.0
 30
0.0
  9
$UCSXDIR
 10
1.0
 20
0.0
 30
0.0
  9
$UCSYDIR
 10
0.0
 20
1.0
 30
0.0
  9
$UCSORTHOREF
  2

  9
$UCSORTHOVIEW
 70
     0
  9
$UCSORGTOP
 10
0.0
 20
0.0
 30
0.0
  9
$UCSORGBOTTOM
 10
0.0
 20
0.0
 30
0.0
  9
$UCSORGLEFT
 10
0.0
 20
0.0
 30
0.0
  9
$UCSORGRIGHT
 10
0.0
 20
0.0
 30
0.0
  9
$UCSORGFRONT
 10
0.0
 20
0.0
 30
0.0
  9
$UCSORGBACK
 10
0.0
 20
0.0
 30
0.0
  9
$PUCSBASE
  2

  9
$PUCSNAME
  2

  9
$PUCSORG
 10
0.0
 20
0.0
 30
0.0
  9
$PUCSXDIR
 10
1.0
 20
0.0
 30
0.0
  9
$PUCSYDIR
 10
0.0
 20
1.0
 30
0.0
  9
$PUCSORTHOREF
  2

  9
$PUCSORTHOVIEW
 70
     0
  9
$PUCSORGTOP
 10
0.0
 20
0.0
 30
0.0
  9
$PUCSORGBOTTOM
 10
0.0
 20
0.0
 30
0.0
  9
$PUCSORGLEFT
 10
0.0
 20
0.0
 30
0.0
  9
$PUCSORGRIGHT
 10
0.0
 20
0.0
 30
0.0
  9
$PUCSORGFRONT
 10
0.0
 20
0.0
 30
0.0
  9
$PUCSORGBACK
 10
0.0
 20
0.0
 30
0.0
  9
$USERI1
 70
     0
  9
$USERI2
 70
     0
  9
$USERI3
 70
     0
  9
$USERI4
 70
     0
  9
$USERI5
 70
     0
  9
$USERR1
 40
0.0
  9
$USERR2
 40
0.0
  9
$USERR3
 40
0.0
  9
$USERR4
 40
0.0
  9
$USERR5
 40
0.0
  9
$WORLDVIEW
 70
     1
  9
$SHADEDGE
 70
     3
  9
$SHADEDIF
 70
    70
  9
$TILEMODE
 70
     1
  9
$MAXACTVP
 70
    64
  9
$PINSBASE
 10
0.0
 20
0.0
 30
0.0
  9
$PLIMCHECK
 70
     0
  9
$PEXTMIN
 10
1.000000000000000E+20
 20
1.000000000000000E+20
 30
1.000000000000000E+20
  9
$PEXTMAX
 10
-1.000000000000000E+20
 20
-1.000000000000000E+20
 30
-1.000000000000000E+20
  9
$PLIMMIN
 10
0.0
 20
0.0
  9
$PLIMMAX
 10
12.0
 20
9.0
  9
$UNITMODE
 70
     0
  9
$VISRETAIN
 70
     1
  9
$PLINEGEN
 70
     0
  9
$PSLTSCALE
 70
     1
  9
$TREEDEPTH
 70
  3020
  9
$CMLSTYLE
  2
Standard
  9
$CMLJUST
 70
     0
  9
$CMLSCALE
 40
1.0
  9
$PROXYGRAPHICS
 70
     1
  9
$MEASUREMENT
 70
     0
  9
$CELWEIGHT
370
    -1
  9
$ENDCAPS
280
     0
  9
$JOINSTYLE
280
     0
  9
$LWDISPLAY
290
     1
  9
$INSUNITS
 70
     1
  9
$HYPERLINKBASE
  1

  9
$STYLESHEET
  1

  9
$XEDIT
290
     1
  9
$CEPSNTYPE
380
     0
  9
$PSTYLEMODE
290
     1
  9
$FINGERPRINTGUID
  2
{80170B5A-3801-4D20-92D5-161FF2113540}
  9
$VERSIONGUID
  2
{E9247F95-CA2F-4C4F-BFBD-3E18E7F9F876}
  9
$EXTNAMES
290
     1
  9
$PSVPSCALE
 40
0.0
  9
$OLESTARTUP
290
     0
  9
$SORTENTS
280
   127
  9
$INDEXCTL
280
     0
  9
$HIDETEXT
280
     0
  9
$XCLIPFRAME
290
     0
  9
$HALOGAP
280
     0
  9
$OBSCOLOR
 70
   257
  9
$OBSLTYPE
280
     0
  9
$INTERSECTIONDISPLAY
280
     0
  9
$INTERSECTIONCOLOR
 70
   257
  9
$DIMASSOC
280
     1
  9
$PROJECTNAME
  1

  0
ENDSEC
  0
SECTION
  2
CLASSES
  0
CLASS
  1
ACDBDICTIONARYWDFLT
  2
AcDbDictionaryWithDefault
  3
ObjectDBX Classes
 90
        0
 91
        1
280
     0
281
     0
  0
CLASS
  1
VISUALSTYLE
  2
AcDbVisualStyle
  3
ObjectDBX Classes
 90
     4095
 91
        0
280
     0
281
     0
  0
CLASS
  1
MATERIAL
  2
AcDbMaterial
  3
ObjectDBX Classes
 90
        0
 91
        0
280
     0
281
     0
  0
ENDSEC
  0
SECTION
  2
TABLES
  0
TABLE
  2
VPORT
  5
8
330
0
100
AcDbSymbolTable
 70
     3
  0
VPORT
  5
311
330
8
100
AcDbSymbolTableRecord
100
AcDbViewportTableRecord
  2
*Active
 70
     0
 10
0.0
 20
0.0
 11
1.0
 21
1.0
 12
4.002036562410382
 22
6.955472457736372
 13
0.0
 23
0.0
 14
0.5
 24
0.5
 15
0.5
 25
0.5
 16
0.0
 26
0.0
 36
1.0
 17
0.0
 27
0.0
 37
0.0
 40
6.057593124034474
 41
2.144329896907216
 42
50.0
 43
0.0
 44
0.0
 50
0.0
 51
0.0
 71
     0
 72
  2000
 73
     1
 74
     3
 75
     0
 76
     0
 77
     0
 78
     0
281
     0
 65
     1
110
0.0
120
0.0
130
0.0
111
1.0
121
0.0
131
0.0
112
0.0
122
1.0
132
0.0
 79
     0
146
0.0
  0
ENDTAB
  0
TABLE
  2
LTYPE
  5
5
330
0
100
AcDbSymbolTable
 70
     6
  0
LTYPE
  5
14
330
5
100
AcDbSymbolTableRecord
100
AcDbLinetypeTableRecord
  2
ByBlock
 70
     0
  3

 72
    65
 73
     0
 40
0.0
  0
LTYPE
  5
15
330
5
100
AcDbSymbolTableRecord
100
AcDbLinetypeTableRecord
  2
ByLayer
 70
     0
  3

 72
    65
 73
     0
 40
0.0
  0
LTYPE
  5
16
330
5
100
AcDbSymbolTableRecord
100
AcDbLinetypeTableRecord
  2
Continuous
 70
     0
  3
Solid line
 72
    65
 73
     0
 40
0.0
  0
LTYPE
  5
3F
330
5
100
AcDbSymbolTableRecord
100
AcDbLinetypeTableRecord
  2
HIDDEN
 70
     0
  3
Hidden __ __ __ __ __ __ __ __ __ __ __ __ __ __
 72
    65
 73
     2
 40
0.075
 49
0.05
 74
     0
 49
-0.025
 74
     0
  0
LTYPE
  5
40
330
5
100
AcDbSymbolTableRecord
100
AcDbLinetypeTableRecord
  2
PHANTOM
 70
     0
  3
Phantom ______  __  __  ______  __  __  ______
 72
    65
 73
     6
 40
0.5
 49
0.25
 74
     0
 49
-0.05
 74
     0
 49
0.05
 74
     0
 49
-0.05
 74
     0
 49
0.05
 74
     0
 49
-0.05
 74
     0
  0
LTYPE
  5
41
330
5
100
AcDbSymbolTableRecord
100
AcDbLinetypeTableRecord
  2
CENTER
 70
     0
  3
Center ____ _ ____ _ ____ _ ____ _ ____ _ ____
 72
    65
 73
     4
 40
0.4
 49
0.25
 74
     0
 49
-0.05
 74
     0
 49
0.05
 74
     0
 49
-0.05
 74
     0
  0
LTYPE
  5
42
330
5
100
AcDbSymbolTableRecord
100
AcDbLinetypeTableRecord
  2
CENTERX2
 70
     0
  3
Center (2x) ________  __  ________  __  _____
 72
    65
 73
     4
 40
0.8
 49
0.5
 74
     0
 49
-0.1
 74
     0
 49
0.1
 74
     0
 49
-0.1
 74
     0
  0
LTYPE
  5
43
330
5
100
AcDbSymbolTableRecord
100
AcDbLinetypeTableRecord
  2
DOT2
 70
     0
  3
Dot (.5x) ........................................
 72
    65
 73
     2
 40
0.025
 49
0.0
 74
     0
 49
-0.025
 74
     0
  0
ENDTAB
  0
TABLE
  2
LAYER
  5
2
330
0
100
AcDbSymbolTable
 70
     7
  0
LAYER
  5
10
330
2
100
AcDbSymbolTableRecord
100
AcDbLayerTableRecord
  2
0
 70
     0
 62
     7
  6
Continuous
370
    -3
390
F
  0
LAYER
  5
44
330
2
100
AcDbSymbolTableRecord
100
AcDbLayerTableRecord
  2
SLD-0
 70
     0
 62
   179
  6
Continuous
370
    -3
390
F
  0
LAYER
  5
45
330
2
100
AcDbSymbolTableRecord
100
AcDbLayerTableRecord
  2
SLD-DEFPOINTS
 70
     0
 62
   179
  6
Continuous
370
    -3
390
F
  0
LAYER
  5
46
330
2
100
AcDbSymbolTableRecord
100
AcDbLayerTableRecord
  2
OBJ
 70
     0
 62
   179
  6
Continuous
370
    -3
390
F
  0
LAYER
  5
47
330
2
100
AcDbSymbolTableRecord
100
AcDbLayerTableRecord
  2
FORMAT
 70
     0
 62
     7
  6
Continuous
370
    -3
390
F
  0
LAYER
  5
48
330
2
100
AcDbSymbolTableRecord
100
AcDbLayerTableRecord
  2
TOLERANCES
 70
     0
 62
     7
  6
Continuous
370
    -3
390
F
  0
LAYER
  5
49
330
2
100
AcDbSymbolTableRecord
100
AcDbLayerTableRecord
  2
QTY-BLANK-SIZE-1
 70
     0
 62
     7
  6
Continuous
370
    -3
390
F
  0
ENDTAB
  0
TABLE
  2
STYLE
  5
3
330
0
100
AcDbSymbolTable
 70
     2
  0
STYLE
  5
11
330
3
100
AcDbSymbolTableRecord
100
AcDbTextStyleTableRecord
  2
Standard
 70
     0
 40
0.0
 41
1.0
 50
0.0
 71
     0
 42
0.25
  3
txt
  4

  0
STYLE
  5
2FE
330
3
100
AcDbSymbolTableRecord
100
AcDbTextStyleTableRecord
  2
SLDTEXTSTYLE0
 70
     0
 40
0.0
 41
0.7
 50
0.0
 71
     0
 42
0.2
  3
TXT
  4

  0
ENDTAB
  0
TABLE
  2
VIEW
  5
6
330
0
100
AcDbSymbolTable
 70
     0
  0
ENDTAB
  0
TABLE
  2
UCS
  5
7
330
0
100
AcDbSymbolTable
 70
     0
  0
ENDTAB
  0
TABLE
  2
APPID
  5
9
330
0
100
AcDbSymbolTable
 70
     2
  0
APPID
  5
12
330
9
100
AcDbSymbolTableRecord
100
AcDbRegAppTableRecord
  2
ACAD
 70
     0
  0
APPID
  5
309
330
9
100
AcDbSymbolTableRecord
100
AcDbRegAppTableRecord
  2
DCO15
 70
     0
  0
ENDTAB
  0
TABLE
  2
DIMSTYLE
  5
A
330
0
100
AcDbSymbolTable
 70
     1
100
AcDbDimStyleTable
 71
     0
  0
DIMSTYLE
105
27
330
A
100
AcDbSymbolTableRecord
100
AcDbDimStyleTableRecord
  2
Standard
 70
     0
340
11
  0
ENDTAB
  0
TABLE
  2
BLOCK_RECORD
  5
1
330
0
100
AcDbSymbolTable
 70
     1
  0
BLOCK_RECORD
  5
1F
330
1
100
AcDbSymbolTableRecord
100
AcDbBlockTableRecord
  2
*Model_Space
340
22
  0
BLOCK_RECORD
  5
1B
330
1
100
AcDbSymbolTableRecord
100
AcDbBlockTableRecord
  2
*Paper_Space
340
1E
  0
BLOCK_RECORD
  5
23
330
1
100
AcDbSymbolTableRecord
100
AcDbBlockTableRecord
  2
*Paper_Space0
340
26
  0
ENDTAB
  0
ENDSEC
  0
SECTION
  2
BLOCKS
  0
BLOCK
  5
20
330
1F
100
AcDbEntity
  8
0
100
AcDbBlockBegin
  2
*Model_Space
 70
     0
 10
0.0
 20
0.0
 30
0.0
  3
*Model_Space
  1

  0
ENDBLK
  5
21
330
1F
100
AcDbEntity
  8
0
100
AcDbBlockEnd
  0
BLOCK
  5
1C
330
1B
100
AcDbEntity
 67
     1
  8
0
100
AcDbBlockBegin
  2
*Paper_Space
 70
     0
 10
0.0
 20
0.0
 30
0.0
  3
*Paper_Space
  1

  0
ENDBLK
  5
1D
330
1B
100
AcDbEntity
 67
     1
  8
0
100
AcDbBlockEnd
  0
BLOCK
  5
24
330
23
100
AcDbEntity
  8
0
100
AcDbBlockBegin
  2
*Paper_Space0
 70
     0
 10
0.0
 20
0.0
 30
0.0
  3
*Paper_Space0
  1

  0
ENDBLK
  5
25
330
23
100
AcDbEntity
  8
0
100
AcDbBlockEnd
  0
ENDSEC
  0
SECTION
  2
ENTITIES
  0
LINE
  5
4A
330
1F
100
AcDbEntity
  8
0
  6
Continuous
 62
     7
370
    15
100
AcDbLine
 10
5.945420211503494
 20
5.807379053193908
 30
0.0
 11
5.945420211503494
 21
5.798182550257261
 31
0.0
  0
LINE
  5
4B
330
1F
100
AcDbEntity
  8
0
  6
Continuous
 62
     7
370
    15
100
AcDbLine
 10
6.46828596829023
 20
5.71422889253344
 30
0.0
 11
6.46828596829023
 21
5.723425395470087
 31
0.0
  0
LINE
  5
4C
330
1F
100
AcDbEntity
  8
0
  6
Continuous
 62
     7
370
    15
100
AcDbLine
 10
6.411468039774947
 20
5.723425332323576
 30
0.0
 11
6.411468039774947
 21
5.714228829386929
 31
0.0
  0
LINE
  5
4D
330
1F
100
AcDbEntity
  8
0
  6
Continuous
 62
     7
370
    15
100
AcDbLine
 10
6.347756606884226
 20
5.664715660187058
 30
0.0
 11
6.347756606884226
 21
5.673912163123704
 31
0.0
  0
LINE
  5
4E
330
1F
100
AcDbEntity
  8
0
  6
Continuous
 62
     7
370
    15
100
AcDbLine
 10
6.290938367245554
 20
5.673912178278867
 30
0.0
 11
6.290938367245554
 21
5.664715675342219
 31
0.0
  0
LINE
  5
4F
330
1F
100
AcDbEntity
  8
0
  6
Continuous
 62
     7
370
    15
100
AcDbLine
 10
5.925909494038128
 20
5.777733163916486
 30
0.0
 11
5.925909494038128
 21
5.786929666853133
 31
0.0
  0
LINE
  5
50
330
1F
100
AcDbEntity
  8
0
  6
Continuous
 62
     7
370
    15
100
AcDbLine
 10
5.869091254399454
 20
5.786929682008296
 30
0.0
 11
5.869091254399454
 21
5.777733179071648
 31
0.0
  0
LINE
  5
51
330
1F
100
AcDbEntity
  8
0
  6
Continuous
 62
     7
370
    15
100
AcDbLine
 10
6.424085563988265
 20
5.685165031372671
 30
0.0
 11
6.424085563988265
 21
5.694361534309318
 31
0.0
  0
LINE
  5
52
330
1F
100
AcDbEntity
  8
0
  6
Continuous
 62
     7
370
    15
100
AcDbLine
 10
6.367267324349593
 20
5.69436154946448
 30
0.0
 11
6.367267324349593
 21
5.685165046527833
 31
0.0
  0
LINE
  5
53
330
1F
100
AcDbEntity
  8
0
  6
Continuous
 62
     7
370
    15
100
AcDbLine
 10
6.222655947226783
 20
5.890021400749214
 30
0.0
 11
6.229405476896689
 21
5.888213127155745
 31
0.0
  0
LINE
  5
54
330
1F
100
AcDbEntity
  8
0
  6
Continuous
 62
     7
370
    15
100
AcDbLine
 10
6.244109149433134
 20
5.943095812106692
 30
0.0
 11
6.237359619763228
 21
5.94490408570016
 31
0.0
  0
LINE
  5
55
330
1F
100
AcDbEntity
  8
0
  6
Continuous
 62
     7
370
    15
100
AcDbLine
 10
6.262832460739335
 20
5.791302896203948
 30
0.0
 11
6.26958199040924
 21
5.789494622610479
 31
0.0
  0
LINE
  5
56
330
1F
100
AcDbEntity
  8
0
  6
Continuous
 62
     7
370
    15
100
AcDbLine
 10
6.284285662945685
 20
5.844377307561427
 30
0.0
 11
6.277536133275779
 21
5.846185581154895
 31
0.0
  0
LINE
  5
57
330
1F
100
AcDbEntity
  8
0
  6
Continuous
 62
     7
370
    15
100
AcDbLine
 10
6.198550031576868
 20
5.7740809229905
 30
0.0
 11
6.205299561246773
 21
5.772272649397032
 31
0.0
  0
LINE
  5
58
330
1F
100
AcDbEntity
  8
0
  6
Continuous
 62
     7
370
    15
100
AcDbLine
 10
6.220003233783217
 20
5.827155334347978
 30
0.0
 11
6.213253704113313
 21
5.828963607941449
 31
0.0
  0
LINE
  5
59
330
1F
100
AcDbEntity
  8
0
  6
Continuous
 62
     7
370
    15
100
AcDbLine
 10
2.538115282928364
 20
6.847440518092977
 30
0.0
 11
2.531365640122681
 21
6.845632214189182
 31
0.0
  0
LINE
  5
5A
330
1F
100
AcDbEntity
  8
0
  6
Continuous
 62
     7
370
    15
100
AcDbLine
 10
2.546069312659126
 20
6.790749529238236
 30
0.0
 11
2.552818955464809
 21
6.792557833142028
 31
0.0
  0
LINE
  5
5B
330
1F
100
AcDbEntity
  8
0
  6
Continuous
 62
     7
370
    15
100
AcDbLine
 10
2.827386242443405
 20
6.676890492092888
 30
0.0
 11
2.820636599637722
 21
6.675082188189095
 31
0.0
  0
LINE
  5
5C
330
1F
100
AcDbEntity
  8
0
  6
Continuous
 62
     7
370
    15
100
AcDbLine
 10
2.835340272174167
 20
6.620199503238147
 30
0.0
 11
2.84208991497985
 21
6.622007807141939
 31
0.0
  0
LINE
  5
5D
330
1F
100
AcDbEntity
  8
0
  6
Continuous
 62
     7
370
    15
100
AcDbLine
 10
2.923809895615086
 20
6.744108668708849
 30
0.0
 11
2.917060252809402
 21
6.742300364805055
 31
0.0
  0
LINE
  5
5E
330
1F
100
AcDbEntity
  8
0
  6
Continuous
 62
     7
370
    15
100
AcDbLine
 10
2.931763925345847
 20
6.687417679854108
 30
0.0
 11
2.938513568151531
 21
6.689225983757901
 31
0.0
  0
LINE
  5
5F
330
1F
100
AcDbEntity
  8
0
  6
Continuous
 62
     7
370
    15
100
AcDbLine
 10
6.041508105969908
 20
5.64608549278815
 30
0.0
 11
6.034758463164225
 21
5.644277188884356
 31
0.0
  0
LINE
  5
60
330
1F
100
AcDbEntity
  8
0
  6
Continuous
 62
     7
370
    15
100
AcDbLine
 10
6.049461890573151
 20
5.589394579240106
 30
0.0
 11
6.056211533378834
 21
5.591202883143898
 31
0.0
  0
LINE
  5
61
330
1F
100
AcDbEntity
  8
0
  6
Continuous
 62
     7
370
    15
100
AcDbLine
 10
2.730962589271725
 20
6.795774593400913
 30
0.0
 11
2.724212946466042
 21
6.793966289497119
 31
0.0
  0
LINE
  5
62
330
1F
100
AcDbEntity
  8
0
  6
Continuous
 62
     7
370
    15
100
AcDbLine
 10
2.738916621359482
 20
6.739083603914706
 30
0.0
 11
2.745666264165165
 21
6.7408919078185
 31
0.0
  0
LINE
  5
63
330
1F
100
AcDbEntity
  8
0
  6
Continuous
 62
     7
370
    15
100
AcDbLine
 10
5.848660780770584
 20
5.697751422531934
 30
0.0
 11
5.841911137964901
 21
5.695943118628141
 31
0.0
  0
LINE
  5
64
330
1F
100
AcDbEntity
  8
0
  6
Continuous
 62
     7
370
    15
100
AcDbLine
 10
5.856614565373827
 20
5.64106050898389
 30
0.0
 11
5.863364208179509
 21
5.642868812887683
 31
0.0
  0
LINE
  5
65
330
1F
100
AcDbEntity
  8
0
  6
Continuous
 62
     7
370
    15
100
AcDbLine
 10
6.234355129473823
 20
5.5944196438719
 30
0.0
 11
6.227605486668141
 21
5.592611339968106
 31
0.0
  0
LINE
  5
66
330
1F
100
AcDbEntity
  8
0
  6
Continuous
 62
     7
370
    15
100
AcDbLine
 10
6.242309215772475
 20
5.537728649496321
 30
0.0
 11
6.249058858578157
 21
5.539536953400115
 31
0.0
  0
LINE
  5
67
330
1F
100
AcDbEntity
  8
0
  6
Continuous
 62
     7
370
    15
100
AcDbLine
 10
3.113540103857971
 20
6.83485409756162
 30
0.0
 11
3.113540103857971
 21
6.844050613344036
 31
0.0
  0
LINE
  5
68
330
1F
100
AcDbEntity
  8
0
  6
Continuous
 62
     7
370
    15
100
AcDbLine
 10
3.056721930215169
 20
6.844050610818174
 30
0.0
 11
3.056721930215169
 21
6.83485409503576
 31
0.0
  0
LINE
  5
69
330
1F
100
AcDbEntity
  8
0
  6
Continuous
 62
     7
370
    15
100
AcDbLine
 10
5.945084443370246
 20
5.578867316289468
 30
0.0
 11
5.938334800564563
 21
5.577059012385674
 31
0.0
  0
LINE
  5
6A
330
1F
100
AcDbEntity
  8
0
  6
Continuous
 62
     7
370
    15
100
AcDbLine
 10
5.953038227973488
 20
5.522176408361445
 30
0.0
 11
5.959787870779172
 21
5.52398471226524
 31
0.0
  0
LINE
  5
6B
330
1F
100
AcDbEntity
  8
0
  6
Continuous
 62
     7
370
    15
100
AcDbLine
 10
6.13793176856957
 20
5.527201386545683
 30
0.0
 11
6.131182125763887
 21
5.525393082641889
 31
0.0
  0
LINE
  5
6C
330
1F
100
AcDbEntity
  8
0
  6
Continuous
 62
     7
370
    15
100
AcDbLine
 10
6.145885553172814
 20
5.470510478617662
 30
0.0
 11
6.152635195978496
 21
5.472318782521455
 31
0.0
  0
LINE
  5
6D
330
1F
100
AcDbEntity
  8
0
  6
Continuous
 62
     7
370
    15
100
AcDbLine
 10
3.037211146753932
 20
6.814404726376007
 30
0.0
 11
3.037211146753932
 21
6.823601242158422
 31
0.0
  0
LINE
  5
6E
330
1F
100
AcDbEntity
  8
0
  6
Continuous
 62
     7
370
    15
100
AcDbLine
 10
2.980392973111129
 20
6.823601239632561
 30
0.0
 11
2.980392973111129
 21
6.814404723850147
 31
0.0
  0
LINE
  5
6F
330
1F
100
AcDbEntity
  8
0
  6
Continuous
 62
     7
370
    15
100
AcDbLine
 10
2.634538936100044
 20
6.728556416784952
 30
0.0
 11
2.627789293294361
 21
6.726748112881158
 31
0.0
  0
LINE
  5
70
330
1F
100
AcDbEntity
  8
0
  6
Continuous
 62
     7
370
    15
100
AcDbLine
 10
2.642492965830806
 20
6.671865427930211
 30
0.0
 11
2.649242608636489
 21
6.673673731834004
 31
0.0
  0
LINE
  5
71
330
1F
100
AcDbEntity
  8
0
  6
Continuous
 62
     7
370
    15
100
AcDbLine
 10
2.888004595016528
 20
6.923769995710566
 30
0.0
 11
2.894754247250192
 21
6.921961689280912
 31
0.0
  0
LINE
  5
72
330
1F
100
AcDbEntity
  8
0
  6
Continuous
 62
     7
370
    15
100
AcDbLine
 10
2.909457919786637
 20
6.976844348540326
 30
0.0
 11
2.902708267552973
 21
6.97865265496998
 31
0.0
  0
LINE
  5
73
330
1F
100
AcDbEntity
  8
0
  6
Continuous
 62
     7
370
    15
100
AcDbLine
 10
2.912110510666444
 20
7.039710447777745
 30
0.0
 11
2.918860162900108
 21
7.037902141348091
 31
0.0
  0
LINE
  5
74
330
1F
100
AcDbEntity
  8
0
  6
Continuous
 62
     7
370
    15
100
AcDbLine
 10
2.933563835436553
 20
7.092784851990573
 30
0.0
 11
2.926814183202888
 21
7.094593158420226
 31
0.0
  0
LINE
  5
75
330
1F
100
AcDbEntity
  8
0
  6
Continuous
 62
     7
370
    15
100
AcDbLine
 10
2.952287024178994
 20
6.940991968924014
 30
0.0
 11
2.959036676412658
 21
6.93918366249436
 31
0.0
  0
LINE
  5
76
330
1F
100
AcDbEntity
  8
0
  6
Continuous
 62
     7
370
    15
100
AcDbLine
 10
2.973740348949103
 20
6.994066321753773
 30
0.0
 11
2.966990696715439
 21
6.995874628183428
 31
0.0
  0
LINE
  5
77
330
1F
100
AcDbEntity
  8
0
  6
Continuous
 62
     7
370
    15
100
AcDbLine
 10
3.157740715575529
 20
6.86391790315346
 30
0.0
 11
3.157740715575529
 21
6.873114418935875
 31
0.0
  0
LINE
  5
78
330
1F
100
AcDbEntity
  8
0
  6
Continuous
 62
     7
370
    15
100
AcDbLine
 10
3.100922551360708
 20
6.873114418935875
 30
0.0
 11
3.100922551360708
 21
6.86391790315346
 31
0.0
  0
LWPOLYLINE
  5
79
330
1F
100
AcDbEntity
  8
0
  6
Continuous
 62
     7
370
    15
100
AcDbPolyline
 90
        6
 70
   128
 43
0.0
 10
5.967799599756732
 20
5.79994136412428
 10
5.961036682353093
 20
5.800583266089983
 10
5.954128347762752
 20
5.801895389968661
 10
5.948970525354031
 20
5.803694762429934
 10
5.946021339604122
 20
5.805821547025066
 10
5.945420211503494
 20
5.807379053193908
  0
LWPOLYLINE
  5
7A
330
1F
100
AcDbEntity
  8
0
  6
Continuous
 62
     7
370
    15
100
AcDbPolyline
 90
        7
 70
   128
 43
0.0
 10
5.948418592460885
 20
5.811071629393047
 10
5.946413279651164
 20
5.808830054544291
 10
5.947091641776267
 20
5.806532168162855
 10
5.950387475550076
 20
5.804402877914163
 10
5.955977816038227
 20
5.802650678422494
 10
5.963315746033733
 20
5.801447020042894
 10
5.967799580900769
 20
5.801066655770739
  0
ARC
  5
7B
330
1F
100
AcDbEntity
  8
0
  6
Continuous
 62
     7
370
    15
100
AcDbCircle
 10
5.969037463247943
 20
5.764806896320101
 30
0.0
 40
0.0506513904927032
100
AcDbArc
 50
91.40025635554442
 51
114.0211683449076
  0
LWPOLYLINE
  5
7C
330
1F
100
AcDbEntity
  8
0
  6
Continuous
 62
     7
370
    15
100
AcDbPolyline
 90
        6
 70
   128
 43
0.0
 10
5.945420211503494
 20
5.798182550257261
 10
5.946021339604122
 20
5.796625044088419
 10
5.948970525354031
 20
5.794498259493286
 10
5.954128347762752
 20
5.792698887032012
 10
5.961036682353093
 20
5.791386763153336
 10
5.967799599756732
 20
5.790744861187632
  0
ARC
  5
7D
330
1F
100
AcDbEntity
  8
0
  6
Continuous
 62
     7
370
    15
100
AcDbCircle
 10
5.965108890781637
 20
5.821738824350277
 30
0.0
 40
0.0317346709968018
100
AcDbArc
 50
235.2564289656315
 51
274.8637813084576
  0
LWPOLYLINE
  5
7E
330
1F
100
AcDbEntity
  8
0
  6
Continuous
 62
     7
370
    15
100
AcDbPolyline
 90
        5
 70
   128
 43
0.0
 10
6.429015644075801
 20
5.716392473010338
 10
6.421760718029448
 20
5.717562598066718
 10
6.416115393553171
 20
5.719253671735704
 10
6.412581371254669
 20
5.721315430579632
 10
6.411468039774947
 20
5.723425332323576
  0
LWPOLYLINE
  5
7F
330
1F
100
AcDbEntity
  8
0
  6
Continuous
 62
     7
370
    15
100
AcDbPolyline
 90
        8
 70
   128
 43
0.0
 10
6.46828596829023
 20
5.723425395470087
 10
6.467886721557523
 20
5.72215338478108
 10
6.465242794992718
 20
5.71999807311812
 10
6.460345043453757
 20
5.718147276664121
 10
6.453628983118187
 20
5.716765363261448
 10
6.445690632120665
 20
5.715975317054992
 10
6.43723575030054
 20
5.715847240775449
 10
6.429015644075801
 20
5.716392473010338
  0
LWPOLYLINE
  5
80
330
1F
100
AcDbEntity
  8
0
  6
Continuous
 62
     7
370
    15
100
AcDbPolyline
 90
       21
 70
   128
 43
0.0
 10
6.429363272609778
 20
5.717493380000095
 10
6.437730285642296
 20
5.716956144639363
 10
6.446307240966921
 20
5.717137940918775
 10
6.454255001089984
 20
5.718020873117104
 10
6.460795182430616
 20
5.719518614902041
 10
6.465287898456228
 20
5.721484466825009
 10
6.467293220693929
 20
5.723726044199625
 10
6.466614538017457
 20
5.726024006356874
 10
6.463319024795018
 20
5.728153220829752
 10
6.457728674878884
 20
5.729905417795561
 10
6.450390735455399
 20
5.731109073649301
 10
6.44202372242288
 20
5.731646309010033
 10
6.433446757670272
 20
5.73146451020476
 10
6.42549899754721
 20
5.730581578006431
 10
6.418958825634559
 20
5.729083838747355
 10
6.414466109608947
 20
5.727117986824386
 10
6.412461089066654
 20
5.724876328622237
 10
6.413139470047719
 20
5.722578447292521
 10
6.416434983270158
 20
5.720449232819643
 10
6.422025323758309
 20
5.718697033327975
 10
6.429363272609778
 20
5.717493380000095
  0
LWPOLYLINE
  5
81
330
1F
100
AcDbEntity
  8
0
  6
Continuous
 62
     7
370
    15
100
AcDbPolyline
 90
        8
 70
   128
 43
0.0
 10
6.429015644075801
 20
5.707195970073691
 10
6.43723575030054
 20
5.706650737838801
 10
6.445690632120665
 20
5.706778814118345
 10
6.453628983118187
 20
5.7075688603248
 10
6.460345043453757
 20
5.708950773727473
 10
6.465242794992718
 20
5.710801570181473
 10
6.467886721557523
 20
5.712956881844432
 10
6.46828596829023
 20
5.71422889253344
  0
LWPOLYLINE
  5
82
330
1F
100
AcDbEntity
  8
0
  6
Continuous
 62
     7
370
    15
100
AcDbPolyline
 90
        5
 70
   128
 43
0.0
 10
6.411468039774947
 20
5.714228829386929
 10
6.412581371254669
 20
5.712118927642985
 10
6.416115393553171
 20
5.710057168799056
 10
6.421760718029448
 20
5.70836609513007
 10
6.429015644075801
 20
5.707195970073691
  0
ARC
  5
83
330
1F
100
AcDbEntity
  8
0
  6
Continuous
 62
     7
370
    15
100
AcDbCircle
 10
6.441013016546556
 20
5.759797159955397
 30
0.0
 40
0.0545114021967488
100
AcDbArc
 50
257.6600224631811
 51
298.0935001734338
  0
LWPOLYLINE
  5
84
330
1F
100
AcDbEntity
  8
0
  6
Continuous
 62
     7
370
    15
100
AcDbPolyline
 90
        5
 70
   128
 43
0.0
 10
6.308486292097778
 20
5.666879243189817
 10
6.301231045500053
 20
5.668049444022011
 10
6.295585721023778
 20
5.669740517690995
 10
6.292051698725277
 20
5.671802276534924
 10
6.290938367245554
 20
5.673912178278867
  0
LWPOLYLINE
  5
85
330
1F
100
AcDbEntity
  8
0
  6
Continuous
 62
     7
370
    15
100
AcDbPolyline
 90
        8
 70
   128
 43
0.0
 10
6.347756606884226
 20
5.673912163123704
 10
6.347357067884093
 20
5.672640235788092
 10
6.344713122463325
 20
5.670484919073413
 10
6.339815682047754
 20
5.668634044317739
 10
6.333099320016776
 20
5.667252211742599
 10
6.325160978447234
 20
5.666462168062005
 10
6.316706398322517
 20
5.666334010954927
 10
6.308486292097778
 20
5.666879243189817
  0
LWPOLYLINE
  5
86
330
1F
100
AcDbEntity
  8
0
  6
Continuous
 62
     7
370
    15
100
AcDbPolyline
 90
       21
 70
   128
 43
0.0
 10
6.308833618936347
 20
5.667980231007107
 10
6.317200613112903
 20
5.667442990594655
 10
6.3257778889889
 20
5.667624711098254
 10
6.333725337988574
 20
5.668507721598255
 10
6.340265811596632
 20
5.670005380029799
 10
6.344758244782799
 20
5.671971317832022
 10
6.346763557592518
 20
5.674212892680777
 10
6.346085176611453
 20
5.676510774010492
 10
6.342789361693607
 20
5.678640069310905
 10
6.337199002349493
 20
5.680392263750851
 10
6.329861072353986
 20
5.681595922130452
 10
6.321494361016876
 20
5.68213307666365
 10
6.312917103996841
 20
5.681951361211772
 10
6.304969334445797
 20
5.681068426487583
 10
6.298429162533148
 20
5.679570687228507
 10
6.293936748202944
 20
5.677604754478005
 10
6.291931416537262
 20
5.675363174577529
 10
6.292609797518326
 20
5.673065293247813
 10
6.295905631292137
 20
5.670936002999122
 10
6.301495971780288
 20
5.669183803507453
 10
6.308833618936347
 20
5.667980231007107
  0
LWPOLYLINE
  5
87
330
1F
100
AcDbEntity
  8
0
  6
Continuous
 62
     7
370
    15
100
AcDbPolyline
 90
        8
 70
   128
 43
0.0
 10
6.308486292097778
 20
5.657682740253168
 10
6.316706398322517
 20
5.65713750801828
 10
6.325160978447234
 20
5.657265665125358
 10
6.333099320016776
 20
5.658055708805951
 10
6.339815682047754
 20
5.659437541381092
 10
6.344713122463325
 20
5.661288416136765
 10
6.347357067884093
 20
5.663443732851446
 10
6.347756606884226
 20
5.664715660187058
  0
LWPOLYLINE
  5
88
330
1F
100
AcDbEntity
  8
0
  6
Continuous
 62
     7
370
    15
100
AcDbPolyline
 90
        5
 70
   128
 43
0.0
 10
6.290938367245554
 20
5.664715675342219
 10
6.292051698725277
 20
5.662605773598277
 10
6.295585721023778
 20
5.660544014754348
 10
6.301231045500053
 20
5.658852941085362
 10
6.308486292097778
 20
5.657682740253168
  0
ARC
  5
89
330
1F
100
AcDbEntity
  8
0
  6
Continuous
 62
     7
370
    15
100
AcDbCircle
 10
6.320483368144224
 20
5.71028399621063
 30
0.0
 40
0.0545113889122833
100
AcDbArc
 50
257.6600137371721
 51
298.0935125797036
  0
LWPOLYLINE
  5
8A
330
1F
100
AcDbEntity
  8
0
  6
Continuous
 62
     7
370
    15
100
AcDbPolyline
 90
       12
 70
   128
 43
0.0
 10
5.925909494038128
 20
5.786929666853133
 10
5.925076776999858
 20
5.785100529652419
 10
5.921839283575589
 20
5.783004105899792
 10
5.916439124330316
 20
5.781256503474127
 10
5.909356221234466
 20
5.780012971861597
 10
5.901219760061621
 20
5.779384042715121
 10
5.892752885849024
 20
5.779425562809057
 10
5.884707725249054
 20
5.780133894904371
 10
5.877799390658713
 20
5.781446018783047
 10
5.872641568249992
 20
5.78324539124432
 10
5.869692382500084
 20
5.785372175839454
 10
5.869091254399454
 20
5.786929682008296
  0
LWPOLYLINE
  5
8B
330
1F
100
AcDbEntity
  8
0
  6
Continuous
 62
     7
370
    15
100
AcDbPolyline
 90
       21
 70
   128
 43
0.0
 10
5.872089635356846
 20
5.790622258207434
 10
5.870084303691163
 20
5.788380678306957
 10
5.870762684672229
 20
5.786082796977242
 10
5.874058518446037
 20
5.783953506728551
 10
5.879648858934189
 20
5.782201307236882
 10
5.886986807785658
 20
5.780997653909001
 10
5.895353500266804
 20
5.780460494324083
 10
5.903930776142801
 20
5.780642214827682
 10
5.911878526837883
 20
5.78152514450015
 10
5.918418698750532
 20
5.783022883759228
 10
5.922911131936698
 20
5.784988821561451
 10
5.924916444746419
 20
5.787230396410205
 10
5.924238063765353
 20
5.789528277739921
 10
5.920942248847507
 20
5.791657573040334
 10
5.915351889503393
 20
5.79340976748028
 10
5.908014261203295
 20
5.794613345032347
 10
5.899647248170778
 20
5.795150580393078
 10
5.891069991150743
 20
5.794968864941201
 10
5.883122523295107
 20
5.794085849389478
 10
5.876582049687049
 20
5.792588190957936
 10
5.872089635356846
 20
5.790622258207434
  0
LWPOLYLINE
  5
8C
330
1F
100
AcDbEntity
  8
0
  6
Continuous
 62
     7
370
    15
100
AcDbPolyline
 90
       12
 70
   128
 43
0.0
 10
5.869091254399454
 20
5.777733179071648
 10
5.869692382500084
 20
5.776175672902806
 10
5.872641568249992
 20
5.774048888307673
 10
5.877799390658713
 20
5.7722495158464
 10
5.884707725249054
 20
5.770937391967723
 10
5.892752885849024
 20
5.770229059872409
 10
5.901219760061621
 20
5.770187539778473
 10
5.909356221234466
 20
5.77081646892495
 10
5.916439124330316
 20
5.77206000053748
 10
5.921839283575589
 20
5.773807602963143
 10
5.925076776999858
 20
5.775904026715771
 10
5.925909494038128
 20
5.777733163916486
  0
LWPOLYLINE
  5
8D
330
1F
100
AcDbEntity
  8
0
  6
Continuous
 62
     7
370
    15
100
AcDbPolyline
 90
       11
 70
   128
 43
0.0
 10
5.924306605190881
 20
5.775212708203476
 10
5.922911131936698
 20
5.774040592769069
 10
5.918418698750532
 20
5.772074654966846
 10
5.911878526837883
 20
5.77057691570777
 10
5.903930776142801
 20
5.769693986035302
 10
5.895353500266804
 20
5.769512265531703
 10
5.886986807785658
 20
5.770049425116622
 10
5.879648858934189
 20
5.771253078444501
 10
5.874058518446037
 20
5.773005277936169
 10
5.870762684672229
 20
5.775134568184861
 10
5.870694237526516
 20
5.775212738513802
  0
LWPOLYLINE
  5
8E
330
1F
100
AcDbEntity
  8
0
  6
Continuous
 62
     7
370
    15
100
AcDbPolyline
 90
        5
 70
   128
 43
0.0
 10
6.384815249201817
 20
5.687328614375429
 10
6.377560021460056
 20
5.688498820259344
 10
6.371914696983779
 20
5.690189893928329
 10
6.368380674685279
 20
5.692251652772258
 10
6.367267324349593
 20
5.69436154946448
  0
LWPOLYLINE
  5
8F
330
1F
100
AcDbEntity
  8
0
  6
Continuous
 62
     7
370
    15
100
AcDbPolyline
 90
        8
 70
   128
 43
0.0
 10
6.424085563988265
 20
5.694361534309318
 10
6.423686024988132
 20
5.693089606973706
 10
6.421042098423328
 20
5.690934295310746
 10
6.416144639151792
 20
5.689083415503352
 10
6.409428295976778
 20
5.687701587979932
 10
6.401489935551274
 20
5.686911539247618
 10
6.393035336570593
 20
5.686783377088818
 10
6.384815249201817
 20
5.687328614375429
  0
LWPOLYLINE
  5
90
330
1F
100
AcDbEntity
  8
0
  6
Continuous
 62
     7
370
    15
100
AcDbPolyline
 90
       21
 70
   128
 43
0.0
 10
6.385162557184424
 20
5.688429597141
 10
6.393529570216943
 20
5.687892361780268
 10
6.40210684609294
 20
5.688074082283867
 10
6.410054313948575
 20
5.68895709783559
 10
6.416594787556633
 20
5.690454756267133
 10
6.421087201886837
 20
5.692420689017634
 10
6.423092514696556
 20
5.69466226386639
 10
6.422414133715492
 20
5.696960145196105
 10
6.419118318797646
 20
5.699089440496517
 10
6.413527978309494
 20
5.700841639988185
 10
6.406190048313987
 20
5.702045298367787
 10
6.397823336976879
 20
5.702582452900983
 10
6.389246061100882
 20
5.702400732397385
 10
6.381298291549836
 20
5.701517797673196
 10
6.374758119637187
 20
5.70002005841412
 10
6.370265705306983
 20
5.698054125663619
 10
6.368260392497264
 20
5.695812550814863
 10
6.368938754622365
 20
5.693514664433426
 10
6.372234588396176
 20
5.691385374184734
 10
6.377824928884327
 20
5.689633174693067
 10
6.385162557184424
 20
5.688429597141
  0
LWPOLYLINE
  5
91
330
1F
100
AcDbEntity
  8
0
  6
Continuous
 62
     7
370
    15
100
AcDbPolyline
 90
        8
 70
   128
 43
0.0
 10
6.384815249201817
 20
5.678132111438782
 10
6.393035336570593
 20
5.677586874152171
 10
6.401489935551274
 20
5.677715036310971
 10
6.409428295976778
 20
5.678505085043286
 10
6.416144639151792
 20
5.679886912566704
 10
6.421042098423328
 20
5.681737792374098
 10
6.423686024988132
 20
5.683893104037059
 10
6.424085563988265
 20
5.685165031372671
  0
LWPOLYLINE
  5
92
330
1F
100
AcDbEntity
  8
0
  6
Continuous
 62
     7
370
    15
100
AcDbPolyline
 90
        5
 70
   128
 43
0.0
 10
6.367267324349593
 20
5.685165046527833
 10
6.368380674685279
 20
5.68305514983561
 10
6.371914696983779
 20
5.680993390991682
 10
6.377560021460056
 20
5.679302317322695
 10
6.384815249201817
 20
5.678132111438782
  0
ARC
  5
93
330
1F
100
AcDbEntity
  8
0
  6
Continuous
 62
     7
370
    15
100
AcDbCircle
 10
6.3968123714812
 20
5.730732611689243
 30
0.0
 40
0.0545106695103981
100
AcDbArc
 50
257.6597782825544
 51
298.0937038710488
  0
LWPOLYLINE
  5
94
330
1F
100
AcDbEntity
  8
0
  6
Continuous
 62
     7
370
    15
100
AcDbPolyline
 90
        9
 70
   128
 43
0.0
 10
6.218201225966629
 20
5.900198823409676
 10
6.216757538015041
 20
5.907730097124606
 10
6.217090911440986
 20
5.915965503277297
 10
6.219171742382545
 20
5.924173277389933
 10
6.222815129266479
 20
5.931624109992145
 10
6.227697334063942
 20
5.937655957569525
 10
6.233384556490018
 20
5.941732903333695
 10
6.239371475592111
 20
5.943492632897796
 10
6.244109149433134
 20
5.943095812106692
  0
ARC
  5
95
330
1F
100
AcDbEntity
  8
0
  6
Continuous
 62
     7
370
    15
100
AcDbCircle
 10
6.234630432076498
 20
5.90432715020778
 30
0.0
 40
0.0169399496915581
100
AcDbArc
 50
194.1052337223456
 51
252.0347675487404
  0
LWPOLYLINE
  5
96
330
1F
100
AcDbEntity
  8
0
  6
Continuous
 62
     7
370
    15
100
AcDbPolyline
 90
       21
 70
   128
 43
0.0
 10
6.2194379320123
 20
5.900521169417943
 10
6.222618800979662
 20
5.894307211268738
 10
6.227246563412323
 20
5.890166025269631
 10
6.232868261366953
 20
5.888502961118005
 10
6.238933564707261
 20
5.88948083025152
 10
6.244848774582043
 20
5.89300387812598
 10
6.250034862079308
 20
5.898727270210216
 10
6.253984205818978
 20
5.906090739135554
 10
6.256310164279614
 20
5.914373537338008
 10
6.256785108275808
 20
5.922764847334743
 10
6.255362520146825
 20
5.930443282894049
 10
6.252181651179462
 20
5.936657241043254
 10
6.247553869890838
 20
5.94079842199064
 10
6.24193219079217
 20
5.942461491193987
 10
6.235866868595899
 20
5.941483617008751
 10
6.22995165872112
 20
5.937960569134291
 10
6.224765571223852
 20
5.932237177050057
 10
6.220816246340144
 20
5.924873687484904
 10
6.218490269023548
 20
5.916590909922264
 10
6.218015325027353
 20
5.908199599925528
 10
6.2194379320123
 20
5.900521169417943
  0
ARC
  5
97
330
1F
100
AcDbEntity
  8
0
  6
Continuous
 62
     7
370
    15
100
AcDbCircle
 10
6.227880902406594
 20
5.906135423801248
 30
0.0
 40
0.0169399496915588
100
AcDbArc
 50
194.1052337223449
 51
252.0347675487308
  0
LWPOLYLINE
  5
98
330
1F
100
AcDbEntity
  8
0
  6
Continuous
 62
     7
370
    15
100
AcDbPolyline
 90
        9
 70
   128
 43
0.0
 10
6.237359619763228
 20
5.94490408570016
 10
6.232621945922207
 20
5.945300906491266
 10
6.226635026820114
 20
5.943541176927164
 10
6.220947804394038
 20
5.939464231162993
 10
6.216065599596575
 20
5.933432383585613
 10
6.212422212712639
 20
5.925981550983402
 10
6.210341381771081
 20
5.917773776870765
 10
6.210008008345137
 20
5.909538370718074
 10
6.211451696296724
 20
5.902007097003143
  0
LWPOLYLINE
  5
99
330
1F
100
AcDbEntity
  8
0
  6
Continuous
 62
     7
370
    15
100
AcDbPolyline
 90
        9
 70
   128
 43
0.0
 10
6.258377739479179
 20
5.801480318864409
 10
6.256934051527592
 20
5.809011618270874
 10
6.2572674438095
 20
5.817247003783752
 10
6.259348274751058
 20
5.825454777896389
 10
6.262991642779031
 20
5.832905605446879
 10
6.267873866432457
 20
5.838937458075981
 10
6.273561088858532
 20
5.843014403840151
 10
6.279547989104662
 20
5.844774128352532
 10
6.284285662945685
 20
5.844377307561427
  0
ARC
  5
9A
330
1F
100
AcDbEntity
  8
0
  6
Continuous
 62
     7
370
    15
100
AcDbCircle
 10
6.274807080949381
 20
5.805608772197603
 30
0.0
 40
0.0169401118080388
100
AcDbArc
 50
194.1055372196195
 51
252.0344640514689
  0
LWPOLYLINE
  5
9B
330
1F
100
AcDbEntity
  8
0
  6
Continuous
 62
     7
370
    15
100
AcDbPolyline
 90
       21
 70
   128
 43
0.0
 10
6.25961444552485
 20
5.801802664872677
 10
6.262795314492213
 20
5.795588706723472
 10
6.267423095780836
 20
5.791447525776086
 10
6.273044774879504
 20
5.78978445657274
 10
6.279110078219812
 20
5.790762325706254
 10
6.285025288094593
 20
5.794285373580716
 10
6.290211394447822
 20
5.80000877071667
 10
6.294160719331529
 20
5.807372260281821
 10
6.296486696648128
 20
5.815655037844462
 10
6.296961621788359
 20
5.824046342789478
 10
6.295539033659375
 20
5.831724778348783
 10
6.292358164692013
 20
5.837938736497989
 10
6.28773038340339
 20
5.842079917445375
 10
6.282108704304722
 20
5.843742986648721
 10
6.276043400964414
 20
5.842765117515207
 10
6.270128191089633
 20
5.839242069640746
 10
6.264942084736403
 20
5.833518672504791
 10
6.260992759852697
 20
5.82615518293964
 10
6.258666782536097
 20
5.817872405376999
 10
6.258191857395867
 20
5.809481100431983
 10
6.25961444552485
 20
5.801802664872677
  0
ARC
  5
9C
330
1F
100
AcDbEntity
  8
0
  6
Continuous
 62
     7
370
    15
100
AcDbCircle
 10
6.268057551279476
 20
5.80741704579107
 30
0.0
 40
0.0169401118080375
100
AcDbArc
 50
194.1055372196144
 51
252.0344640514708
  0
LWPOLYLINE
  5
9D
330
1F
100
AcDbEntity
  8
0
  6
Continuous
 62
     7
370
    15
100
AcDbPolyline
 90
        9
 70
   128
 43
0.0
 10
6.277536133275779
 20
5.846185581154895
 10
6.272798459434757
 20
5.846582401945999
 10
6.266811559188628
 20
5.844822677433619
 10
6.261124336762552
 20
5.840745731669449
 10
6.256242113109125
 20
5.834713879040346
 10
6.252598745081153
 20
5.827263051489856
 10
6.250517914139595
 20
5.819055277377221
 10
6.250184521857687
 20
5.810819891864342
 10
6.251628209809275
 20
5.803288592457878
  0
LWPOLYLINE
  5
9E
330
1F
100
AcDbEntity
  8
0
  6
Continuous
 62
     7
370
    15
100
AcDbPolyline
 90
        9
 70
   128
 43
0.0
 10
6.194095310316714
 20
5.784258345650962
 10
6.192651622365126
 20
5.791789645057427
 10
6.19298499579107
 20
5.800025025518583
 10
6.195065826732629
 20
5.80823279963122
 10
6.198709213616565
 20
5.815683632233431
 10
6.20359143726999
 20
5.821715484862533
 10
6.209278659696067
 20
5.825792430626703
 10
6.215265559942196
 20
5.827552155139084
 10
6.220003233783217
 20
5.827155334347978
  0
ARC
  5
9F
330
1F
100
AcDbEntity
  8
0
  6
Continuous
 62
     7
370
    15
100
AcDbCircle
 10
6.210524539741165
 20
5.788386694243579
 30
0.0
 40
0.0169399776146076
100
AcDbArc
 50
194.1052859973911
 51
252.034715273686
  0
LWPOLYLINE
  5
A0
330
1F
100
AcDbEntity
  8
0
  6
Continuous
 62
     7
370
    15
100
AcDbPolyline
 90
       21
 70
   128
 43
0.0
 10
6.19533199750642
 20
5.784580686607509
 10
6.198512885329746
 20
5.778366733510026
 10
6.20314066661837
 20
5.774225552562638
 10
6.208762345717038
 20
5.772562483359291
 10
6.214827649057345
 20
5.773540352492807
 10
6.220742858932126
 20
5.777063400367268
 10
6.225928965285357
 20
5.782786797503224
 10
6.229878290169063
 20
5.790150287068374
 10
6.232204267485661
 20
5.798433064631014
 10
6.232679192625892
 20
5.80682436957603
 10
6.231256604496908
 20
5.814502805135336
 10
6.228075735529546
 20
5.820716763284541
 10
6.223447954240922
 20
5.824857944231927
 10
6.217826275142256
 20
5.826521013435273
 10
6.211760971801947
 20
5.825543144301759
 10
6.205845743071203
 20
5.822020091375578
 10
6.200659636717973
 20
5.816296694239621
 10
6.19671033069023
 20
5.808933209726192
 10
6.194384372229594
 20
5.800650437215272
 10
6.1939094282334
 20
5.792259127218536
 10
6.19533199750642
 20
5.784580686607509
  0
ARC
  5
A1
330
1F
100
AcDbEntity
  8
0
  6
Continuous
 62
     7
370
    15
100
AcDbCircle
 10
6.203775010071254
 20
5.790194967837045
 30
0.0
 40
0.0169399776146034
100
AcDbArc
 50
194.105285997386
 51
252.0347152737003
  0
LWPOLYLINE
  5
A2
330
1F
100
AcDbEntity
  8
0
  6
Continuous
 62
     7
370
    15
100
AcDbPolyline
 90
        9
 70
   128
 43
0.0
 10
6.213253704113313
 20
5.828963607941449
 10
6.208516030272291
 20
5.829360428732552
 10
6.202529130026161
 20
5.827600704220171
 10
6.196841907600085
 20
5.823523758456001
 10
6.191959683946659
 20
5.8174919058269
 10
6.188316297062725
 20
5.810041073224688
 10
6.186235466121165
 20
5.801833299112051
 10
6.18590209269522
 20
5.793597918650895
 10
6.187345780646808
 20
5.78606661924443
  0
LWPOLYLINE
  5
A3
330
1F
100
AcDbEntity
  8
0
  6
Continuous
 62
     7
370
    15
100
AcDbPolyline
 90
       12
 70
   128
 43
0.0
 10
2.531365640122681
 20
6.845632214189182
 10
2.535344738571974
 20
6.846076472249851
 10
2.541331638818103
 20
6.844628308969046
 10
2.547086271311925
 20
6.840831068180592
 10
2.552097300048645
 20
6.835022110724258
 10
2.55591946031784
 20
6.82771766213569
 10
2.558213156225772
 20
6.819566698332705
 10
2.558774573668311
 20
6.811293473197368
 10
2.557553838623306
 20
6.803633126484729
 10
2.554659410589968
 20
6.797266303628654
 10
2.550348466047732
 20
6.792758710786825
 10
2.546069312659126
 20
6.790749529238236
  0
LWPOLYLINE
  5
A4
330
1F
100
AcDbEntity
  8
0
  6
Continuous
 62
     7
370
    15
100
AcDbPolyline
 90
       21
 70
   128
 43
0.0
 10
2.520112344832843
 20
6.812682160210773
 10
2.523293213800205
 20
6.804763847851311
 10
2.527920995088829
 20
6.798142999398239
 10
2.533542674187495
 20
6.793467710273733
 10
2.539607977527804
 20
6.791195655811667
 10
2.545523206258548
 20
6.791549198435278
 10
2.550709293755814
 20
6.794493770206585
 10
2.554658618639521
 20
6.79974109851269
 10
2.556984595956119
 20
6.806777591707849
 10
2.557459521096351
 20
6.81491442126511
 10
2.556036932967367
 20
6.823355110988433
 10
2.552856064000004
 20
6.83127344903943
 10
2.548228301567343
 20
6.837894292440781
 10
2.542606603612713
 20
6.842569586617007
 10
2.536541300272405
 20
6.844841641079074
 10
2.530626090397625
 20
6.844488093403741
 10
2.525439984044395
 20
6.841543526684156
 10
2.521490659160688
 20
6.836296172686516
 10
2.51916468184409
 20
6.829259705182892
 10
2.518689756703859
 20
6.82112287562563
 10
2.520112344832843
 20
6.812682160210773
  0
LWPOLYLINE
  5
A5
330
1F
100
AcDbEntity
  8
0
  6
Continuous
 62
     7
370
    15
100
AcDbPolyline
 90
       12
 70
   128
 43
0.0
 10
2.552818955464809
 20
6.792557833142028
 10
2.557098108853416
 20
6.794567014690617
 10
2.56140905339565
 20
6.799074607532447
 10
2.564303481428989
 20
6.805441430388522
 10
2.565524216473994
 20
6.813101777101161
 10
2.564962799031456
 20
6.821375002236498
 10
2.562669103123523
 20
6.829525966039482
 10
2.558846942854328
 20
6.836830414628051
 10
2.553835914117609
 20
6.842639372084385
 10
2.548081281623786
 20
6.846436612872839
 10
2.542094381377657
 20
6.847884776153644
 10
2.538115282928364
 20
6.847440518092977
  0
LWPOLYLINE
  5
A6
330
1F
100
AcDbEntity
  8
0
  6
Continuous
 62
     7
370
    15
100
AcDbPolyline
 90
       12
 70
   128
 43
0.0
 10
2.820636599637722
 20
6.675082188189095
 10
2.824615688659034
 20
6.675526448775623
 10
2.830602598333145
 20
6.674078282968957
 10
2.836357226112976
 20
6.670281043443432
 10
2.841368250135705
 20
6.664472087250029
 10
2.845190419832881
 20
6.6571676361356
 10
2.847484115740813
 20
6.649016672332616
 10
2.848045537897343
 20
6.640743445934348
 10
2.846824798138348
 20
6.63308310048464
 10
2.843930360677027
 20
6.626716280154426
 10
2.839619416134793
 20
6.622208687312596
 10
2.835340272174167
 20
6.620199503238147
  0
LWPOLYLINE
  5
A7
330
1F
100
AcDbEntity
  8
0
  6
Continuous
 62
     7
370
    15
100
AcDbPolyline
 90
       21
 70
   128
 43
0.0
 10
2.809383304347883
 20
6.642132147056451
 10
2.812564173315246
 20
6.634213821851222
 10
2.817191949889879
 20
6.62759297466108
 10
2.822813633702537
 20
6.622917684273645
 10
2.828878941756835
 20
6.62064561570288
 10
2.834794151631617
 20
6.62099917622398
 10
2.839980248556864
 20
6.62394373262366
 10
2.843929578154562
 20
6.629191085358367
 10
2.846255550757171
 20
6.63622756697069
 10
2.846730485325382
 20
6.644364394002091
 10
2.845307892482408
 20
6.652805084988345
 10
2.842127023515045
 20
6.66072342303934
 10
2.837499246940413
 20
6.667344270229482
 10
2.831877563127754
 20
6.672019560616918
 10
2.825812255073456
 20
6.674291616341916
 10
2.819897045198676
 20
6.673938068666583
 10
2.814710948273427
 20
6.670993499421137
 10
2.81076161867573
 20
6.665746146686427
 10
2.808435646073121
 20
6.658709677919874
 10
2.807960711504909
 20
6.650572850888472
 10
2.809383304347883
 20
6.642132147056451
  0
LWPOLYLINE
  5
A8
330
1F
100
AcDbEntity
  8
0
  6
Continuous
 62
     7
370
    15
100
AcDbPolyline
 90
       12
 70
   128
 43
0.0
 10
2.84208991497985
 20
6.622007807141939
 10
2.846369058940475
 20
6.624016991216389
 10
2.85068000348271
 20
6.628524584058219
 10
2.85357444094403
 20
6.634891404388433
 10
2.854795180703026
 20
6.642551749838142
 10
2.854233758546497
 20
6.65082497623641
 10
2.851940062638564
 20
6.658975940039393
 10
2.848117892941388
 20
6.666280391153823
 10
2.843106868918659
 20
6.672089347347226
 10
2.837352241138828
 20
6.67588658687275
 10
2.831365331464717
 20
6.677334752679416
 10
2.827386242443405
 20
6.676890492092888
  0
LWPOLYLINE
  5
A9
330
1F
100
AcDbEntity
  8
0
  6
Continuous
 62
     7
370
    15
100
AcDbPolyline
 90
       12
 70
   128
 43
0.0
 10
2.917060252809402
 20
6.742300364805055
 10
2.921039341830714
 20
6.742744625391583
 10
2.927026251504825
 20
6.741296459584918
 10
2.932780883998648
 20
6.737499218796465
 10
2.937791893879404
 20
6.731690266391852
 10
2.941614073004561
 20
6.724385812751562
 10
2.943907768912493
 20
6.716234848948578
 10
2.944469186355033
 20
6.707961623813241
 10
2.943248451310028
 20
6.700301277100602
 10
2.940354023276689
 20
6.693934454244527
 10
2.936043078734454
 20
6.689426861402697
 10
2.931763925345847
 20
6.687417679854108
  0
LWPOLYLINE
  5
AA
330
1F
100
AcDbEntity
  8
0
  6
Continuous
 62
     7
370
    15
100
AcDbPolyline
 90
       21
 70
   128
 43
0.0
 10
2.905806957519564
 20
6.709350310826645
 10
2.908987826486927
 20
6.701431998467184
 10
2.913615598347568
 20
6.694811152539973
 10
2.919237286874217
 20
6.690135860889606
 10
2.925302590214526
 20
6.687863806427539
 10
2.931217800089306
 20
6.688217354102872
 10
2.936403906442536
 20
6.691161920822458
 10
2.940353231326243
 20
6.696409249128563
 10
2.942679208642841
 20
6.703445742323721
 10
2.943154133783072
 20
6.711582571880983
 10
2.941731545654089
 20
6.720023261604306
 10
2.938550676686726
 20
6.727941599655302
 10
2.933922895398102
 20
6.734562448108374
 10
2.928301216299436
 20
6.73923773723288
 10
2.922235903531146
 20
6.741509794220808
 10
2.916320693656365
 20
6.741156246545475
 10
2.911134596731116
 20
6.738211677300029
 10
2.90718527184741
 20
6.732964323302389
 10
2.904859294530812
 20
6.725927855798764
 10
2.904384359962599
 20
6.717791028767364
 10
2.905806957519564
 20
6.709350310826645
  0
LWPOLYLINE
  5
AB
330
1F
100
AcDbEntity
  8
0
  6
Continuous
 62
     7
370
    15
100
AcDbPolyline
 90
       12
 70
   128
 43
0.0
 10
2.938513568151531
 20
6.689225983757901
 10
2.942792721540137
 20
6.69123516530649
 10
2.947103666082372
 20
6.69574275814832
 10
2.949998094115711
 20
6.702109581004395
 10
2.951218829160716
 20
6.709769927717034
 10
2.950657411718177
 20
6.718043152852371
 10
2.948363715810245
 20
6.726194116655355
 10
2.944541536685087
 20
6.733498570295645
 10
2.93953052680433
 20
6.739307522700257
 10
2.933775894310508
 20
6.743104763488712
 10
2.927788984636397
 20
6.744552929295378
 10
2.923809895615086
 20
6.744108668708849
  0
LWPOLYLINE
  5
AC
330
1F
100
AcDbEntity
  8
0
  6
Continuous
 62
     7
370
    15
100
AcDbPolyline
 90
       12
 70
   128
 43
0.0
 10
6.034758463164225
 20
5.644277188884356
 10
6.038737523901592
 20
5.644721476317116
 10
6.044724367579832
 20
5.64327332176859
 10
6.05047890579384
 20
5.639476093392974
 10
6.0554900665223
 20
5.633667119843244
 10
6.059312245647458
 20
5.626362653357187
 10
6.061605734139797
 20
5.618211745123133
 10
6.062167189294262
 20
5.609938522730121
 10
6.060946529673109
 20
5.602278152599157
 10
6.058052063927845
 20
5.595911330212198
 10
6.053741138241573
 20
5.591403735530088
 10
6.049461890573151
 20
5.589394579240106
  0
LWPOLYLINE
  5
AD
330
1F
100
AcDbEntity
  8
0
  6
Continuous
 62
     7
370
    15
100
AcDbPolyline
 90
       21
 70
   128
 43
0.0
 10
6.02350499817072
 20
5.611327202851526
 10
6.026685772858267
 20
5.603408902904902
 10
6.031313780418447
 20
5.596787990619738
 10
6.036935270957483
 20
5.592112755223882
 10
6.043000555441828
 20
5.589840692967769
 10
6.04891589730835
 20
5.590194211703939
 10
6.054102041373507
 20
5.593138768320083
 10
6.058051234265472
 20
5.598386151256885
 10
6.060377305861886
 20
5.60542260313623
 10
6.060852174434228
 20
5.613559454271539
 10
6.059429680585059
 20
5.622000118736258
 10
6.056248905897511
 20
5.629918418682881
 10
6.051620898337331
 20
5.636539334179488
 10
6.045999407798295
 20
5.641214566363902
 10
6.039934123313949
 20
5.643486628620014
 10
6.034018781447427
 20
5.643133109883844
 10
6.028832637382272
 20
5.6401885532677
 10
6.024883444490306
 20
5.634941170330899
 10
6.022557372893893
 20
5.627904721662995
 10
6.02208250432155
 20
5.619767870527686
 10
6.02350499817072
 20
5.611327202851526
  0
LWPOLYLINE
  5
AE
330
1F
100
AcDbEntity
  8
0
  6
Continuous
 62
     7
370
    15
100
AcDbPolyline
 90
       12
 70
   128
 43
0.0
 10
6.056211533378834
 20
5.591202883143898
 10
6.060490781047255
 20
5.593212039433883
 10
6.064801706733527
 20
5.597719634115992
 10
6.067696172478792
 20
5.60408645650295
 10
6.068916832099945
 20
5.611746826633915
 10
6.06835537694548
 20
5.620020049026926
 10
6.06606188845314
 20
5.628170957260981
 10
6.062239709327982
 20
5.635475423747037
 10
6.057228548599522
 20
5.641284397296766
 10
6.051474010385515
 20
5.645081625672384
 10
6.045487166707276
 20
5.64652978022091
 10
6.041508105969908
 20
5.64608549278815
  0
LWPOLYLINE
  5
AF
330
1F
100
AcDbEntity
  8
0
  6
Continuous
 62
     7
370
    15
100
AcDbPolyline
 90
       12
 70
   128
 43
0.0
 10
2.724212946466042
 20
6.793966289497119
 10
2.728192040201344
 20
6.794410548820717
 10
2.73417894751846
 20
6.792962383645517
 10
2.739933575298291
 20
6.789165144119992
 10
2.74494459932102
 20
6.78335618792659
 10
2.748766769018196
 20
6.77605173681216
 10
2.751060464926128
 20
6.767900773009176
 10
2.751621887082658
 20
6.759627546610909
 10
2.750401144966667
 20
6.751967201792665
 10
2.747506709862342
 20
6.745600380830985
 10
2.743195765320107
 20
6.741092787989156
 10
2.738916621359482
 20
6.739083603914706
  0
LWPOLYLINE
  5
B0
330
1F
100
AcDbEntity
  8
0
  6
Continuous
 62
     7
370
    15
100
AcDbPolyline
 90
       21
 70
   128
 43
0.0
 10
2.712959651176203
 20
6.761016235518709
 10
2.716140520143565
 20
6.753097923159247
 10
2.720768296718198
 20
6.746477075969105
 10
2.726389980530857
 20
6.74180178558167
 10
2.732455288585156
 20
6.739529729856672
 10
2.738370500816932
 20
6.73988327690054
 10
2.74355659774218
 20
6.742827846145986
 10
2.747505924982882
 20
6.748075173820626
 10
2.749831899942485
 20
6.755111667647249
 10
2.750306834510698
 20
6.763248494678651
 10
2.748884241667723
 20
6.771689185664905
 10
2.745703372700361
 20
6.779607523715901
 10
2.741075596125728
 20
6.786228370906043
 10
2.735453909956075
 20
6.790903661924944
 10
2.729388601901775
 20
6.793175717649941
 10
2.723473392026995
 20
6.792822169974607
 10
2.718287295101747
 20
6.789877600729162
 10
2.714337965504049
 20
6.784630247994454
 10
2.712011992901441
 20
6.777593779227898
 10
2.711537058333229
 20
6.769456952196496
 10
2.712959651176203
 20
6.761016235518709
  0
LWPOLYLINE
  5
B1
330
1F
100
AcDbEntity
  8
0
  6
Continuous
 62
     7
370
    15
100
AcDbPolyline
 90
       12
 70
   128
 43
0.0
 10
2.745666264165165
 20
6.7408919078185
 10
2.74994540812579
 20
6.742901091892949
 10
2.754256352668025
 20
6.74740868473478
 10
2.75715078777235
 20
6.753775505696459
 10
2.758371529888341
 20
6.761435850514703
 10
2.757810107731812
 20
6.769709076912969
 10
2.755516411823879
 20
6.777860040715954
 10
2.751694242126703
 20
6.785164491830382
 10
2.746683218103974
 20
6.790973448023787
 10
2.740928590324143
 20
6.79477068754931
 10
2.734941683007027
 20
6.796218852724511
 10
2.730962589271725
 20
6.795774593400913
  0
LWPOLYLINE
  5
B2
330
1F
100
AcDbEntity
  8
0
  6
Continuous
 62
     7
370
    15
100
AcDbPolyline
 90
       12
 70
   128
 43
0.0
 10
5.841911137964901
 20
5.695943118628141
 10
5.845890198702268
 20
5.696387406060901
 10
5.851877042380508
 20
5.694939251512374
 10
5.857631580594516
 20
5.691142023136758
 10
5.862642741322976
 20
5.685333049587028
 10
5.866464920448134
 20
5.678028583100972
 10
5.868758408940474
 20
5.669877674866918
 10
5.869319864094938
 20
5.661604452473905
 10
5.868099204473785
 20
5.653944082342941
 10
5.865204738728521
 20
5.647577259955983
 10
5.860893813042249
 20
5.643069665273874
 10
5.856614565373827
 20
5.64106050898389
  0
LWPOLYLINE
  5
B3
330
1F
100
AcDbEntity
  8
0
  6
Continuous
 62
     7
370
    15
100
AcDbPolyline
 90
       21
 70
   128
 43
0.0
 10
5.830657672971396
 20
5.66299313259531
 10
5.833838749354351
 20
5.655074751821152
 10
5.838466455219122
 20
5.648453920363521
 10
5.84408794575816
 20
5.643778684967665
 10
5.850153230242505
 20
5.641506622711554
 10
5.856068572109026
 20
5.641860141447724
 10
5.861254716174182
 20
5.644804698063867
 10
5.865203909066148
 20
5.65005208100067
 10
5.867529980662562
 20
5.657088532880015
 10
5.868004849234904
 20
5.665225384015323
 10
5.866582355385735
 20
5.673666048480042
 10
5.863401580698187
 20
5.681584348426666
 10
5.858773573138009
 20
5.688205263923273
 10
5.853152082598971
 20
5.692880496107686
 10
5.847086798114626
 20
5.695152558363799
 10
5.841171456248103
 20
5.694799039627629
 10
5.835985312182948
 20
5.691854483011485
 10
5.832036119290982
 20
5.686607100074683
 10
5.829710047694568
 20
5.67957065140678
 10
5.829235179122227
 20
5.671433800271471
 10
5.830657672971396
 20
5.66299313259531
  0
LWPOLYLINE
  5
B4
330
1F
100
AcDbEntity
  8
0
  6
Continuous
 62
     7
370
    15
100
AcDbPolyline
 90
       12
 70
   128
 43
0.0
 10
5.863364208179509
 20
5.642868812887683
 10
5.867643455847932
 20
5.644877969177668
 10
5.871954381534203
 20
5.649385563859777
 10
5.874848847279468
 20
5.655752386246735
 10
5.876069506900621
 20
5.663412756377699
 10
5.875508051746156
 20
5.671685978770711
 10
5.873214563253816
 20
5.679836887004766
 10
5.869392384128659
 20
5.687141353490822
 10
5.864381223400199
 20
5.692950327040551
 10
5.858626685186191
 20
5.696747555416168
 10
5.852639841507951
 20
5.698195709964696
 10
5.848660780770584
 20
5.697751422531934
  0
LWPOLYLINE
  5
B5
330
1F
100
AcDbEntity
  8
0
  6
Continuous
 62
     7
370
    15
100
AcDbPolyline
 90
       12
 70
   128
 43
0.0
 10
6.227605486668141
 20
5.592611339968106
 10
6.231584849100916
 20
5.593055546573332
 10
6.237571692779156
 20
5.591607392024805
 10
6.243326230993164
 20
5.587810163649189
 10
6.248337391721625
 20
5.582001190099459
 10
6.252159570846782
 20
5.574696723613403
 10
6.25445305933912
 20
5.566545815379348
 10
6.255014514493587
 20
5.558272592986337
 10
6.253793854872433
 20
5.550612222855372
 10
6.250899389127167
 20
5.544245400468414
 10
6.246588463440897
 20
5.539737805786305
 10
6.242309215772475
 20
5.537728649496321
  0
LWPOLYLINE
  5
B6
330
1F
100
AcDbEntity
  8
0
  6
Continuous
 62
     7
370
    15
100
AcDbPolyline
 90
       21
 70
   128
 43
0.0
 10
6.216352323370044
 20
5.559661273107741
 10
6.219533098057591
 20
5.551742973161116
 10
6.22416110561777
 20
5.545122060875952
 10
6.229782596156808
 20
5.540446825480098
 10
6.235847880641152
 20
5.538174763223985
 10
6.241763222507674
 20
5.538528281960155
 10
6.24694936657283
 20
5.541472838576298
 10
6.250898559464796
 20
5.5467202215131
 10
6.253224631061209
 20
5.553756673392445
 10
6.253699499633552
 20
5.561893524527754
 10
6.252277005784383
 20
5.570334188992473
 10
6.249095929401428
 20
5.578252569766631
 10
6.244468223536655
 20
5.584873404435704
 10
6.238846732997619
 20
5.589548636620117
 10
6.232781146817865
 20
5.591820779703764
 10
6.226866106646752
 20
5.591467180140059
 10
6.221679962581596
 20
5.588522623523917
 10
6.21773076968963
 20
5.583275240587114
 10
6.215404698093216
 20
5.57623879191921
 10
6.214929829520875
 20
5.568101940783902
 10
6.216352323370044
 20
5.559661273107741
  0
LWPOLYLINE
  5
B7
330
1F
100
AcDbEntity
  8
0
  6
Continuous
 62
     7
370
    15
100
AcDbPolyline
 90
       12
 70
   128
 43
0.0
 10
6.249058858578157
 20
5.539536953400115
 10
6.253338106246579
 20
5.541546109690099
 10
6.257649031932851
 20
5.546053704372207
 10
6.260543497678116
 20
5.552420526759165
 10
6.261764157299269
 20
5.56008089689013
 10
6.261202702144804
 20
5.568354119283142
 10
6.258909213652464
 20
5.576505027517196
 10
6.255087034527306
 20
5.583809494003252
 10
6.250075873798847
 20
5.589618467552982
 10
6.244321335584839
 20
5.593415695928599
 10
6.238334491906599
 20
5.594863850477125
 10
6.234355129473823
 20
5.5944196438719
  0
LWPOLYLINE
  5
B8
330
1F
100
AcDbEntity
  8
0
  6
Continuous
 62
     7
370
    15
100
AcDbPolyline
 90
       12
 70
   128
 43
0.0
 10
3.113540103857971
 20
6.844050613344036
 10
3.11270749995548
 20
6.842221455936437
 10
3.109469912251396
 20
6.840125057442414
 10
3.104069715294197
 20
6.838377455016749
 10
3.096986717918531
 20
6.837133948662824
 10
3.088850313313576
 20
6.836505014464626
 10
3.080383420245015
 20
6.836546539610284
 10
3.072338372780824
 20
6.83725483129183
 10
3.065430000478557
 20
6.838566965273949
 10
3.060272159213873
 20
6.840366342786943
 10
3.057323143167632
 20
6.842493081916588
 10
3.056721930215169
 20
6.844050610818174
  0
LWPOLYLINE
  5
B9
330
1F
100
AcDbEntity
  8
0
  6
Continuous
 62
     7
370
    15
100
AcDbPolyline
 90
       21
 70
   128
 43
0.0
 10
3.059720179180818
 20
6.847743209533591
 10
3.057714960650914
 20
6.845501609426231
 10
3.058393388771886
 20
6.843203705363772
 10
3.061689109409918
 20
6.841074445425405
 10
3.067279487609996
 20
6.839322235830295
 10
3.07461728561376
 20
6.838118612812741
 10
3.082984242078389
 20
6.837581392607172
 10
3.091561348250719
 20
6.837763158576259
 10
3.099509023521948
 20
6.838646118559052
 10
3.10604927085845
 20
6.840143837611245
 10
3.110541873748284
 20
6.842109719844538
 10
3.112547092278189
 20
6.844351319951898
 10
3.111868654729235
 20
6.846649216436777
 10
3.108572934091204
 20
6.848778486478584
 10
3.102982574747089
 20
6.850530691021973
 10
3.095644776743324
 20
6.851734314039528
 10
3.087277810850713
 20
6.852271536770957
 10
3.078700704678383
 20
6.852089770801871
 10
3.070753029407154
 20
6.851206810819078
 10
3.064212791498634
 20
6.849709089241024
 10
3.059720179180818
 20
6.847743209533591
  0
LWPOLYLINE
  5
BA
330
1F
100
AcDbEntity
  8
0
  6
Continuous
 62
     7
370
    15
100
AcDbPolyline
 90
       12
 70
   128
 43
0.0
 10
3.056721930215169
 20
6.83485409503576
 10
3.057323143167632
 20
6.833296566134174
 10
3.060272159213873
 20
6.831169827004528
 10
3.065430000478557
 20
6.829370449491534
 10
3.072338372780824
 20
6.828058315509416
 10
3.080383420245015
 20
6.827350023827869
 10
3.088850313313576
 20
6.827308498682212
 10
3.096986717918531
 20
6.82793743288041
 10
3.104069715294197
 20
6.829180939234334
 10
3.109469912251396
 20
6.830928541659999
 10
3.11270749995548
 20
6.833024940154023
 10
3.113540103857971
 20
6.83485409756162
  0
LWPOLYLINE
  5
BB
330
1F
100
AcDbEntity
  8
0
  6
Continuous
 62
     7
370
    15
100
AcDbPolyline
 90
       11
 70
   128
 43
0.0
 10
3.111937083018983
 20
6.832333568815124
 10
3.110541873748284
 20
6.831161503897924
 10
3.10604927085845
 20
6.829195621664632
 10
3.099509023521948
 20
6.827697902612438
 10
3.091561348250719
 20
6.826814942629646
 10
3.082984242078389
 20
6.826633176660559
 10
3.07461728561376
 20
6.827170396866127
 10
3.067279487609996
 20
6.828374019883682
 10
3.061689109409918
 20
6.830126229478792
 10
3.058393388771886
 20
6.832255489417158
 10
3.058324979338101
 20
6.832333568815124
  0
LWPOLYLINE
  5
BC
330
1F
100
AcDbEntity
  8
0
  6
Continuous
 62
     7
370
    15
100
AcDbPolyline
 90
       12
 70
   128
 43
0.0
 10
5.938334800564563
 20
5.577059012385674
 10
5.942313861301929
 20
5.577503303832736
 10
5.948300704980171
 20
5.57605515008707
 10
5.954055243194178
 20
5.572257919302873
 10
5.959066403922639
 20
5.566448947358863
 10
5.962888583047797
 20
5.559144477661366
 10
5.965182071540136
 20
5.550993571033032
 10
5.965743526694601
 20
5.54272034864002
 10
5.964522867073448
 20
5.535059978509056
 10
5.961628401328183
 20
5.528693156122098
 10
5.95731747564191
 20
5.524185558228547
 10
5.953038227973488
 20
5.522176408361445
  0
LWPOLYLINE
  5
BD
330
1F
100
AcDbEntity
  8
0
  6
Continuous
 62
     7
370
    15
100
AcDbPolyline
 90
       21
 70
   128
 43
0.0
 10
5.927081335571057
 20
5.544109025549983
 10
5.930262110258604
 20
5.53619072560336
 10
5.934890117818785
 20
5.529569816529636
 10
5.940511608357822
 20
5.524894584345223
 10
5.946576892842167
 20
5.522622522089109
 10
5.952492234708689
 20
5.52297604082528
 10
5.957678378773844
 20
5.52592059101854
 10
5.961627571665809
 20
5.531167973955342
 10
5.963953643262223
 20
5.538204429046129
 10
5.964428511834565
 20
5.546341276969995
 10
5.963006017985396
 20
5.554781944646157
 10
5.95982524329785
 20
5.56270024298706
 10
5.955197235737669
 20
5.569321156877945
 10
5.949575745198632
 20
5.573996389865219
 10
5.943510460714287
 20
5.576268452924193
 10
5.937595118847766
 20
5.575914934188022
 10
5.93240897478261
 20
5.572970379177599
 10
5.928459781890644
 20
5.567722996240798
 10
5.926133710294231
 20
5.560686544361452
 10
5.925658841721889
 20
5.552549696437586
 10
5.927081335571057
 20
5.544109025549983
  0
LWPOLYLINE
  5
BE
330
1F
100
AcDbEntity
  8
0
  6
Continuous
 62
     7
370
    15
100
AcDbPolyline
 90
       12
 70
   128
 43
0.0
 10
5.959787870779172
 20
5.52398471226524
 10
5.964067118447593
 20
5.52599386213234
 10
5.968378044133866
 20
5.530501460025891
 10
5.97127250987913
 20
5.536868282412849
 10
5.972493169500284
 20
5.544528652543814
 10
5.971931714345817
 20
5.552801874936824
 10
5.969638225853479
 20
5.560952781565158
 10
5.965816046728321
 20
5.568257251262657
 10
5.96080488599986
 20
5.574066223206665
 10
5.955050347785854
 20
5.577863453990864
 10
5.949063504107614
 20
5.579311607736531
 10
5.945084443370246
 20
5.578867316289468
  0
LWPOLYLINE
  5
BF
330
1F
100
AcDbEntity
  8
0
  6
Continuous
 62
     7
370
    15
100
AcDbPolyline
 90
       12
 70
   128
 43
0.0
 10
6.131182125763887
 20
5.525393082641889
 10
6.135161186501254
 20
5.525837374088952
 10
6.141148030179495
 20
5.524389220343286
 10
6.146902568393501
 20
5.520591989559088
 10
6.151913729121963
 20
5.51478301761508
 10
6.155735908247119
 20
5.507478547917581
 10
6.158029396739459
 20
5.499327641289247
 10
6.158590851893925
 20
5.491054418896236
 10
6.157370192272772
 20
5.483394048765271
 10
6.154475726527506
 20
5.477027226378313
 10
6.150164800841235
 20
5.472519628484763
 10
6.145885553172814
 20
5.470510478617662
  0
LWPOLYLINE
  5
C0
330
1F
100
AcDbEntity
  8
0
  6
Continuous
 62
     7
370
    15
100
AcDbPolyline
 90
       21
 70
   128
 43
0.0
 10
6.119928660770381
 20
5.492443095806199
 10
6.123109435457928
 20
5.484524795859575
 10
6.127737443018109
 20
5.477903886785853
 10
6.133358933557146
 20
5.473228654601438
 10
6.139424218041489
 20
5.470956592345324
 10
6.145339559908013
 20
5.471310111081495
 10
6.150525703973168
 20
5.474254661274755
 10
6.154474896865135
 20
5.479502044211558
 10
6.156800968461547
 20
5.486538499302344
 10
6.157275837033889
 20
5.494675347226212
 10
6.15585334318472
 20
5.503116014902373
 10
6.152672266801765
 20
5.51103439407081
 10
6.148044560936994
 20
5.51765522713416
 10
6.142423070397956
 20
5.522330460121434
 10
6.136357785913611
 20
5.524602523180409
 10
6.13044244404709
 20
5.524249004444238
 10
6.125256299981934
 20
5.521304449433815
 10
6.121307107089968
 20
5.516057066497013
 10
6.118981035493555
 20
5.509020614617667
 10
6.118506166921213
 20
5.500883766693801
 10
6.119928660770381
 20
5.492443095806199
  0
LWPOLYLINE
  5
C1
330
1F
100
AcDbEntity
  8
0
  6
Continuous
 62
     7
370
    15
100
AcDbPolyline
 90
       12
 70
   128
 43
0.0
 10
6.152635195978496
 20
5.472318782521455
 10
6.156914443646918
 20
5.474327932388555
 10
6.161225369333188
 20
5.478835530282107
 10
6.164119835078453
 20
5.485202352669064
 10
6.165340494699607
 20
5.492862722800029
 10
6.164779039545142
 20
5.501135945193041
 10
6.162485551052803
 20
5.509286851821374
 10
6.158663371927645
 20
5.516591321518872
 10
6.153652211199184
 20
5.522400293462881
 10
6.147897672985177
 20
5.52619752424708
 10
6.141910829306937
 20
5.527645677992746
 10
6.13793176856957
 20
5.527201386545683
  0
LWPOLYLINE
  5
C2
330
1F
100
AcDbEntity
  8
0
  6
Continuous
 62
     7
370
    15
100
AcDbPolyline
 90
       12
 70
   128
 43
0.0
 10
3.037211146753932
 20
6.823601242158422
 10
3.036378523995479
 20
6.821772079699103
 10
3.033140936291394
 20
6.81967568120508
 10
3.027740758190158
 20
6.817928083831136
 10
3.020657760814493
 20
6.816684577477212
 10
3.012521337353574
 20
6.816055638227293
 10
3.004054444285014
 20
6.81609716337295
 10
2.996009415676785
 20
6.816805460106218
 10
2.989101043374518
 20
6.818117594088336
 10
2.983943202109834
 20
6.81991697160133
 10
2.980994186063593
 20
6.822043710730976
 10
2.980392973111129
 20
6.823601239632561
  0
LWPOLYLINE
  5
C3
330
1F
100
AcDbEntity
  8
0
  6
Continuous
 62
     7
370
    15
100
AcDbPolyline
 90
       21
 70
   128
 43
0.0
 10
2.983391222076779
 20
6.827293838347978
 10
2.981385984690912
 20
6.825052233188897
 10
2.982064431667847
 20
6.822754334178158
 10
2.985360152305879
 20
6.820625074239792
 10
2.990950530505956
 20
6.818872864644682
 10
2.998288347365684
 20
6.817669246678849
 10
3.00665528497435
 20
6.817132021421559
 10
3.01523239114668
 20
6.817313787390646
 10
3.023180047561946
 20
6.818196742321718
 10
3.029720294898448
 20
6.819694461373911
 10
3.034212916644245
 20
6.821660348658926
 10
3.036218135174149
 20
6.823901948766285
 10
3.035539697625196
 20
6.826199845251164
 10
3.032243976987165
 20
6.828329115292971
 10
3.026653598787087
 20
6.830081314784639
 10
3.019315800783322
 20
6.831284937802195
 10
3.010948834890712
 20
6.831822160533623
 10
3.002371747574344
 20
6.831640399616257
 10
2.994424072303115
 20
6.830757439633464
 10
2.987883834394595
 20
6.829259718055411
 10
2.983391222076779
 20
6.827293838347978
  0
LWPOLYLINE
  5
C4
330
1F
100
AcDbEntity
  8
0
  6
Continuous
 62
     7
370
    15
100
AcDbPolyline
 90
       12
 70
   128
 43
0.0
 10
2.980392973111129
 20
6.814404723850147
 10
2.980994186063593
 20
6.812847194948561
 10
2.983943202109834
 20
6.810720455818915
 10
2.989101043374518
 20
6.808921078305922
 10
2.996009415676785
 20
6.807608944323804
 10
3.004054444285014
 20
6.806900647590536
 10
3.012521337353574
 20
6.806859122444878
 10
3.020657760814493
 20
6.807488061694797
 10
3.027740758190158
 20
6.808731568048721
 10
3.033140936291394
 20
6.810479165422665
 10
3.036378523995479
 20
6.812575563916689
 10
3.037211146753932
 20
6.814404726376007
  0
LWPOLYLINE
  5
C5
330
1F
100
AcDbEntity
  8
0
  6
Continuous
 62
     7
370
    15
100
AcDbPolyline
 90
       11
 70
   128
 43
0.0
 10
3.035608107058981
 20
6.81188419257779
 10
3.034212916644245
 20
6.810712132712311
 10
3.029720294898448
 20
6.808746245427298
 10
3.023180047561946
 20
6.807248526375104
 10
3.01523239114668
 20
6.806365571444032
 10
3.00665528497435
 20
6.806183805474946
 10
2.998288347365684
 20
6.806721030732235
 10
2.990950530505956
 20
6.80792464869807
 10
2.985360152305879
 20
6.809676858293179
 10
2.982064431667847
 20
6.811806118231545
 10
2.981996022234062
 20
6.811884197629511
  0
LWPOLYLINE
  5
C6
330
1F
100
AcDbEntity
  8
0
  6
Continuous
 62
     7
370
    15
100
AcDbPolyline
 90
       12
 70
   128
 43
0.0
 10
2.627789293294361
 20
6.726748112881158
 10
2.631768382315673
 20
6.727192373467686
 10
2.637755291989784
 20
6.725744207661021
 10
2.643509924483606
 20
6.721946966872566
 10
2.648520943792344
 20
6.716138011942093
 10
2.65234311348952
 20
6.708833560827663
 10
2.654636809397453
 20
6.700682597024679
 10
2.655198236267974
 20
6.692409369363482
 10
2.653977491794987
 20
6.684749025176704
 10
2.651083054333666
 20
6.678382204846489
 10
2.646772109791431
 20
6.673874612004659
 10
2.642492965830806
 20
6.671865427930211
  0
LWPOLYLINE
  5
C7
330
1F
100
AcDbEntity
  8
0
  6
Continuous
 62
     7
370
    15
100
AcDbPolyline
 90
       21
 70
   128
 43
0.0
 10
2.616535998004523
 20
6.693798071748514
 10
2.619716866971885
 20
6.685879746543286
 10
2.624344648260509
 20
6.679258898090214
 10
2.629966327359176
 20
6.674583608965709
 10
2.636031640127466
 20
6.672311539132014
 10
2.641946850002247
 20
6.672665099653113
 10
2.647132946927495
 20
6.675609656052792
 10
2.651082271811201
 20
6.680857010050432
 10
2.6534082491278
 20
6.687893490399824
 10
2.653883183696013
 20
6.696030317431224
 10
2.652460586139048
 20
6.704471009680409
 10
2.649279717171685
 20
6.712389347731404
 10
2.644651945311042
 20
6.719010193658616
 10
2.639030256784394
 20
6.723685485308982
 10
2.632964953444086
 20
6.72595753977105
 10
2.627049743569305
 20
6.725603992095717
 10
2.621863646644057
 20
6.722659422850271
 10
2.617914312332369
 20
6.717412071378491
 10
2.615588344443751
 20
6.710375601349007
 10
2.615113409875539
 20
6.702238774317605
 10
2.616535998004523
 20
6.693798071748514
  0
LWPOLYLINE
  5
C8
330
1F
100
AcDbEntity
  8
0
  6
Continuous
 62
     7
370
    15
100
AcDbPolyline
 90
       12
 70
   128
 43
0.0
 10
2.649242608636489
 20
6.673673731834004
 10
2.653521752597114
 20
6.675682915908452
 10
2.657832697139349
 20
6.680190508750283
 10
2.66072713460067
 20
6.686557329080497
 10
2.661947879073656
 20
6.694217673267276
 10
2.661386452203136
 20
6.702490900928474
 10
2.659092756295204
 20
6.710641864731457
 10
2.655270586598027
 20
6.717946315845887
 10
2.650259567289289
 20
6.72375527077636
 10
2.644504934795467
 20
6.727552511564813
 10
2.638518025121356
 20
6.72900067737148
 10
2.634538936100044
 20
6.728556416784952
  0
LWPOLYLINE
  5
C9
330
1F
100
AcDbEntity
  8
0
  6
Continuous
 62
     7
370
    15
100
AcDbPolyline
 90
        9
 70
   128
 43
0.0
 10
2.883549996320132
 20
6.933947359843308
 10
2.882106308368545
 20
6.941478659249773
 10
2.88243968179449
 20
6.949714091093998
 10
2.884520512736048
 20
6.9579218395151
 10
2.888163899619984
 20
6.965372672117312
 10
2.893046123273409
 20
6.971404524746414
 10
2.898733345699486
 20
6.975481470510583
 10
2.904720245945615
 20
6.977241220714498
 10
2.909457919786637
 20
6.976844348540326
  0
ARC
  5
CA
330
1F
100
AcDbEntity
  8
0
  6
Continuous
 62
     7
370
    15
100
AcDbCircle
 10
2.899979208963601
 20
6.938075727289761
 30
0.0
 40
0.0169399659343584
100
AcDbArc
 50
194.1053616759458
 51
252.0347621310984
  0
LWPOLYLINE
  5
CB
330
1F
100
AcDbEntity
  8
0
  6
Continuous
 62
     7
370
    15
100
AcDbPolyline
 90
       21
 70
   128
 43
0.0
 10
2.884786598658007
 20
6.934269749224132
 10
2.887967486481332
 20
6.928055796126649
 10
2.892595267769956
 20
6.923914589487728
 10
2.898216946868623
 20
6.922251545975917
 10
2.904282250208931
 20
6.923229389417898
 10
2.910197460083712
 20
6.926752462983892
 10
2.915383566436942
 20
6.932475834428314
 10
2.919332891320648
 20
6.939839323993465
 10
2.921658868637247
 20
6.948122101556106
 10
2.922133793777478
 20
6.956513432192654
 10
2.920711205648494
 20
6.964191893443495
 10
2.917530336681132
 20
6.970405800209632
 10
2.912902555392509
 20
6.974547006848552
 10
2.907280876293841
 20
6.976210050360363
 10
2.901215572953533
 20
6.975232206918383
 10
2.895300344222789
 20
6.971709128300668
 10
2.89011423786956
 20
6.965985756856246
 10
2.886164931841816
 20
6.958622272342816
 10
2.88383897338118
 20
6.950339499831897
 10
2.883364029384986
 20
6.941948164143626
 10
2.884786598658007
 20
6.934269749224132
  0
ARC
  5
CC
330
1F
100
AcDbEntity
  8
0
  6
Continuous
 62
     7
370
    15
100
AcDbCircle
 10
2.893229556729935
 20
6.939884033719415
 30
0.0
 40
0.016939965934358
100
AcDbArc
 50
194.1053616759498
 51
252.0347621311051
  0
LWPOLYLINE
  5
CD
330
1F
100
AcDbEntity
  8
0
  6
Continuous
 62
     7
370
    15
100
AcDbPolyline
 90
        9
 70
   128
 43
0.0
 10
2.902708267552973
 20
6.97865265496998
 10
2.89797059371195
 20
6.979049527144152
 10
2.891983693465821
 20
6.977289776940238
 10
2.886296471039745
 20
6.973212831176067
 10
2.881414247386319
 20
6.967180978546966
 10
2.877770860502384
 20
6.959730145944754
 10
2.875690029560825
 20
6.951522397523652
 10
2.87535665613488
 20
6.943286965679427
 10
2.876800344086468
 20
6.935755666272962
  0
LWPOLYLINE
  5
CE
330
1F
100
AcDbEntity
  8
0
  6
Continuous
 62
     7
370
    15
100
AcDbPolyline
 90
        9
 70
   128
 43
0.0
 10
2.907655911970048
 20
7.049887863293556
 10
2.906212224018461
 20
7.05741916270002
 10
2.906545597444405
 20
7.065654543161177
 10
2.908626428385964
 20
7.07386229158228
 10
2.912269815269899
 20
7.081313124184491
 10
2.917152020067362
 20
7.08734502314494
 10
2.922839242493438
 20
7.091421917526043
 10
2.92882616159553
 20
7.093181672781676
 10
2.933563835436553
 20
7.092784851990573
  0
ARC
  5
CF
330
1F
100
AcDbEntity
  8
0
  6
Continuous
 62
     7
370
    15
100
AcDbCircle
 10
2.924085322613566
 20
7.054016346749058
 30
0.0
 40
0.016940186236748
100
AcDbArc
 50
194.105579010352
 51
252.0342997250368
  0
LWPOLYLINE
  5
D0
330
1F
100
AcDbEntity
  8
0
  6
Continuous
 62
     7
370
    15
100
AcDbPolyline
 90
       21
 70
   128
 43
0.0
 10
2.908892533163885
 20
7.050210206343033
 10
2.912073402131248
 20
7.043996248193829
 10
2.916701164563908
 20
7.039855087886255
 10
2.922322862518539
 20
7.038191998043097
 10
2.928388165858847
 20
7.039169892868144
 10
2.934303375733628
 20
7.042692915051071
 10
2.939489463230894
 20
7.048416332826839
 10
2.943438806970564
 20
7.055779827443712
 10
2.9457647654312
 20
7.064062599954631
 10
2.946239709427393
 20
7.072453884259834
 10
2.94481712129841
 20
7.080132345510675
 10
2.941636252331047
 20
7.086346303659878
 10
2.937008471042424
 20
7.09048745891573
 10
2.931386791943756
 20
7.09215055381061
 10
2.925321469747486
 20
7.091172705316909
 10
2.919406259872705
 20
7.087649631750916
 10
2.914220172375438
 20
7.081926213975147
 10
2.910270847491731
 20
7.074562775793063
 10
2.907944870175133
 20
7.066279946847355
 10
2.907469926178939
 20
7.057888662542152
 10
2.908892533163885
 20
7.050210206343033
  0
ARC
  5
D1
330
1F
100
AcDbEntity
  8
0
  6
Continuous
 62
     7
370
    15
100
AcDbCircle
 10
2.9173356703799
 20
7.055824653178711
 30
0.0
 40
0.0169401862367461
100
AcDbArc
 50
194.1055790103503
 51
252.0342997250392
  0
LWPOLYLINE
  5
D2
330
1F
100
AcDbEntity
  8
0
  6
Continuous
 62
     7
370
    15
100
AcDbPolyline
 90
        9
 70
   128
 43
0.0
 10
2.926814183202888
 20
7.094593158420226
 10
2.922076509361866
 20
7.094989979211331
 10
2.916089590259774
 20
7.093230223955696
 10
2.910402367833698
 20
7.089153329574594
 10
2.905520163036235
 20
7.083121430614145
 10
2.901876776152299
 20
7.075670598011934
 10
2.899795945210741
 20
7.067462849590831
 10
2.899462571784796
 20
7.059227469129674
 10
2.900906259736384
 20
7.05169616972321
  0
LWPOLYLINE
  5
D3
330
1F
100
AcDbEntity
  8
0
  6
Continuous
 62
     7
370
    15
100
AcDbPolyline
 90
        9
 70
   128
 43
0.0
 10
2.947832425482598
 20
6.951169333056756
 10
2.946388737531011
 20
6.958700632463221
 10
2.946722129812919
 20
6.966936069359166
 10
2.948802960754478
 20
6.97514381778027
 10
2.95244632878245
 20
6.98259464533076
 10
2.957328552435876
 20
6.988626497959861
 10
2.963015774861951
 20
6.992703443724031
 10
2.969002675108081
 20
6.994463193927946
 10
2.973740348949103
 20
6.994066321753773
  0
ARC
  5
D4
330
1F
100
AcDbEntity
  8
0
  6
Continuous
 62
     7
370
    15
100
AcDbCircle
 10
2.964261750171824
 20
6.955297805244015
 30
0.0
 40
0.01694010012795
100
AcDbArc
 50
194.1056128984974
 51
252.0345109085536
  0
LWPOLYLINE
  5
D5
330
1F
100
AcDbEntity
  8
0
  6
Continuous
 62
     7
370
    15
100
AcDbPolyline
 90
       21
 70
   128
 43
0.0
 10
2.949069046676436
 20
6.951491727489302
 10
2.952249915643798
 20
6.945277769340097
 10
2.956877696932422
 20
6.941136562701176
 10
2.962499376031089
 20
6.939473519189364
 10
2.968564679371398
 20
6.940451362631344
 10
2.974479889246178
 20
6.943974436197339
 10
2.979665995599408
 20
6.949697807641761
 10
2.983615320483115
 20
6.957061297206913
 10
2.985941297799714
 20
6.965344074769552
 10
2.986416222939944
 20
6.973735405406102
 10
2.98499363481096
 20
6.981413866656942
 10
2.981812765843598
 20
6.98762777342308
 10
2.977184984554974
 20
6.991768980061999
 10
2.971563305456307
 20
6.993432023573812
 10
2.965498002115999
 20
6.992454180131831
 10
2.959582792241219
 20
6.988931106565837
 10
2.954396685887988
 20
6.983207735121414
 10
2.950447361004282
 20
6.975844245556263
 10
2.948121383687683
 20
6.967561467993624
 10
2.947646458547453
 20
6.959170137357074
 10
2.949069046676436
 20
6.951491727489302
  0
ARC
  5
D6
330
1F
100
AcDbEntity
  8
0
  6
Continuous
 62
     7
370
    15
100
AcDbCircle
 10
2.95751209793816
 20
6.957106111673668
 30
0.0
 40
0.01694010012795
100
AcDbArc
 50
194.1056128984974
 51
252.0345109085536
  0
LWPOLYLINE
  5
D7
330
1F
100
AcDbEntity
  8
0
  6
Continuous
 62
     7
370
    15
100
AcDbPolyline
 90
        9
 70
   128
 43
0.0
 10
2.966990696715439
 20
6.995874628183428
 10
2.962253022874417
 20
6.996271500357599
 10
2.956266122628287
 20
6.994511750153685
 10
2.950578900202211
 20
6.990434804389515
 10
2.945696676548785
 20
6.984402951760413
 10
2.942053308520813
 20
6.976952124209923
 10
2.939972477579255
 20
6.96874437578882
 10
2.939639085297347
 20
6.960508938892875
 10
2.941082773248934
 20
6.95297763948641
  0
LWPOLYLINE
  5
D8
330
1F
100
AcDbEntity
  8
0
  6
Continuous
 62
     7
370
    15
100
AcDbPolyline
 90
       12
 70
   128
 43
0.0
 10
3.157740715575529
 20
6.873114418935875
 10
3.156908102245056
 20
6.871285253950695
 10
3.153670514540972
 20
6.869188855456672
 10
3.148270317583773
 20
6.867441258082728
 10
3.141187320208107
 20
6.866197751728804
 10
3.133050915603152
 20
6.865568817530605
 10
3.124584022534591
 20
6.865610342676263
 10
3.116538965642419
 20
6.866318636883669
 10
3.109630602768133
 20
6.867630768339929
 10
3.104472770931431
 20
6.869430143327061
 10
3.101523745457208
 20
6.871556884982568
 10
3.100922551360708
 20
6.873114418935875
  0
LWPOLYLINE
  5
D9
330
1F
100
AcDbEntity
  8
0
  6
Continuous
 62
     7
370
    15
100
AcDbPolyline
 90
       21
 70
   128
 43
0.0
 10
3.103920781470394
 20
6.876807017651292
 10
3.101915553512509
 20
6.874565415018071
 10
3.102594009917426
 20
6.872267513481472
 10
3.105889721127475
 20
6.870138245965524
 10
3.11148008047159
 20
6.868386041422135
 10
3.118817897331317
 20
6.8671824234563
 10
3.127184863223928
 20
6.866645200724872
 10
3.135761950540295
 20
6.866826961642238
 10
3.143709616383543
 20
6.867709919099171
 10
3.150249863720045
 20
6.869207643203084
 10
3.154742485465841
 20
6.871173520384657
 10
3.156747713423727
 20
6.873415123017877
 10
3.156069257018811
 20
6.875713024554475
 10
3.152773545808761
 20
6.877842292070424
 10
3.147183177036665
 20
6.879594494087952
 10
3.139845369604919
 20
6.880798114579647
 10
3.131478403712308
 20
6.881335337311076
 10
3.122901297539978
 20
6.88115357639371
 10
3.114953641124712
 20
6.880270616410917
 10
3.108413403216192
 20
6.878772894832863
 10
3.103920781470394
 20
6.876807017651292
  0
LWPOLYLINE
  5
DA
330
1F
100
AcDbEntity
  8
0
  6
Continuous
 62
     7
370
    15
100
AcDbPolyline
 90
       12
 70
   128
 43
0.0
 10
3.100922551360708
 20
6.86391790315346
 10
3.101523745457208
 20
6.862360369200153
 10
3.104472770931431
 20
6.860233627544646
 10
3.109630602768133
 20
6.858434252557514
 10
3.116538965642419
 20
6.857122121101255
 10
3.124584022534591
 20
6.856413826893848
 10
3.133050915603152
 20
6.856372301748192
 10
3.141187320208107
 20
6.857001235946388
 10
3.148270317583773
 20
6.858244742300313
 10
3.153670514540972
 20
6.859992339674257
 10
3.156908102245056
 20
6.862088738168281
 10
3.157740715575529
 20
6.86391790315346
  0
LWPOLYLINE
  5
DB
330
1F
100
AcDbEntity
  8
0
  6
Continuous
 62
     7
370
    15
100
AcDbPolyline
 90
       11
 70
   128
 43
0.0
 10
3.156137675880578
 20
6.861397374406963
 10
3.154742485465841
 20
6.860225304438043
 10
3.150249863720045
 20
6.858259427256471
 10
3.143709616383543
 20
6.856761703152557
 10
3.135761950540295
 20
6.855878745695624
 10
3.127184863223928
 20
6.855696984778258
 10
3.118817897331317
 20
6.856234207509688
 10
3.11148008047159
 20
6.857437825475521
 10
3.105889721127475
 20
6.859190030018909
 10
3.102594009917426
 20
6.861319297534858
 10
3.102525581627677
 20
6.861397371881102
  0
LINE
  5
DC
330
1F
100
AcDbEntity
  8
0
  6
Continuous
 62
     7
370
    15
100
AcDbLine
 10
3.35632576418385
 20
7.668839923002382
 30
0.0
 11
1.446046018076245
 21
8.659773443287566
 31
0.0
  0
LINE
  5
DD
330
1F
100
AcDbEntity
  8
0
  6
Continuous
 62
     7
370
    15
100
AcDbLine
 10
3.35632576418385
 20
7.668839923002382
 30
0.0
 11
3.356724888352797
 21
7.633468283191763
 31
0.0
  0
LINE
  5
DE
330
1F
100
AcDbEntity
  8
0
  6
Continuous
 62
     7
370
    15
100
AcDbLine
 10
3.357222949759636
 20
7.589328012812281
 30
0.0
 11
3.358202856445129
 21
7.502485553052503
 31
0.0
  0
LINE
  5
DF
330
1F
100
AcDbEntity
  8
0
  6
Continuous
 62
     7
370
    15
100
AcDbLine
 10
3.358709883862377
 20
7.457551041683208
 30
0.0
 11
3.359680824537461
 21
7.371502822913243
 31
0.0
  0
LINE
  5
E0
330
1F
100
AcDbEntity
  8
0
  6
Continuous
 62
     7
370
    15
100
AcDbLine
 10
3.360196817965119
 20
7.325773967787998
 30
0.0
 11
3.361158802057775
 21
7.240520095299843
 31
0.0
  0
LINE
  5
E1
330
1F
100
AcDbEntity
  8
0
  6
Continuous
 62
     7
370
    15
100
AcDbLine
 10
3.36168375206786
 20
7.19399689389279
 30
0.0
 11
3.362636770150107
 21
7.109537365160583
 31
0.0
  0
LINE
  5
E2
330
1F
100
AcDbEntity
  8
0
  6
Continuous
 62
     7
370
    15
100
AcDbLine
 10
3.362922871676796
 20
7.084182684879355
 30
0.0
 11
3.364361072543149
 21
6.956724198809709
 31
0.0
  0
LINE
  5
E3
330
1F
100
AcDbEntity
  8
0
  6
Continuous
 62
     7
370
    15
100
AcDbLine
 10
3.364361072543149
 20
6.956724198809709
 30
0.0
 11
3.124231232180742
 21
6.892390760693692
 31
0.0
  0
LINE
  5
E4
330
1F
100
AcDbEntity
  8
0
  6
Continuous
 62
     7
370
    15
100
AcDbLine
 10
2.850883897724684
 20
6.819157988794677
 30
0.0
 11
2.850101601531493
 21
6.818948402998687
 31
0.0
  0
LINE
  5
E5
330
1F
100
AcDbEntity
  8
0
  6
Continuous
 62
     7
370
    15
100
AcDbLine
 10
1.064657617085042
 20
7.74512497444023
 30
0.0
 11
2.850101601531493
 21
6.818948402998687
 31
0.0
  0
LINE
  5
E6
330
1F
100
AcDbEntity
  8
0
  6
Continuous
 62
     7
370
    15
100
AcDbLine
 10
1.064657617085042
 20
7.74512497444023
 30
0.0
 11
1.227843003998971
 21
8.173952837059314
 31
0.0
  0
LINE
  5
E7
330
1F
100
AcDbEntity
  8
0
  6
Continuous
 62
     7
370
    15
100
AcDbLine
 10
1.227843003998971
 20
8.173952837059314
 30
0.0
 11
1.185764036954898
 21
8.238546927400937
 31
0.0
  0
LINE
  5
E8
330
1F
100
AcDbEntity
  8
0
  6
Continuous
 62
     7
370
    15
100
AcDbLine
 10
1.185764036954898
 20
8.238546927400937
 30
0.0
 11
1.288824998532654
 21
8.246618967131606
 31
0.0
  0
LINE
  5
E9
330
1F
100
AcDbEntity
  8
0
  6
Continuous
 62
     7
370
    15
100
AcDbLine
 10
1.288824998532654
 20
8.246618967131606
 30
0.0
 11
1.446046018076245
 21
8.659773443287566
 31
0.0
  0
LINE
  5
EA
330
1F
100
AcDbEntity
  8
0
  6
Continuous
 62
     7
370
    15
100
AcDbLine
 10
1.0349957023696
 20
8.225618760488448
 30
0.0
 11
1.227843003998971
 21
8.173952837059314
 31
0.0
  0
LINE
  5
EB
330
1F
100
AcDbEntity
  8
0
  6
Continuous
 62
     7
370
    15
100
AcDbLine
 10
1.0349957023696
 20
8.225618760488448
 30
0.0
 11
0.9929167353255282
 21
8.290212850830071
 31
0.0
  0
LINE
  5
EC
330
1F
100
AcDbEntity
  8
0
  6
Continuous
 62
     7
370
    15
100
AcDbLine
 10
0.9929167353255282
 20
8.290212850830071
 30
0.0
 11
1.185764036954898
 21
8.238546927400937
 31
0.0
  0
LINE
  5
ED
330
1F
100
AcDbEntity
  8
0
  6
Continuous
 62
     7
370
    15
100
AcDbLine
 10
0.9929167353255282
 20
8.290212850830071
 30
0.0
 11
1.095977696903284
 21
8.29828489056074
 31
0.0
  0
LINE
  5
EE
330
1F
100
AcDbEntity
  8
0
  6
Continuous
 62
     7
370
    15
100
AcDbLine
 10
1.095977696903284
 20
8.29828489056074
 30
0.0
 11
1.288824998532654
 21
8.246618967131606
 31
0.0
  0
LINE
  5
EF
330
1F
100
AcDbEntity
  8
0
  6
Continuous
 62
     7
370
    15
100
AcDbLine
 10
2.657254299902123
 20
6.870614326427821
 30
0.0
 11
2.850101601531493
 21
6.818948402998687
 31
0.0
  0
LINE
  5
F0
330
1F
100
AcDbEntity
  8
0
  6
Continuous
 62
     7
370
    15
100
AcDbLine
 10
0.8718103154556727
 20
7.796790897869364
 30
0.0
 11
2.657254299902123
 21
6.870614326427821
 31
0.0
  0
LINE
  5
F1
330
1F
100
AcDbEntity
  8
0
  6
Continuous
 62
     7
370
    15
100
AcDbLine
 10
0.8718103154556727
 20
7.796790897869364
 30
0.0
 11
1.064657617085042
 21
7.74512497444023
 31
0.0
  0
LINE
  5
F2
330
1F
100
AcDbEntity
  8
0
  6
Continuous
 62
     7
370
    15
100
AcDbLine
 10
0.8718103154556727
 20
7.796790897869364
 30
0.0
 11
1.0349957023696
 21
8.225618760488448
 31
0.0
  0
LINE
  5
F3
330
1F
100
AcDbEntity
  8
0
  6
Continuous
 62
     7
370
    15
100
AcDbLine
 10
1.095977696903284
 20
8.29828489056074
 30
0.0
 11
1.253198716446875
 21
8.711439366716698
 31
0.0
  0
LINE
  5
F4
330
1F
100
AcDbEntity
  8
0
  6
Continuous
 62
     7
370
    15
100
AcDbLine
 10
1.253198716446875
 20
8.711439366716698
 30
0.0
 11
1.446046018076245
 21
8.659773443287566
 31
0.0
  0
LINE
  5
F5
330
1F
100
AcDbEntity
  8
0
  6
Continuous
 62
     7
370
    15
100
AcDbLine
 10
3.364361072543149
 20
6.956724198809709
 30
0.0
 11
4.682151035363378
 21
6.603673703731477
 31
0.0
  0
LINE
  5
F6
330
1F
100
AcDbEntity
  8
0
  6
Continuous
 62
     7
370
    15
100
AcDbLine
 10
4.650009764214256
 20
7.225385260951347
 30
0.0
 11
3.46078473042882
 21
7.543991790658733
 31
0.0
  0
LINE
  5
F7
330
1F
100
AcDbEntity
  8
0
  6
Continuous
 62
     7
370
    15
100
AcDbLine
 10
3.436678814778904
 20
7.550450031876706
 30
0.0
 11
3.428643506419605
 21
7.552602779791317
 31
0.0
  0
LINE
  5
F8
330
1F
100
AcDbEntity
  8
0
  6
Continuous
 62
     7
370
    15
100
AcDbLine
 10
3.40453759076969
 20
7.559061021009291
 30
0.0
 11
3.396502291838373
 21
7.561213766398041
 31
0.0
  0
LINE
  5
F9
330
1F
100
AcDbEntity
  8
0
  6
Continuous
 62
     7
370
    15
100
AcDbLine
 10
3.372396376188457
 20
7.567672007616014
 30
0.0
 11
3.364361072543149
 21
7.569824754267695
 31
0.0
  0
LINE
  5
FA
330
1F
100
AcDbEntity
  8
0
  6
Continuous
 62
     7
370
    15
100
AcDbLine
 10
4.650009764214256
 20
7.225385260951347
 30
0.0
 11
4.650009764214256
 21
6.967717211416236
 31
0.0
  0
LINE
  5
FB
330
1F
100
AcDbEntity
  8
0
  6
Continuous
 62
     7
370
    15
100
AcDbLine
 10
4.650009764214256
 20
6.967717211416236
 30
0.0
 11
4.746433426813918
 21
6.893001992658929
 31
0.0
  0
LINE
  5
FC
330
1F
100
AcDbEntity
  8
0
  6
Continuous
 62
     7
370
    15
100
AcDbLine
 10
4.746433426813918
 20
6.893001992658929
 30
0.0
 11
4.682151035363378
 21
6.870140332880465
 31
0.0
  0
LINE
  5
FD
330
1F
100
AcDbEntity
  8
0
  6
Continuous
 62
     7
370
    15
100
AcDbLine
 10
4.682151035363378
 20
6.870140332880465
 30
0.0
 11
4.682151035363378
 21
6.603673703731477
 31
0.0
  0
LINE
  5
FE
330
1F
100
AcDbEntity
  8
0
  6
Continuous
 62
     7
370
    15
100
AcDbLine
 10
4.842857051701654
 20
7.019383131056578
 30
0.0
 11
4.650009764214256
 21
6.967717211416236
 31
0.0
  0
LINE
  5
FF
330
1F
100
AcDbEntity
  8
0
  6
Continuous
 62
     7
370
    15
100
AcDbLine
 10
4.842857051701654
 20
7.019383131056578
 30
0.0
 11
4.939280714301315
 21
6.944667912299272
 31
0.0
  0
LINE
  5
100
330
1F
100
AcDbEntity
  8
0
  6
Continuous
 62
     7
370
    15
100
AcDbLine
 10
4.939280714301315
 20
6.944667912299272
 30
0.0
 11
4.746433426813918
 21
6.893001992658929
 31
0.0
  0
LINE
  5
101
330
1F
100
AcDbEntity
  8
0
  6
Continuous
 62
     7
370
    15
100
AcDbLine
 10
4.939280714301315
 20
6.944667912299272
 30
0.0
 11
4.874998322850776
 21
6.921806252520807
 31
0.0
  0
LINE
  5
102
330
1F
100
AcDbEntity
  8
0
  6
Continuous
 62
     7
370
    15
100
AcDbLine
 10
4.874998322850776
 20
6.921806252520807
 30
0.0
 11
4.682151035363378
 21
6.870140332880465
 31
0.0
  0
LINE
  5
103
330
1F
100
AcDbEntity
  8
0
  6
Continuous
 62
     7
370
    15
100
AcDbLine
 10
4.842857051701654
 20
7.277051180591691
 30
0.0
 11
3.685773232497452
 21
7.587046723692352
 31
0.0
  0
LINE
  5
104
330
1F
100
AcDbEntity
  8
0
  6
Continuous
 62
     7
370
    15
100
AcDbLine
 10
4.842857051701654
 20
7.277051180591691
 30
0.0
 11
4.650009764214256
 21
7.225385260951347
 31
0.0
  0
LINE
  5
105
330
1F
100
AcDbEntity
  8
0
  6
Continuous
 62
     7
370
    15
100
AcDbLine
 10
4.842857051701654
 20
7.277051180591691
 30
0.0
 11
4.842857051701654
 21
7.019383131056578
 31
0.0
  0
LINE
  5
106
330
1F
100
AcDbEntity
  8
0
  6
Continuous
 62
     7
370
    15
100
AcDbLine
 10
4.874998322850776
 20
6.921806252520807
 30
0.0
 11
4.874998322850776
 21
6.655339623371819
 31
0.0
  0
LINE
  5
107
330
1F
100
AcDbEntity
  8
0
  6
Continuous
 62
     7
370
    15
100
AcDbLine
 10
4.874998322850776
 20
6.655339623371819
 30
0.0
 11
4.682151035363378
 21
6.603673703731477
 31
0.0
  0
LINE
  5
108
330
1F
100
AcDbEntity
  8
0
  6
Continuous
 62
     7
370
    15
100
AcDbLine
 10
4.650009726502327
 20
6.073975774261057
 30
0.0
 11
5.794838961069149
 21
5.767263369820783
 31
0.0
  0
LINE
  5
109
330
1F
100
AcDbEntity
  8
0
  6
Continuous
 62
     7
370
    15
100
AcDbLine
 10
5.946907928128698
 20
5.726522412899614
 30
0.0
 11
6.161248637591539
 21
5.66909816796962
 31
0.0
  0
LINE
  5
10A
330
1F
100
AcDbEntity
  8
0
  6
Continuous
 62
     7
370
    15
100
AcDbLine
 10
6.313317906346497
 20
5.628357130220916
 30
0.0
 11
7.478436911346238
 21
5.316208872041829
 31
0.0
  0
LINE
  5
10B
330
1F
100
AcDbEntity
  8
0
  6
Continuous
 62
     7
370
    15
100
AcDbLine
 10
4.650009726502327
 20
6.073975774261057
 30
0.0
 11
4.845579381360636
 21
6.126371046207307
 31
0.0
  0
LINE
  5
10C
330
1F
100
AcDbEntity
  8
0
  6
Continuous
 62
     7
370
    15
100
AcDbLine
 10
4.845579381360636
 20
6.126371046207307
 30
0.0
 11
4.810715846548401
 21
6.151474646143991
 31
0.0
  0
LINE
  5
10D
330
1F
100
AcDbEntity
  8
0
  6
Continuous
 62
     7
370
    15
100
AcDbLine
 10
4.810715846548401
 20
6.151474646143991
 30
0.0
 11
4.943015995720959
 21
6.135253388527115
 31
0.0
  0
LINE
  5
10E
330
1F
100
AcDbEntity
  8
0
  6
Continuous
 62
     7
370
    15
100
AcDbLine
 10
4.943015995720959
 20
6.135253388527115
 30
0.0
 11
5.132128030072657
 21
6.185918592570885
 31
0.0
  0
LINE
  5
10F
330
1F
100
AcDbEntity
  8
0
  6
Continuous
 62
     7
370
    15
100
AcDbLine
 10
7.896272823466029
 20
5.445373653461662
 30
0.0
 11
6.610624089369004
 21
5.789813158144382
 31
0.0
  0
LINE
  5
110
330
1F
100
AcDbEntity
  8
0
  6
Continuous
 62
     7
370
    15
100
AcDbLine
 10
5.967799571472789
 20
5.962032950899508
 30
0.0
 11
5.132128030072657
 21
6.185918592570885
 31
0.0
  0
LINE
  5
111
330
1F
100
AcDbEntity
  8
0
  6
Continuous
 62
     7
370
    15
100
AcDbLine
 10
7.896272823466029
 20
5.445373653461662
 30
0.0
 11
7.70716078911433
 21
5.394708449417893
 31
0.0
  0
LINE
  5
112
330
1F
100
AcDbEntity
  8
0
  6
Continuous
 62
     7
370
    15
100
AcDbLine
 10
7.70716078911433
 20
5.394708449417893
 30
0.0
 11
7.767707965141094
 21
5.359263777290984
 31
0.0
  0
LINE
  5
113
330
1F
100
AcDbEntity
  8
0
  6
Continuous
 62
     7
370
    15
100
AcDbLine
 10
7.767707965141094
 20
5.359263777290984
 30
0.0
 11
7.674006566204547
 21
5.368604143988079
 31
0.0
  0
LINE
  5
114
330
1F
100
AcDbEntity
  8
0
  6
Continuous
 62
     7
370
    15
100
AcDbLine
 10
7.674006566204547
 20
5.368604143988079
 30
0.0
 11
7.478436911346238
 21
5.316208872041829
 31
0.0
  0
LINE
  5
115
330
1F
100
AcDbEntity
  8
0
  6
Continuous
 62
     7
370
    15
100
AcDbLine
 10
4.650009726502327
 20
5.811218411701588
 30
0.0
 11
4.650009726502327
 21
6.073975774261057
 31
0.0
  0
LINE
  5
116
330
1F
100
AcDbEntity
  8
0
  6
Continuous
 62
     7
370
    15
100
AcDbLine
 10
7.478436911346238
 20
5.05345150948236
 30
0.0
 11
7.478436911346238
 21
5.316208872041829
 31
0.0
  0
LINE
  5
117
330
1F
100
AcDbEntity
  8
0
  6
Continuous
 62
     7
370
    15
100
AcDbLine
 10
4.650009726502327
 20
5.811218411701588
 30
0.0
 11
5.83795576031707
 21
5.492954540221688
 31
0.0
  0
LINE
  5
118
330
1F
100
AcDbEntity
  8
0
  6
Continuous
 62
     7
370
    15
100
AcDbLine
 10
6.265106075046666
 20
5.378516250097393
 30
0.0
 11
7.478436911346238
 21
5.05345150948236
 31
0.0
  0
LINE
  5
119
330
1F
100
AcDbEntity
  8
0
  6
Continuous
 62
     7
370
    15
100
AcDbLine
 10
7.674006566204547
 20
5.10584678142861
 30
0.0
 11
7.674006566204547
 21
5.368604143988079
 31
0.0
  0
LINE
  5
11A
330
1F
100
AcDbEntity
  8
0
  6
Continuous
 62
     7
370
    15
100
AcDbLine
 10
7.674006566204547
 20
5.10584678142861
 30
0.0
 11
7.478436911346238
 21
5.05345150948236
 31
0.0
  0
LINE
  5
11B
330
1F
100
AcDbEntity
  8
0
  6
Continuous
 62
     7
370
    15
100
AcDbLine
 10
7.767707965141094
 20
5.096506414731514
 30
0.0
 11
7.767707965141094
 21
5.359263777290984
 31
0.0
  0
LINE
  5
11C
330
1F
100
AcDbEntity
  8
0
  6
Continuous
 62
     7
370
    15
100
AcDbLine
 10
7.767707965141094
 20
5.096506414731514
 30
0.0
 11
7.674006566204547
 21
5.10584678142861
 31
0.0
  0
LINE
  5
11D
330
1F
100
AcDbEntity
  8
0
  6
Continuous
 62
     7
370
    15
100
AcDbLine
 10
7.896272823466029
 20
5.182616290902194
 30
0.0
 11
7.896272823466029
 21
5.445373653461662
 31
0.0
  0
LINE
  5
11E
330
1F
100
AcDbEntity
  8
0
  6
Continuous
 62
     7
370
    15
100
AcDbLine
 10
7.896272823466029
 20
5.182616290902194
 30
0.0
 11
7.767707953356119
 21
5.148172341317973
 31
0.0
  0
LINE
  5
11F
330
1F
100
AcDbEntity
  8
0
  6
Continuous
 62
     7
370
    15
100
AcDbLine
 10
4.810715846548401
 20
6.117030693896146
 30
0.0
 11
4.810715846548401
 21
6.151474646143991
 31
0.0
  0
LINE
  5
120
330
1F
100
AcDbEntity
  8
0
  6
Continuous
 62
     7
370
    15
100
AcDbLine
 10
6.415054425082715
 20
7.751891069420883
 30
0.0
 11
6.38563556844441
 21
7.831595160167116
 31
0.0
  0
LINE
  5
121
330
1F
100
AcDbEntity
  8
0
  6
Continuous
 62
     7
370
    15
100
AcDbLine
 10
6.610624089369004
 20
7.804286343892994
 30
0.0
 11
6.415054425082715
 21
7.751891069420883
 31
0.0
  0
LINE
  5
122
330
1F
100
AcDbEntity
  8
0
  6
Continuous
 62
     7
370
    15
100
AcDbLine
 10
6.610624089369004
 20
7.804286343892994
 30
0.0
 11
6.610624089369004
 21
5.789813158144382
 31
0.0
  0
LINE
  5
123
330
1F
100
AcDbEntity
  8
0
  6
Continuous
 62
     7
370
    15
100
AcDbLine
 10
6.610624089369004
 20
5.789813158144382
 30
0.0
 11
6.434776687597046
 21
5.742701695767672
 31
0.0
  0
LINE
  5
124
330
1F
100
AcDbEntity
  8
0
  6
Continuous
 62
     7
370
    15
100
AcDbLine
 10
6.161429353140987
 20
5.669468923868656
 30
0.0
 11
6.160647056947796
 21
5.669259338072667
 31
0.0
  0
LINE
  5
125
330
1F
100
AcDbEntity
  8
0
  6
Continuous
 62
     7
370
    15
100
AcDbLine
 10
6.160647056947796
 20
5.669259338072667
 30
0.0
 11
6.160647056947796
 21
7.639939557268688
 31
0.0
  0
LINE
  5
126
330
1F
100
AcDbEntity
  8
0
  6
Continuous
 62
     7
370
    15
100
AcDbLine
 10
6.349759072443532
 20
7.690604756260738
 30
0.0
 11
6.160647056947796
 21
7.639939557268688
 31
0.0
  0
LINE
  5
127
330
1F
100
AcDbEntity
  8
0
  6
Continuous
 62
     7
370
    15
100
AcDbLine
 10
6.38563556844441
 20
7.831595160167116
 30
0.0
 11
6.349759072443532
 21
7.690604756260738
 31
0.0
  0
LINE
  5
128
330
1F
100
AcDbEntity
  8
0
  6
Continuous
 62
     7
370
    15
100
AcDbLine
 10
5.967799731748473
 20
5.720925267816451
 30
0.0
 11
6.160647056947796
 21
5.669259338072667
 31
0.0
  0
LINE
  5
129
330
1F
100
AcDbEntity
  8
0
  6
Continuous
 62
     7
370
    15
100
AcDbLine
 10
5.967799731748473
 20
5.720925267816451
 30
0.0
 11
5.967799731748473
 21
7.691605487012473
 31
0.0
  0
LINE
  5
12A
330
1F
100
AcDbEntity
  8
0
  6
Continuous
 62
     7
370
    15
100
AcDbLine
 10
6.160647056947796
 20
7.639939557268688
 30
0.0
 11
5.967799731748473
 21
7.691605487012473
 31
0.0
  0
LINE
  5
12B
330
1F
100
AcDbEntity
  8
0
  6
Continuous
 62
     7
370
    15
100
AcDbLine
 10
6.349759072443532
 20
7.690604756260738
 30
0.0
 11
6.156911747244208
 21
7.742270686004521
 31
0.0
  0
LINE
  5
12C
330
1F
100
AcDbEntity
  8
0
  6
Continuous
 62
     7
370
    15
100
AcDbLine
 10
6.156911747244208
 20
7.742270686004521
 30
0.0
 11
5.967799731748473
 21
7.691605487012473
 31
0.0
  0
LINE
  5
12D
330
1F
100
AcDbEntity
  8
0
  6
Continuous
 62
     7
370
    15
100
AcDbLine
 10
6.38563556844441
 20
7.831595160167116
 30
0.0
 11
6.192788243245087
 21
7.883261089910901
 31
0.0
  0
LINE
  5
12E
330
1F
100
AcDbEntity
  8
0
  6
Continuous
 62
     7
370
    15
100
AcDbLine
 10
6.192788243245087
 20
7.883261089910901
 30
0.0
 11
6.156911747244208
 21
7.742270686004521
 31
0.0
  0
LINE
  5
12F
330
1F
100
AcDbEntity
  8
0
  6
Continuous
 62
     7
370
    15
100
AcDbLine
 10
6.610624089369004
 20
7.804286343892994
 30
0.0
 11
6.417776764169681
 21
7.855952273636778
 31
0.0
  0
LINE
  5
130
330
1F
100
AcDbEntity
  8
0
  6
Continuous
 62
     7
370
    15
100
AcDbLine
 10
6.417776764169681
 20
7.855952273636778
 30
0.0
 11
6.356248811726127
 21
7.839468255178436
 31
0.0
  0
LINE
  5
131
330
1F
100
AcDbEntity
  8
0
  6
Continuous
 62
     7
370
    15
100
AcDbLine
 10
3.492925945010053
 20
7.535380804052009
 30
0.0
 11
3.492925945010053
 21
9.506061010402262
 31
0.0
  0
LINE
  5
132
330
1F
100
AcDbEntity
  8
0
  6
Continuous
 62
     7
370
    15
100
AcDbLine
 10
3.46078473042882
 20
7.543991790658733
 30
0.0
 11
3.492925945010053
 21
7.535380804052009
 31
0.0
  0
LINE
  5
133
330
1F
100
AcDbEntity
  8
0
  6
Continuous
 62
     7
370
    15
100
AcDbLine
 10
3.042948903160866
 20
9.670407594020158
 30
0.0
 11
3.042948903160866
 21
7.831400198475463
 31
0.0
  0
LINE
  5
134
330
1F
100
AcDbEntity
  8
0
  6
Continuous
 62
     7
370
    15
100
AcDbLine
 10
3.042948903160866
 20
9.670407594020158
 30
0.0
 11
3.238518562733164
 21
9.618012320810976
 31
0.0
  0
LINE
  5
135
330
1F
100
AcDbEntity
  8
0
  6
Continuous
 62
     7
370
    15
100
AcDbLine
 10
3.238518562733164
 20
9.618012320810976
 30
0.0
 11
3.267937421728464
 21
9.697716616458016
 31
0.0
  0
LINE
  5
136
330
1F
100
AcDbEntity
  8
0
  6
Continuous
 62
     7
370
    15
100
AcDbLine
 10
3.267937421728464
 20
9.697716616458016
 30
0.0
 11
3.303813907712111
 21
9.556726215235364
 31
0.0
  0
LINE
  5
137
330
1F
100
AcDbEntity
  8
0
  6
Continuous
 62
     7
370
    15
100
AcDbLine
 10
3.303813907712111
 20
9.556726215235364
 30
0.0
 11
3.492925945010053
 21
9.506061010402262
 31
0.0
  0
LINE
  5
138
330
1F
100
AcDbEntity
  8
0
  6
Continuous
 62
     7
370
    15
100
AcDbLine
 10
3.49666119519951
 20
9.608392134875707
 30
0.0
 11
3.303813907712111
 21
9.556726215235364
 31
0.0
  0
LINE
  5
139
330
1F
100
AcDbEntity
  8
0
  6
Continuous
 62
     7
370
    15
100
AcDbLine
 10
3.49666119519951
 20
9.608392134875707
 30
0.0
 11
3.685773232497452
 21
9.557726930042605
 31
0.0
  0
LINE
  5
13A
330
1F
100
AcDbEntity
  8
0
  6
Continuous
 62
     7
370
    15
100
AcDbLine
 10
3.685773232497452
 20
9.557726930042605
 30
0.0
 11
3.492925945010053
 21
9.506061010402262
 31
0.0
  0
LINE
  5
13B
330
1F
100
AcDbEntity
  8
0
  6
Continuous
 62
     7
370
    15
100
AcDbLine
 10
3.492925945010053
 20
7.535380804052009
 30
0.0
 11
3.685773232497452
 21
7.587046723692352
 31
0.0
  0
LINE
  5
13C
330
1F
100
AcDbEntity
  8
0
  6
Continuous
 62
     7
370
    15
100
AcDbLine
 10
3.685773232497452
 20
7.587046723692352
 30
0.0
 11
3.685773232497452
 21
9.557726930042605
 31
0.0
  0
LINE
  5
13D
330
1F
100
AcDbEntity
  8
0
  6
Continuous
 62
     7
370
    15
100
AcDbLine
 10
3.460784709215862
 20
9.749382536098361
 30
0.0
 11
3.267937421728464
 21
9.697716616458016
 31
0.0
  0
LINE
  5
13E
330
1F
100
AcDbEntity
  8
0
  6
Continuous
 62
     7
370
    15
100
AcDbLine
 10
3.460784709215862
 20
9.749382536098361
 30
0.0
 11
3.49666119519951
 21
9.608392134875707
 31
0.0
  0
LINE
  5
13F
330
1F
100
AcDbEntity
  8
0
  6
Continuous
 62
     7
370
    15
100
AcDbLine
 10
3.235796190648264
 20
9.7220735136605
 30
0.0
 11
3.042948903160866
 21
9.670407594020158
 31
0.0
  0
LINE
  5
140
330
1F
100
AcDbEntity
  8
0
  6
Continuous
 62
     7
370
    15
100
AcDbLine
 10
3.235796190648264
 20
9.7220735136605
 30
0.0
 11
3.297324140734821
 21
9.705589495833622
 31
0.0
  0
LINE
  5
141
330
1F
100
AcDbEntity
  8
0
  6
Continuous
 62
     7
370
    15
100
AcDbLine
 10
3.46078473042882
 20
7.981920634055557
 30
0.0
 11
3.452749422069521
 21
7.979767886140946
 31
0.0
  0
LINE
  5
142
330
1F
100
AcDbEntity
  8
0
  6
Continuous
 62
     7
370
    15
100
AcDbLine
 10
3.46078473042882
 20
7.981920634055557
 30
0.0
 11
3.46078473042882
 21
7.06226992932625
 31
0.0
  0
LINE
  5
143
330
1F
100
AcDbEntity
  8
0
  6
Continuous
 62
     7
370
    15
100
AcDbLine
 10
3.46078473042882
 20
7.06226992932625
 30
0.0
 11
3.452749422069521
 21
7.060117181411638
 31
0.0
  0
LINE
  5
144
330
1F
100
AcDbEntity
  8
0
  6
Continuous
 62
     7
370
    15
100
AcDbLine
 10
3.452749422069521
 20
7.979767886140946
 30
0.0
 11
3.452749422069521
 21
7.060117181411638
 31
0.0
  0
LINE
  5
145
330
1F
100
AcDbEntity
  8
0
  6
Continuous
 62
     7
370
    15
100
AcDbLine
 10
3.452749422069521
 20
7.060117181411638
 30
0.0
 11
3.35632576418385
 21
7.0859501450206
 31
0.0
  0
LINE
  5
146
330
1F
100
AcDbEntity
  8
0
  6
Continuous
 62
     7
370
    15
100
AcDbLine
 10
3.050984192664202
 20
7.827232000348839
 30
0.0
 11
3.050984192664202
 21
8.087405231354296
 31
0.0
  0
LINE
  5
147
330
1F
100
AcDbEntity
  8
0
  6
Continuous
 62
     7
370
    15
100
AcDbLine
 10
3.050984192664202
 20
8.087405231354296
 30
0.0
 11
3.452749422069521
 21
7.979767886140946
 31
0.0
  0
LINE
  5
148
330
1F
100
AcDbEntity
  8
0
  6
Continuous
 62
     7
370
    15
100
AcDbLine
 10
3.35632576418385
 20
7.107846576913828
 30
0.0
 11
3.35632576418385
 21
7.195432355869806
 31
0.0
  0
LINE
  5
149
330
1F
100
AcDbEntity
  8
0
  6
Continuous
 62
     7
370
    15
100
AcDbLine
 10
3.372396376188457
 20
7.103541082347535
 30
0.0
 11
3.35632576418385
 21
7.107846576913828
 31
0.0
  0
LINE
  5
14A
330
1F
100
AcDbEntity
  8
0
  6
Continuous
 62
     7
370
    15
100
AcDbLine
 10
3.372396376188457
 20
7.191126861303514
 30
0.0
 11
3.372396376188457
 21
7.103541082347535
 31
0.0
  0
LINE
  5
14B
330
1F
100
AcDbEntity
  8
0
  6
Continuous
 62
     7
370
    15
100
AcDbLine
 10
3.35632576418385
 20
7.195432355869806
 30
0.0
 11
3.372396376188457
 21
7.191126861303514
 31
0.0
  0
LINE
  5
14C
330
1F
100
AcDbEntity
  8
0
  6
Continuous
 62
     7
370
    15
100
AcDbLine
 10
3.388466983479074
 20
7.099235589044173
 30
0.0
 11
3.388466983479074
 21
7.186821368000152
 31
0.0
  0
LINE
  5
14D
330
1F
100
AcDbEntity
  8
0
  6
Continuous
 62
     7
370
    15
100
AcDbLine
 10
3.40453759076969
 20
7.094930095740813
 30
0.0
 11
3.388466983479074
 21
7.099235589044173
 31
0.0
  0
LINE
  5
14E
330
1F
100
AcDbEntity
  8
0
  6
Continuous
 62
     7
370
    15
100
AcDbLine
 10
3.40453759076969
 20
7.18251587469679
 30
0.0
 11
3.40453759076969
 21
7.094930095740813
 31
0.0
  0
LINE
  5
14F
330
1F
100
AcDbEntity
  8
0
  6
Continuous
 62
     7
370
    15
100
AcDbLine
 10
3.388466983479074
 20
7.186821368000152
 30
0.0
 11
3.40453759076969
 21
7.18251587469679
 31
0.0
  0
LINE
  5
150
330
1F
100
AcDbEntity
  8
0
  6
Continuous
 62
     7
370
    15
100
AcDbLine
 10
3.420608198060306
 20
7.09062460243745
 30
0.0
 11
3.420608198060306
 21
7.178210381393428
 31
0.0
  0
LINE
  5
151
330
1F
100
AcDbEntity
  8
0
  6
Continuous
 62
     7
370
    15
100
AcDbLine
 10
3.436678805350923
 20
7.086319109134088
 30
0.0
 11
3.420608198060306
 21
7.09062460243745
 31
0.0
  0
LINE
  5
152
330
1F
100
AcDbEntity
  8
0
  6
Continuous
 62
     7
370
    15
100
AcDbLine
 10
3.436678805350923
 20
7.173904888090066
 30
0.0
 11
3.436678805350923
 21
7.086319109134088
 31
0.0
  0
LINE
  5
153
330
1F
100
AcDbEntity
  8
0
  6
Continuous
 62
     7
370
    15
100
AcDbLine
 10
3.420608198060306
 20
7.178210381393428
 30
0.0
 11
3.436678805350923
 21
7.173904888090066
 31
0.0
  0
LINE
  5
154
330
1F
100
AcDbEntity
  8
0
  6
Continuous
 62
     7
370
    15
100
AcDbLine
 10
3.35632576418385
 20
7.239225271039329
 30
0.0
 11
3.35632576418385
 21
7.326811049995308
 31
0.0
  0
LINE
  5
155
330
1F
100
AcDbEntity
  8
0
  6
Continuous
 62
     7
370
    15
100
AcDbLine
 10
3.372396376188457
 20
7.234919776473037
 30
0.0
 11
3.35632576418385
 21
7.239225271039329
 31
0.0
  0
LINE
  5
156
330
1F
100
AcDbEntity
  8
0
  6
Continuous
 62
     7
370
    15
100
AcDbLine
 10
3.372396376188457
 20
7.322505555429016
 30
0.0
 11
3.372396376188457
 21
7.234919776473037
 31
0.0
  0
LINE
  5
157
330
1F
100
AcDbEntity
  8
0
  6
Continuous
 62
     7
370
    15
100
AcDbLine
 10
3.35632576418385
 20
7.326811049995308
 30
0.0
 11
3.372396376188457
 21
7.322505555429016
 31
0.0
  0
LINE
  5
158
330
1F
100
AcDbEntity
  8
0
  6
Continuous
 62
     7
370
    15
100
AcDbLine
 10
3.388466983479074
 20
7.230614283169675
 30
0.0
 11
3.388466983479074
 21
7.318200062125653
 31
0.0
  0
LINE
  5
159
330
1F
100
AcDbEntity
  8
0
  6
Continuous
 62
     7
370
    15
100
AcDbLine
 10
3.40453759076969
 20
7.226308789866314
 30
0.0
 11
3.388466983479074
 21
7.230614283169675
 31
0.0
  0
LINE
  5
15A
330
1F
100
AcDbEntity
  8
0
  6
Continuous
 62
     7
370
    15
100
AcDbLine
 10
3.40453759076969
 20
7.313894568822292
 30
0.0
 11
3.40453759076969
 21
7.226308789866314
 31
0.0
  0
LINE
  5
15B
330
1F
100
AcDbEntity
  8
0
  6
Continuous
 62
     7
370
    15
100
AcDbLine
 10
3.388466983479074
 20
7.318200062125653
 30
0.0
 11
3.40453759076969
 21
7.313894568822292
 31
0.0
  0
LINE
  5
15C
330
1F
100
AcDbEntity
  8
0
  6
Continuous
 62
     7
370
    15
100
AcDbLine
 10
3.420608198060306
 20
7.222003296562951
 30
0.0
 11
3.420608198060306
 21
7.30958907551893
 31
0.0
  0
LINE
  5
15D
330
1F
100
AcDbEntity
  8
0
  6
Continuous
 62
     7
370
    15
100
AcDbLine
 10
3.436678805350923
 20
7.217697803259589
 30
0.0
 11
3.420608198060306
 21
7.222003296562951
 31
0.0
  0
LINE
  5
15E
330
1F
100
AcDbEntity
  8
0
  6
Continuous
 62
     7
370
    15
100
AcDbLine
 10
3.436678805350923
 20
7.305283582215568
 30
0.0
 11
3.436678805350923
 21
7.217697803259589
 31
0.0
  0
LINE
  5
15F
330
1F
100
AcDbEntity
  8
0
  6
Continuous
 62
     7
370
    15
100
AcDbLine
 10
3.420608198060306
 20
7.30958907551893
 30
0.0
 11
3.436678805350923
 21
7.305283582215568
 31
0.0
  0
LINE
  5
160
330
1F
100
AcDbEntity
  8
0
  6
Continuous
 62
     7
370
    15
100
AcDbLine
 10
3.35632576418385
 20
7.370603965164831
 30
0.0
 11
3.35632576418385
 21
7.458189692737742
 31
0.0
  0
LINE
  5
161
330
1F
100
AcDbEntity
  8
0
  6
Continuous
 62
     7
370
    15
100
AcDbLine
 10
3.372396376188457
 20
7.366298470598539
 30
0.0
 11
3.35632576418385
 21
7.370603965164831
 31
0.0
  0
LINE
  5
162
330
1F
100
AcDbEntity
  8
0
  6
Continuous
 62
     7
370
    15
100
AcDbLine
 10
3.372396376188457
 20
7.45388419817145
 30
0.0
 11
3.372396376188457
 21
7.366298470598539
 31
0.0
  0
LINE
  5
163
330
1F
100
AcDbEntity
  8
0
  6
Continuous
 62
     7
370
    15
100
AcDbLine
 10
3.35632576418385
 20
7.458189692737742
 30
0.0
 11
3.372396376188457
 21
7.45388419817145
 31
0.0
  0
LINE
  5
164
330
1F
100
AcDbEntity
  8
0
  6
Continuous
 62
     7
370
    15
100
AcDbLine
 10
3.388466983479074
 20
7.361992977295177
 30
0.0
 11
3.388466983479074
 21
7.449578704868088
 31
0.0
  0
LINE
  5
165
330
1F
100
AcDbEntity
  8
0
  6
Continuous
 62
     7
370
    15
100
AcDbLine
 10
3.40453759076969
 20
7.357687483991815
 30
0.0
 11
3.388466983479074
 21
7.361992977295177
 31
0.0
  0
LINE
  5
166
330
1F
100
AcDbEntity
  8
0
  6
Continuous
 62
     7
370
    15
100
AcDbLine
 10
3.40453759076969
 20
7.445273211564726
 30
0.0
 11
3.40453759076969
 21
7.357687483991815
 31
0.0
  0
LINE
  5
167
330
1F
100
AcDbEntity
  8
0
  6
Continuous
 62
     7
370
    15
100
AcDbLine
 10
3.388466983479074
 20
7.449578704868088
 30
0.0
 11
3.40453759076969
 21
7.445273211564726
 31
0.0
  0
LINE
  5
168
330
1F
100
AcDbEntity
  8
0
  6
Continuous
 62
     7
370
    15
100
AcDbLine
 10
3.420608198060306
 20
7.353381990688453
 30
0.0
 11
3.420608198060306
 21
7.440967718261364
 31
0.0
  0
LINE
  5
169
330
1F
100
AcDbEntity
  8
0
  6
Continuous
 62
     7
370
    15
100
AcDbLine
 10
3.436678805350923
 20
7.349076497385091
 30
0.0
 11
3.420608198060306
 21
7.353381990688453
 31
0.0
  0
LINE
  5
16A
330
1F
100
AcDbEntity
  8
0
  6
Continuous
 62
     7
370
    15
100
AcDbLine
 10
3.436678805350923
 20
7.436662224958002
 30
0.0
 11
3.436678805350923
 21
7.349076497385091
 31
0.0
  0
LINE
  5
16B
330
1F
100
AcDbEntity
  8
0
  6
Continuous
 62
     7
370
    15
100
AcDbLine
 10
3.420608198060306
 20
7.440967718261364
 30
0.0
 11
3.436678805350923
 21
7.436662224958002
 31
0.0
  0
LINE
  5
16C
330
1F
100
AcDbEntity
  8
0
  6
Continuous
 62
     7
370
    15
100
AcDbLine
 10
3.35632576418385
 20
7.501982659290333
 30
0.0
 11
3.35632576418385
 21
7.589568386863244
 31
0.0
  0
LINE
  5
16D
330
1F
100
AcDbEntity
  8
0
  6
Continuous
 62
     7
370
    15
100
AcDbLine
 10
3.372396376188457
 20
7.49767716472404
 30
0.0
 11
3.35632576418385
 21
7.501982659290333
 31
0.0
  0
LINE
  5
16E
330
1F
100
AcDbEntity
  8
0
  6
Continuous
 62
     7
370
    15
100
AcDbLine
 10
3.372396376188457
 20
7.585262892296952
 30
0.0
 11
3.372396376188457
 21
7.49767716472404
 31
0.0
  0
LINE
  5
16F
330
1F
100
AcDbEntity
  8
0
  6
Continuous
 62
     7
370
    15
100
AcDbLine
 10
3.35632576418385
 20
7.589568386863244
 30
0.0
 11
3.372396376188457
 21
7.585262892296952
 31
0.0
  0
LINE
  5
170
330
1F
100
AcDbEntity
  8
0
  6
Continuous
 62
     7
370
    15
100
AcDbLine
 10
3.388466983479074
 20
7.493371671420678
 30
0.0
 11
3.388466983479074
 21
7.580957398993589
 31
0.0
  0
LINE
  5
171
330
1F
100
AcDbEntity
  8
0
  6
Continuous
 62
     7
370
    15
100
AcDbLine
 10
3.40453759076969
 20
7.489066178117317
 30
0.0
 11
3.388466983479074
 21
7.493371671420678
 31
0.0
  0
LINE
  5
172
330
1F
100
AcDbEntity
  8
0
  6
Continuous
 62
     7
370
    15
100
AcDbLine
 10
3.40453759076969
 20
7.576651905690228
 30
0.0
 11
3.40453759076969
 21
7.489066178117317
 31
0.0
  0
LINE
  5
173
330
1F
100
AcDbEntity
  8
0
  6
Continuous
 62
     7
370
    15
100
AcDbLine
 10
3.388466983479074
 20
7.580957398993589
 30
0.0
 11
3.40453759076969
 21
7.576651905690228
 31
0.0
  0
LINE
  5
174
330
1F
100
AcDbEntity
  8
0
  6
Continuous
 62
     7
370
    15
100
AcDbLine
 10
3.420608198060306
 20
7.484760684813955
 30
0.0
 11
3.420608198060306
 21
7.572346412386866
 31
0.0
  0
LINE
  5
175
330
1F
100
AcDbEntity
  8
0
  6
Continuous
 62
     7
370
    15
100
AcDbLine
 10
3.436678805350923
 20
7.480455191510593
 30
0.0
 11
3.420608198060306
 21
7.484760684813955
 31
0.0
  0
LINE
  5
176
330
1F
100
AcDbEntity
  8
0
  6
Continuous
 62
     7
370
    15
100
AcDbLine
 10
3.436678805350923
 20
7.568040919083504
 30
0.0
 11
3.436678805350923
 21
7.480455191510593
 31
0.0
  0
LINE
  5
177
330
1F
100
AcDbEntity
  8
0
  6
Continuous
 62
     7
370
    15
100
AcDbLine
 10
3.420608198060306
 20
7.572346412386866
 30
0.0
 11
3.436678805350923
 21
7.568040919083504
 31
0.0
  0
LINE
  5
178
330
1F
100
AcDbEntity
  8
0
  6
Continuous
 62
     7
370
    15
100
AcDbLine
 10
3.16347846255448
 20
7.768877044324639
 30
0.0
 11
3.16347846255448
 21
7.772613004417879
 31
0.0
  0
LINE
  5
179
330
1F
100
AcDbEntity
  8
0
  6
Continuous
 62
     7
370
    15
100
AcDbLine
 10
3.179549069845096
 20
7.768307511114517
 30
0.0
 11
3.179549069845096
 21
7.760540549352761
 31
0.0
  0
LINE
  5
17A
330
1F
100
AcDbEntity
  8
0
  6
Continuous
 62
     7
370
    15
100
AcDbLine
 10
3.16347846255448
 20
7.772613004417879
 30
0.0
 11
3.179549069845096
 21
7.768307511114517
 31
0.0
  0
LINE
  5
17B
330
1F
100
AcDbEntity
  8
0
  6
Continuous
 62
     7
370
    15
100
AcDbLine
 10
3.195619677135713
 20
7.752204157147017
 30
0.0
 11
3.195619677135713
 21
7.764002017811154
 31
0.0
  0
LINE
  5
17C
330
1F
100
AcDbEntity
  8
0
  6
Continuous
 62
     7
370
    15
100
AcDbLine
 10
3.211690284426329
 20
7.759696524507793
 30
0.0
 11
3.211690284426329
 21
7.743867764941273
 31
0.0
  0
LINE
  5
17D
330
1F
100
AcDbEntity
  8
0
  6
Continuous
 62
     7
370
    15
100
AcDbLine
 10
3.195619677135713
 20
7.764002017811154
 30
0.0
 11
3.211690284426329
 21
7.759696524507793
 31
0.0
  0
LINE
  5
17E
330
1F
100
AcDbEntity
  8
0
  6
Continuous
 62
     7
370
    15
100
AcDbLine
 10
3.227760896430936
 20
7.735531268706464
 30
0.0
 11
3.227760896430936
 21
7.755391029941501
 31
0.0
  0
LINE
  5
17F
330
1F
100
AcDbEntity
  8
0
  6
Continuous
 62
     7
370
    15
100
AcDbLine
 10
3.243831503721553
 20
7.751085536638139
 30
0.0
 11
3.243831503721553
 21
7.72719487650072
 31
0.0
  0
LINE
  5
180
330
1F
100
AcDbEntity
  8
0
  6
Continuous
 62
     7
370
    15
100
AcDbLine
 10
3.227760896430936
 20
7.755391029941501
 30
0.0
 11
3.243831503721553
 21
7.751085536638139
 31
0.0
  0
LINE
  5
181
330
1F
100
AcDbEntity
  8
0
  6
Continuous
 62
     7
370
    15
100
AcDbLine
 10
3.259902113369165
 20
7.718858483663511
 30
0.0
 11
3.259902113369165
 21
7.746780042703312
 31
0.0
  0
LINE
  5
182
330
1F
100
AcDbEntity
  8
0
  6
Continuous
 62
     7
370
    15
100
AcDbLine
 10
3.275972721838279
 20
7.742474549084217
 30
0.0
 11
3.275972721838279
 21
7.710521988375898
 31
0.0
  0
LINE
  5
183
330
1F
100
AcDbEntity
  8
0
  6
Continuous
 62
     7
370
    15
100
AcDbLine
 10
3.259902113369165
 20
7.746780042703312
 30
0.0
 11
3.275972721838279
 21
7.742474549084217
 31
0.0
  0
LINE
  5
184
330
1F
100
AcDbEntity
  8
0
  6
Continuous
 62
     7
370
    15
100
AcDbLine
 10
3.292043330307353
 20
7.702185595854434
 30
0.0
 11
3.292043330307353
 21
7.738169055465134
 31
0.0
  0
LINE
  5
185
330
1F
100
AcDbEntity
  8
0
  6
Continuous
 62
     7
370
    15
100
AcDbLine
 10
3.308113938776507
 20
7.733863561846028
 30
0.0
 11
3.308113938776507
 21
7.693849203332946
 31
0.0
  0
LINE
  5
186
330
1F
100
AcDbEntity
  8
0
  6
Continuous
 62
     7
370
    15
100
AcDbLine
 10
3.292043330307353
 20
7.738169055465134
 30
0.0
 11
3.308113938776507
 21
7.733863561846028
 31
0.0
  0
LINE
  5
187
330
1F
100
AcDbEntity
  8
0
  6
Continuous
 62
     7
370
    15
100
AcDbLine
 10
3.324184547245621
 20
7.685512708045334
 30
0.0
 11
3.324184547245621
 21
7.729558068226935
 31
0.0
  0
LINE
  5
188
330
1F
100
AcDbEntity
  8
0
  6
Continuous
 62
     7
370
    15
100
AcDbLine
 10
3.340255156893233
 20
7.725252574292108
 30
0.0
 11
3.340255156893233
 21
7.677176315208125
 31
0.0
  0
LINE
  5
189
330
1F
100
AcDbEntity
  8
0
  6
Continuous
 62
     7
370
    15
100
AcDbLine
 10
3.324184547245621
 20
7.729558068226935
 30
0.0
 11
3.340255156893233
 21
7.725252574292108
 31
0.0
  0
LINE
  5
18A
330
1F
100
AcDbEntity
  8
0
  6
Continuous
 62
     7
370
    15
100
AcDbLine
 10
3.35632576418385
 20
7.633361353415835
 30
0.0
 11
3.35632576418385
 21
7.720947080988746
 31
0.0
  0
LINE
  5
18B
330
1F
100
AcDbEntity
  8
0
  6
Continuous
 62
     7
370
    15
100
AcDbLine
 10
3.372396376188457
 20
7.629055858849542
 30
0.0
 11
3.35632576418385
 21
7.633361353415835
 31
0.0
  0
LINE
  5
18C
330
1F
100
AcDbEntity
  8
0
  6
Continuous
 62
     7
370
    15
100
AcDbLine
 10
3.372396376188457
 20
7.716641586422453
 30
0.0
 11
3.372396376188457
 21
7.629055858849542
 31
0.0
  0
LINE
  5
18D
330
1F
100
AcDbEntity
  8
0
  6
Continuous
 62
     7
370
    15
100
AcDbLine
 10
3.35632576418385
 20
7.720947080988746
 30
0.0
 11
3.372396376188457
 21
7.716641586422453
 31
0.0
  0
LINE
  5
18E
330
1F
100
AcDbEntity
  8
0
  6
Continuous
 62
     7
370
    15
100
AcDbLine
 10
3.388466983479074
 20
7.62475036554618
 30
0.0
 11
3.388466983479074
 21
7.712336093119091
 31
0.0
  0
LINE
  5
18F
330
1F
100
AcDbEntity
  8
0
  6
Continuous
 62
     7
370
    15
100
AcDbLine
 10
3.40453759076969
 20
7.620444872242819
 30
0.0
 11
3.388466983479074
 21
7.62475036554618
 31
0.0
  0
LINE
  5
190
330
1F
100
AcDbEntity
  8
0
  6
Continuous
 62
     7
370
    15
100
AcDbLine
 10
3.40453759076969
 20
7.70803059981573
 30
0.0
 11
3.40453759076969
 21
7.620444872242819
 31
0.0
  0
LINE
  5
191
330
1F
100
AcDbEntity
  8
0
  6
Continuous
 62
     7
370
    15
100
AcDbLine
 10
3.388466983479074
 20
7.712336093119091
 30
0.0
 11
3.40453759076969
 21
7.70803059981573
 31
0.0
  0
LINE
  5
192
330
1F
100
AcDbEntity
  8
0
  6
Continuous
 62
     7
370
    15
100
AcDbLine
 10
3.420608198060306
 20
7.616139378939457
 30
0.0
 11
3.420608198060306
 21
7.703725106512368
 31
0.0
  0
LINE
  5
193
330
1F
100
AcDbEntity
  8
0
  6
Continuous
 62
     7
370
    15
100
AcDbLine
 10
3.436678805350923
 20
7.611833885636094
 30
0.0
 11
3.420608198060306
 21
7.616139378939457
 31
0.0
  0
LINE
  5
194
330
1F
100
AcDbEntity
  8
0
  6
Continuous
 62
     7
370
    15
100
AcDbLine
 10
3.436678805350923
 20
7.699419613209006
 30
0.0
 11
3.436678805350923
 21
7.611833885636094
 31
0.0
  0
LINE
  5
195
330
1F
100
AcDbEntity
  8
0
  6
Continuous
 62
     7
370
    15
100
AcDbLine
 10
3.420608198060306
 20
7.703725106512368
 30
0.0
 11
3.436678805350923
 21
7.699419613209006
 31
0.0
  0
LINE
  5
196
330
1F
100
AcDbEntity
  8
0
  6
Continuous
 62
     7
370
    15
100
AcDbLine
 10
3.099196023964032
 20
7.833627843943642
 30
0.0
 11
3.099196023964032
 21
7.921213674282689
 31
0.0
  0
LINE
  5
197
330
1F
100
AcDbEntity
  8
0
  6
Continuous
 62
     7
370
    15
100
AcDbLine
 10
3.11526664068263
 20
7.82932234811442
 30
0.0
 11
3.099196023964032
 21
7.833627843943642
 31
0.0
  0
LINE
  5
198
330
1F
100
AcDbEntity
  8
0
  6
Continuous
 62
     7
370
    15
100
AcDbLine
 10
3.11526664068263
 20
7.916908178453466
 30
0.0
 11
3.11526664068263
 21
7.82932234811442
 31
0.0
  0
LINE
  5
199
330
1F
100
AcDbEntity
  8
0
  6
Continuous
 62
     7
370
    15
100
AcDbLine
 10
3.099196023964032
 20
7.921213674282689
 30
0.0
 11
3.11526664068263
 21
7.916908178453466
 31
0.0
  0
LINE
  5
19A
330
1F
100
AcDbEntity
  8
0
  6
Continuous
 62
     7
370
    15
100
AcDbLine
 10
3.131337238545265
 20
7.825016857336918
 30
0.0
 11
3.131337238545265
 21
7.912602687675965
 31
0.0
  0
LINE
  5
19B
330
1F
100
AcDbEntity
  8
0
  6
Continuous
 62
     7
370
    15
100
AcDbLine
 10
3.147407855263863
 20
7.820711361507695
 30
0.0
 11
3.131337238545265
 21
7.825016857336918
 31
0.0
  0
LINE
  5
19C
330
1F
100
AcDbEntity
  8
0
  6
Continuous
 62
     7
370
    15
100
AcDbLine
 10
3.147407855263863
 20
7.908297191846743
 30
0.0
 11
3.147407855263863
 21
7.820711361507695
 31
0.0
  0
LINE
  5
19D
330
1F
100
AcDbEntity
  8
0
  6
Continuous
 62
     7
370
    15
100
AcDbLine
 10
3.131337238545265
 20
7.912602687675965
 30
0.0
 11
3.147407855263863
 21
7.908297191846743
 31
0.0
  0
LINE
  5
19E
330
1F
100
AcDbEntity
  8
0
  6
Continuous
 62
     7
370
    15
100
AcDbLine
 10
3.16347846255448
 20
7.816405868204334
 30
0.0
 11
3.16347846255448
 21
7.90399169854338
 31
0.0
  0
LINE
  5
19F
330
1F
100
AcDbEntity
  8
0
  6
Continuous
 62
     7
370
    15
100
AcDbLine
 10
3.179549069845096
 20
7.812100374900972
 30
0.0
 11
3.16347846255448
 21
7.816405868204334
 31
0.0
  0
LINE
  5
1A0
330
1F
100
AcDbEntity
  8
0
  6
Continuous
 62
     7
370
    15
100
AcDbLine
 10
3.179549069845096
 20
7.899686205240018
 30
0.0
 11
3.179549069845096
 21
7.812100374900972
 31
0.0
  0
LINE
  5
1A1
330
1F
100
AcDbEntity
  8
0
  6
Continuous
 62
     7
370
    15
100
AcDbLine
 10
3.16347846255448
 20
7.90399169854338
 30
0.0
 11
3.179549069845096
 21
7.899686205240018
 31
0.0
  0
LINE
  5
1A2
330
1F
100
AcDbEntity
  8
0
  6
Continuous
 62
     7
370
    15
100
AcDbLine
 10
3.195619677135713
 20
7.80779488159761
 30
0.0
 11
3.195619677135713
 21
7.895380711936657
 31
0.0
  0
LINE
  5
1A3
330
1F
100
AcDbEntity
  8
0
  6
Continuous
 62
     7
370
    15
100
AcDbLine
 10
3.211690284426329
 20
7.803489388294249
 30
0.0
 11
3.195619677135713
 21
7.80779488159761
 31
0.0
  0
LINE
  5
1A4
330
1F
100
AcDbEntity
  8
0
  6
Continuous
 62
     7
370
    15
100
AcDbLine
 10
3.211690284426329
 20
7.891075218633295
 30
0.0
 11
3.211690284426329
 21
7.803489388294249
 31
0.0
  0
LINE
  5
1A5
330
1F
100
AcDbEntity
  8
0
  6
Continuous
 62
     7
370
    15
100
AcDbLine
 10
3.195619677135713
 20
7.895380711936657
 30
0.0
 11
3.211690284426329
 21
7.891075218633295
 31
0.0
  0
LINE
  5
1A6
330
1F
100
AcDbEntity
  8
0
  6
Continuous
 62
     7
370
    15
100
AcDbLine
 10
3.227760896430936
 20
7.799183893727956
 30
0.0
 11
3.227760896430936
 21
7.886769724067002
 31
0.0
  0
LINE
  5
1A7
330
1F
100
AcDbEntity
  8
0
  6
Continuous
 62
     7
370
    15
100
AcDbLine
 10
3.243831503721553
 20
7.794878400424594
 30
0.0
 11
3.227760896430936
 21
7.799183893727956
 31
0.0
  0
LINE
  5
1A8
330
1F
100
AcDbEntity
  8
0
  6
Continuous
 62
     7
370
    15
100
AcDbLine
 10
3.243831503721553
 20
7.88246423076364
 30
0.0
 11
3.243831503721553
 21
7.794878400424594
 31
0.0
  0
LINE
  5
1A9
330
1F
100
AcDbEntity
  8
0
  6
Continuous
 62
     7
370
    15
100
AcDbLine
 10
3.227760896430936
 20
7.886769724067002
 30
0.0
 11
3.243831503721553
 21
7.88246423076364
 31
0.0
  0
LINE
  5
1AA
330
1F
100
AcDbEntity
  8
0
  6
Continuous
 62
     7
370
    15
100
AcDbLine
 10
3.259902113369165
 20
7.790572906489767
 30
0.0
 11
3.259902113369165
 21
7.878158736828813
 31
0.0
  0
LINE
  5
1AB
330
1F
100
AcDbEntity
  8
0
  6
Continuous
 62
     7
370
    15
100
AcDbLine
 10
3.275972721838279
 20
7.786267412870673
 30
0.0
 11
3.259902113369165
 21
7.790572906489767
 31
0.0
  0
LINE
  5
1AC
330
1F
100
AcDbEntity
  8
0
  6
Continuous
 62
     7
370
    15
100
AcDbLine
 10
3.275972721838279
 20
7.873853243209719
 30
0.0
 11
3.275972721838279
 21
7.786267412870673
 31
0.0
  0
LINE
  5
1AD
330
1F
100
AcDbEntity
  8
0
  6
Continuous
 62
     7
370
    15
100
AcDbLine
 10
3.259902113369165
 20
7.878158736828813
 30
0.0
 11
3.275972721838279
 21
7.873853243209719
 31
0.0
  0
LINE
  5
1AE
330
1F
100
AcDbEntity
  8
0
  6
Continuous
 62
     7
370
    15
100
AcDbLine
 10
3.292043330307353
 20
7.78196191925159
 30
0.0
 11
3.292043330307353
 21
7.869547749590636
 31
0.0
  0
LINE
  5
1AF
330
1F
100
AcDbEntity
  8
0
  6
Continuous
 62
     7
370
    15
100
AcDbLine
 10
3.308113938776507
 20
7.777656425632484
 30
0.0
 11
3.292043330307353
 21
7.78196191925159
 31
0.0
  0
LINE
  5
1B0
330
1F
100
AcDbEntity
  8
0
  6
Continuous
 62
     7
370
    15
100
AcDbLine
 10
3.308113938776507
 20
7.865242255971531
 30
0.0
 11
3.308113938776507
 21
7.777656425632484
 31
0.0
  0
LINE
  5
1B1
330
1F
100
AcDbEntity
  8
0
  6
Continuous
 62
     7
370
    15
100
AcDbLine
 10
3.292043330307353
 20
7.869547749590636
 30
0.0
 11
3.308113938776507
 21
7.865242255971531
 31
0.0
  0
LINE
  5
1B2
330
1F
100
AcDbEntity
  8
0
  6
Continuous
 62
     7
370
    15
100
AcDbLine
 10
3.324184547245621
 20
7.773350932013389
 30
0.0
 11
3.324184547245621
 21
7.860936762352435
 31
0.0
  0
LINE
  5
1B3
330
1F
100
AcDbEntity
  8
0
  6
Continuous
 62
     7
370
    15
100
AcDbLine
 10
3.340255156893233
 20
7.769045438078562
 30
0.0
 11
3.324184547245621
 21
7.773350932013389
 31
0.0
  0
LINE
  5
1B4
330
1F
100
AcDbEntity
  8
0
  6
Continuous
 62
     7
370
    15
100
AcDbLine
 10
3.340255156893233
 20
7.85663126841761
 30
0.0
 11
3.340255156893233
 21
7.769045438078562
 31
0.0
  0
LINE
  5
1B5
330
1F
100
AcDbEntity
  8
0
  6
Continuous
 62
     7
370
    15
100
AcDbLine
 10
3.324184547245621
 20
7.860936762352435
 30
0.0
 11
3.340255156893233
 21
7.85663126841761
 31
0.0
  0
LINE
  5
1B6
330
1F
100
AcDbEntity
  8
0
  6
Continuous
 62
     7
370
    15
100
AcDbLine
 10
3.35632576418385
 20
7.7647399447752
 30
0.0
 11
3.35632576418385
 21
7.852325775114247
 31
0.0
  0
LINE
  5
1B7
330
1F
100
AcDbEntity
  8
0
  6
Continuous
 62
     7
370
    15
100
AcDbLine
 10
3.372396376188457
 20
7.760434450208908
 30
0.0
 11
3.35632576418385
 21
7.7647399447752
 31
0.0
  0
LINE
  5
1B8
330
1F
100
AcDbEntity
  8
0
  6
Continuous
 62
     7
370
    15
100
AcDbLine
 10
3.372396376188457
 20
7.848020280547955
 30
0.0
 11
3.372396376188457
 21
7.760434450208908
 31
0.0
  0
LINE
  5
1B9
330
1F
100
AcDbEntity
  8
0
  6
Continuous
 62
     7
370
    15
100
AcDbLine
 10
3.35632576418385
 20
7.852325775114247
 30
0.0
 11
3.372396376188457
 21
7.848020280547955
 31
0.0
  0
LINE
  5
1BA
330
1F
100
AcDbEntity
  8
0
  6
Continuous
 62
     7
370
    15
100
AcDbLine
 10
3.388466983479074
 20
7.756128956905546
 30
0.0
 11
3.388466983479074
 21
7.843714787244592
 31
0.0
  0
LINE
  5
1BB
330
1F
100
AcDbEntity
  8
0
  6
Continuous
 62
     7
370
    15
100
AcDbLine
 10
3.40453759076969
 20
7.751823463602185
 30
0.0
 11
3.388466983479074
 21
7.756128956905546
 31
0.0
  0
LINE
  5
1BC
330
1F
100
AcDbEntity
  8
0
  6
Continuous
 62
     7
370
    15
100
AcDbLine
 10
3.40453759076969
 20
7.839409293941232
 30
0.0
 11
3.40453759076969
 21
7.751823463602185
 31
0.0
  0
LINE
  5
1BD
330
1F
100
AcDbEntity
  8
0
  6
Continuous
 62
     7
370
    15
100
AcDbLine
 10
3.388466983479074
 20
7.843714787244592
 30
0.0
 11
3.40453759076969
 21
7.839409293941232
 31
0.0
  0
LINE
  5
1BE
330
1F
100
AcDbEntity
  8
0
  6
Continuous
 62
     7
370
    15
100
AcDbLine
 10
3.420608198060306
 20
7.747517970298822
 30
0.0
 11
3.420608198060306
 21
7.835103800637869
 31
0.0
  0
LINE
  5
1BF
330
1F
100
AcDbEntity
  8
0
  6
Continuous
 62
     7
370
    15
100
AcDbLine
 10
3.436678805350923
 20
7.74321247699546
 30
0.0
 11
3.420608198060306
 21
7.747517970298822
 31
0.0
  0
LINE
  5
1C0
330
1F
100
AcDbEntity
  8
0
  6
Continuous
 62
     7
370
    15
100
AcDbLine
 10
3.436678805350923
 20
7.830798307334506
 30
0.0
 11
3.436678805350923
 21
7.74321247699546
 31
0.0
  0
LINE
  5
1C1
330
1F
100
AcDbEntity
  8
0
  6
Continuous
 62
     7
370
    15
100
AcDbLine
 10
3.420608198060306
 20
7.835103800637869
 30
0.0
 11
3.436678805350923
 21
7.830798307334506
 31
0.0
  0
LINE
  5
1C2
330
1F
100
AcDbEntity
  8
0
  6
Continuous
 62
     7
370
    15
100
AcDbLine
 10
3.099196023964032
 20
7.965006538069144
 30
0.0
 11
3.099196023964032
 21
8.052592368408189
 31
0.0
  0
LINE
  5
1C3
330
1F
100
AcDbEntity
  8
0
  6
Continuous
 62
     7
370
    15
100
AcDbLine
 10
3.11526664068263
 20
7.960701042239922
 30
0.0
 11
3.099196023964032
 21
7.965006538069144
 31
0.0
  0
LINE
  5
1C4
330
1F
100
AcDbEntity
  8
0
  6
Continuous
 62
     7
370
    15
100
AcDbLine
 10
3.11526664068263
 20
8.048286872578968
 30
0.0
 11
3.11526664068263
 21
7.960701042239922
 31
0.0
  0
LINE
  5
1C5
330
1F
100
AcDbEntity
  8
0
  6
Continuous
 62
     7
370
    15
100
AcDbLine
 10
3.099196023964032
 20
8.052592368408189
 30
0.0
 11
3.11526664068263
 21
8.048286872578968
 31
0.0
  0
LINE
  5
1C6
330
1F
100
AcDbEntity
  8
0
  6
Continuous
 62
     7
370
    15
100
AcDbLine
 10
3.131337238545265
 20
7.95639555146242
 30
0.0
 11
3.131337238545265
 21
8.043981381801467
 31
0.0
  0
LINE
  5
1C7
330
1F
100
AcDbEntity
  8
0
  6
Continuous
 62
     7
370
    15
100
AcDbLine
 10
3.147407855263863
 20
7.952090055633197
 30
0.0
 11
3.131337238545265
 21
7.95639555146242
 31
0.0
  0
LINE
  5
1C8
330
1F
100
AcDbEntity
  8
0
  6
Continuous
 62
     7
370
    15
100
AcDbLine
 10
3.147407855263863
 20
8.039675885972245
 30
0.0
 11
3.147407855263863
 21
7.952090055633197
 31
0.0
  0
LINE
  5
1C9
330
1F
100
AcDbEntity
  8
0
  6
Continuous
 62
     7
370
    15
100
AcDbLine
 10
3.131337238545265
 20
8.043981381801467
 30
0.0
 11
3.147407855263863
 21
8.039675885972245
 31
0.0
  0
LINE
  5
1CA
330
1F
100
AcDbEntity
  8
0
  6
Continuous
 62
     7
370
    15
100
AcDbLine
 10
3.16347846255448
 20
7.947784562329836
 30
0.0
 11
3.16347846255448
 21
8.035370392668882
 31
0.0
  0
LINE
  5
1CB
330
1F
100
AcDbEntity
  8
0
  6
Continuous
 62
     7
370
    15
100
AcDbLine
 10
3.179549069845096
 20
7.943479069026474
 30
0.0
 11
3.16347846255448
 21
7.947784562329836
 31
0.0
  0
LINE
  5
1CC
330
1F
100
AcDbEntity
  8
0
  6
Continuous
 62
     7
370
    15
100
AcDbLine
 10
3.179549069845096
 20
8.031064899365519
 30
0.0
 11
3.179549069845096
 21
7.943479069026474
 31
0.0
  0
LINE
  5
1CD
330
1F
100
AcDbEntity
  8
0
  6
Continuous
 62
     7
370
    15
100
AcDbLine
 10
3.16347846255448
 20
8.035370392668882
 30
0.0
 11
3.179549069845096
 21
8.031064899365519
 31
0.0
  0
LINE
  5
1CE
330
1F
100
AcDbEntity
  8
0
  6
Continuous
 62
     7
370
    15
100
AcDbLine
 10
3.195619677135713
 20
7.939173575723112
 30
0.0
 11
3.195619677135713
 21
8.02675940606216
 31
0.0
  0
LINE
  5
1CF
330
1F
100
AcDbEntity
  8
0
  6
Continuous
 62
     7
370
    15
100
AcDbLine
 10
3.211690284426329
 20
7.93486808241975
 30
0.0
 11
3.195619677135713
 21
7.939173575723112
 31
0.0
  0
LINE
  5
1D0
330
1F
100
AcDbEntity
  8
0
  6
Continuous
 62
     7
370
    15
100
AcDbLine
 10
3.211690284426329
 20
8.022453912758797
 30
0.0
 11
3.211690284426329
 21
7.93486808241975
 31
0.0
  0
LINE
  5
1D1
330
1F
100
AcDbEntity
  8
0
  6
Continuous
 62
     7
370
    15
100
AcDbLine
 10
3.195619677135713
 20
8.02675940606216
 30
0.0
 11
3.211690284426329
 21
8.022453912758797
 31
0.0
  0
LINE
  5
1D2
330
1F
100
AcDbEntity
  8
0
  6
Continuous
 62
     7
370
    15
100
AcDbLine
 10
3.227760896430936
 20
7.930562587853458
 30
0.0
 11
3.227760896430936
 21
8.018148418192504
 31
0.0
  0
LINE
  5
1D3
330
1F
100
AcDbEntity
  8
0
  6
Continuous
 62
     7
370
    15
100
AcDbLine
 10
3.243831503721553
 20
7.926257094550096
 30
0.0
 11
3.227760896430936
 21
7.930562587853458
 31
0.0
  0
LINE
  5
1D4
330
1F
100
AcDbEntity
  8
0
  6
Continuous
 62
     7
370
    15
100
AcDbLine
 10
3.243831503721553
 20
8.013842924889143
 30
0.0
 11
3.243831503721553
 21
7.926257094550096
 31
0.0
  0
LINE
  5
1D5
330
1F
100
AcDbEntity
  8
0
  6
Continuous
 62
     7
370
    15
100
AcDbLine
 10
3.227760896430936
 20
8.018148418192504
 30
0.0
 11
3.243831503721553
 21
8.013842924889143
 31
0.0
  0
LINE
  5
1D6
330
1F
100
AcDbEntity
  8
0
  6
Continuous
 62
     7
370
    15
100
AcDbLine
 10
3.259902113369165
 20
7.921951600615269
 30
0.0
 11
3.259902113369165
 21
8.009537430954315
 31
0.0
  0
LINE
  5
1D7
330
1F
100
AcDbEntity
  8
0
  6
Continuous
 62
     7
370
    15
100
AcDbLine
 10
3.275972721838279
 20
7.917646106996174
 30
0.0
 11
3.259902113369165
 21
7.921951600615269
 31
0.0
  0
LINE
  5
1D8
330
1F
100
AcDbEntity
  8
0
  6
Continuous
 62
     7
370
    15
100
AcDbLine
 10
3.275972721838279
 20
8.005231937335221
 30
0.0
 11
3.275972721838279
 21
7.917646106996174
 31
0.0
  0
LINE
  5
1D9
330
1F
100
AcDbEntity
  8
0
  6
Continuous
 62
     7
370
    15
100
AcDbLine
 10
3.259902113369165
 20
8.009537430954315
 30
0.0
 11
3.275972721838279
 21
8.005231937335221
 31
0.0
  0
LINE
  5
1DA
330
1F
100
AcDbEntity
  8
0
  6
Continuous
 62
     7
370
    15
100
AcDbLine
 10
3.292043330307353
 20
7.913340613377091
 30
0.0
 11
3.292043330307353
 21
8.000926443716137
 31
0.0
  0
LINE
  5
1DB
330
1F
100
AcDbEntity
  8
0
  6
Continuous
 62
     7
370
    15
100
AcDbLine
 10
3.308113938776507
 20
7.909035119757986
 30
0.0
 11
3.292043330307353
 21
7.913340613377091
 31
0.0
  0
LINE
  5
1DC
330
1F
100
AcDbEntity
  8
0
  6
Continuous
 62
     7
370
    15
100
AcDbLine
 10
3.308113938776507
 20
7.996620950097033
 30
0.0
 11
3.308113938776507
 21
7.909035119757986
 31
0.0
  0
LINE
  5
1DD
330
1F
100
AcDbEntity
  8
0
  6
Continuous
 62
     7
370
    15
100
AcDbLine
 10
3.292043330307353
 20
8.000926443716137
 30
0.0
 11
3.308113938776507
 21
7.996620950097033
 31
0.0
  0
LINE
  5
1DE
330
1F
100
AcDbEntity
  8
0
  6
Continuous
 62
     7
370
    15
100
AcDbLine
 10
3.324184547245621
 20
7.904729626138891
 30
0.0
 11
3.324184547245621
 21
7.992315456477937
 31
0.0
  0
LINE
  5
1DF
330
1F
100
AcDbEntity
  8
0
  6
Continuous
 62
     7
370
    15
100
AcDbLine
 10
3.340255156893233
 20
7.900424132204064
 30
0.0
 11
3.324184547245621
 21
7.904729626138891
 31
0.0
  0
LINE
  5
1E0
330
1F
100
AcDbEntity
  8
0
  6
Continuous
 62
     7
370
    15
100
AcDbLine
 10
3.340255156893233
 20
7.98800996254311
 30
0.0
 11
3.340255156893233
 21
7.900424132204064
 31
0.0
  0
LINE
  5
1E1
330
1F
100
AcDbEntity
  8
0
  6
Continuous
 62
     7
370
    15
100
AcDbLine
 10
3.324184547245621
 20
7.992315456477937
 30
0.0
 11
3.340255156893233
 21
7.98800996254311
 31
0.0
  0
LINE
  5
1E2
330
1F
100
AcDbEntity
  8
0
  6
Continuous
 62
     7
370
    15
100
AcDbLine
 10
3.35632576418385
 20
7.896118638900702
 30
0.0
 11
3.35632576418385
 21
7.983704469239748
 31
0.0
  0
LINE
  5
1E3
330
1F
100
AcDbEntity
  8
0
  6
Continuous
 62
     7
370
    15
100
AcDbLine
 10
3.372396376188457
 20
7.89181314433441
 30
0.0
 11
3.35632576418385
 21
7.896118638900702
 31
0.0
  0
LINE
  5
1E4
330
1F
100
AcDbEntity
  8
0
  6
Continuous
 62
     7
370
    15
100
AcDbLine
 10
3.372396376188457
 20
7.979398974673456
 30
0.0
 11
3.372396376188457
 21
7.89181314433441
 31
0.0
  0
LINE
  5
1E5
330
1F
100
AcDbEntity
  8
0
  6
Continuous
 62
     7
370
    15
100
AcDbLine
 10
3.35632576418385
 20
7.983704469239748
 30
0.0
 11
3.372396376188457
 21
7.979398974673456
 31
0.0
  0
LINE
  5
1E6
330
1F
100
AcDbEntity
  8
0
  6
Continuous
 62
     7
370
    15
100
AcDbLine
 10
3.388466983479074
 20
7.887507651031048
 30
0.0
 11
3.388466983479074
 21
7.975093481370094
 31
0.0
  0
LINE
  5
1E7
330
1F
100
AcDbEntity
  8
0
  6
Continuous
 62
     7
370
    15
100
AcDbLine
 10
3.40453759076969
 20
7.883202157727686
 30
0.0
 11
3.388466983479074
 21
7.887507651031048
 31
0.0
  0
LINE
  5
1E8
330
1F
100
AcDbEntity
  8
0
  6
Continuous
 62
     7
370
    15
100
AcDbLine
 10
3.40453759076969
 20
7.970787988066732
 30
0.0
 11
3.40453759076969
 21
7.883202157727686
 31
0.0
  0
LINE
  5
1E9
330
1F
100
AcDbEntity
  8
0
  6
Continuous
 62
     7
370
    15
100
AcDbLine
 10
3.388466983479074
 20
7.975093481370094
 30
0.0
 11
3.40453759076969
 21
7.970787988066732
 31
0.0
  0
LINE
  5
1EA
330
1F
100
AcDbEntity
  8
0
  6
Continuous
 62
     7
370
    15
100
AcDbLine
 10
3.420608198060306
 20
7.878896664424324
 30
0.0
 11
3.420608198060306
 21
7.96648249476337
 31
0.0
  0
LINE
  5
1EB
330
1F
100
AcDbEntity
  8
0
  6
Continuous
 62
     7
370
    15
100
AcDbLine
 10
3.436678805350923
 20
7.874591171120962
 30
0.0
 11
3.420608198060306
 21
7.878896664424324
 31
0.0
  0
LINE
  5
1EC
330
1F
100
AcDbEntity
  8
0
  6
Continuous
 62
     7
370
    15
100
AcDbLine
 10
3.436678805350923
 20
7.962177001460008
 30
0.0
 11
3.436678805350923
 21
7.874591171120962
 31
0.0
  0
LINE
  5
1ED
330
1F
100
AcDbEntity
  8
0
  6
Continuous
 62
     7
370
    15
100
AcDbLine
 10
3.420608198060306
 20
7.96648249476337
 30
0.0
 11
3.436678805350923
 21
7.962177001460008
 31
0.0
  0
LINE
  5
1EE
330
1F
100
AcDbEntity
  8
0
  6
Continuous
 62
     7
370
    15
100
AcDbLine
 10
3.0670548093828
 20
7.842238830550366
 30
0.0
 11
3.0670548093828
 21
7.929824660889412
 31
0.0
  0
LINE
  5
1EF
330
1F
100
AcDbEntity
  8
0
  6
Continuous
 62
     7
370
    15
100
AcDbLine
 10
3.083125426101398
 20
7.837933334721143
 30
0.0
 11
3.0670548093828
 21
7.842238830550366
 31
0.0
  0
LINE
  5
1F0
330
1F
100
AcDbEntity
  8
0
  6
Continuous
 62
     7
370
    15
100
AcDbLine
 10
3.083125426101398
 20
7.925519165060189
 30
0.0
 11
3.083125426101398
 21
7.837933334721143
 31
0.0
  0
LINE
  5
1F1
330
1F
100
AcDbEntity
  8
0
  6
Continuous
 62
     7
370
    15
100
AcDbLine
 10
3.0670548093828
 20
7.929824660889412
 30
0.0
 11
3.083125426101398
 21
7.925519165060189
 31
0.0
  0
LINE
  5
1F2
330
1F
100
AcDbEntity
  8
0
  6
Continuous
 62
     7
370
    15
100
AcDbLine
 10
3.0670548093828
 20
7.973617524675868
 30
0.0
 11
3.0670548093828
 21
8.061203355014914
 31
0.0
  0
LINE
  5
1F3
330
1F
100
AcDbEntity
  8
0
  6
Continuous
 62
     7
370
    15
100
AcDbLine
 10
3.083125426101398
 20
7.969312028846645
 30
0.0
 11
3.0670548093828
 21
7.973617524675868
 31
0.0
  0
LINE
  5
1F4
330
1F
100
AcDbEntity
  8
0
  6
Continuous
 62
     7
370
    15
100
AcDbLine
 10
3.083125426101398
 20
8.05689785918569
 30
0.0
 11
3.083125426101398
 21
7.969312028846645
 31
0.0
  0
LINE
  5
1F5
330
1F
100
AcDbEntity
  8
0
  6
Continuous
 62
     7
370
    15
100
AcDbLine
 10
3.0670548093828
 20
8.061203355014914
 30
0.0
 11
3.083125426101398
 21
8.05689785918569
 31
0.0
  0
LINE
  5
1F6
330
1F
100
AcDbEntity
  8
0
  6
Continuous
 62
     7
370
    15
100
AcDbLine
 10
3.059019501023501
 20
8.089557979268908
 30
0.0
 11
3.050984192664202
 21
8.087405231354296
 31
0.0
  0
LINE
  5
1F7
330
1F
100
AcDbEntity
  8
0
  6
Continuous
 62
     7
370
    15
100
AcDbLine
 10
3.059019501023501
 20
8.089557979268908
 30
0.0
 11
3.46078473042882
 21
7.981920634055557
 31
0.0
  0
LINE
  5
1F8
330
1F
100
AcDbEntity
  8
0
  6
Continuous
 62
     7
370
    15
100
AcDbLine
 10
3.420608198060306
 20
7.878896664424324
 30
0.0
 11
3.428643506419605
 21
7.881049412338936
 31
0.0
  0
LINE
  5
1F9
330
1F
100
AcDbEntity
  8
0
  6
Continuous
 62
     7
370
    15
100
AcDbLine
 10
3.428643506419605
 20
7.881049412338936
 30
0.0
 11
3.428643506419605
 21
7.964329752661303
 31
0.0
  0
LINE
  5
1FA
330
1F
100
AcDbEntity
  8
0
  6
Continuous
 62
     7
370
    15
100
AcDbLine
 10
3.436678814778904
 20
7.878896664424324
 30
0.0
 11
3.428643506419605
 21
7.881049412338936
 31
0.0
  0
LINE
  5
1FB
330
1F
100
AcDbEntity
  8
0
  6
Continuous
 62
     7
370
    15
100
AcDbLine
 10
3.388466983479074
 20
7.887507651031048
 30
0.0
 11
3.396502291838373
 21
7.889660398945659
 31
0.0
  0
LINE
  5
1FC
330
1F
100
AcDbEntity
  8
0
  6
Continuous
 62
     7
370
    15
100
AcDbLine
 10
3.396502291838373
 20
7.889660398945659
 30
0.0
 11
3.396502291838373
 21
7.972940739268028
 31
0.0
  0
LINE
  5
1FD
330
1F
100
AcDbEntity
  8
0
  6
Continuous
 62
     7
370
    15
100
AcDbLine
 10
3.420608198060306
 20
7.747517970298822
 30
0.0
 11
3.428643506419605
 21
7.749670718213434
 31
0.0
  0
LINE
  5
1FE
330
1F
100
AcDbEntity
  8
0
  6
Continuous
 62
     7
370
    15
100
AcDbLine
 10
3.428643506419605
 20
7.749670718213434
 30
0.0
 11
3.428643506419605
 21
7.832951058535802
 31
0.0
  0
LINE
  5
1FF
330
1F
100
AcDbEntity
  8
0
  6
Continuous
 62
     7
370
    15
100
AcDbLine
 10
3.40453759076969
 20
7.887507653556909
 30
0.0
 11
3.396502291838373
 21
7.889660398945659
 31
0.0
  0
LINE
  5
200
330
1F
100
AcDbEntity
  8
0
  6
Continuous
 62
     7
370
    15
100
AcDbLine
 10
3.436678814778904
 20
7.747517970298822
 30
0.0
 11
3.428643506419605
 21
7.749670718213434
 31
0.0
  0
LINE
  5
201
330
1F
100
AcDbEntity
  8
0
  6
Continuous
 62
     7
370
    15
100
AcDbLine
 10
3.35632576418385
 20
7.896118638900702
 30
0.0
 11
3.364361072543149
 21
7.898271386815313
 31
0.0
  0
LINE
  5
202
330
1F
100
AcDbEntity
  8
0
  6
Continuous
 62
     7
370
    15
100
AcDbLine
 10
3.364361072543149
 20
7.898271386815313
 30
0.0
 11
3.364361072543149
 21
7.981551727137681
 31
0.0
  0
LINE
  5
203
330
1F
100
AcDbEntity
  8
0
  6
Continuous
 62
     7
370
    15
100
AcDbLine
 10
3.388466983479074
 20
7.756128956905546
 30
0.0
 11
3.396502291838373
 21
7.758281704820157
 31
0.0
  0
LINE
  5
204
330
1F
100
AcDbEntity
  8
0
  6
Continuous
 62
     7
370
    15
100
AcDbLine
 10
3.396502291838373
 20
7.758281704820157
 30
0.0
 11
3.396502291838373
 21
7.841562045142526
 31
0.0
  0
LINE
  5
205
330
1F
100
AcDbEntity
  8
0
  6
Continuous
 62
     7
370
    15
100
AcDbLine
 10
3.372396376188457
 20
7.896118640163632
 30
0.0
 11
3.364361072543149
 21
7.898271386815313
 31
0.0
  0
LINE
  5
206
330
1F
100
AcDbEntity
  8
0
  6
Continuous
 62
     7
370
    15
100
AcDbLine
 10
3.420608198060306
 20
7.616139378939457
 30
0.0
 11
3.428643506419605
 21
7.618292126854068
 31
0.0
  0
LINE
  5
207
330
1F
100
AcDbEntity
  8
0
  6
Continuous
 62
     7
370
    15
100
AcDbLine
 10
3.428643506419605
 20
7.618292126854068
 30
0.0
 11
3.428643506419605
 21
7.7015723644103
 31
0.0
  0
LINE
  5
208
330
1F
100
AcDbEntity
  8
0
  6
Continuous
 62
     7
370
    15
100
AcDbLine
 10
3.40453759076969
 20
7.756128959431407
 30
0.0
 11
3.396502291838373
 21
7.758281704820157
 31
0.0
  0
LINE
  5
209
330
1F
100
AcDbEntity
  8
0
  6
Continuous
 62
     7
370
    15
100
AcDbLine
 10
3.436678814778904
 20
7.616139378939457
 30
0.0
 11
3.428643506419605
 21
7.618292126854068
 31
0.0
  0
LINE
  5
20A
330
1F
100
AcDbEntity
  8
0
  6
Continuous
 62
     7
370
    15
100
AcDbLine
 10
3.324184547245621
 20
7.904729626138891
 30
0.0
 11
3.33221985560492
 21
7.906882374053502
 31
0.0
  0
LINE
  5
20B
330
1F
100
AcDbEntity
  8
0
  6
Continuous
 62
     7
370
    15
100
AcDbLine
 10
3.33221985560492
 20
7.906882374053502
 30
0.0
 11
3.33221985560492
 21
7.99016271437587
 31
0.0
  0
LINE
  5
20C
330
1F
100
AcDbEntity
  8
0
  6
Continuous
 62
     7
370
    15
100
AcDbLine
 10
3.35632576418385
 20
7.7647399447752
 30
0.0
 11
3.364361072543149
 21
7.766892692689811
 31
0.0
  0
LINE
  5
20D
330
1F
100
AcDbEntity
  8
0
  6
Continuous
 62
     7
370
    15
100
AcDbLine
 10
3.364361072543149
 20
7.766892692689811
 30
0.0
 11
3.364361072543149
 21
7.850173033012179
 31
0.0
  0
LINE
  5
20E
330
1F
100
AcDbEntity
  8
0
  6
Continuous
 62
     7
370
    15
100
AcDbLine
 10
3.340255161607224
 20
7.904729626770357
 30
0.0
 11
3.33221985560492
 21
7.906882374053502
 31
0.0
  0
LINE
  5
20F
330
1F
100
AcDbEntity
  8
0
  6
Continuous
 62
     7
370
    15
100
AcDbLine
 10
3.388466983479074
 20
7.62475036554618
 30
0.0
 11
3.396502291838373
 21
7.626903113460792
 31
0.0
  0
LINE
  5
210
330
1F
100
AcDbEntity
  8
0
  6
Continuous
 62
     7
370
    15
100
AcDbLine
 10
3.396502291838373
 20
7.626903113460792
 30
0.0
 11
3.396502291838373
 21
7.710183351017025
 31
0.0
  0
LINE
  5
211
330
1F
100
AcDbEntity
  8
0
  6
Continuous
 62
     7
370
    15
100
AcDbLine
 10
3.372396376188457
 20
7.764739946038131
 30
0.0
 11
3.364361072543149
 21
7.766892692689811
 31
0.0
  0
LINE
  5
212
330
1F
100
AcDbEntity
  8
0
  6
Continuous
 62
     7
370
    15
100
AcDbLine
 10
3.420608198060306
 20
7.484760684813955
 30
0.0
 11
3.428643506419605
 21
7.486913432728567
 31
0.0
  0
LINE
  5
213
330
1F
100
AcDbEntity
  8
0
  6
Continuous
 62
     7
370
    15
100
AcDbLine
 10
3.428643506419605
 20
7.486913432728567
 30
0.0
 11
3.428643506419605
 21
7.570193670284798
 31
0.0
  0
LINE
  5
214
330
1F
100
AcDbEntity
  8
0
  6
Continuous
 62
     7
370
    15
100
AcDbLine
 10
3.40453759076969
 20
7.624750368072041
 30
0.0
 11
3.396502291838373
 21
7.626903113460792
 31
0.0
  0
LINE
  5
215
330
1F
100
AcDbEntity
  8
0
  6
Continuous
 62
     7
370
    15
100
AcDbLine
 10
3.436678814778904
 20
7.484760684813955
 30
0.0
 11
3.428643506419605
 21
7.486913432728567
 31
0.0
  0
LINE
  5
216
330
1F
100
AcDbEntity
  8
0
  6
Continuous
 62
     7
370
    15
100
AcDbLine
 10
3.292043330307353
 20
7.913340613377091
 30
0.0
 11
3.300078638666652
 21
7.915493361291702
 31
0.0
  0
LINE
  5
217
330
1F
100
AcDbEntity
  8
0
  6
Continuous
 62
     7
370
    15
100
AcDbLine
 10
3.300078638666652
 20
7.915493361291702
 30
0.0
 11
3.300078638666652
 21
7.99877370161407
 31
0.0
  0
LINE
  5
218
330
1F
100
AcDbEntity
  8
0
  6
Continuous
 62
     7
370
    15
100
AcDbLine
 10
3.324184547245621
 20
7.773350932013389
 30
0.0
 11
3.33221985560492
 21
7.775503679928
 31
0.0
  0
LINE
  5
219
330
1F
100
AcDbEntity
  8
0
  6
Continuous
 62
     7
370
    15
100
AcDbLine
 10
3.33221985560492
 20
7.775503679928
 30
0.0
 11
3.33221985560492
 21
7.858784020250368
 31
0.0
  0
LINE
  5
21A
330
1F
100
AcDbEntity
  8
0
  6
Continuous
 62
     7
370
    15
100
AcDbLine
 10
3.308113942901249
 20
7.913340614482144
 30
0.0
 11
3.300078638666652
 21
7.915493361291702
 31
0.0
  0
LINE
  5
21B
330
1F
100
AcDbEntity
  8
0
  6
Continuous
 62
     7
370
    15
100
AcDbLine
 10
3.35632576418385
 20
7.633361353415835
 30
0.0
 11
3.364361072543149
 21
7.635514101330446
 31
0.0
  0
LINE
  5
21C
330
1F
100
AcDbEntity
  8
0
  6
Continuous
 62
     7
370
    15
100
AcDbLine
 10
3.364361072543149
 20
7.635514101330446
 30
0.0
 11
3.364361072543149
 21
7.718794338886678
 31
0.0
  0
LINE
  5
21D
330
1F
100
AcDbEntity
  8
0
  6
Continuous
 62
     7
370
    15
100
AcDbLine
 10
3.340255161607224
 20
7.773350932644855
 30
0.0
 11
3.33221985560492
 21
7.775503679928
 31
0.0
  0
LINE
  5
21E
330
1F
100
AcDbEntity
  8
0
  6
Continuous
 62
     7
370
    15
100
AcDbLine
 10
3.388466983479074
 20
7.493371671420678
 30
0.0
 11
3.396502291838373
 21
7.49552441933529
 31
0.0
  0
LINE
  5
21F
330
1F
100
AcDbEntity
  8
0
  6
Continuous
 62
     7
370
    15
100
AcDbLine
 10
3.396502291838373
 20
7.49552441933529
 30
0.0
 11
3.396502291838373
 21
7.578804656891523
 31
0.0
  0
LINE
  5
220
330
1F
100
AcDbEntity
  8
0
  6
Continuous
 62
     7
370
    15
100
AcDbLine
 10
3.372396376188457
 20
7.633361354678765
 30
0.0
 11
3.364361072543149
 21
7.635514101330446
 31
0.0
  0
LINE
  5
221
330
1F
100
AcDbEntity
  8
0
  6
Continuous
 62
     7
370
    15
100
AcDbLine
 10
3.420608198060306
 20
7.353381990688453
 30
0.0
 11
3.428643506419605
 21
7.355534738603065
 31
0.0
  0
LINE
  5
222
330
1F
100
AcDbEntity
  8
0
  6
Continuous
 62
     7
370
    15
100
AcDbLine
 10
3.428643506419605
 20
7.355534738603065
 30
0.0
 11
3.428643506419605
 21
7.438814976159297
 31
0.0
  0
LINE
  5
223
330
1F
100
AcDbEntity
  8
0
  6
Continuous
 62
     7
370
    15
100
AcDbLine
 10
3.40453759076969
 20
7.49337167394654
 30
0.0
 11
3.396502291838373
 21
7.49552441933529
 31
0.0
  0
LINE
  5
224
330
1F
100
AcDbEntity
  8
0
  6
Continuous
 62
     7
370
    15
100
AcDbLine
 10
3.259902113369165
 20
7.921951600615269
 30
0.0
 11
3.267937421728464
 21
7.92410434852988
 31
0.0
  0
LINE
  5
225
330
1F
100
AcDbEntity
  8
0
  6
Continuous
 62
     7
370
    15
100
AcDbLine
 10
3.267937421728464
 20
7.92410434852988
 30
0.0
 11
3.267937421728464
 21
8.007384688852248
 31
0.0
  0
LINE
  5
226
330
1F
100
AcDbEntity
  8
0
  6
Continuous
 62
     7
370
    15
100
AcDbLine
 10
3.436678814778904
 20
7.353381990688453
 30
0.0
 11
3.428643506419605
 21
7.355534738603065
 31
0.0
  0
LINE
  5
227
330
1F
100
AcDbEntity
  8
0
  6
Continuous
 62
     7
370
    15
100
AcDbLine
 10
3.292043330307353
 20
7.78196191925159
 30
0.0
 11
3.300078638666652
 21
7.7841146671662
 31
0.0
  0
LINE
  5
228
330
1F
100
AcDbEntity
  8
0
  6
Continuous
 62
     7
370
    15
100
AcDbLine
 10
3.300078638666652
 20
7.7841146671662
 30
0.0
 11
3.300078638666652
 21
7.867395007488569
 31
0.0
  0
LINE
  5
229
330
1F
100
AcDbEntity
  8
0
  6
Continuous
 62
     7
370
    15
100
AcDbLine
 10
3.275972725373772
 20
7.921951601878199
 30
0.0
 11
3.267937421728464
 21
7.92410434852988
 31
0.0
  0
LINE
  5
22A
330
1F
100
AcDbEntity
  8
0
  6
Continuous
 62
     7
370
    15
100
AcDbLine
 10
3.33221985560492
 20
7.681344516492076
 30
0.0
 11
3.33221985560492
 21
7.727405326124867
 31
0.0
  0
LINE
  5
22B
330
1F
100
AcDbEntity
  8
0
  6
Continuous
 62
     7
370
    15
100
AcDbLine
 10
3.308113942901249
 20
7.781961920356643
 30
0.0
 11
3.300078638666652
 21
7.7841146671662
 31
0.0
  0
LINE
  5
22C
330
1F
100
AcDbEntity
  8
0
  6
Continuous
 62
     7
370
    15
100
AcDbLine
 10
3.35632576418385
 20
7.501982659290333
 30
0.0
 11
3.364361072543149
 21
7.504135407204945
 31
0.0
  0
LINE
  5
22D
330
1F
100
AcDbEntity
  8
0
  6
Continuous
 62
     7
370
    15
100
AcDbLine
 10
3.364361072543149
 20
7.504135407204945
 30
0.0
 11
3.364361072543149
 21
7.587415644761176
 31
0.0
  0
LINE
  5
22E
330
1F
100
AcDbEntity
  8
0
  6
Continuous
 62
     7
370
    15
100
AcDbLine
 10
3.388466983479074
 20
7.361992977295177
 30
0.0
 11
3.396502291838373
 21
7.364145725209788
 31
0.0
  0
LINE
  5
22F
330
1F
100
AcDbEntity
  8
0
  6
Continuous
 62
     7
370
    15
100
AcDbLine
 10
3.396502291838373
 20
7.364145725209788
 30
0.0
 11
3.396502291838373
 21
7.447425962766021
 31
0.0
  0
LINE
  5
230
330
1F
100
AcDbEntity
  8
0
  6
Continuous
 62
     7
370
    15
100
AcDbLine
 10
3.372396376188457
 20
7.501982660553263
 30
0.0
 11
3.364361072543149
 21
7.504135407204945
 31
0.0
  0
LINE
  5
231
330
1F
100
AcDbEntity
  8
0
  6
Continuous
 62
     7
370
    15
100
AcDbLine
 10
3.420608198060306
 20
7.222003296562951
 30
0.0
 11
3.428643506419605
 21
7.224156044477563
 31
0.0
  0
LINE
  5
232
330
1F
100
AcDbEntity
  8
0
  6
Continuous
 62
     7
370
    15
100
AcDbLine
 10
3.428643506419605
 20
7.224156044477563
 30
0.0
 11
3.428643506419605
 21
7.307436333416863
 31
0.0
  0
LINE
  5
233
330
1F
100
AcDbEntity
  8
0
  6
Continuous
 62
     7
370
    15
100
AcDbLine
 10
3.227760896430936
 20
7.930562587853458
 30
0.0
 11
3.235796204790235
 21
7.932715335768069
 31
0.0
  0
LINE
  5
234
330
1F
100
AcDbEntity
  8
0
  6
Continuous
 62
     7
370
    15
100
AcDbLine
 10
3.235796204790235
 20
7.932715335768069
 30
0.0
 11
3.235796204790235
 21
8.015995676090437
 31
0.0
  0
LINE
  5
235
330
1F
100
AcDbEntity
  8
0
  6
Continuous
 62
     7
370
    15
100
AcDbLine
 10
3.40453759076969
 20
7.361992979821038
 30
0.0
 11
3.396502291838373
 21
7.364145725209788
 31
0.0
  0
LINE
  5
236
330
1F
100
AcDbEntity
  8
0
  6
Continuous
 62
     7
370
    15
100
AcDbLine
 10
3.259902113369165
 20
7.790572906489767
 30
0.0
 11
3.267937421728464
 21
7.792725654404378
 31
0.0
  0
LINE
  5
237
330
1F
100
AcDbEntity
  8
0
  6
Continuous
 62
     7
370
    15
100
AcDbLine
 10
3.267937421728464
 20
7.792725654404378
 30
0.0
 11
3.267937421728464
 21
7.876005994726746
 31
0.0
  0
LINE
  5
238
330
1F
100
AcDbEntity
  8
0
  6
Continuous
 62
     7
370
    15
100
AcDbLine
 10
3.436678814778904
 20
7.222003296562951
 30
0.0
 11
3.428643506419605
 21
7.224156044477563
 31
0.0
  0
LINE
  5
239
330
1F
100
AcDbEntity
  8
0
  6
Continuous
 62
     7
370
    15
100
AcDbLine
 10
3.243831508435544
 20
7.930562589116388
 30
0.0
 11
3.235796204790235
 21
7.932715335768069
 31
0.0
  0
LINE
  5
23A
330
1F
100
AcDbEntity
  8
0
  6
Continuous
 62
     7
370
    15
100
AcDbLine
 10
3.300078638666652
 20
7.698017404301175
 30
0.0
 11
3.300078638666652
 21
7.736016313363067
 31
0.0
  0
LINE
  5
23B
330
1F
100
AcDbEntity
  8
0
  6
Continuous
 62
     7
370
    15
100
AcDbLine
 10
3.275972725373772
 20
7.790572907752697
 30
0.0
 11
3.267937421728464
 21
7.792725654404378
 31
0.0
  0
LINE
  5
23C
330
1F
100
AcDbEntity
  8
0
  6
Continuous
 62
     7
370
    15
100
AcDbLine
 10
3.35632576418385
 20
7.370603965164831
 30
0.0
 11
3.364361072543149
 21
7.372756713079443
 31
0.0
  0
LINE
  5
23D
330
1F
100
AcDbEntity
  8
0
  6
Continuous
 62
     7
370
    15
100
AcDbLine
 10
3.364361072543149
 20
7.372756713079443
 30
0.0
 11
3.364361072543149
 21
7.456036950635675
 31
0.0
  0
LINE
  5
23E
330
1F
100
AcDbEntity
  8
0
  6
Continuous
 62
     7
370
    15
100
AcDbLine
 10
3.388466983479074
 20
7.230614283169675
 30
0.0
 11
3.396502291838373
 21
7.232767031084287
 31
0.0
  0
LINE
  5
23F
330
1F
100
AcDbEntity
  8
0
  6
Continuous
 62
     7
370
    15
100
AcDbLine
 10
3.396502291838373
 20
7.232767031084287
 30
0.0
 11
3.396502291838373
 21
7.316047320023587
 31
0.0
  0
LINE
  5
240
330
1F
100
AcDbEntity
  8
0
  6
Continuous
 62
     7
370
    15
100
AcDbLine
 10
3.195619677135713
 20
7.939173575723112
 30
0.0
 11
3.203654985495012
 21
7.941326323637723
 31
0.0
  0
LINE
  5
241
330
1F
100
AcDbEntity
  8
0
  6
Continuous
 62
     7
370
    15
100
AcDbLine
 10
3.203654985495012
 20
7.941326323637723
 30
0.0
 11
3.203654985495012
 21
8.024606663960092
 31
0.0
  0
LINE
  5
242
330
1F
100
AcDbEntity
  8
0
  6
Continuous
 62
     7
370
    15
100
AcDbLine
 10
3.372396376188457
 20
7.370603966427761
 30
0.0
 11
3.364361072543149
 21
7.372756713079443
 31
0.0
  0
LINE
  5
243
330
1F
100
AcDbEntity
  8
0
  6
Continuous
 62
     7
370
    15
100
AcDbLine
 10
3.420608198060306
 20
7.09062460243745
 30
0.0
 11
3.428643506419605
 21
7.092777350352061
 31
0.0
  0
LINE
  5
244
330
1F
100
AcDbEntity
  8
0
  6
Continuous
 62
     7
370
    15
100
AcDbLine
 10
3.428643506419605
 20
7.092777350352061
 30
0.0
 11
3.428643506419605
 21
7.176057639291361
 31
0.0
  0
LINE
  5
245
330
1F
100
AcDbEntity
  8
0
  6
Continuous
 62
     7
370
    15
100
AcDbLine
 10
3.227760896430936
 20
7.799183893727956
 30
0.0
 11
3.235796204790235
 21
7.801336641642567
 31
0.0
  0
LINE
  5
246
330
1F
100
AcDbEntity
  8
0
  6
Continuous
 62
     7
370
    15
100
AcDbLine
 10
3.235796204790235
 20
7.801336641642567
 30
0.0
 11
3.235796204790235
 21
7.884616981964935
 31
0.0
  0
LINE
  5
247
330
1F
100
AcDbEntity
  8
0
  6
Continuous
 62
     7
370
    15
100
AcDbLine
 10
3.40453759076969
 20
7.230614285695536
 30
0.0
 11
3.396502291838373
 21
7.232767031084287
 31
0.0
  0
LINE
  5
248
330
1F
100
AcDbEntity
  8
0
  6
Continuous
 62
     7
370
    15
100
AcDbLine
 10
3.211690293854311
 20
7.939173575723112
 30
0.0
 11
3.203654985495012
 21
7.941326323637723
 31
0.0
  0
LINE
  5
249
330
1F
100
AcDbEntity
  8
0
  6
Continuous
 62
     7
370
    15
100
AcDbLine
 10
3.267937421728464
 20
7.714690292110252
 30
0.0
 11
3.267937421728464
 21
7.744627300601244
 31
0.0
  0
LINE
  5
24A
330
1F
100
AcDbEntity
  8
0
  6
Continuous
 62
     7
370
    15
100
AcDbLine
 10
3.436678814778904
 20
7.09062460243745
 30
0.0
 11
3.428643506419605
 21
7.092777350352061
 31
0.0
  0
LINE
  5
24B
330
1F
100
AcDbEntity
  8
0
  6
Continuous
 62
     7
370
    15
100
AcDbLine
 10
3.243831508435544
 20
7.799183894990886
 30
0.0
 11
3.235796204790235
 21
7.801336641642567
 31
0.0
  0
LINE
  5
24C
330
1F
100
AcDbEntity
  8
0
  6
Continuous
 62
     7
370
    15
100
AcDbLine
 10
3.35632576418385
 20
7.239225271039329
 30
0.0
 11
3.364361072543149
 21
7.241378018953941
 31
0.0
  0
LINE
  5
24D
330
1F
100
AcDbEntity
  8
0
  6
Continuous
 62
     7
370
    15
100
AcDbLine
 10
3.364361072543149
 20
7.241378018953941
 30
0.0
 11
3.364361072543149
 21
7.324658307893241
 31
0.0
  0
LINE
  5
24E
330
1F
100
AcDbEntity
  8
0
  6
Continuous
 62
     7
370
    15
100
AcDbLine
 10
3.16347846255448
 20
7.947784562329836
 30
0.0
 11
3.171513770913779
 21
7.949937310244447
 31
0.0
  0
LINE
  5
24F
330
1F
100
AcDbEntity
  8
0
  6
Continuous
 62
     7
370
    15
100
AcDbLine
 10
3.171513770913779
 20
7.949937310244447
 30
0.0
 11
3.171513770913779
 21
8.033217650566815
 31
0.0
  0
LINE
  5
250
330
1F
100
AcDbEntity
  8
0
  6
Continuous
 62
     7
370
    15
100
AcDbLine
 10
3.388466983479074
 20
7.099235589044173
 30
0.0
 11
3.396502291838373
 21
7.101388336958785
 31
0.0
  0
LINE
  5
251
330
1F
100
AcDbEntity
  8
0
  6
Continuous
 62
     7
370
    15
100
AcDbLine
 10
3.396502291838373
 20
7.101388336958785
 30
0.0
 11
3.396502291838373
 21
7.184668625898086
 31
0.0
  0
LINE
  5
252
330
1F
100
AcDbEntity
  8
0
  6
Continuous
 62
     7
370
    15
100
AcDbLine
 10
3.195619677135713
 20
7.80779488159761
 30
0.0
 11
3.203654985495012
 21
7.809947629512222
 31
0.0
  0
LINE
  5
253
330
1F
100
AcDbEntity
  8
0
  6
Continuous
 62
     7
370
    15
100
AcDbLine
 10
3.203654985495012
 20
7.809947629512222
 30
0.0
 11
3.203654985495012
 21
7.893227969834589
 31
0.0
  0
LINE
  5
254
330
1F
100
AcDbEntity
  8
0
  6
Continuous
 62
     7
370
    15
100
AcDbLine
 10
3.372396376188457
 20
7.23922527230226
 30
0.0
 11
3.364361072543149
 21
7.241378018953941
 31
0.0
  0
LINE
  5
255
330
1F
100
AcDbEntity
  8
0
  6
Continuous
 62
     7
370
    15
100
AcDbLine
 10
3.179549069845096
 20
7.947784564855696
 30
0.0
 11
3.171513770913779
 21
7.949937310244447
 31
0.0
  0
LINE
  5
256
330
1F
100
AcDbEntity
  8
0
  6
Continuous
 62
     7
370
    15
100
AcDbLine
 10
3.235796204790235
 20
7.731363077153205
 30
0.0
 11
3.235796204790235
 21
7.753238287839433
 31
0.0
  0
LINE
  5
257
330
1F
100
AcDbEntity
  8
0
  6
Continuous
 62
     7
370
    15
100
AcDbLine
 10
3.40453759076969
 20
7.099235591570034
 30
0.0
 11
3.396502291838373
 21
7.101388336958785
 31
0.0
  0
LINE
  5
258
330
1F
100
AcDbEntity
  8
0
  6
Continuous
 62
     7
370
    15
100
AcDbLine
 10
3.211690293854311
 20
7.80779488159761
 30
0.0
 11
3.203654985495012
 21
7.809947629512222
 31
0.0
  0
LINE
  5
259
330
1F
100
AcDbEntity
  8
0
  6
Continuous
 62
     7
370
    15
100
AcDbLine
 10
3.131337238545265
 20
7.95639555146242
 30
0.0
 11
3.139372546904564
 21
7.958548299377032
 31
0.0
  0
LINE
  5
25A
330
1F
100
AcDbEntity
  8
0
  6
Continuous
 62
     7
370
    15
100
AcDbLine
 10
3.139372546904564
 20
7.958548299377032
 30
0.0
 11
3.139372546904564
 21
8.041828639699399
 31
0.0
  0
LINE
  5
25B
330
1F
100
AcDbEntity
  8
0
  6
Continuous
 62
     7
370
    15
100
AcDbLine
 10
3.35632576418385
 20
7.107846576913828
 30
0.0
 11
3.364361072543149
 21
7.109999324828438
 31
0.0
  0
LINE
  5
25C
330
1F
100
AcDbEntity
  8
0
  6
Continuous
 62
     7
370
    15
100
AcDbLine
 10
3.364361072543149
 20
7.109999324828438
 30
0.0
 11
3.364361072543149
 21
7.193279613767739
 31
0.0
  0
LINE
  5
25D
330
1F
100
AcDbEntity
  8
0
  6
Continuous
 62
     7
370
    15
100
AcDbLine
 10
3.16347846255448
 20
7.816405868204334
 30
0.0
 11
3.171513770913779
 21
7.818558616118945
 31
0.0
  0
LINE
  5
25E
330
1F
100
AcDbEntity
  8
0
  6
Continuous
 62
     7
370
    15
100
AcDbLine
 10
3.171513770913779
 20
7.818558616118945
 30
0.0
 11
3.171513770913779
 21
7.901838956441313
 31
0.0
  0
LINE
  5
25F
330
1F
100
AcDbEntity
  8
0
  6
Continuous
 62
     7
370
    15
100
AcDbLine
 10
3.147407855263863
 20
7.95639555146242
 30
0.0
 11
3.139372546904564
 21
7.958548299377032
 31
0.0
  0
LINE
  5
260
330
1F
100
AcDbEntity
  8
0
  6
Continuous
 62
     7
370
    15
100
AcDbLine
 10
3.203654985495012
 20
7.748035965593759
 30
0.0
 11
3.203654985495012
 21
7.761849275709088
 31
0.0
  0
LINE
  5
261
330
1F
100
AcDbEntity
  8
0
  6
Continuous
 62
     7
370
    15
100
AcDbLine
 10
3.372396376188457
 20
7.107846578176758
 30
0.0
 11
3.364361072543149
 21
7.109999324828438
 31
0.0
  0
LINE
  5
262
330
1F
100
AcDbEntity
  8
0
  6
Continuous
 62
     7
370
    15
100
AcDbLine
 10
3.179549069845096
 20
7.816405870730195
 30
0.0
 11
3.171513770913779
 21
7.818558616118945
 31
0.0
  0
LINE
  5
263
330
1F
100
AcDbEntity
  8
0
  6
Continuous
 62
     7
370
    15
100
AcDbLine
 10
3.099196023964032
 20
7.965006538069144
 30
0.0
 11
3.107231332323331
 21
7.967159285983754
 31
0.0
  0
LINE
  5
264
330
1F
100
AcDbEntity
  8
0
  6
Continuous
 62
     7
370
    15
100
AcDbLine
 10
3.107231332323331
 20
7.967159285983754
 30
0.0
 11
3.107231332323331
 21
8.050439626306122
 31
0.0
  0
LINE
  5
265
330
1F
100
AcDbEntity
  8
0
  6
Continuous
 62
     7
370
    15
100
AcDbLine
 10
3.131337238545265
 20
7.825016857336918
 30
0.0
 11
3.139372546904564
 21
7.82716960525153
 31
0.0
  0
LINE
  5
266
330
1F
100
AcDbEntity
  8
0
  6
Continuous
 62
     7
370
    15
100
AcDbLine
 10
3.139372546904564
 20
7.82716960525153
 30
0.0
 11
3.139372546904564
 21
7.910449945573898
 31
0.0
  0
LINE
  5
267
330
1F
100
AcDbEntity
  8
0
  6
Continuous
 62
     7
370
    15
100
AcDbLine
 10
3.115266631254649
 20
7.965006540595004
 30
0.0
 11
3.107231332323331
 21
7.967159285983754
 31
0.0
  0
LINE
  5
268
330
1F
100
AcDbEntity
  8
0
  6
Continuous
 62
     7
370
    15
100
AcDbLine
 10
3.171513770913779
 20
7.764708750005246
 30
0.0
 11
3.171513770913779
 21
7.770460262315811
 31
0.0
  0
LINE
  5
269
330
1F
100
AcDbEntity
  8
0
  6
Continuous
 62
     7
370
    15
100
AcDbLine
 10
3.147407855263863
 20
7.825016857336918
 30
0.0
 11
3.139372546904564
 21
7.82716960525153
 31
0.0
  0
LINE
  5
26A
330
1F
100
AcDbEntity
  8
0
  6
Continuous
 62
     7
370
    15
100
AcDbLine
 10
3.0670548093828
 20
7.973617524675868
 30
0.0
 11
3.075090117742099
 21
7.975770272590479
 31
0.0
  0
LINE
  5
26B
330
1F
100
AcDbEntity
  8
0
  6
Continuous
 62
     7
370
    15
100
AcDbLine
 10
3.075090117742099
 20
7.975770272590479
 30
0.0
 11
3.075090117742099
 21
8.059050612912846
 31
0.0
  0
LINE
  5
26C
330
1F
100
AcDbEntity
  8
0
  6
Continuous
 62
     7
370
    15
100
AcDbLine
 10
3.099196023964032
 20
7.833627843943642
 30
0.0
 11
3.107231332323331
 21
7.835780591858253
 31
0.0
  0
LINE
  5
26D
330
1F
100
AcDbEntity
  8
0
  6
Continuous
 62
     7
370
    15
100
AcDbLine
 10
3.107231332323331
 20
7.835780591858253
 30
0.0
 11
3.107231332323331
 21
7.919060932180621
 31
0.0
  0
LINE
  5
26E
330
1F
100
AcDbEntity
  8
0
  6
Continuous
 62
     7
370
    15
100
AcDbLine
 10
3.083125416673416
 20
7.973617527201729
 30
0.0
 11
3.075090117742099
 21
7.975770272590479
 31
0.0
  0
LINE
  5
26F
330
1F
100
AcDbEntity
  8
0
  6
Continuous
 62
     7
370
    15
100
AcDbLine
 10
3.115266631254649
 20
7.833627846469502
 30
0.0
 11
3.107231332323331
 21
7.835780591858253
 31
0.0
  0
LINE
  5
270
330
1F
100
AcDbEntity
  8
0
  6
Continuous
 62
     7
370
    15
100
AcDbLine
 10
3.0670548093828
 20
7.842238830550366
 30
0.0
 11
3.075090117742099
 21
7.844391578464978
 31
0.0
  0
LINE
  5
271
330
1F
100
AcDbEntity
  8
0
  6
Continuous
 62
     7
370
    15
100
AcDbLine
 10
3.075090117742099
 20
7.844391578464978
 30
0.0
 11
3.075090117742099
 21
7.927671918787345
 31
0.0
  0
LINE
  5
272
330
1F
100
AcDbEntity
  8
0
  6
Continuous
 62
     7
370
    15
100
AcDbLine
 10
3.083125416673416
 20
7.842238833076227
 30
0.0
 11
3.075090117742099
 21
7.844391578464978
 31
0.0
  0
LINE
  5
273
330
1F
100
AcDbEntity
  8
0
  6
Continuous
 62
     7
370
    15
100
AcDbLine
 10
4.907139443152194
 20
6.6467286620237
 30
0.0
 11
4.874998322850776
 21
6.655339623371819
 31
0.0
  0
LINE
  5
274
330
1F
100
AcDbEntity
  8
0
  6
Continuous
 62
     7
370
    15
100
AcDbLine
 10
4.907139443152194
 20
6.6467286620237
 30
0.0
 11
4.587094851983819
 21
6.560985178959609
 31
0.0
  0
LINE
  5
275
330
1F
100
AcDbEntity
  8
0
  6
Continuous
 62
     7
370
    15
100
AcDbLine
 10
4.587094851983819
 20
6.560985178959609
 30
0.0
 11
4.65000972650233
 21
6.526174839426125
 31
0.0
  0
LINE
  5
276
330
1F
100
AcDbEntity
  8
0
  6
Continuous
 62
     7
370
    15
100
AcDbLine
 10
4.65000972650233
 20
6.526174839426125
 30
0.0
 11
4.554601000253435
 21
6.535057713439556
 31
0.0
  0
LINE
  5
277
330
1F
100
AcDbEntity
  8
0
  6
Continuous
 62
     7
370
    15
100
AcDbLine
 10
4.554601000253435
 20
6.535057713439556
 30
0.0
 11
4.232173955802262
 21
6.448675944810449
 31
0.0
  0
LINE
  5
278
330
1F
100
AcDbEntity
  8
0
  6
Continuous
 62
     7
370
    15
100
AcDbLine
 10
1.275181988057272
 20
7.240886773249688
 30
0.0
 11
2.484293500938855
 21
6.916952436009734
 31
0.0
  0
LINE
  5
279
330
1F
100
AcDbEntity
  8
0
  6
Continuous
 62
     7
370
    15
100
AcDbLine
 10
2.636362505710331
 20
6.876211468985122
 30
0.0
 11
2.850703380162847
 21
6.818787179852571
 31
0.0
  0
LINE
  5
27A
330
1F
100
AcDbEntity
  8
0
  6
Continuous
 62
     7
370
    15
100
AcDbLine
 10
3.002772389648313
 20
6.778046211565029
 30
0.0
 11
4.232173955802262
 21
6.448675944810449
 31
0.0
  0
LINE
  5
27B
330
1F
100
AcDbEntity
  8
0
  6
Continuous
 62
     7
370
    15
100
AcDbLine
 10
1.275181988057272
 20
7.240886773249688
 30
0.0
 11
1.597609032508444
 21
7.327268541878796
 31
0.0
  0
LINE
  5
27C
330
1F
100
AcDbEntity
  8
0
  6
Continuous
 62
     7
370
    15
100
AcDbLine
 10
1.597609032508444
 20
7.327268541878796
 30
0.0
 11
1.564452825008562
 21
7.352829634499146
 31
0.0
  0
LINE
  5
27D
330
1F
100
AcDbEntity
  8
0
  6
Continuous
 62
     7
370
    15
100
AcDbLine
 10
1.564452825008562
 20
7.352829634499146
 30
0.0
 11
1.694385275689368
 21
7.335974044288843
 31
0.0
  0
LINE
  5
27E
330
1F
100
AcDbEntity
  8
0
  6
Continuous
 62
     7
370
    15
100
AcDbLine
 10
1.694385275689368
 20
7.335974044288843
 30
0.0
 11
1.737754619920813
 21
7.347593170920649
 31
0.0
  0
LINE
  5
27F
330
1F
100
AcDbEntity
  8
0
  6
Continuous
 62
     7
370
    15
100
AcDbLine
 10
4.554601000253435
 20
6.272300363725853
 30
0.0
 11
4.554601000253435
 21
6.535057713439556
 31
0.0
  0
LINE
  5
280
330
1F
100
AcDbEntity
  8
0
  6
Continuous
 62
     7
370
    15
100
AcDbLine
 10
4.554601000253435
 20
6.272300363725853
 30
0.0
 11
4.232173955802262
 21
6.185918595096746
 31
0.0
  0
LINE
  5
281
330
1F
100
AcDbEntity
  8
0
  6
Continuous
 62
     7
370
    15
100
AcDbLine
 10
4.232173955802262
 20
6.185918595096746
 30
0.0
 11
4.232173955802262
 21
6.448675944810449
 31
0.0
  0
LINE
  5
282
330
1F
100
AcDbEntity
  8
0
  6
Continuous
 62
     7
370
    15
100
AcDbLine
 10
1.275181988057272
 20
6.978129423535986
 30
0.0
 11
2.527410281330813
 21
6.642643624308127
 31
0.0
  0
LINE
  5
283
330
1F
100
AcDbEntity
  8
0
  6
Continuous
 62
     7
370
    15
100
AcDbLine
 10
2.954560558348482
 20
6.528205344287272
 30
0.0
 11
4.232173955802262
 21
6.185918595096746
 31
0.0
  0
LINE
  5
284
330
1F
100
AcDbEntity
  8
0
  6
Continuous
 62
     7
370
    15
100
AcDbLine
 10
1.275181988057272
 20
6.978129423535986
 30
0.0
 11
1.275181988057272
 21
7.240886773249688
 31
0.0
  0
LINE
  5
285
330
1F
100
AcDbEntity
  8
0
  6
Continuous
 62
     7
370
    15
100
AcDbLine
 10
4.65000972650233
 20
6.263417489712423
 30
0.0
 11
4.65000972650233
 21
6.526174839426125
 31
0.0
  0
LINE
  5
286
330
1F
100
AcDbEntity
  8
0
  6
Continuous
 62
     7
370
    15
100
AcDbLine
 10
4.65000972650233
 20
6.263417489712423
 30
0.0
 11
4.554601000253435
 21
6.272300363725853
 31
0.0
  0
LINE
  5
287
330
1F
100
AcDbEntity
  8
0
  6
Continuous
 62
     7
370
    15
100
AcDbLine
 10
4.907139443152194
 20
6.383971312309997
 30
0.0
 11
4.907139443152194
 21
6.6467286620237
 31
0.0
  0
LINE
  5
288
330
1F
100
AcDbEntity
  8
0
  6
Continuous
 62
     7
370
    15
100
AcDbLine
 10
4.907139443152194
 20
6.383971312309997
 30
0.0
 11
4.650009717074349
 21
6.315083416930346
 31
0.0
  0
LINE
  5
289
330
1F
100
AcDbEntity
  8
0
  6
Continuous
 62
     7
370
    15
100
AcDbLine
 10
1.564452825008562
 20
7.318385688674184
 30
0.0
 11
1.564452825008562
 21
7.352829634499146
 31
0.0
  0
LINE
  5
28A
330
1F
100
AcDbEntity
  8
0
  6
Continuous
 62
     7
370
    15
100
AcDbLine
 10
4.939280714301315
 20
6.37536031054811
 30
0.0
 11
4.907139443152194
 21
6.383971312309997
 31
0.0
  0
LINE
  5
28B
330
1F
100
AcDbEntity
  8
0
  6
Continuous
 62
     7
370
    15
100
AcDbLine
 10
4.939280714301315
 20
6.37536031054811
 30
0.0
 11
4.650009768928246
 21
6.297861427298806
 31
0.0
  0
LINE
  5
28C
330
1F
100
AcDbEntity
  8
0
  6
Continuous
 62
     7
370
    15
100
AcDbLine
 10
4.650009808997167
 20
6.272589982041394
 30
0.0
 11
4.682150997651451
 21
6.254806487950537
 31
0.0
  0
LINE
  5
28D
330
1F
100
AcDbEntity
  8
0
  6
Continuous
 62
     7
370
    15
100
AcDbLine
 10
4.682150997651451
 20
6.254806487950537
 30
0.0
 11
4.586742271402556
 21
6.263689361963967
 31
0.0
  0
LINE
  5
28E
330
1F
100
AcDbEntity
  8
0
  6
Continuous
 62
     7
370
    15
100
AcDbLine
 10
4.586742271402556
 20
6.263689361963967
 30
0.0
 11
4.264315226951383
 21
6.17730759333486
 31
0.0
  0
LINE
  5
28F
330
1F
100
AcDbEntity
  8
0
  6
Continuous
 62
     7
370
    15
100
AcDbLine
 10
1.30732310835869
 20
6.969518462187866
 30
0.0
 11
2.527410281330813
 21
6.642643624308127
 31
0.0
  0
LINE
  5
290
330
1F
100
AcDbEntity
  8
0
  6
Continuous
 62
     7
370
    15
100
AcDbLine
 10
2.954560558348482
 20
6.528205344287272
 30
0.0
 11
4.264315226951383
 21
6.17730759333486
 31
0.0
  0
LINE
  5
291
330
1F
100
AcDbEntity
  8
0
  6
Continuous
 62
     7
370
    15
100
AcDbLine
 10
4.264315226951383
 20
5.91455023077539
 30
0.0
 11
4.264315226951383
 21
6.17730759333486
 31
0.0
  0
LINE
  5
292
330
1F
100
AcDbEntity
  8
0
  6
Continuous
 62
     7
370
    15
100
AcDbLine
 10
1.30732310835869
 20
6.706761099628398
 30
0.0
 11
4.264315226951383
 21
5.91455023077539
 31
0.0
  0
LINE
  5
293
330
1F
100
AcDbEntity
  8
0
  6
Continuous
 62
     7
370
    15
100
AcDbLine
 10
1.30732310835869
 20
6.706761099628398
 30
0.0
 11
1.30732310835869
 21
6.969518462187866
 31
0.0
  0
LINE
  5
294
330
1F
100
AcDbEntity
  8
0
  6
Continuous
 62
     7
370
    15
100
AcDbLine
 10
4.586742271402556
 20
6.000931999404498
 30
0.0
 11
4.586742271402556
 21
6.263689361963967
 31
0.0
  0
LINE
  5
295
330
1F
100
AcDbEntity
  8
0
  6
Continuous
 62
     7
370
    15
100
AcDbLine
 10
4.586742271402556
 20
6.000931999404498
 30
0.0
 11
4.264315226951383
 21
5.91455023077539
 31
0.0
  0
LINE
  5
296
330
1F
100
AcDbEntity
  8
0
  6
Continuous
 62
     7
370
    15
100
AcDbLine
 10
4.682150997651451
 20
6.082586739557081
 30
0.0
 11
4.682150997651451
 21
6.254806487950537
 31
0.0
  0
LINE
  5
297
330
1F
100
AcDbEntity
  8
0
  6
Continuous
 62
     7
370
    15
100
AcDbLine
 10
4.6500097924982
 20
5.995041580454271
 30
0.0
 11
4.586742271402556
 21
6.000931999404498
 31
0.0
  0
LINE
  5
298
330
1F
100
AcDbEntity
  8
0
  6
Continuous
 62
     7
370
    15
100
AcDbLine
 10
4.939280714301315
 20
6.135711365147717
 30
0.0
 11
4.939280714301315
 21
6.37536031054811
 31
0.0
  0
ARC
  5
299
330
1F
100
AcDbEntity
  8
0
  6
Continuous
 62
     7
370
    15
100
AcDbCircle
 10
3.016903242023472
 20
6.769595804418991
 30
0.0
 40
0.0208521525368056
100
AcDbArc
 50
113.591871310086
 51
183.363438615465
  0
LINE
  5
29A
330
1F
100
AcDbEntity
  8
0
  6
Continuous
 62
     7
370
    15
100
AcDbLine
 10
2.996087007964554
 20
6.76837242180404
 30
0.0
 11
2.84823740203492
 21
6.80798296524669
 31
0.0
  0
ARC
  5
29B
330
1F
100
AcDbEntity
  8
0
  6
Continuous
 62
     7
370
    15
100
AcDbCircle
 10
2.869053636093838
 20
6.809206347861642
 30
0.0
 40
0.0208521525368064
100
AcDbArc
 50
113.5918713100904
 51
183.3634386154673
  0
LINE
  5
29C
330
1F
100
AcDbEntity
  8
0
  6
Continuous
 62
     7
370
    15
100
AcDbLine
 10
2.860708208000089
 20
6.828315667455764
 30
0.0
 11
2.868357817636102
 21
6.826266252491812
 31
0.0
  0
LINE
  5
29D
330
1F
100
AcDbEntity
  8
0
  6
Continuous
 62
     7
370
    15
100
AcDbLine
 10
3.008557813929724
 20
6.788705124013113
 30
0.0
 11
2.868357817636102
 21
6.826266252491812
 31
0.0
  0
LINE
  5
29E
330
1F
100
AcDbEntity
  8
0
  6
Continuous
 62
     7
370
    15
100
AcDbLine
 10
3.008557813929724
 20
6.788705124013113
 30
0.0
 11
3.008557813929724
 21
6.779596190669756
 31
0.0
  0
LINE
  5
29F
330
1F
100
AcDbEntity
  8
0
  6
Continuous
 62
     7
370
    15
100
AcDbLine
 10
3.002772389648313
 20
6.770163509443065
 30
0.0
 11
2.996087007964554
 21
6.76837242180404
 31
0.0
  0
LINE
  5
2A0
330
1F
100
AcDbEntity
  8
0
  6
Continuous
 62
     7
370
    15
100
AcDbLine
 10
2.629677124026572
 20
6.866537679224133
 30
0.0
 11
2.481827518096937
 21
6.906148222666783
 31
0.0
  0
LINE
  5
2A1
330
1F
100
AcDbEntity
  8
0
  6
Continuous
 62
     7
370
    15
100
AcDbLine
 10
2.629677124026572
 20
6.866537679224133
 30
0.0
 11
2.629677124026572
 21
6.85252394945287
 31
0.0
  0
LINE
  5
2A2
330
1F
100
AcDbEntity
  8
0
  6
Continuous
 62
     7
370
    15
100
AcDbLine
 10
2.84823740203492
 20
6.793969235475428
 30
0.0
 11
2.629677124026572
 21
6.85252394945287
 31
0.0
  0
LINE
  5
2A3
330
1F
100
AcDbEntity
  8
0
  6
Continuous
 62
     7
370
    15
100
AcDbLine
 10
2.84823740203492
 20
6.793969235475428
 30
0.0
 11
2.84823740203492
 21
6.80798296524669
 31
0.0
  0
LINE
  5
2A4
330
1F
100
AcDbEntity
  8
0
  6
Continuous
 62
     7
370
    15
100
AcDbLine
 10
2.996087007964554
 20
6.579187108429286
 30
0.0
 11
2.996087007964554
 21
6.76837242180404
 31
0.0
  0
LINE
  5
2A5
330
1F
100
AcDbEntity
  8
0
  6
Continuous
 62
     7
370
    15
100
AcDbLine
 10
2.947875176664723
 20
6.526414256648249
 30
0.0
 11
2.996087007964554
 21
6.579187108429286
 31
0.0
  0
LINE
  5
2A6
330
1F
100
AcDbEntity
  8
0
  6
Continuous
 62
     7
370
    15
100
AcDbLine
 10
2.947875176664723
 20
6.526414256648249
 30
0.0
 11
2.530039349396769
 21
6.6383570926391
 31
0.0
  0
LINE
  5
2A7
330
1F
100
AcDbEntity
  8
0
  6
Continuous
 62
     7
370
    15
100
AcDbLine
 10
2.481827518096937
 20
6.716962909292029
 30
0.0
 11
2.530039349396769
 21
6.6383570926391
 31
0.0
  0
LINE
  5
2A8
330
1F
100
AcDbEntity
  8
0
  6
Continuous
 62
     7
370
    15
100
AcDbLine
 10
2.481827518096937
 20
6.716962909292029
 30
0.0
 11
2.481827518096937
 21
6.906148222666783
 31
0.0
  0
LINE
  5
2A9
330
1F
100
AcDbEntity
  8
0
  6
Continuous
 62
     7
370
    15
100
AcDbLine
 10
3.002772389648313
 20
6.58097819606831
 30
0.0
 11
3.002772389648313
 21
6.770163509443065
 31
0.0
  0
LINE
  5
2AA
330
1F
100
AcDbEntity
  8
0
  6
Continuous
 62
     7
370
    15
100
AcDbLine
 10
2.996087007964554
 20
6.579187108429286
 30
0.0
 11
3.002772389648313
 21
6.58097819606831
 31
0.0
  0
LINE
  5
2AB
330
1F
100
AcDbEntity
  8
0
  6
Continuous
 62
     7
370
    15
100
AcDbLine
 10
2.868357817636102
 20
6.826266252491812
 30
0.0
 11
2.995637019835399
 21
6.86036575743375
 31
0.0
  0
LINE
  5
2AC
330
1F
100
AcDbEntity
  8
0
  6
Continuous
 62
     7
370
    15
100
AcDbLine
 10
2.991351747686797
 20
6.863316515592787
 30
0.0
 11
3.112052509796525
 21
6.895653583730688
 31
0.0
  0
LINE
  5
2AD
330
1F
100
AcDbEntity
  8
0
  6
Continuous
 62
     7
370
    15
100
AcDbLine
 10
3.211690284426328
 20
6.868959522723984
 30
0.0
 11
3.112052509796525
 21
6.895653583730688
 31
0.0
  0
LINE
  5
2AE
330
1F
100
AcDbEntity
  8
0
  6
Continuous
 62
     7
370
    15
100
AcDbLine
 10
3.21169029385431
 20
6.843126560377951
 30
0.0
 11
3.211690284426328
 21
6.868959522723984
 31
0.0
  0
LINE
  5
2AF
330
1F
100
AcDbEntity
  8
0
  6
Continuous
 62
     7
370
    15
100
AcDbLine
 10
3.008557813929724
 20
6.788705124013113
 30
0.0
 11
3.21169029385431
 21
6.843126560377951
 31
0.0
  0
LINE
  5
2B0
330
1F
100
AcDbEntity
  8
0
  6
Continuous
 62
     7
370
    15
100
AcDbLine
 10
3.21169029385431
 20
6.834017627034594
 30
0.0
 11
3.21169029385431
 21
6.843126560377951
 31
0.0
  0
LINE
  5
2B1
330
1F
100
AcDbEntity
  8
0
  6
Continuous
 62
     7
370
    15
100
AcDbLine
 10
3.008557813929724
 20
6.779596190669756
 30
0.0
 11
3.21169029385431
 21
6.834017627034594
 31
0.0
  0
LINE
  5
2B2
330
1F
100
AcDbEntity
  8
0
  6
Continuous
 62
     7
370
    15
100
AcDbLine
 10
2.954560558348482
 20
6.528205344287272
 30
0.0
 11
2.947875176664723
 21
6.526414256648249
 31
0.0
  0
LINE
  5
2B3
330
1F
100
AcDbEntity
  8
0
  6
Continuous
 62
     7
370
    15
100
AcDbLine
 10
3.002772389648313
 20
6.58097819606831
 30
0.0
 11
2.954560558348482
 21
6.528205344287272
 31
0.0
  0
LINE
  5
2B4
330
1F
100
AcDbEntity
  8
0
  6
Continuous
 62
     7
370
    15
100
AcDbLine
 10
2.862572398068682
 20
7.112470050477839
 30
0.0
 11
2.953013742421225
 21
7.136700286175546
 31
0.0
  0
LINE
  5
2B5
330
1F
100
AcDbEntity
  8
0
  6
Continuous
 62
     7
370
    15
100
AcDbLine
 10
2.953013742421225
 20
7.136700286175546
 30
0.0
 11
2.972075574831271
 21
6.99451235683975
 31
0.0
  0
LINE
  5
2B6
330
1F
100
AcDbEntity
  8
0
  6
Continuous
 62
     7
370
    15
100
AcDbLine
 10
2.978323366181551
 20
6.947908271567169
 30
0.0
 11
2.988831473813394
 21
6.86952515993756
 31
0.0
  0
LINE
  5
2B7
330
1F
100
AcDbEntity
  8
0
  6
Continuous
 62
     7
370
    15
100
AcDbLine
 10
2.988831473813394
 20
6.86952515993756
 30
0.0
 11
2.862572398068682
 21
6.835698958147107
 31
0.0
  0
LINE
  5
2B8
330
1F
100
AcDbEntity
  8
0
  6
Continuous
 62
     7
370
    15
100
AcDbLine
 10
2.862572398068682
 20
6.835698958147107
 30
0.0
 11
2.862572398068682
 21
7.112470050477839
 31
0.0
  0
LINE
  5
2B9
330
1F
100
AcDbEntity
  8
0
  6
Continuous
 62
     7
370
    15
100
AcDbLine
 10
2.855887025812904
 20
6.83749004326027
 30
0.0
 11
2.855887025812904
 21
7.114261135591004
 31
0.0
  0
LINE
  5
2BA
330
1F
100
AcDbEntity
  8
0
  6
Continuous
 62
     7
370
    15
100
AcDbLine
 10
2.855887025812904
 20
7.114261135591004
 30
0.0
 11
2.862572398068682
 21
7.112470050477839
 31
0.0
  0
LINE
  5
2BB
330
1F
100
AcDbEntity
  8
0
  6
Continuous
 62
     7
370
    15
100
AcDbLine
 10
2.862572398068682
 20
6.835698958147107
 30
0.0
 11
2.855887025812904
 21
6.83749004326027
 31
0.0
  0
LINE
  5
2BC
330
1F
100
AcDbEntity
  8
0
  6
Continuous
 62
     7
370
    15
100
AcDbLine
 10
2.855887025812904
 20
7.114261135591004
 30
0.0
 11
2.946328370165448
 21
7.13849137128871
 31
0.0
  0
LINE
  5
2BD
330
1F
100
AcDbEntity
  8
0
  6
Continuous
 62
     7
370
    15
100
AcDbLine
 10
2.946328370165448
 20
7.13849137128871
 30
0.0
 11
2.953013742421225
 21
7.136700286175546
 31
0.0
  0
ARC
  5
2BE
330
1F
100
AcDbEntity
  8
0
  6
Continuous
 62
     7
370
    15
100
AcDbCircle
 10
2.872229384518963
 20
6.835131380868737
 30
0.0
 40
0.009673651392718
100
AcDbArc
 50
176.6363818316004
 51
246.4082089363329
  0
SPLINE
  5
2BF
330
1F
100
AcDbEntity
  8
0
  6
Continuous
 62
     7
370
    15
100
AcDbSpline
210
0.0
220
0.0
230
1.0
 70
     8
 71
     3
 72
    11
 73
     7
 74
     0
 42
0.0000000001
 43
0.0000000001
 40
0.0
 40
0.0
 40
0.0
 40
0.0
 40
0.2499993773771739
 40
0.4999997780669887
 40
0.7499994103215064
 40
0.9999999999999998
 40
0.9999999999999998
 40
0.9999999999999998
 40
0.9999999999999998
 10
2.995637019835399
 20
6.86036575743375
 30
0.0
 10
2.994793906226174
 20
6.860664571665495
 30
0.0
 10
2.993107675556639
 20
6.861262201352111
 30
0.0
 10
2.990940321398273
 20
6.863529104039469
 30
0.0
 10
2.989347385985088
 20
6.86642479273855
 30
0.0
 10
2.989003444756824
 20
6.868491702885284
 30
0.0
 10
2.988831473813394
 20
6.86952515993756
 30
0.0
  0
ARC
  5
2C0
330
1F
100
AcDbEntity
  8
0
  6
Continuous
 62
     7
370
    15
100
AcDbCircle
 10
2.881270894029548
 20
6.837600484976348
 30
0.0
 40
0.0253841084738578
100
AcDbArc
 50
180.249284475919
 51
204.0893281908326
  0
LINE
  5
2C1
330
1F
100
AcDbEntity
  8
0
  6
Continuous
 62
     7
370
    15
100
AcDbLine
 10
2.636362505710331
 20
6.854315037091894
 30
0.0
 11
2.629677124026572
 21
6.85252394945287
 31
0.0
  0
LINE
  5
2C2
330
1F
100
AcDbEntity
  8
0
  6
Continuous
 62
     7
370
    15
100
AcDbLine
 10
2.848237411462901
 20
6.797551408227615
 30
0.0
 11
2.636362505710331
 21
6.854315037091894
 31
0.0
  0
LINE
  5
2C3
330
1F
100
AcDbEntity
  8
0
  6
Continuous
 62
     7
370
    15
100
AcDbLine
 10
2.636362505710331
 20
6.868328766863158
 30
0.0
 11
2.629677124026572
 21
6.866537679224133
 31
0.0
  0
ARC
  5
2C4
330
1F
100
AcDbEntity
  8
0
  6
Continuous
 62
     7
370
    15
100
AcDbCircle
 10
2.654355236319398
 20
6.866570468459197
 30
0.0
 40
0.0246781340759648
100
AcDbArc
 50
141.0718256859309
 51
180.0761275276985
  0
ARC
  5
2C5
330
1F
100
AcDbEntity
  8
0
  6
Continuous
 62
     7
370
    15
100
AcDbCircle
 10
2.502643752155856
 20
6.907371605281734
 30
0.0
 40
0.0208521525368067
100
AcDbArc
 50
113.5918713100873
 51
183.3634386154649
  0
LINE
  5
2C6
330
1F
100
AcDbEntity
  8
0
  6
Continuous
 62
     7
370
    15
100
AcDbLine
 10
2.636362505710331
 20
6.868328766863158
 30
0.0
 11
2.636362505710331
 21
6.854315037091894
 31
0.0
  0
LINE
  5
2C7
330
1F
100
AcDbEntity
  8
0
  6
Continuous
 62
     7
370
    15
100
AcDbLine
 10
2.643023940321072
 20
6.877996140938625
 30
0.0
 11
2.642147929991742
 21
6.877761448089849
 31
0.0
  0
LINE
  5
2C8
330
1F
100
AcDbEntity
  8
0
  6
Continuous
 62
     7
370
    15
100
AcDbLine
 10
2.494298324062107
 20
6.926480924875857
 30
0.0
 11
2.530737416003213
 21
6.936243360326857
 31
0.0
  0
ARC
  5
2C9
330
1F
100
AcDbEntity
  8
0
  6
Continuous
 62
     7
370
    15
100
AcDbCircle
 10
6.327448751139896
 20
5.619906714106375
 30
0.0
 40
0.0208521459492426
100
AcDbArc
 50
113.5918564825362
 51
183.3634857086888
  0
LINE
  5
2CA
330
1F
100
AcDbEntity
  8
0
  6
Continuous
 62
     7
370
    15
100
AcDbLine
 10
6.319103330627908
 20
5.639016029823234
 30
0.0
 11
6.319103330627908
 21
5.629907109325642
 31
0.0
  0
LINE
  5
2CB
330
1F
100
AcDbEntity
  8
0
  6
Continuous
 62
     7
370
    15
100
AcDbLine
 10
6.313317906346497
 20
5.620474402407418
 30
0.0
 11
6.306632524662738
 21
5.618683314768393
 31
0.0
  0
LINE
  5
2CC
330
1F
100
AcDbEntity
  8
0
  6
Continuous
 62
     7
370
    15
100
AcDbLine
 10
6.306632524662738
 20
5.618683314768393
 30
0.0
 11
6.1587827678854
 21
5.65829389862481
 31
0.0
  0
ARC
  5
2CD
330
1F
100
AcDbEntity
  8
0
  6
Continuous
 62
     7
370
    15
100
AcDbCircle
 10
6.179598994362556
 20
5.659517297962793
 30
0.0
 40
0.0208521459492414
100
AcDbArc
 50
113.5918564825349
 51
183.3634857086915
  0
LINE
  5
2CE
330
1F
100
AcDbEntity
  8
0
  6
Continuous
 62
     7
370
    15
100
AcDbLine
 10
6.171253573850568
 20
5.678626613679651
 30
0.0
 11
6.178903060922822
 21
5.676577231551885
 31
0.0
  0
LINE
  5
2CF
330
1F
100
AcDbEntity
  8
0
  6
Continuous
 62
     7
370
    15
100
AcDbLine
 10
6.319103330627908
 20
5.639016029823234
 30
0.0
 11
6.178903060922822
 21
5.676577231551885
 31
0.0
  0
LINE
  5
2D0
330
1F
100
AcDbEntity
  8
0
  6
Continuous
 62
     7
370
    15
100
AcDbLine
 10
6.313317906346497
 20
5.431289108301315
 30
0.0
 11
6.313317906346497
 21
5.620474402407418
 31
0.0
  0
LINE
  5
2D1
330
1F
100
AcDbEntity
  8
0
  6
Continuous
 62
     7
370
    15
100
AcDbLine
 10
6.306632524662738
 20
5.42949802066229
 30
0.0
 11
6.313317906346497
 21
5.431289108301315
 31
0.0
  0
LINE
  5
2D2
330
1F
100
AcDbEntity
  8
0
  6
Continuous
 62
     7
370
    15
100
AcDbLine
 10
6.306632524662738
 20
5.42949802066229
 30
0.0
 11
6.306632524662738
 21
5.618683314768393
 31
0.0
  0
LINE
  5
2D3
330
1F
100
AcDbEntity
  8
0
  6
Continuous
 62
     7
370
    15
100
AcDbLine
 10
5.940222546444941
 20
5.71684859744709
 30
0.0
 11
5.792372789667601
 21
5.756459181303507
 31
0.0
  0
LINE
  5
2D4
330
1F
100
AcDbEntity
  8
0
  6
Continuous
 62
     7
370
    15
100
AcDbLine
 10
5.940222546444941
 20
5.71684859744709
 30
0.0
 11
5.940222546444941
 21
5.702834880521594
 31
0.0
  0
LINE
  5
2D5
330
1F
100
AcDbEntity
  8
0
  6
Continuous
 62
     7
370
    15
100
AcDbLine
 10
6.1587827678854
 20
5.644280181699314
 30
0.0
 11
5.940222546444941
 21
5.702834880521594
 31
0.0
  0
LINE
  5
2D6
330
1F
100
AcDbEntity
  8
0
  6
Continuous
 62
     7
370
    15
100
AcDbLine
 10
6.1587827678854
 20
5.644280181699314
 30
0.0
 11
6.1587827678854
 21
5.65829389862481
 31
0.0
  0
LINE
  5
2D7
330
1F
100
AcDbEntity
  8
0
  6
Continuous
 62
     7
370
    15
100
AcDbLine
 10
6.258420693362906
 20
5.376725162458368
 30
0.0
 11
6.306632524662738
 21
5.42949802066229
 31
0.0
  0
LINE
  5
2D8
330
1F
100
AcDbEntity
  8
0
  6
Continuous
 62
     7
370
    15
100
AcDbLine
 10
6.258420693362906
 20
5.376725162458368
 30
0.0
 11
5.840584620967433
 21
5.48866806412159
 31
0.0
  0
LINE
  5
2D9
330
1F
100
AcDbEntity
  8
0
  6
Continuous
 62
     7
370
    15
100
AcDbLine
 10
5.792372789667601
 20
5.567273887197404
 30
0.0
 11
5.840584620967433
 21
5.48866806412159
 31
0.0
  0
LINE
  5
2DA
330
1F
100
AcDbEntity
  8
0
  6
Continuous
 62
     7
370
    15
100
AcDbLine
 10
5.792372789667601
 20
5.567273887197404
 30
0.0
 11
5.792372789667601
 21
5.756459181303507
 31
0.0
  0
LINE
  5
2DB
330
1F
100
AcDbEntity
  8
0
  6
Continuous
 62
     7
370
    15
100
AcDbLine
 10
6.319103330627908
 20
5.639016029823234
 30
0.0
 11
6.522235810552492
 21
5.693437466188071
 31
0.0
  0
LINE
  5
2DC
330
1F
100
AcDbEntity
  8
0
  6
Continuous
 62
     7
370
    15
100
AcDbLine
 10
6.522235810552492
 20
5.684328545690481
 30
0.0
 11
6.522235810552492
 21
5.693437466188071
 31
0.0
  0
LINE
  5
2DD
330
1F
100
AcDbEntity
  8
0
  6
Continuous
 62
     7
370
    15
100
AcDbLine
 10
6.319103330627908
 20
5.629907109325642
 30
0.0
 11
6.522235810552492
 21
5.684328545690481
 31
0.0
  0
LINE
  5
2DE
330
1F
100
AcDbEntity
  8
0
  6
Continuous
 62
     7
370
    15
100
AcDbLine
 10
6.178903060922822
 20
5.676577231551885
 30
0.0
 11
6.306182263122118
 21
5.710676736493822
 31
0.0
  0
LINE
  5
2DF
330
1F
100
AcDbEntity
  8
0
  6
Continuous
 62
     7
370
    15
100
AcDbLine
 10
6.301897113537275
 20
5.713627461816674
 30
0.0
 11
6.422597875647005
 21
5.745964529954576
 31
0.0
  0
LINE
  5
2E0
330
1F
100
AcDbEntity
  8
0
  6
Continuous
 62
     7
370
    15
100
AcDbLine
 10
6.522235801124511
 20
5.719270428534104
 30
0.0
 11
6.422597875647005
 21
5.745964529954576
 31
0.0
  0
LINE
  5
2E1
330
1F
100
AcDbEntity
  8
0
  6
Continuous
 62
     7
370
    15
100
AcDbLine
 10
6.522235810552492
 20
5.693437466188071
 30
0.0
 11
6.522235801124511
 21
5.719270428534104
 31
0.0
  0
LINE
  5
2E2
330
1F
100
AcDbEntity
  8
0
  6
Continuous
 62
     7
370
    15
100
AcDbLine
 10
6.265106075046666
 20
5.378516250097393
 30
0.0
 11
6.258420693362906
 21
5.376725162458368
 31
0.0
  0
LINE
  5
2E3
330
1F
100
AcDbEntity
  8
0
  6
Continuous
 62
     7
370
    15
100
AcDbLine
 10
6.313317906346497
 20
5.431289108301315
 30
0.0
 11
6.265106075046666
 21
5.378516250097393
 31
0.0
  0
LINE
  5
2E4
330
1F
100
AcDbEntity
  8
0
  6
Continuous
 62
     7
370
    15
100
AcDbLine
 10
6.173117749777189
 20
5.962780974798983
 30
0.0
 11
6.263559094129732
 21
5.98701121049669
 31
0.0
  0
LINE
  5
2E5
330
1F
100
AcDbEntity
  8
0
  6
Continuous
 62
     7
370
    15
100
AcDbLine
 10
6.263559094129732
 20
5.98701121049669
 30
0.0
 11
6.282620926539778
 21
5.844823306852428
 31
0.0
  0
LINE
  5
2E6
330
1F
100
AcDbEntity
  8
0
  6
Continuous
 62
     7
370
    15
100
AcDbLine
 10
6.288868717890058
 20
5.79821924727138
 30
0.0
 11
6.299376825521901
 21
5.719836097104471
 31
0.0
  0
LINE
  5
2E7
330
1F
100
AcDbEntity
  8
0
  6
Continuous
 62
     7
370
    15
100
AcDbLine
 10
6.299376825521901
 20
5.719836097104471
 30
0.0
 11
6.173117749777189
 21
5.686009895314017
 31
0.0
  0
LINE
  5
2E8
330
1F
100
AcDbEntity
  8
0
  6
Continuous
 62
     7
370
    15
100
AcDbLine
 10
6.173117749777189
 20
5.686009895314017
 30
0.0
 11
6.173117749777189
 21
5.962780974798983
 31
0.0
  0
LINE
  5
2E9
330
1F
100
AcDbEntity
  8
0
  6
Continuous
 62
     7
370
    15
100
AcDbLine
 10
6.166432481229207
 20
5.687800952642716
 30
0.0
 11
6.166432481229207
 21
5.964572032127683
 31
0.0
  0
LINE
  5
2EA
330
1F
100
AcDbEntity
  8
0
  6
Continuous
 62
     7
370
    15
100
AcDbLine
 10
6.166432481229207
 20
5.964572032127683
 30
0.0
 11
6.173117749777189
 21
5.962780974798983
 31
0.0
  0
LINE
  5
2EB
330
1F
100
AcDbEntity
  8
0
  6
Continuous
 62
     7
370
    15
100
AcDbLine
 10
6.173117749777189
 20
5.686009895314017
 30
0.0
 11
6.166432481229207
 21
5.687800952642716
 31
0.0
  0
LINE
  5
2EC
330
1F
100
AcDbEntity
  8
0
  6
Continuous
 62
     7
370
    15
100
AcDbLine
 10
6.166432481229207
 20
5.964572032127683
 30
0.0
 11
6.256873825581751
 21
5.98880226782539
 31
0.0
  0
LINE
  5
2ED
330
1F
100
AcDbEntity
  8
0
  6
Continuous
 62
     7
370
    15
100
AcDbLine
 10
6.256873825581751
 20
5.98880226782539
 30
0.0
 11
6.263559094129732
 21
5.98701121049669
 31
0.0
  0
ARC
  5
2EE
330
1F
100
AcDbEntity
  8
0
  6
Continuous
 62
     7
370
    15
100
AcDbCircle
 10
6.182775131540743
 20
5.68544255536305
 30
0.0
 40
0.0096740321038845
100
AcDbArc
 50
176.6379223839195
 51
246.4059380985959
  0
SPLINE
  5
2EF
330
1F
100
AcDbEntity
  8
0
  6
Continuous
 62
     7
370
    15
100
AcDbSpline
210
0.0
220
0.0
230
1.0
 70
     8
 71
     3
 72
    11
 73
     7
 74
     0
 42
0.0000000001
 43
0.0000000001
 40
0.0
 40
0.0
 40
0.0
 40
0.0
 40
0.2499894877870293
 40
0.4999871062510751
 40
0.7499935339843011
 40
1.0
 40
1.0
 40
1.0
 40
1.0
 10
6.306182263122118
 20
5.710676736493822
 30
0.0
 10
6.305339195866521
 20
5.710975547456979
 30
0.0
 10
6.30365303393534
 20
5.711573179101842
 30
0.0
 10
6.301485769383838
 20
5.713840071959098
 30
0.0
 10
6.299892838077986
 20
5.71673571020147
 30
0.0
 10
6.299548829716044
 20
5.718802634750721
 30
0.0
 10
6.299376825521901
 20
5.719836097104471
 30
0.0
  0
ARC
  5
2F0
330
1F
100
AcDbEntity
  8
0
  6
Continuous
 62
     7
370
    15
100
AcDbCircle
 10
6.191804249443062
 20
5.687908942246416
 30
0.0
 40
0.0253719980303501
100
AcDbArc
 50
180.2438659815977
 51
204.095470139749
  0
LINE
  5
2F1
330
1F
100
AcDbEntity
  8
0
  6
Continuous
 62
     7
370
    15
100
AcDbLine
 10
5.946907928128698
 20
5.704625968160619
 30
0.0
 11
5.940222546444941
 21
5.702834880521594
 31
0.0
  0
LINE
  5
2F2
330
1F
100
AcDbEntity
  8
0
  6
Continuous
 62
     7
370
    15
100
AcDbLine
 10
6.158782881021178
 20
5.647862326667039
 30
0.0
 11
5.946907928128698
 21
5.704625968160619
 31
0.0
  0
LINE
  5
2F3
330
1F
100
AcDbEntity
  8
0
  6
Continuous
 62
     7
370
    15
100
AcDbLine
 10
5.952693352410109
 20
5.728072392004341
 30
0.0
 11
5.952693352410109
 21
5.737181312501931
 31
0.0
  0
LINE
  5
2F4
330
1F
100
AcDbEntity
  8
0
  6
Continuous
 62
     7
370
    15
100
AcDbLine
 10
5.946907928128698
 20
5.718639685086115
 30
0.0
 11
5.940222546444941
 21
5.71684859744709
 31
0.0
  0
ARC
  5
2F5
330
1F
100
AcDbEntity
  8
0
  6
Continuous
 62
     7
370
    15
100
AcDbCircle
 10
5.9610387729221
 20
5.718071996785072
 30
0.0
 40
0.0208521459492441
100
AcDbArc
 50
113.5918564825429
 51
183.3634857086885
  0
ARC
  5
2F6
330
1F
100
AcDbEntity
  8
0
  6
Continuous
 62
     7
370
    15
100
AcDbCircle
 10
5.813189016144761
 20
5.757682580641489
 30
0.0
 40
0.0208521459492441
100
AcDbArc
 50
113.5918564825407
 51
183.3634857086885
  0
LINE
  5
2F7
330
1F
100
AcDbEntity
  8
0
  6
Continuous
 62
     7
370
    15
100
AcDbLine
 10
5.952693352410109
 20
5.737181312501931
 30
0.0
 11
5.804843595632771
 21
5.776791896358348
 31
0.0
  0
LINE
  5
2F8
330
1F
100
AcDbEntity
  8
0
  6
Continuous
 62
     7
370
    15
100
AcDbLine
 10
5.946907928128698
 20
5.718639685086115
 30
0.0
 11
5.946907928128698
 21
5.704625968160619
 31
0.0
  0
LINE
  5
2F9
330
1F
100
AcDbEntity
  8
0
  6
Continuous
 62
     7
370
    15
100
AcDbLine
 10
5.967799694036547
 20
5.741228468376924
 30
0.0
 11
5.952693352410109
 21
5.737181312501931
 31
0.0
  0
LINE
  5
2FA
330
1F
100
AcDbEntity
  8
0
  6
Continuous
 62
     7
370
    15
100
AcDbLine
 10
5.804843595632771
 20
5.776791896358348
 30
0.0
 11
5.967799543188843
 21
5.820449595675992
 31
0.0
  0
LINE
  5
2FB
330
1F
100
AcDbEntity
  8
0
  6
Continuous
 62
     7
370
    15
100
AcDbLine
 10
5.967799694036547
 20
5.732119547879332
 30
0.0
 11
5.952693352410109
 21
5.728072392004341
 31
0.0
  0
LINE
  5
2FC
330
1F
100
AcDbEntity
  8
0
  6
Continuous
 62
     8
370
    15
100
AcDbLine
 10
2.642147929991742
 20
6.877761448089849
 30
0.0
 11
2.642147929991742
 21
6.878450572103581
 31
0.0
  0
LINE
  5
2FD
330
1F
100
AcDbEntity
  8
0
  6
Continuous
 62
     8
370
    15
100
AcDbLine
 10
2.608579677274256
 20
6.895863687328067
 30
0.0
 11
2.494298324062107
 21
6.926480924875857
 31
0.0
  0
TEXT
  5
305
330
1F
100
AcDbEntity
  8
0
100
AcDbText
 10
2.677302712629277
 20
4.794452053070486
 30
0.0
 40
0.25
  1
USP  HC520
100
AcDbText
  0
TEXT
  5
306
330
1F
100
AcDbEntity
  8
0
100
AcDbText
 10
1.747488240012852
 20
4.302109038248685
 30
0.0
 40
0.25
  1
SIMPSON  GBC
100
AcDbText
  0
ENDSEC
  0
SECTION
  2
OBJECTS
  0
DICTIONARY
  5
C
330
0
100
AcDbDictionary
281
     1
  3
ACAD_COLOR
350
302
  3
ACAD_GROUP
350
D
  3
ACAD_LAYOUT
350
1A
  3
ACAD_MATERIAL
350
301
  3
ACAD_MLINESTYLE
350
17
  3
ACAD_PLOTSETTINGS
350
19
  3
ACAD_PLOTSTYLENAME
350
E
  3
ASE_INDEX_DICTIONARY
350
308
  0
DICTIONARY
  5
302
102
{ACAD_REACTORS
330
C
102
}
330
C
100
AcDbDictionary
281
     1
  0
DICTIONARY
  5
D
102
{ACAD_REACTORS
330
C
102
}
330
C
100
AcDbDictionary
281
     1
  0
DICTIONARY
  5
1A
102
{ACAD_REACTORS
330
C
102
}
330
C
100
AcDbDictionary
281
     1
  3
Layout1
350
1E
  3
Layout2
350
26
  3
Model
350
22
  0
DICTIONARY
  5
301
102
{ACAD_REACTORS
330
C
102
}
330
C
100
AcDbDictionary
281
     1
  0
DICTIONARY
  5
17
102
{ACAD_REACTORS
330
C
102
}
330
C
100
AcDbDictionary
281
     1
  3
Standard
350
18
  0
DICTIONARY
  5
19
102
{ACAD_REACTORS
330
C
102
}
330
C
100
AcDbDictionary
281
     1
  0
ACDBDICTIONARYWDFLT
  5
E
102
{ACAD_REACTORS
330
C
102
}
330
C
100
AcDbDictionary
281
     1
  3
Normal
350
F
100
AcDbDictionaryWithDefault
340
F
  0
DICTIONARY
  5
308
102
{ACAD_REACTORS
330
C
102
}
330
C
100
AcDbDictionary
281
     1
  3
ASEBlockHierarchyIndexRecord
350
30A
1001
DCO15
1040
1789375916.571
  0
LAYOUT
  5
1E
102
{ACAD_REACTORS
330
1A
102
}
330
1A
100
AcDbPlotSettings
  1

  2
none_device
  4

  6

 40
0.0
 41
0.0
 42
0.0
 43
0.0
 44
0.0
 45
0.0
 46
0.0
 47
0.0
 48
0.0
 49
0.0
140
0.0
141
0.0
142
1.0
143
1.0
 70
   688
 72
     0
 73
     0
 74
     5
  7

 75
    16
147
1.0
 76
     0
 77
     2
 78
   300
148
0.0
149
0.0
100
AcDbLayout
  1
Layout1
 70
     1
 71
     1
 10
0.0
 20
0.0
 11
12.0
 21
9.0
 12
0.0
 22
0.0
 32
0.0
 14
1.000000000000000E+20
 24
1.000000000000000E+20
 34
1.000000000000000E+20
 15
-1.000000000000000E+20
 25
-1.000000000000000E+20
 35
-1.000000000000000E+20
146
0.0
 13
0.0
 23
0.0
 33
0.0
 16
1.0
 26
0.0
 36
0.0
 17
0.0
 27
1.0
 37
0.0
 76
     0
330
1B
  0
LAYOUT
  5
26
102
{ACAD_REACTORS
330
1A
102
}
330
1A
100
AcDbPlotSettings
  1

  2
none_device
  4

  6

 40
0.0
 41
0.0
 42
0.0
 43
0.0
 44
0.0
 45
0.0
 46
0.0
 47
0.0
 48
0.0
 49
0.0
140
0.0
141
0.0
142
1.0
143
1.0
 70
   688
 72
     0
 73
     0
 74
     5
  7

 75
    16
147
1.0
 76
     0
 77
     2
 78
   300
148
0.0
149
0.0
100
AcDbLayout
  1
Layout2
 70
     1
 71
     2
 10
0.0
 20
0.0
 11
0.0
 21
0.0
 12
0.0
 22
0.0
 32
0.0
 14
0.0
 24
0.0
 34
0.0
 15
0.0
 25
0.0
 35
0.0
146
0.0
 13
0.0
 23
0.0
 33
0.0
 16
1.0
 26
0.0
 36
0.0
 17
0.0
 27
1.0
 37
0.0
 76
     0
330
23
  0
LAYOUT
  5
22
102
{ACAD_REACTORS
330
1A
102
}
330
1A
100
AcDbPlotSettings
  1

  2
none_device
  4

  6

 40
0.0
 41
0.0
 42
0.0
 43
0.0
 44
0.0
 45
0.0
 46
0.0
 47
0.0
 48
0.0
 49
0.0
140
0.0
141
0.0
142
1.0
143
1.0
 70
  1712
 72
     0
 73
     0
 74
     0
  7

 75
     0
147
1.0
 76
     0
 77
     2
 78
   300
148
0.0
149
0.0
100
AcDbLayout
  1
Model
 70
     1
 71
     0
 10
0.0
 20
0.0
 11
8.5
 21
11.0
 12
0.0
 22
0.0
 32
0.0
 14
0.0
 24
0.0
 34
0.0
 15
8.5
 25
11.0
 35
0.0
146
0.0
 13
0.0
 23
0.0
 33
0.0
 16
1.0
 26
0.0
 36
0.0
 17
0.0
 27
1.0
 37
0.0
 76
     0
330
1F
  0
MLINESTYLE
  5
18
102
{ACAD_REACTORS
330
17
102
}
330
17
100
AcDbMlineStyle
  2
STANDARD
 70
     0
  3

 62
   256
 51
90.0
 52
90.0
 71
     2
 49
0.5
 62
   256
  6
BYLAYER
 49
-0.5
 62
   256
  6
BYLAYER
  0
ACDBPLACEHOLDER
  5
F
102
{ACAD_REACTORS
330
E
102
}
330
E
  0
XRECORD
  5
30A
102
{ACAD_REACTORS
330
308
102
}
330
308
100
AcDbXrecord
280
     1
  0
ENDSEC
  0
EOF
