  0
SECTION
  2
HEADER
  9
$ACADVER
  1
AC1018
  9
$ACADMAINTVER
 70
     0
  9
$DWGCODEPAGE
  3
ANSI_1252
  9
$INSBASE
 10
0.0
 20
0.0
 30
0.0
  9
$EXTMIN
 10
1.573904767816145
 20
2.284661047693659
 30
0.0
  9
$EXTMAX
 10
6.495323714670154
 20
10.51807829286523
 30
0.0
  9
$LIMMIN
 10
0.0
 20
0.0
  9
$LIMMAX
 10
8.5
 20
11.0
  9
$ORTHOMODE
 70
     0
  9
$REGENMODE
 70
     1
  9
$FILLMODE
 70
     1
  9
$QTEXTMODE
 70
     0
  9
$MIRRTEXT
 70
     1
  9
$LTSCALE
 40
1.0
  9
$ATTMODE
 70
     1
  9
$TEXTSIZE
 40
0.25
  9
$TRACEWID
 40
0.05
  9
$TEXTSTYLE
  7
Standard
  9
$CLAYER
  8
0
  9
$CELTYPE
  6
ByLayer
  9
$CECOLOR
 62
   256
  9
$CELTSCALE
 40
1.0
  9
$DISPSILH
 70
     0
  9
$DIMSCALE
 40
1.0
  9
$DIMASZ
 40
0.156
  9
$DIMEXO
 40
0.05
  9
$DIMDLI
 40
0.38
  9
$DIMRND
 40
0.0
  9
$DIMDLE
 40
0.0
  9
$DIMEXE
 40
0.125
  9
$DIMTP
 40
0.0
  9
$DIMTM
 40
0.0
  9
$DIMTXT
 40
0.125
  9
$DIMCEN
 40
0.09
  9
$DIMTSZ
 40
0.0
  9
$DIMTOL
 70
     0
  9
$DIMLIM
 70
     0
  9
$DIMTIH
 70
     1
  9
$DIMTOH
 70
     1
  9
$DIMSE1
 70
     0
  9
$DIMSE2
 70
     0
  9
$DIMTAD
 70
     0
  9
$DIMZIN
 70
     0
  9
$DIMBLK
  1

  9
$DIMASO
 70
     1
  9
$DIMSHO
 70
     1
  9
$DIMPOST
  1

  9
$DIMAPOST
  1

  9
$DIMALT
 70
     0
  9
$DIMALTD
 70
     2
  9
$DIMALTF
 40
25.4
  9
$DIMLFAC
 40
12.0
  9
$DIMTOFL
 70
     0
  9
$DIMTVP
 40
0.0
  9
$DIMTIX
 70
     0
  9
$DIMSOXD
 70
     0
  9
$DIMSAH
 70
     0
  9
$DIMBLK1
  1

  9
$DIMBLK2
  1

  9
$DIMSTYLE
  2
Standard
  9
$DIMCLRD
 70
     0
  9
$DIMCLRE
 70
     0
  9
$DIMCLRT
 70
     0
  9
$DIMTFAC
 40
1.0
  9
$DIMGAP
 40
0.06
  9
$DIMJUST
 70
     0
  9
$DIMSD1
 70
     0
  9
$DIMSD2
 70
     0
  9
$DIMTOLJ
 70
     1
  9
$DIMTZIN
 70
     0
  9
$DIMALTZ
 70
     0
  9
$DIMALTTZ
 70
     0
  9
$DIMUPT
 70
     0
  9
$DIMDEC
 70
     3
  9
$DIMTDEC
 70
     3
  9
$DIMALTU
 70
     2
  9
$DIMALTTD
 70
     2
  9
$DIMTXSTY
  7
Standard
  9
$DIMAUNIT
 70
     0
  9
$DIMADEC
 70
     0
  9
$DIMALTRND
 40
0.0
  9
$DIMAZIN
 70
     0
  9
$DIMDSEP
 70
    46
  9
$DIMATFIT
 70
     3
  9
$DIMFRAC
 70
     0
  9
$DIMLDRBLK
  1

  9
$DIMLUNIT
 70
     2
  9
$DIMLWD
 70
    -2
  9
$DIMLWE
 70
    -2
  9
$DIMTMOVE
 70
     0
  9
$LUNITS
 70
     2
  9
$LUPREC
 70
     3
  9
$SKETCHINC
 40
0.1
  9
$FILLETRAD
 40
0.5
  9
$AUNITS
 70
     0
  9
$AUPREC
 70
     0
  9
$MENU
  1
.
  9
$ELEVATION
 40
0.0
  9
$PELEVATION
 40
0.0
  9
$THICKNESS
 40
0.0
  9
$LIMCHECK
 70
     0
  9
$CHAMFERA
 40
0.5
  9
$CHAMFERB
 40
0.5
  9
$CHAMFERC
 40
1.0
  9
$CHAMFERD
 40
0.0
  9
$SKPOLY
 70
     0
  9
$TDCREATE
 40
2456512.703495591
  9
$TDUCREATE
 40
2456512.911828923
  9
$TDUPDATE
 40
2456570.366279792
  9
$TDUUPDATE
 40
2456570.574613125
  9
$TDINDWG
 40
0.0011836343
  9
$TDUSRTIMER
 40
0.0011836343
  9
$USRTIMER
 70
     1
  9
$ANGBASE
 50
0.0
  9
$ANGDIR
 70
     0
  9
$PDMODE
 70
     0
  9
$PDSIZE
 40
-1.0
  9
$PLINEWID
 40
0.0
  9
$SPLFRAME
 70
     0
  9
$SPLINETYPE
 70
     6
  9
$SPLINESEGS
 70
     8
  9
$HANDSEED
  5
FB
  9
$SURFTAB1
 70
     6
  9
$SURFTAB2
 70
     6
  9
$SURFTYPE
 70
     6
  9
$SURFU
 70
     6
  9
$SURFV
 70
     6
  9
$UCSBASE
  2

  9
$UCSNAME
  2

  9
$UCSORG
 10
0.0
 20
0.0
 30
0.0
  9
$UCSXDIR
 10
1.0
 20
0.0
 30
0.0
  9
$UCSYDIR
 10
0.0
 20
1.0
 30
0.0
  9
$UCSORTHOREF
  2

  9
$UCSORTHOVIEW
 70
     0
  9
$UCSORGTOP
 10
0.0
 20
0.0
 30
0.0
  9
$UCSORGBOTTOM
 10
0.0
 20
0.0
 30
0.0
  9
$UCSORGLEFT
 10
0.0
 20
0.0
 30
0.0
  9
$UCSORGRIGHT
 10
0.0
 20
0.0
 30
0.0
  9
$UCSORGFRONT
 10
0.0
 20
0.0
 30
0.0
  9
$UCSORGBACK
 10
0.0
 20
0.0
 30
0.0
  9
$PUCSBASE
  2

  9
$PUCSNAME
  2

  9
$PUCSORG
 10
0.0
 20
0.0
 30
0.0
  9
$PUCSXDIR
 10
1.0
 20
0.0
 30
0.0
  9
$PUCSYDIR
 10
0.0
 20
1.0
 30
0.0
  9
$PUCSORTHOREF
  2

  9
$PUCSORTHOVIEW
 70
     0
  9
$PUCSORGTOP
 10
0.0
 20
0.0
 30
0.0
  9
$PUCSORGBOTTOM
 10
0.0
 20
0.0
 30
0.0
  9
$PUCSORGLEFT
 10
0.0
 20
0.0
 30
0.0
  9
$PUCSORGRIGHT
 10
0.0
 20
0.0
 30
0.0
  9
$PUCSORGFRONT
 10
0.0
 20
0.0
 30
0.0
  9
$PUCSORGBACK
 10
0.0
 20
0.0
 30
0.0
  9
$USERI1
 70
     0
  9
$USERI2
 70
     0
  9
$USERI3
 70
     0
  9
$USERI4
 70
     0
  9
$USERI5
 70
     0
  9
$USERR1
 40
0.0
  9
$USERR2
 40
0.0
  9
$USERR3
 40
0.0
  9
$USERR4
 40
0.0
  9
$USERR5
 40
0.0
  9
$WORLDVIEW
 70
     1
  9
$SHADEDGE
 70
     3
  9
$SHADEDIF
 70
    70
  9
$TILEMODE
 70
     1
  9
$MAXACTVP
 70
    64
  9
$PINSBASE
 10
0.0
 20
0.0
 30
0.0
  9
$PLIMCHECK
 70
     0
  9
$PEXTMIN
 10
1.000000000000000E+20
 20
1.000000000000000E+20
 30
1.000000000000000E+20
  9
$PEXTMAX
 10
-1.000000000000000E+20
 20
-1.000000000000000E+20
 30
-1.000000000000000E+20
  9
$PLIMMIN
 10
0.0
 20
0.0
  9
$PLIMMAX
 10
12.0
 20
9.0
  9
$UNITMODE
 70
     0
  9
$VISRETAIN
 70
     1
  9
$PLINEGEN
 70
     0
  9
$PSLTSCALE
 70
     1
  9
$TREEDEPTH
 70
  3020
  9
$CMLSTYLE
  2
Standard
  9
$CMLJUST
 70
     0
  9
$CMLSCALE
 40
1.0
  9
$PROXYGRAPHICS
 70
     1
  9
$MEASUREMENT
 70
     0
  9
$CELWEIGHT
370
    -1
  9
$ENDCAPS
280
     0
  9
$JOINSTYLE
280
     0
  9
$LWDISPLAY
290
     1
  9
$INSUNITS
 70
     1
  9
$HYPERLINKBASE
  1

  9
$STYLESHEET
  1

  9
$XEDIT
290
     1
  9
$CEPSNTYPE
380
     0
  9
$PSTYLEMODE
290
     1
  9
$FINGERPRINTGUID
  2
{3A6E6134-C58B-4A8A-9B1A-B1E036B565E5}
  9
$VERSIONGUID
  2
{97718107-E563-4659-8AAB-01189C281340}
  9
$EXTNAMES
290
     1
  9
$PSVPSCALE
 40
0.0
  9
$OLESTARTUP
290
     0
  9
$SORTENTS
280
   127
  9
$INDEXCTL
280
     0
  9
$HIDETEXT
280
     0
  9
$XCLIPFRAME
290
     0
  9
$HALOGAP
280
     0
  9
$OBSCOLOR
 70
   257
  9
$OBSLTYPE
280
     0
  9
$INTERSECTIONDISPLAY
280
     0
  9
$INTERSECTIONCOLOR
 70
   257
  9
$DIMASSOC
280
     1
  9
$PROJECTNAME
  1

  0
ENDSEC
  0
SECTION
  2
CLASSES
  0
CLASS
  1
ACDBDICTIONARYWDFLT
  2
AcDbDictionaryWithDefault
  3
ObjectDBX Classes
 90
        0
 91
        1
280
     0
281
     0
  0
CLASS
  1
VISUALSTYLE
  2
AcDbVisualStyle
  3
ObjectDBX Classes
 90
     4095
 91
        0
280
     0
281
     0
  0
CLASS
  1
MATERIAL
  2
AcDbMaterial
  3
ObjectDBX Classes
 90
        0
 91
        0
280
     0
281
     0
  0
ENDSEC
  0
SECTION
  2
TABLES
  0
TABLE
  2
VPORT
  5
8
330
0
100
AcDbSymbolTable
 70
     3
  0
VPORT
  5
FA
330
8
100
AcDbSymbolTableRecord
100
AcDbViewportTableRecord
  2
*Active
 70
     0
 10
0.0
 20
0.0
 11
1.0
 21
1.0
 12
4.895266046508991
 22
6.503834487488344
 13
0.0
 23
0.0
 14
0.5
 24
0.5
 15
0.5
 25
0.5
 16
0.0
 26
0.0
 36
1.0
 17
0.0
 27
0.0
 37
0.0
 40
9.688266155641642
 41
2.144329896907216
 42
50.0
 43
0.0
 44
0.0
 50
0.0
 51
0.0
 71
     0
 72
  2000
 73
     1
 74
     3
 75
     0
 76
     0
 77
     0
 78
     0
281
     0
 65
     1
110
0.0
120
0.0
130
0.0
111
1.0
121
0.0
131
0.0
112
0.0
122
1.0
132
0.0
 79
     0
146
0.0
  0
ENDTAB
  0
TABLE
  2
LTYPE
  5
5
330
0
100
AcDbSymbolTable
 70
     6
  0
LTYPE
  5
14
330
5
100
AcDbSymbolTableRecord
100
AcDbLinetypeTableRecord
  2
ByBlock
 70
     0
  3

 72
    65
 73
     0
 40
0.0
  0
LTYPE
  5
15
330
5
100
AcDbSymbolTableRecord
100
AcDbLinetypeTableRecord
  2
ByLayer
 70
     0
  3

 72
    65
 73
     0
 40
0.0
  0
LTYPE
  5
16
330
5
100
AcDbSymbolTableRecord
100
AcDbLinetypeTableRecord
  2
Continuous
 70
     0
  3
Solid line
 72
    65
 73
     0
 40
0.0
  0
LTYPE
  5
3F
330
5
100
AcDbSymbolTableRecord
100
AcDbLinetypeTableRecord
  2
HIDDEN
 70
     0
  3
Hidden __ __ __ __ __ __ __ __ __ __ __ __ __ __
 72
    65
 73
     2
 40
0.075
 49
0.05
 74
     0
 49
-0.025
 74
     0
  0
LTYPE
  5
40
330
5
100
AcDbSymbolTableRecord
100
AcDbLinetypeTableRecord
  2
PHANTOM
 70
     0
  3
Phantom ______  __  __  ______  __  __  ______
 72
    65
 73
     6
 40
0.5
 49
0.25
 74
     0
 49
-0.05
 74
     0
 49
0.05
 74
     0
 49
-0.05
 74
     0
 49
0.05
 74
     0
 49
-0.05
 74
     0
  0
LTYPE
  5
41
330
5
100
AcDbSymbolTableRecord
100
AcDbLinetypeTableRecord
  2
CENTER
 70
     0
  3
Center ____ _ ____ _ ____ _ ____ _ ____ _ ____
 72
    65
 73
     4
 40
0.4
 49
0.25
 74
     0
 49
-0.05
 74
     0
 49
0.05
 74
     0
 49
-0.05
 74
     0
  0
LTYPE
  5
42
330
5
100
AcDbSymbolTableRecord
100
AcDbLinetypeTableRecord
  2
CENTERX2
 70
     0
  3
Center (2x) ________  __  ________  __  _____
 72
    65
 73
     4
 40
0.8
 49
0.5
 74
     0
 49
-0.1
 74
     0
 49
0.1
 74
     0
 49
-0.1
 74
     0
  0
LTYPE
  5
43
330
5
100
AcDbSymbolTableRecord
100
AcDbLinetypeTableRecord
  2
DOT2
 70
     0
  3
Dot (.5x) ........................................
 72
    65
 73
     2
 40
0.025
 49
0.0
 74
     0
 49
-0.025
 74
     0
  0
ENDTAB
  0
TABLE
  2
LAYER
  5
2
330
0
100
AcDbSymbolTable
 70
     7
  0
LAYER
  5
10
330
2
100
AcDbSymbolTableRecord
100
AcDbLayerTableRecord
  2
0
 70
     0
 62
     7
  6
Continuous
370
    -3
390
F
  0
LAYER
  5
44
330
2
100
AcDbSymbolTableRecord
100
AcDbLayerTableRecord
  2
SLD-0
 70
     0
 62
   179
  6
Continuous
370
    -3
390
F
  0
LAYER
  5
45
330
2
100
AcDbSymbolTableRecord
100
AcDbLayerTableRecord
  2
SLD-DEFPOINTS
 70
     0
 62
   179
  6
Continuous
370
    -3
390
F
  0
LAYER
  5
46
330
2
100
AcDbSymbolTableRecord
100
AcDbLayerTableRecord
  2
OBJ
 70
     0
 62
   179
  6
Continuous
370
    -3
390
F
  0
LAYER
  5
47
330
2
100
AcDbSymbolTableRecord
100
AcDbLayerTableRecord
  2
FORMAT
 70
     0
 62
     7
  6
Continuous
370
    -3
390
F
  0
LAYER
  5
48
330
2
100
AcDbSymbolTableRecord
100
AcDbLayerTableRecord
  2
TOLERANCES
 70
     0
 62
     7
  6
Continuous
370
    -3
390
F
  0
LAYER
  5
49
330
2
100
AcDbSymbolTableRecord
100
AcDbLayerTableRecord
  2
QTY-BLANK-SIZE-1
 70
     0
 62
     7
  6
Continuous
370
    -3
390
F
  0
ENDTAB
  0
TABLE
  2
STYLE
  5
3
330
0
100
AcDbSymbolTable
 70
     2
  0
STYLE
  5
11
330
3
100
AcDbSymbolTableRecord
100
AcDbTextStyleTableRecord
  2
Standard
 70
     0
 40
0.0
 41
1.0
 50
0.0
 71
     0
 42
0.25
  3
txt
  4

  0
STYLE
  5
EB
330
3
100
AcDbSymbolTableRecord
100
AcDbTextStyleTableRecord
  2
SLDTEXTSTYLE0
 70
     0
 40
0.0
 41
0.7
 50
0.0
 71
     0
 42
0.2
  3
TXT
  4

  0
ENDTAB
  0
TABLE
  2
VIEW
  5
6
330
0
100
AcDbSymbolTable
 70
     0
  0
ENDTAB
  0
TABLE
  2
UCS
  5
7
330
0
100
AcDbSymbolTable
 70
     0
  0
ENDTAB
  0
TABLE
  2
APPID
  5
9
330
0
100
AcDbSymbolTable
 70
     1
  0
APPID
  5
12
330
9
100
AcDbSymbolTableRecord
100
AcDbRegAppTableRecord
  2
ACAD
 70
     0
  0
ENDTAB
  0
TABLE
  2
DIMSTYLE
  5
A
330
0
100
AcDbSymbolTable
 70
     1
100
AcDbDimStyleTable
 71
     0
  0
DIMSTYLE
105
27
330
A
100
AcDbSymbolTableRecord
100
AcDbDimStyleTableRecord
  2
Standard
 70
     0
340
11
  0
ENDTAB
  0
TABLE
  2
BLOCK_RECORD
  5
1
330
0
100
AcDbSymbolTable
 70
     1
  0
BLOCK_RECORD
  5
1F
330
1
100
AcDbSymbolTableRecord
100
AcDbBlockTableRecord
  2
*Model_Space
340
22
  0
BLOCK_RECORD
  5
1B
330
1
100
AcDbSymbolTableRecord
100
AcDbBlockTableRecord
  2
*Paper_Space
340
1E
  0
BLOCK_RECORD
  5
23
330
1
100
AcDbSymbolTableRecord
100
AcDbBlockTableRecord
  2
*Paper_Space0
340
26
  0
ENDTAB
  0
ENDSEC
  0
SECTION
  2
BLOCKS
  0
BLOCK
  5
20
330
1F
100
AcDbEntity
  8
0
100
AcDbBlockBegin
  2
*Model_Space
 70
     0
 10
0.0
 20
0.0
 30
0.0
  3
*Model_Space
  1

  0
ENDBLK
  5
21
330
1F
100
AcDbEntity
  8
0
100
AcDbBlockEnd
  0
BLOCK
  5
1C
330
1B
100
AcDbEntity
 67
     1
  8
0
100
AcDbBlockBegin
  2
*Paper_Space
 70
     0
 10
0.0
 20
0.0
 30
0.0
  3
*Paper_Space
  1

  0
ENDBLK
  5
1D
330
1B
100
AcDbEntity
 67
     1
  8
0
100
AcDbBlockEnd
  0
BLOCK
  5
24
330
23
100
AcDbEntity
  8
0
100
AcDbBlockBegin
  2
*Paper_Space0
 70
     0
 10
0.0
 20
0.0
 30
0.0
  3
*Paper_Space0
  1

  0
ENDBLK
  5
25
330
23
100
AcDbEntity
  8
0
100
AcDbBlockEnd
  0
ENDSEC
  0
SECTION
  2
ENTITIES
  0
LINE
  5
4A
330
1F
100
AcDbEntity
  8
0
  6
Continuous
 62
     7
370
    15
100
AcDbLine
 10
4.327880673592976
 20
5.019276510410369
 30
0.0
 11
4.327880673592976
 21
5.520019528423277
 31
0.0
  0
LINE
  5
4B
330
1F
100
AcDbEntity
  8
0
  6
Continuous
 62
     7
370
    15
100
AcDbLine
 10
6.408721029270387
 20
7.899493943623321
 30
0.0
 11
6.495323714670154
 21
7.950861330037276
 31
0.0
  0
LINE
  5
4C
330
1F
100
AcDbEntity
  8
0
  6
Continuous
 62
     7
370
    15
100
AcDbLine
 10
6.408721029270387
 20
7.622752389397938
 30
0.0
 11
6.408721029270387
 21
7.899493943623321
 31
0.0
  0
LINE
  5
4D
330
1F
100
AcDbEntity
  8
0
  6
Continuous
 62
     7
370
    15
100
AcDbLine
 10
6.408721029270387
 20
7.622752389397938
 30
0.0
 11
5.033375750377117
 21
7.225724405899084
 31
0.0
  0
LINE
  5
4E
330
1F
100
AcDbEntity
  8
0
  6
Continuous
 62
     7
370
    15
100
AcDbLine
 10
6.365419889795451
 20
8.216470216744003
 30
0.0
 11
5.033375750377117
 21
7.831942195511186
 31
0.0
  0
LINE
  5
4F
330
1F
100
AcDbEntity
  8
0
  6
Continuous
 62
     7
370
    15
100
AcDbLine
 10
6.365419889795451
 20
7.982625671721639
 30
0.0
 11
6.365419889795451
 21
8.216470216744003
 31
0.0
  0
LINE
  5
50
330
1F
100
AcDbEntity
  8
0
  6
Continuous
 62
     7
370
    15
100
AcDbLine
 10
6.495323714670154
 20
7.950861330037276
 30
0.0
 11
6.365419889795451
 21
7.982625671721639
 31
0.0
  0
LINE
  5
51
330
1F
100
AcDbEntity
  8
0
  6
Continuous
 62
     7
370
    15
100
AcDbLine
 10
6.215419895274854
 20
8.346374022566367
 30
0.0
 11
5.033375759057808
 21
8.005147272446905
 31
0.0
  0
LINE
  5
52
330
1F
100
AcDbEntity
  8
0
  6
Continuous
 62
     7
370
    15
100
AcDbLine
 10
6.365419889795451
 20
8.216470216744003
 30
0.0
 11
6.215419895274854
 21
8.346374022566367
 31
0.0
  0
LINE
  5
53
330
1F
100
AcDbEntity
  8
0
  6
Continuous
 62
     7
370
    15
100
AcDbLine
 10
6.495323714670154
 20
7.950861330037276
 30
0.0
 11
6.365419904996715
 21
8.063361329262852
 31
0.0
  0
LINE
  5
54
330
1F
100
AcDbEntity
  8
0
  6
Continuous
 62
     7
370
    15
100
AcDbLine
 10
6.408721029270387
 20
9.977954912990487
 30
0.0
 11
6.495323714670154
 21
10.02932237561379
 31
0.0
  0
LINE
  5
55
330
1F
100
AcDbEntity
  8
0
  6
Continuous
 62
     7
370
    15
100
AcDbLine
 10
6.408721029270387
 20
9.70121334130046
 30
0.0
 11
6.408721029270387
 21
9.977954912990487
 31
0.0
  0
LINE
  5
56
330
1F
100
AcDbEntity
  8
0
  6
Continuous
 62
     7
370
    15
100
AcDbLine
 10
6.408721029270387
 20
9.70121334130046
 30
0.0
 11
5.033375750377117
 21
9.304185357801605
 31
0.0
  0
LINE
  5
57
330
1F
100
AcDbEntity
  8
0
  6
Continuous
 62
     7
370
    15
100
AcDbLine
 10
6.365419889795451
 20
10.29493116070805
 30
0.0
 11
5.033375750377117
 21
9.910403139475233
 31
0.0
  0
LINE
  5
58
330
1F
100
AcDbEntity
  8
0
  6
Continuous
 62
     7
370
    15
100
AcDbLine
 10
6.365419889795451
 20
10.06108671729816
 30
0.0
 11
6.365419889795451
 21
10.29493116070805
 31
0.0
  0
LINE
  5
59
330
1F
100
AcDbEntity
  8
0
  6
Continuous
 62
     7
370
    15
100
AcDbLine
 10
6.495323714670154
 20
10.02932237561379
 30
0.0
 11
6.365419889795451
 21
10.06108671729816
 31
0.0
  0
LINE
  5
5A
330
1F
100
AcDbEntity
  8
0
  6
Continuous
 62
     7
370
    15
100
AcDbLine
 10
6.215419895274854
 20
10.42483496653041
 30
0.0
 11
5.033375759057808
 21
10.08360821641095
 31
0.0
  0
LINE
  5
5B
330
1F
100
AcDbEntity
  8
0
  6
Continuous
 62
     7
370
    15
100
AcDbLine
 10
6.365419889795451
 20
10.29493116070805
 30
0.0
 11
6.215419895274854
 21
10.42483496653041
 31
0.0
  0
LINE
  5
5C
330
1F
100
AcDbEntity
  8
0
  6
Continuous
 62
     7
370
    15
100
AcDbLine
 10
6.495323714670154
 20
10.02932237561379
 30
0.0
 11
6.365419904996715
 21
10.14182237483937
 31
0.0
  0
LINE
  5
5D
330
1F
100
AcDbEntity
  8
0
  6
Continuous
 62
     7
370
    15
100
AcDbLine
 10
6.408721029270387
 20
5.812753742330711
 30
0.0
 11
6.495323714670154
 21
5.864121204954022
 31
0.0
  0
LINE
  5
5E
330
1F
100
AcDbEntity
  8
0
  6
Continuous
 62
     7
370
    15
100
AcDbLine
 10
6.408721029270387
 20
5.536012170640685
 30
0.0
 11
6.408721029270387
 21
5.812753742330711
 31
0.0
  0
LINE
  5
5F
330
1F
100
AcDbEntity
  8
0
  6
Continuous
 62
     7
370
    15
100
AcDbLine
 10
6.408721029270387
 20
5.536012170640685
 30
0.0
 11
5.033375750377117
 21
5.138984187141831
 31
0.0
  0
LINE
  5
60
330
1F
100
AcDbEntity
  8
0
  6
Continuous
 62
     7
370
    15
100
AcDbLine
 10
6.365419889795451
 20
6.129729990048276
 30
0.0
 11
5.033375750377117
 21
5.745201968815457
 31
0.0
  0
LINE
  5
61
330
1F
100
AcDbEntity
  8
0
  6
Continuous
 62
     7
370
    15
100
AcDbLine
 10
6.365419889795451
 20
5.895885445025911
 30
0.0
 11
6.365419889795451
 21
6.129729990048276
 31
0.0
  0
LINE
  5
62
330
1F
100
AcDbEntity
  8
0
  6
Continuous
 62
     7
370
    15
100
AcDbLine
 10
6.495323714670154
 20
5.864121204954022
 30
0.0
 11
6.365419889795451
 21
5.895885445025911
 31
0.0
  0
LINE
  5
63
330
1F
100
AcDbEntity
  8
0
  6
Continuous
 62
     7
370
    15
100
AcDbLine
 10
6.215419895274854
 20
6.259633795870639
 30
0.0
 11
5.033375759057808
 21
5.918407045751176
 31
0.0
  0
LINE
  5
64
330
1F
100
AcDbEntity
  8
0
  6
Continuous
 62
     7
370
    15
100
AcDbLine
 10
6.365419889795451
 20
6.129729990048276
 30
0.0
 11
6.215419895274854
 21
6.259633795870639
 31
0.0
  0
LINE
  5
65
330
1F
100
AcDbEntity
  8
0
  6
Continuous
 62
     7
370
    15
100
AcDbLine
 10
6.495323714670154
 20
5.864121204954022
 30
0.0
 11
6.365419904996715
 21
5.976621204179598
 31
0.0
  0
LINE
  5
66
330
1F
100
AcDbEntity
  8
0
  6
Continuous
 62
     7
370
    15
100
AcDbLine
 10
4.330260136112571
 20
9.101213363218075
 30
0.0
 11
4.330260136112571
 21
9.707431144891701
 31
0.0
  0
LINE
  5
67
330
1F
100
AcDbEntity
  8
0
  6
Continuous
 62
     7
370
    15
100
AcDbLine
 10
3.37763222251472
 20
8.82621337204144
 30
0.0
 11
4.330260136112571
 21
9.101213363218075
 31
0.0
  0
LINE
  5
68
330
1F
100
AcDbEntity
  8
0
  6
Continuous
 62
     7
370
    15
100
AcDbLine
 10
3.37763222251472
 20
8.82621337204144
 30
0.0
 11
3.37763222251472
 21
9.102954943731466
 31
0.0
  0
LINE
  5
69
330
1F
100
AcDbEntity
  8
0
  6
Continuous
 62
     7
370
    15
100
AcDbLine
 10
3.37763222251472
 20
9.102954943731466
 30
0.0
 11
3.291029638727427
 21
9.104322351959671
 31
0.0
  0
LINE
  5
6A
330
1F
100
AcDbEntity
  8
0
  6
Continuous
 62
     7
370
    15
100
AcDbLine
 10
3.291029638727427
 20
9.104322351959671
 30
0.0
 11
3.420933463602129
 21
9.211086701904207
 31
0.0
  0
LINE
  5
6B
330
1F
100
AcDbEntity
  8
0
  6
Continuous
 62
     7
370
    15
100
AcDbLine
 10
3.420933463602129
 20
9.211086701904207
 30
0.0
 11
3.420933463602129
 21
9.444931145314098
 31
0.0
  0
LINE
  5
6C
330
1F
100
AcDbEntity
  8
0
  6
Continuous
 62
     7
370
    15
100
AcDbLine
 10
3.420933463602129
 20
9.444931145314098
 30
0.0
 11
4.330260136112571
 21
9.707431144891701
 31
0.0
  0
LINE
  5
6D
330
1F
100
AcDbEntity
  8
0
  6
Continuous
 62
     7
370
    15
100
AcDbLine
 10
4.330260136112571
 20
9.707431144891701
 30
0.0
 11
4.180260141591976
 21
9.837334950714065
 31
0.0
  0
LINE
  5
6E
330
1F
100
AcDbEntity
  8
0
  6
Continuous
 62
     7
370
    15
100
AcDbLine
 10
3.270933469081533
 20
9.574834951136461
 30
0.0
 11
3.420933463602129
 21
9.444931145314098
 31
0.0
  0
LINE
  5
6F
330
1F
100
AcDbEntity
  8
0
  6
Continuous
 62
     7
370
    15
100
AcDbLine
 10
3.270933469081533
 20
9.574834951136461
 30
0.0
 11
4.180260141591976
 21
9.837334950714065
 31
0.0
  0
LINE
  5
70
330
1F
100
AcDbEntity
  8
0
  6
Continuous
 62
     7
370
    15
100
AcDbLine
 10
3.270933469081533
 20
9.340990507726569
 30
0.0
 11
3.420933463602129
 21
9.211086701904207
 31
0.0
  0
LINE
  5
71
330
1F
100
AcDbEntity
  8
0
  6
Continuous
 62
     7
370
    15
100
AcDbLine
 10
3.270933469081533
 20
9.340990507726569
 30
0.0
 11
3.270933469081533
 21
9.574834951136461
 31
0.0
  0
LINE
  5
72
330
1F
100
AcDbEntity
  8
0
  6
Continuous
 62
     7
370
    15
100
AcDbLine
 10
3.141029644206831
 20
9.234226157782037
 30
0.0
 11
3.291029638727427
 21
9.104322351959671
 31
0.0
  0
LINE
  5
73
330
1F
100
AcDbEntity
  8
0
  6
Continuous
 62
     7
370
    15
100
AcDbLine
 10
3.141029644206831
 20
9.234226157782037
 30
0.0
 11
3.270933469081533
 21
9.340990507726569
 31
0.0
  0
LINE
  5
74
330
1F
100
AcDbEntity
  8
0
  6
Continuous
 62
     7
370
    15
100
AcDbLine
 10
3.227632227994124
 20
8.956117177863804
 30
0.0
 11
3.37763222251472
 21
8.82621337204144
 31
0.0
  0
LINE
  5
75
330
1F
100
AcDbEntity
  8
0
  6
Continuous
 62
     7
370
    15
100
AcDbLine
 10
3.227632227994124
 20
8.956117177863804
 30
0.0
 11
3.227632227994124
 21
9.159226083501838
 31
0.0
  0
LINE
  5
76
330
1F
100
AcDbEntity
  8
0
  6
Continuous
 62
     7
370
    15
100
AcDbLine
 10
4.330260136112571
 20
7.022752411315553
 30
0.0
 11
4.330260136112571
 21
7.628970200927655
 31
0.0
  0
LINE
  5
77
330
1F
100
AcDbEntity
  8
0
  6
Continuous
 62
     7
370
    15
100
AcDbLine
 10
2.338401725129575
 20
6.447752416431229
 30
0.0
 11
4.330260136112571
 21
7.022752411315553
 31
0.0
  0
LINE
  5
78
330
1F
100
AcDbEntity
  8
0
  6
Continuous
 62
     7
370
    15
100
AcDbLine
 10
2.338401725129575
 20
6.447752416431229
 30
0.0
 11
2.338401725129575
 21
6.724493970656611
 31
0.0
  0
LINE
  5
79
330
1F
100
AcDbEntity
  8
0
  6
Continuous
 62
     7
370
    15
100
AcDbLine
 10
2.338401725129575
 20
6.724493970656611
 30
0.0
 11
2.251799242954756
 21
6.725861332008456
 31
0.0
  0
LINE
  5
7A
330
1F
100
AcDbEntity
  8
0
  6
Continuous
 62
     7
370
    15
100
AcDbLine
 10
2.251799242954756
 20
6.725861332008456
 30
0.0
 11
2.381703067829458
 21
6.83262568195299
 31
0.0
  0
LINE
  5
7B
330
1F
100
AcDbEntity
  8
0
  6
Continuous
 62
     7
370
    15
100
AcDbLine
 10
2.381703067829458
 20
6.83262568195299
 30
0.0
 11
2.381703067829458
 21
7.066470226975354
 31
0.0
  0
LINE
  5
7C
330
1F
100
AcDbEntity
  8
0
  6
Continuous
 62
     7
370
    15
100
AcDbLine
 10
2.381703067829458
 20
7.066470226975354
 30
0.0
 11
4.330260136112571
 21
7.628970200927655
 31
0.0
  0
LINE
  5
7D
330
1F
100
AcDbEntity
  8
0
  6
Continuous
 62
     7
370
    15
100
AcDbLine
 10
4.330260136112571
 20
7.628970200927655
 30
0.0
 11
4.180260141591976
 21
7.758874006750018
 31
0.0
  0
LINE
  5
7E
330
1F
100
AcDbEntity
  8
0
  6
Continuous
 62
     7
370
    15
100
AcDbLine
 10
2.231703073308862
 20
7.196374032797718
 30
0.0
 11
2.381703067829458
 21
7.066470226975354
 31
0.0
  0
LINE
  5
7F
330
1F
100
AcDbEntity
  8
0
  6
Continuous
 62
     7
370
    15
100
AcDbLine
 10
2.231703073308862
 20
7.196374032797718
 30
0.0
 11
4.180260141591976
 21
7.758874006750018
 31
0.0
  0
LINE
  5
80
330
1F
100
AcDbEntity
  8
0
  6
Continuous
 62
     7
370
    15
100
AcDbLine
 10
2.231703073308862
 20
6.962529487775353
 30
0.0
 11
2.381703067829458
 21
6.83262568195299
 31
0.0
  0
LINE
  5
81
330
1F
100
AcDbEntity
  8
0
  6
Continuous
 62
     7
370
    15
100
AcDbLine
 10
2.231703073308862
 20
6.962529487775353
 30
0.0
 11
2.231703073308862
 21
7.196374032797718
 31
0.0
  0
LINE
  5
82
330
1F
100
AcDbEntity
  8
0
  6
Continuous
 62
     7
370
    15
100
AcDbLine
 10
2.10179924843416
 20
6.85576513783082
 30
0.0
 11
2.251799242954756
 21
6.725861332008456
 31
0.0
  0
LINE
  5
83
330
1F
100
AcDbEntity
  8
0
  6
Continuous
 62
     7
370
    15
100
AcDbLine
 10
2.10179924843416
 20
6.85576513783082
 30
0.0
 11
2.231703073308862
 21
6.962529487775353
 31
0.0
  0
LINE
  5
84
330
1F
100
AcDbEntity
  8
0
  6
Continuous
 62
     7
370
    15
100
AcDbLine
 10
2.18840173060898
 20
6.577656222253592
 30
0.0
 11
2.338401725129575
 21
6.447752416431229
 31
0.0
  0
LINE
  5
85
330
1F
100
AcDbEntity
  8
0
  6
Continuous
 62
     7
370
    15
100
AcDbLine
 10
2.18840173060898
 20
6.577656222253592
 30
0.0
 11
2.18840173060898
 21
6.780765110426981
 31
0.0
  0
LINE
  5
86
330
1F
100
AcDbEntity
  8
0
  6
Continuous
 62
     7
370
    15
100
AcDbLine
 10
4.321980929590246
 20
4.933622191501129
 30
0.0
 11
4.321980929590246
 21
5.012276749220486
 31
0.0
  0
LINE
  5
87
330
1F
100
AcDbEntity
  8
0
  6
Continuous
 62
     7
370
    15
100
AcDbLine
 10
4.321980929590246
 20
5.518189403437288
 30
0.0
 11
4.321980929590246
 21
5.539839973174755
 31
0.0
  0
LINE
  5
88
330
1F
100
AcDbEntity
  8
0
  6
Continuous
 62
     7
370
    15
100
AcDbLine
 10
1.810507244511559
 20
4.20862218742971
 30
0.0
 11
4.321980929590246
 21
4.933622191501129
 31
0.0
  0
LINE
  5
89
330
1F
100
AcDbEntity
  8
0
  6
Continuous
 62
     7
370
    15
100
AcDbLine
 10
1.810507244511559
 20
4.20862218742971
 30
0.0
 11
1.810507244511559
 21
4.485363759119738
 31
0.0
  0
LINE
  5
8A
330
1F
100
AcDbEntity
  8
0
  6
Continuous
 62
     7
370
    15
100
AcDbLine
 10
1.810507244511559
 20
4.485363759119738
 30
0.0
 11
1.72390476233674
 21
4.486731196680938
 31
0.0
  0
LINE
  5
8B
330
1F
100
AcDbEntity
  8
0
  6
Continuous
 62
     7
370
    15
100
AcDbLine
 10
1.72390476233674
 20
4.486731196680938
 30
0.0
 11
1.853808587211442
 21
4.593495445012997
 31
0.0
  0
LINE
  5
8C
330
1F
100
AcDbEntity
  8
0
  6
Continuous
 62
     7
370
    15
100
AcDbLine
 10
1.853808587211442
 20
4.593495445012997
 30
0.0
 11
1.853808587211442
 21
4.827339990035362
 31
0.0
  0
LINE
  5
8D
330
1F
100
AcDbEntity
  8
0
  6
Continuous
 62
     7
370
    15
100
AcDbLine
 10
1.853808587211442
 20
4.827339990035362
 30
0.0
 11
4.321980929590246
 21
5.539839973174755
 31
0.0
  0
LINE
  5
8E
330
1F
100
AcDbEntity
  8
0
  6
Continuous
 62
     7
370
    15
100
AcDbLine
 10
4.321980929590246
 20
5.539839973174755
 30
0.0
 11
4.17198093506965
 21
5.66974377899712
 31
0.0
  0
LINE
  5
8F
330
1F
100
AcDbEntity
  8
0
  6
Continuous
 62
     7
370
    15
100
AcDbLine
 10
1.703808592690846
 20
4.957243795857727
 30
0.0
 11
1.853808587211442
 21
4.827339990035362
 31
0.0
  0
LINE
  5
90
330
1F
100
AcDbEntity
  8
0
  6
Continuous
 62
     7
370
    15
100
AcDbLine
 10
1.703808592690846
 20
4.957243795857727
 30
0.0
 11
4.17198093506965
 21
5.66974377899712
 31
0.0
  0
LINE
  5
91
330
1F
100
AcDbEntity
  8
0
  6
Continuous
 62
     7
370
    15
100
AcDbLine
 10
1.703808592690846
 20
4.723399250835361
 30
0.0
 11
1.853808587211442
 21
4.593495445012997
 31
0.0
  0
LINE
  5
92
330
1F
100
AcDbEntity
  8
0
  6
Continuous
 62
     7
370
    15
100
AcDbLine
 10
1.703808592690846
 20
4.723399250835361
 30
0.0
 11
1.703808592690846
 21
4.957243795857727
 31
0.0
  0
LINE
  5
93
330
1F
100
AcDbEntity
  8
0
  6
Continuous
 62
     7
370
    15
100
AcDbLine
 10
1.573904767816145
 20
4.616635002503301
 30
0.0
 11
1.72390476233674
 21
4.486731196680938
 31
0.0
  0
LINE
  5
94
330
1F
100
AcDbEntity
  8
0
  6
Continuous
 62
     7
370
    15
100
AcDbLine
 10
1.573904767816145
 20
4.616635002503301
 30
0.0
 11
1.703808592690846
 21
4.723399250835361
 31
0.0
  0
LINE
  5
95
330
1F
100
AcDbEntity
  8
0
  6
Continuous
 62
     7
370
    15
100
AcDbLine
 10
1.660507249990964
 20
4.338525993252074
 30
0.0
 11
1.810507244511559
 21
4.20862218742971
 31
0.0
  0
LINE
  5
96
330
1F
100
AcDbEntity
  8
0
  6
Continuous
 62
     7
370
    15
100
AcDbLine
 10
1.660507249990964
 20
4.338525993252074
 30
0.0
 11
1.660507249990964
 21
4.541634898890108
 31
0.0
  0
LINE
  5
97
330
1F
100
AcDbEntity
  8
0
  6
Continuous
 62
     7
370
    15
100
AcDbLine
 10
4.077157980636938
 20
10.34307829314683
 30
0.0
 11
4.427157980073743
 21
10.03996940231001
 31
0.0
  0
LINE
  5
98
330
1F
100
AcDbEntity
  8
0
  6
Continuous
 62
     7
370
    15
100
AcDbLine
 10
4.427157980073743
 20
10.03996940231001
 30
0.0
 11
4.427157980073743
 21
3.891189103398927
 31
0.0
  0
LINE
  5
99
330
1F
100
AcDbEntity
  8
0
  6
Continuous
 62
     7
370
    15
100
AcDbLine
 10
4.427157980073743
 20
3.891189103398927
 30
0.0
 11
4.272827126583599
 21
4.024843543109127
 31
0.0
  0
LINE
  5
9A
330
1F
100
AcDbEntity
  8
0
  6
Continuous
 62
     7
370
    15
100
AcDbLine
 10
4.272827126583599
 20
4.024843543109127
 30
0.0
 11
4.25215798035534
 21
3.956141066642516
 31
0.0
  0
LINE
  5
9B
330
1F
100
AcDbEntity
  8
0
  6
Continuous
 62
     7
370
    15
100
AcDbLine
 10
4.25215798035534
 20
3.956141066642516
 30
0.0
 11
4.221029626952734
 21
4.113002836341854
 31
0.0
  0
LINE
  5
9C
330
1F
100
AcDbEntity
  8
0
  6
Continuous
 62
     7
370
    15
100
AcDbLine
 10
4.221029626952734
 20
4.113002836341854
 30
0.0
 11
4.077157980636938
 21
4.237599336935625
 31
0.0
  0
LINE
  5
9D
330
1F
100
AcDbEntity
  8
0
  6
Continuous
 62
     7
370
    15
100
AcDbLine
 10
4.077157980636938
 20
10.34307829314683
 30
0.0
 11
4.077157980636938
 21
9.807572022135827
 31
0.0
  0
LINE
  5
9E
330
1F
100
AcDbEntity
  8
0
  6
Continuous
 62
     7
370
    15
100
AcDbLine
 10
4.077157980636938
 20
9.028149072887616
 30
0.0
 11
4.077157980636938
 21
7.729110976559307
 31
0.0
  0
LINE
  5
9F
330
1F
100
AcDbEntity
  8
0
  6
Continuous
 62
     7
370
    15
100
AcDbLine
 10
4.077157980636938
 20
6.94968810352045
 30
0.0
 11
4.077157980636938
 21
5.642370851476051
 31
0.0
  0
LINE
  5
A0
330
1F
100
AcDbEntity
  8
0
  6
Continuous
 62
     7
370
    15
100
AcDbLine
 10
4.077157980636938
 20
4.862947902227841
 30
0.0
 11
4.077157980636938
 21
4.237599336935625
 31
0.0
  0
LINE
  5
A1
330
1F
100
AcDbEntity
  8
0
  6
Continuous
 62
     7
370
    15
100
AcDbLine
 10
4.427157980073743
 20
10.03996940231001
 30
0.0
 11
5.033375761747371
 21
10.21496940202841
 31
0.0
  0
LINE
  5
A2
330
1F
100
AcDbEntity
  8
0
  6
Continuous
 62
     7
370
    15
100
AcDbLine
 10
5.033375761747371
 20
10.21496940202841
 30
0.0
 11
5.033375761747371
 21
4.066189103117331
 31
0.0
  0
LINE
  5
A3
330
1F
100
AcDbEntity
  8
0
  6
Continuous
 62
     7
370
    15
100
AcDbLine
 10
5.033375761747371
 20
4.066189103117331
 30
0.0
 11
4.427157980073743
 21
3.891189103398927
 31
0.0
  0
LINE
  5
A4
330
1F
100
AcDbEntity
  8
0
  6
Continuous
 62
     7
370
    15
100
AcDbLine
 10
4.683375762310566
 20
10.51807829286523
 30
0.0
 11
4.077157980636938
 21
10.34307829314683
 31
0.0
  0
LINE
  5
A5
330
1F
100
AcDbEntity
  8
0
  6
Continuous
 62
     7
370
    15
100
AcDbLine
 10
5.033375761747371
 20
10.21496940202841
 30
0.0
 11
4.683375762310566
 21
10.51807829286523
 31
0.0
  0
LINE
  5
A6
330
1F
100
AcDbEntity
  8
0
  6
Continuous
 62
     7
370
    15
100
AcDbLine
 10
4.327157969254425
 20
3.977791698532568
 30
0.0
 11
4.25215798035534
 21
3.956141066642516
 31
0.0
  0
LINE
  5
A7
330
1F
100
AcDbEntity
  8
0
  6
Continuous
 62
     7
370
    15
100
AcDbLine
 10
4.318100678406482
 20
7.09754697731859
 30
0.0
 11
4.202226487753642
 21
7.064096979735817
 31
0.0
  0
LINE
  5
A8
330
1F
100
AcDbEntity
  8
0
  6
Continuous
 62
     7
370
    15
100
AcDbLine
 10
4.202226487753642
 20
7.564839978696388
 30
0.0
 11
4.202226487753642
 21
7.064096979735817
 31
0.0
  0
LINE
  5
A9
330
1F
100
AcDbEntity
  8
0
  6
Continuous
 62
     7
370
    15
100
AcDbLine
 10
4.318100678406482
 20
7.59828997627916
 30
0.0
 11
4.202226487753642
 21
7.564839978696388
 31
0.0
  0
LWPOLYLINE
  5
AA
330
1F
100
AcDbEntity
  8
0
  6
Continuous
 62
     7
370
    15
100
AcDbPolyline
 90
       17
 70
   128
 43
0.0
 10
4.240176307921993
 20
7.1616546885126
 10
4.239147913480398
 20
7.15618776125341
 10
4.236219314977343
 20
7.150959395252631
 10
4.231836362543608
 20
7.146765547365845
 10
4.226666319889821
 20
7.144244702866867
 10
4.221496251832916
 20
7.14378061451471
 10
4.217113299399181
 20
7.145443963634035
 10
4.214184700896126
 20
7.148981502500727
 10
4.213156306454532
 20
7.153854685952229
 10
4.214184700896126
 20
7.159321613211418
 10
4.217113299399181
 20
7.164549979212197
 10
4.221496251832916
 20
7.168743827098983
 10
4.226666319889821
 20
7.171264691632769
 10
4.231836362543608
 20
7.171728759950118
 10
4.236219314977343
 20
7.170065410830794
 10
4.239147913480398
 20
7.166527871964103
 10
4.240176307921993
 20
7.1616546885126
  0
LINE
  5
AB
330
1F
100
AcDbEntity
  8
0
  6
Continuous
 62
     7
370
    15
100
AcDbLine
 10
4.197446485639301
 20
7.568979581957551
 30
0.0
 11
4.202226487753642
 21
7.564839978696388
 31
0.0
  0
LINE
  5
AC
330
1F
100
AcDbEntity
  8
0
  6
Continuous
 62
     7
370
    15
100
AcDbLine
 10
4.313320676292141
 20
7.602429579540324
 30
0.0
 11
4.197446485639301
 21
7.568979581957551
 31
0.0
  0
LINE
  5
AD
330
1F
100
AcDbEntity
  8
0
  6
Continuous
 62
     7
370
    15
100
AcDbLine
 10
4.197446485639301
 20
7.06823658299698
 30
0.0
 11
4.202226487753642
 21
7.064096979735817
 31
0.0
  0
LINE
  5
AE
330
1F
100
AcDbEntity
  8
0
  6
Continuous
 62
     7
370
    15
100
AcDbLine
 10
4.197446485639301
 20
7.568979581957551
 30
0.0
 11
4.197446485639301
 21
7.06823658299698
 31
0.0
  0
LWPOLYLINE
  5
AF
330
1F
100
AcDbEntity
  8
0
  6
Continuous
 62
     7
370
    15
100
AcDbPolyline
 90
        7
 70
   128
 43
0.0
 10
4.318100678406482
 20
7.59828997627916
 10
4.321217473651239
 20
7.599406711003193
 10
4.323838665632105
 20
7.600806015104569
 10
4.325863517978725
 20
7.602434125134653
 10
4.327214181669123
 20
7.604228456492617
 10
4.327838809327544
 20
7.606120068971424
 10
4.327880673592976
 20
7.606759704312769
  0
LWPOLYLINE
  5
B0
330
1F
100
AcDbEntity
  8
0
  6
Continuous
 62
     7
370
    15
100
AcDbPolyline
 90
        7
 70
   128
 43
0.0
 10
4.318100678406482
 20
7.09754697731859
 10
4.321217473651239
 20
7.098663712042624
 10
4.323838665632105
 20
7.100063016143999
 10
4.325863517978725
 20
7.101691126174083
 10
4.327214181669123
 20
7.103485457532047
 10
4.327838809327544
 20
7.105377070010854
 10
4.327880673592976
 20
7.106016705352199
  0
ARC
  5
B1
330
1F
100
AcDbEntity
  8
0
  6
Continuous
 62
     7
370
    15
100
AcDbCircle
 10
4.218085741598406
 20
7.165398440933098
 30
0.0
 40
0.0173150896945552
100
AcDbArc
 50
257.8576399426264
 51
1.309987937209453
  0
LWPOLYLINE
  5
B2
330
1F
100
AcDbEntity
  8
0
  6
Continuous
 62
     7
370
    15
100
AcDbPolyline
 90
        3
 70
   128
 43
0.0
 10
4.234108951977238
 20
7.171178261967625
 10
4.234367911366058
 20
7.170667475225265
 10
4.235396305807652
 20
7.165794291773762
  0
LINE
  5
B3
330
1F
100
AcDbEntity
  8
0
  6
Continuous
 62
     7
370
    15
100
AcDbLine
 10
4.318100678406482
 20
5.010806782376761
 30
0.0
 11
4.202226487753642
 21
4.977356784793988
 31
0.0
  0
LINE
  5
B4
330
1F
100
AcDbEntity
  8
0
  6
Continuous
 62
     7
370
    15
100
AcDbLine
 10
4.202226487753642
 20
5.478099802806895
 30
0.0
 11
4.202226487753642
 21
4.977356784793988
 31
0.0
  0
LINE
  5
B5
330
1F
100
AcDbEntity
  8
0
  6
Continuous
 62
     7
370
    15
100
AcDbLine
 10
4.318100678406482
 20
5.511549800389669
 30
0.0
 11
4.202226487753642
 21
5.478099802806895
 31
0.0
  0
LWPOLYLINE
  5
B6
330
1F
100
AcDbEntity
  8
0
  6
Continuous
 62
     7
370
    15
100
AcDbPolyline
 90
       17
 70
   128
 43
0.0
 10
4.240176307921993
 20
5.074914436413753
 10
4.239147913480398
 20
5.069447521856123
 10
4.236219314977343
 20
5.064219155855345
 10
4.231836362543608
 20
5.06002543498415
 10
4.226666319889821
 20
5.05750445076802
 10
4.221496251832916
 20
5.057040502133015
 10
4.217113299399181
 20
5.058703724236748
 10
4.214184700896126
 20
5.062241263103439
 10
4.213156306454532
 20
5.067114433853383
 10
4.214184700896126
 20
5.072581348411012
 10
4.217113299399181
 20
5.077809714411791
 10
4.221496251832916
 20
5.082003638507933
 10
4.226666319889821
 20
5.084524426832364
 10
4.231836362543608
 20
5.084988571359066
 10
4.236219314977343
 20
5.083325146030388
 10
4.239147913480398
 20
5.079787607163697
 10
4.240176307921993
 20
5.074914436413753
  0
LINE
  5
B7
330
1F
100
AcDbEntity
  8
0
  6
Continuous
 62
     7
370
    15
100
AcDbLine
 10
4.197446485639301
 20
5.482239406068058
 30
0.0
 11
4.202226487753642
 21
5.478099802806895
 31
0.0
  0
LINE
  5
B8
330
1F
100
AcDbEntity
  8
0
  6
Continuous
 62
     7
370
    15
100
AcDbLine
 10
4.313320676292141
 20
5.515689403650832
 30
0.0
 11
4.197446485639301
 21
5.482239406068058
 31
0.0
  0
LINE
  5
B9
330
1F
100
AcDbEntity
  8
0
  6
Continuous
 62
     7
370
    15
100
AcDbLine
 10
4.197446485639301
 20
4.98149638805515
 30
0.0
 11
4.202226487753642
 21
4.977356784793988
 31
0.0
  0
LINE
  5
BA
330
1F
100
AcDbEntity
  8
0
  6
Continuous
 62
     7
370
    15
100
AcDbLine
 10
4.197446485639301
 20
5.482239406068058
 30
0.0
 11
4.197446485639301
 21
4.98149638805515
 31
0.0
  0
LWPOLYLINE
  5
BB
330
1F
100
AcDbEntity
  8
0
  6
Continuous
 62
     7
370
    15
100
AcDbPolyline
 90
        9
 70
   128
 43
0.0
 10
4.318100678406482
 20
5.511549800389669
 10
4.321217473651239
 20
5.512666535113702
 10
4.323838665632105
 20
5.514065839215077
 10
4.325863517978725
 20
5.515693949245161
 10
4.327214181669123
 20
5.517488280603125
 10
4.327838809327544
 20
5.519379893081933
 10
4.327713347751481
 20
5.521296074446614
 10
4.32684263300923
 20
5.523163205341242
 10
4.32526013653966
 20
5.524909531143512
  0
LWPOLYLINE
  5
BC
330
1F
100
AcDbEntity
  8
0
  6
Continuous
 62
     7
370
    15
100
AcDbPolyline
 90
        7
 70
   128
 43
0.0
 10
4.318100678406482
 20
5.010806782376761
 10
4.321217473651239
 20
5.011923517100792
 10
4.323838665632105
 20
5.013322821202168
 10
4.325863517978725
 20
5.014950931232253
 10
4.327214181669123
 20
5.016745262590218
 10
4.327838809327544
 20
5.018636875069025
 10
4.327880673592976
 20
5.019276510410369
  0
LINE
  5
BD
330
1F
100
AcDbEntity
  8
0
  6
Continuous
 62
     7
370
    15
100
AcDbLine
 10
4.32526013653966
 20
5.524909531143512
 30
0.0
 11
4.321980935087942
 21
5.527749402904825
 31
0.0
  0
ARC
  5
BE
330
1F
100
AcDbEntity
  8
0
  6
Continuous
 62
     7
370
    15
100
AcDbCircle
 10
4.218085783025539
 20
5.078658275253324
 30
0.0
 40
0.0173150463027809
100
AcDbArc
 50
257.8574688296695
 51
1.309705183725978
  0
LWPOLYLINE
  5
BF
330
1F
100
AcDbEntity
  8
0
  6
Continuous
 62
     7
370
    15
100
AcDbPolyline
 90
        3
 70
   128
 43
0.0
 10
4.234108951977238
 20
5.084438149585929
 10
4.234367911366058
 20
5.083927210424858
 10
4.235396305807652
 20
5.079054039674916
  0
LINE
  5
C0
330
1F
100
AcDbEntity
  8
0
  6
Continuous
 62
     7
370
    15
100
AcDbLine
 10
5.033375774720478
 20
9.883233105750205
 30
0.0
 11
5.074071570373812
 21
9.894980970037874
 31
0.0
  0
LINE
  5
C1
330
1F
100
AcDbEntity
  8
0
  6
Continuous
 62
     7
370
    15
100
AcDbLine
 10
5.074071570373812
 20
9.394237952024965
 30
0.0
 11
5.074071570373812
 21
9.894980970037874
 31
0.0
  0
LINE
  5
C2
330
1F
100
AcDbEntity
  8
0
  6
Continuous
 62
     7
370
    15
100
AcDbLine
 10
5.074071570373812
 20
9.394237952024965
 30
0.0
 11
5.033375774720478
 21
9.382490087737295
 31
0.0
  0
LWPOLYLINE
  5
C3
330
1F
100
AcDbEntity
  8
0
  6
Continuous
 62
     7
370
    15
100
AcDbPolyline
 90
       17
 70
   128
 43
0.0
 10
5.063089776892705
 20
9.741808027185431
 10
5.062061382451112
 20
9.736341112627799
 10
5.059132783948055
 20
9.731112746627021
 10
5.05474983151432
 20
9.72691882253088
 10
5.049579788860534
 20
9.724398041539698
 10
5.044409720803629
 20
9.723933889679745
 10
5.040026768369894
 20
9.725597315008425
 10
5.037098169866838
 20
9.729134853875116
 10
5.036069800828362
 20
9.734008031958307
 10
5.037098169866838
 20
9.739474939182692
 10
5.040026768369894
 20
9.74470330518347
 10
5.044409720803629
 20
9.748897229279609
 10
5.049579788860534
 20
9.751418017604041
 10
5.05474983151432
 20
9.751882162130746
 10
5.059132783948055
 20
9.750218736802064
 10
5.062061382451112
 20
9.746681197935373
 10
5.063089776892705
 20
9.741808027185431
  0
LINE
  5
C4
330
1F
100
AcDbEntity
  8
0
  6
Continuous
 62
     7
370
    15
100
AcDbLine
 10
5.033375750377117
 20
9.888752569737766
 30
0.0
 11
5.06929156825947
 21
9.899120573299038
 31
0.0
  0
LINE
  5
C5
330
1F
100
AcDbEntity
  8
0
  6
Continuous
 62
     7
370
    15
100
AcDbLine
 10
5.06929156825947
 20
9.899120573299038
 30
0.0
 11
5.074071570373812
 21
9.894980970037874
 31
0.0
  0
ARC
  5
C6
330
1F
100
AcDbEntity
  8
0
  6
Continuous
 62
     7
370
    15
100
AcDbCircle
 10
5.040999185072012
 20
9.74555174838775
 30
0.0
 40
0.0173151158987223
100
AcDbArc
 50
257.8577448993534
 51
1.310089282440952
  0
LWPOLYLINE
  5
C7
330
1F
100
AcDbEntity
  8
0
  6
Continuous
 62
     7
370
    15
100
AcDbPolyline
 90
        3
 70
   128
 43
0.0
 10
5.05702242094795
 20
9.75133153713266
 10
5.05728138033677
 20
9.750820801196537
 10
5.058309774778364
 20
9.745947630446593
  0
LINE
  5
C8
330
1F
100
AcDbEntity
  8
0
  6
Continuous
 62
     7
370
    15
100
AcDbLine
 10
4.318100678406482
 20
9.176007953036535
 30
0.0
 11
4.202226487753642
 21
9.142557955453762
 31
0.0
  0
LINE
  5
C9
330
1F
100
AcDbEntity
  8
0
  6
Continuous
 62
     7
370
    15
100
AcDbLine
 10
4.202226487753642
 20
9.643300973466672
 30
0.0
 11
4.202226487753642
 21
9.142557955453762
 31
0.0
  0
LINE
  5
CA
330
1F
100
AcDbEntity
  8
0
  6
Continuous
 62
     7
370
    15
100
AcDbLine
 10
4.318100678406482
 20
9.676750971049445
 30
0.0
 11
4.202226487753642
 21
9.643300973466672
 31
0.0
  0
LWPOLYLINE
  5
CB
330
1F
100
AcDbEntity
  8
0
  6
Continuous
 62
     7
370
    15
100
AcDbPolyline
 90
       17
 70
   128
 43
0.0
 10
4.240176307921993
 20
9.24011560707353
 10
4.239147913480398
 20
9.234648692515898
 10
4.236219314977343
 20
9.22942032651512
 10
4.231836362543608
 20
9.225226605643925
 10
4.226666319889821
 20
9.222705621427797
 10
4.221496251832916
 20
9.222241672792792
 10
4.217113299399181
 20
9.223904894896524
 10
4.214184700896126
 20
9.227442433763215
 10
4.213156306454532
 20
9.232315604513157
 10
4.214184700896126
 20
9.237782519070789
 10
4.217113299399181
 20
9.243010885071567
 10
4.221496251832916
 20
9.247204809167708
 10
4.226666319889821
 20
9.24972559749214
 10
4.231836362543608
 20
9.250189742018843
 10
4.236219314977343
 20
9.248526316690163
 10
4.239147913480398
 20
9.244988777823472
 10
4.240176307921993
 20
9.24011560707353
  0
LINE
  5
CC
330
1F
100
AcDbEntity
  8
0
  6
Continuous
 62
     7
370
    15
100
AcDbLine
 10
4.197446485639301
 20
9.647440576727834
 30
0.0
 11
4.202226487753642
 21
9.643300973466672
 31
0.0
  0
LINE
  5
CD
330
1F
100
AcDbEntity
  8
0
  6
Continuous
 62
     7
370
    15
100
AcDbLine
 10
4.313320676292141
 20
9.680890574310609
 30
0.0
 11
4.197446485639301
 21
9.647440576727834
 31
0.0
  0
LINE
  5
CE
330
1F
100
AcDbEntity
  8
0
  6
Continuous
 62
     7
370
    15
100
AcDbLine
 10
4.197446485639301
 20
9.146697558714926
 30
0.0
 11
4.202226487753642
 21
9.142557955453762
 31
0.0
  0
LINE
  5
CF
330
1F
100
AcDbEntity
  8
0
  6
Continuous
 62
     7
370
    15
100
AcDbLine
 10
4.197446485639301
 20
9.647440576727834
 30
0.0
 11
4.197446485639301
 21
9.146697558714926
 31
0.0
  0
LWPOLYLINE
  5
D0
330
1F
100
AcDbEntity
  8
0
  6
Continuous
 62
     7
370
    15
100
AcDbPolyline
 90
        7
 70
   128
 43
0.0
 10
4.318100678406482
 20
9.176007953036535
 10
4.321217473651239
 20
9.177124687760567
 10
4.323838665632105
 20
9.178523991861943
 10
4.325863517978725
 20
9.180152101892028
 10
4.327214181669123
 20
9.181946433249992
 10
4.327838809327544
 20
9.1838380457288
 10
4.327880673592976
 20
9.184477681070143
  0
LWPOLYLINE
  5
D1
330
1F
100
AcDbEntity
  8
0
  6
Continuous
 62
     7
370
    15
100
AcDbPolyline
 90
        7
 70
   128
 43
0.0
 10
4.318100678406482
 20
9.676750971049445
 10
4.321217473651239
 20
9.677867705773477
 10
4.323838665632105
 20
9.679267009874854
 10
4.325863517978725
 20
9.680895119904938
 10
4.327214181669123
 20
9.682689451262902
 10
4.327838809327544
 20
9.68458106374171
 10
4.327880673592976
 20
9.685220699083053
  0
ARC
  5
D2
330
1F
100
AcDbEntity
  8
0
  6
Continuous
 62
     7
370
    15
100
AcDbCircle
 10
4.218085783025538
 20
9.243859445913102
 30
0.0
 40
0.0173150463027822
100
AcDbArc
 50
257.8574688296736
 51
1.309705183720034
  0
LWPOLYLINE
  5
D3
330
1F
100
AcDbEntity
  8
0
  6
Continuous
 62
     7
370
    15
100
AcDbPolyline
 90
        3
 70
   128
 43
0.0
 10
4.234108951977238
 20
9.249639320245705
 10
4.234367911366058
 20
9.249128381084634
 10
4.235396305807652
 20
9.244255210334692
  0
LINE
  5
D4
330
1F
100
AcDbEntity
  8
0
  6
Continuous
 62
     7
370
    15
100
AcDbLine
 10
5.033375774720478
 20
5.718031935090428
 30
0.0
 11
5.074071570373812
 21
5.729779799378098
 31
0.0
  0
LINE
  5
D5
330
1F
100
AcDbEntity
  8
0
  6
Continuous
 62
     7
370
    15
100
AcDbLine
 10
5.074071570373812
 20
5.229036781365189
 30
0.0
 11
5.074071570373812
 21
5.729779799378098
 31
0.0
  0
LINE
  5
D6
330
1F
100
AcDbEntity
  8
0
  6
Continuous
 62
     7
370
    15
100
AcDbLine
 10
5.074071570373812
 20
5.229036781365189
 30
0.0
 11
5.033375774720478
 21
5.21728891707752
 31
0.0
  0
LWPOLYLINE
  5
D7
330
1F
100
AcDbEntity
  8
0
  6
Continuous
 62
     7
370
    15
100
AcDbPolyline
 90
       17
 70
   128
 43
0.0
 10
5.063089776892705
 20
5.576606958138127
 10
5.062061382451112
 20
5.571140043580498
 10
5.059132783948055
 20
5.56591167757972
 10
5.05474983151432
 20
5.561717753483578
 10
5.049579788860534
 20
5.559196972492395
 10
5.044409720803629
 20
5.558732820632442
 10
5.040026768369894
 20
5.560396245961122
 10
5.037098169866838
 20
5.563933784827813
 10
5.036069800828362
 20
5.568806962911005
 10
5.037098169866838
 20
5.574273870135387
 10
5.040026768369894
 20
5.579502236136166
 10
5.044409720803629
 20
5.583696058619834
 10
5.049579788860534
 20
5.586216948556738
 10
5.05474983151432
 20
5.586680991470968
 10
5.059132783948055
 20
5.585017667754763
 10
5.062061382451112
 20
5.581480128888071
 10
5.063089776892705
 20
5.576606958138127
  0
LINE
  5
D8
330
1F
100
AcDbEntity
  8
0
  6
Continuous
 62
     7
370
    15
100
AcDbLine
 10
5.033375750377117
 20
5.723551399077989
 30
0.0
 11
5.06929156825947
 21
5.73391940263926
 31
0.0
  0
LINE
  5
D9
330
1F
100
AcDbEntity
  8
0
  6
Continuous
 62
     7
370
    15
100
AcDbLine
 10
5.06929156825947
 20
5.73391940263926
 30
0.0
 11
5.074071570373812
 21
5.729779799378098
 31
0.0
  0
ARC
  5
DA
330
1F
100
AcDbEntity
  8
0
  6
Continuous
 62
     7
370
    15
100
AcDbCircle
 10
5.040999185072017
 20
5.580350679340443
 30
0.0
 40
0.0173151158987173
100
AcDbArc
 50
257.8577448993318
 51
1.310089282458984
  0
LWPOLYLINE
  5
DB
330
1F
100
AcDbEntity
  8
0
  6
Continuous
 62
     7
370
    15
100
AcDbPolyline
 90
        3
 70
   128
 43
0.0
 10
5.05702242094795
 20
5.586130468085357
 10
5.05728138033677
 20
5.585619732149234
 10
5.058309774778364
 20
5.580746561399291
  0
LINE
  5
DC
330
1F
100
AcDbEntity
  8
0
  6
Continuous
 62
     7
370
    15
100
AcDbLine
 10
5.033375774720478
 20
7.804772110979921
 30
0.0
 11
5.074071570373812
 21
7.81651997526759
 31
0.0
  0
LINE
  5
DD
330
1F
100
AcDbEntity
  8
0
  6
Continuous
 62
     7
370
    15
100
AcDbLine
 10
5.074071570373812
 20
7.315776976307019
 30
0.0
 11
5.074071570373812
 21
7.81651997526759
 31
0.0
  0
LINE
  5
DE
330
1F
100
AcDbEntity
  8
0
  6
Continuous
 62
     7
370
    15
100
AcDbLine
 10
5.074071570373812
 20
7.315776976307019
 30
0.0
 11
5.033375774720478
 21
7.304029112019351
 31
0.0
  0
LWPOLYLINE
  5
DF
330
1F
100
AcDbEntity
  8
0
  6
Continuous
 62
     7
370
    15
100
AcDbPolyline
 90
       17
 70
   128
 43
0.0
 10
5.063089776892705
 20
7.663347083221383
 10
5.062061382451112
 20
7.657880168663752
 10
5.059132783948055
 20
7.652651802662973
 10
5.05474983151432
 20
7.648457929373069
 10
5.049579788860534
 20
7.64593709757565
 10
5.044409720803629
 20
7.645472996521934
 10
5.040026768369894
 20
7.647136371044378
 10
5.037098169866838
 20
7.650673909911069
 10
5.036069800828362
 20
7.655547087994261
 10
5.037098169866838
 20
7.661013995218642
 10
5.040026768369894
 20
7.666242412025657
 10
5.044409720803629
 20
7.670436234509326
 10
5.049579788860534
 20
7.672957073639993
 10
5.05474983151432
 20
7.67342116736046
 10
5.059132783948055
 20
7.671757843644254
 10
5.062061382451112
 20
7.668220253971327
 10
5.063089776892705
 20
7.663347083221383
  0
LINE
  5
E0
330
1F
100
AcDbEntity
  8
0
  6
Continuous
 62
     7
370
    15
100
AcDbLine
 10
5.033375750377117
 20
7.810291574967481
 30
0.0
 11
5.06929156825947
 21
7.820659578528752
 31
0.0
  0
LINE
  5
E1
330
1F
100
AcDbEntity
  8
0
  6
Continuous
 62
     7
370
    15
100
AcDbLine
 10
5.06929156825947
 20
7.820659578528752
 30
0.0
 11
5.074071570373812
 21
7.81651997526759
 31
0.0
  0
ARC
  5
E2
330
1F
100
AcDbEntity
  8
0
  6
Continuous
 62
     7
370
    15
100
AcDbCircle
 10
5.040999336714288
 20
7.667090720304501
 30
0.0
 40
0.0173149662195559
100
AcDbArc
 50
257.857125062965
 51
1.310379035417887
  0
LWPOLYLINE
  5
E3
330
1F
100
AcDbEntity
  8
0
  6
Continuous
 62
     7
370
    15
100
AcDbPolyline
 90
        3
 70
   128
 43
0.0
 10
5.05702242094795
 20
7.672870643974849
 10
5.05728138033677
 20
7.672359857232489
 10
5.058309774778364
 20
7.667486686482546
  0
LINE
  5
E4
330
1F
100
AcDbEntity
  8
0
  6
Continuous
 62
     8
370
    15
100
AcDbLine
 10
4.318100678406482
 20
7.09754697731859
 30
0.0
 11
4.318100678406482
 21
7.59828997627916
 31
0.0
  0
LINE
  5
E5
330
1F
100
AcDbEntity
  8
0
  6
Continuous
 62
     8
370
    15
100
AcDbLine
 10
4.318100678406482
 20
7.59828997627916
 30
0.0
 11
4.313320676292141
 21
7.602429579540324
 31
0.0
  0
LINE
  5
E6
330
1F
100
AcDbEntity
  8
0
  6
Continuous
 62
     8
370
    15
100
AcDbLine
 10
4.318100678406482
 20
5.010806782376761
 30
0.0
 11
4.318100678406482
 21
5.511549800389669
 31
0.0
  0
LINE
  5
E7
330
1F
100
AcDbEntity
  8
0
  6
Continuous
 62
     8
370
    15
100
AcDbLine
 10
4.318100678406482
 20
5.511549800389669
 30
0.0
 11
4.313320676292141
 21
5.515689403650832
 31
0.0
  0
LINE
  5
E8
330
1F
100
AcDbEntity
  8
0
  6
Continuous
 62
     8
370
    15
100
AcDbLine
 10
4.32198092419665
 20
5.523962904079028
 30
0.0
 11
4.32526013653966
 21
5.524909531143512
 31
0.0
  0
LINE
  5
E9
330
1F
100
AcDbEntity
  8
0
  6
Continuous
 62
     8
370
    15
100
AcDbLine
 10
4.318100678406482
 20
9.176007953036535
 30
0.0
 11
4.318100678406482
 21
9.676750971049445
 31
0.0
  0
LINE
  5
EA
330
1F
100
AcDbEntity
  8
0
  6
Continuous
 62
     8
370
    15
100
AcDbLine
 10
4.318100678406482
 20
9.676750971049445
 30
0.0
 11
4.313320676292141
 21
9.680890574310609
 31
0.0
  0
TEXT
  5
F2
330
1F
100
AcDbEntity
  8
0
100
AcDbText
 10
3.69619273657927
 20
2.800343242055113
 30
0.0
 40
0.25
  1
USP  FB
100
AcDbText
  0
TEXT
  5
F3
330
1F
100
AcDbEntity
  8
0
100
AcDbText
 10
2.759639322043149
 20
2.28466104769366
 30
0.0
 40
0.25
  1
SIMPSON  FB
100
AcDbText
  0
ENDSEC
  0
SECTION
  2
OBJECTS
  0
DICTIONARY
  5
C
330
0
100
AcDbDictionary
281
     1
  3
ACAD_COLOR
350
EF
  3
ACAD_GROUP
350
D
  3
ACAD_LAYOUT
350
1A
  3
ACAD_MATERIAL
350
EE
  3
ACAD_MLINESTYLE
350
17
  3
ACAD_PLOTSETTINGS
350
19
  3
ACAD_PLOTSTYLENAME
350
E
  0
DICTIONARY
  5
EF
102
{ACAD_REACTORS
330
C
102
}
330
C
100
AcDbDictionary
281
     1
  0
DICTIONARY
  5
D
102
{ACAD_REACTORS
330
C
102
}
330
C
100
AcDbDictionary
281
     1
  0
DICTIONARY
  5
1A
102
{ACAD_REACTORS
330
C
102
}
330
C
100
AcDbDictionary
281
     1
  3
Layout1
350
1E
  3
Layout2
350
26
  3
Model
350
22
  0
DICTIONARY
  5
EE
102
{ACAD_REACTORS
330
C
102
}
330
C
100
AcDbDictionary
281
     1
  0
DICTIONARY
  5
17
102
{ACAD_REACTORS
330
C
102
}
330
C
100
AcDbDictionary
281
     1
  3
Standard
350
18
  0
DICTIONARY
  5
19
102
{ACAD_REACTORS
330
C
102
}
330
C
100
AcDbDictionary
281
     1
  0
ACDBDICTIONARYWDFLT
  5
E
102
{ACAD_REACTORS
330
C
102
}
330
C
100
AcDbDictionary
281
     1
  3
Normal
350
F
100
AcDbDictionaryWithDefault
340
F
  0
LAYOUT
  5
1E
102
{ACAD_REACTORS
330
1A
102
}
330
1A
100
AcDbPlotSettings
  1

  2
none_device
  4

  6

 40
0.0
 41
0.0
 42
0.0
 43
0.0
 44
0.0
 45
0.0
 46
0.0
 47
0.0
 48
0.0
 49
0.0
140
0.0
141
0.0
142
1.0
143
1.0
 70
   688
 72
     0
 73
     0
 74
     5
  7

 75
    16
147
1.0
 76
     0
 77
     2
 78
   300
148
0.0
149
0.0
100
AcDbLayout
  1
Layout1
 70
     1
 71
     1
 10
0.0
 20
0.0
 11
12.0
 21
9.0
 12
0.0
 22
0.0
 32
0.0
 14
1.000000000000000E+20
 24
1.000000000000000E+20
 34
1.000000000000000E+20
 15
-1.000000000000000E+20
 25
-1.000000000000000E+20
 35
-1.000000000000000E+20
146
0.0
 13
0.0
 23
0.0
 33
0.0
 16
1.0
 26
0.0
 36
0.0
 17
0.0
 27
1.0
 37
0.0
 76
     0
330
1B
  0
LAYOUT
  5
26
102
{ACAD_REACTORS
330
1A
102
}
330
1A
100
AcDbPlotSettings
  1

  2
none_device
  4

  6

 40
0.0
 41
0.0
 42
0.0
 43
0.0
 44
0.0
 45
0.0
 46
0.0
 47
0.0
 48
0.0
 49
0.0
140
0.0
141
0.0
142
1.0
143
1.0
 70
   688
 72
     0
 73
     0
 74
     5
  7

 75
    16
147
1.0
 76
     0
 77
     2
 78
   300
148
0.0
149
0.0
100
AcDbLayout
  1
Layout2
 70
     1
 71
     2
 10
0.0
 20
0.0
 11
0.0
 21
0.0
 12
0.0
 22
0.0
 32
0.0
 14
0.0
 24
0.0
 34
0.0
 15
0.0
 25
0.0
 35
0.0
146
0.0
 13
0.0
 23
0.0
 33
0.0
 16
1.0
 26
0.0
 36
0.0
 17
0.0
 27
1.0
 37
0.0
 76
     0
330
23
  0
LAYOUT
  5
22
102
{ACAD_REACTORS
330
1A
102
}
330
1A
100
AcDbPlotSettings
  1

  2
none_device
  4

  6

 40
0.0
 41
0.0
 42
0.0
 43
0.0
 44
0.0
 45
0.0
 46
0.0
 47
0.0
 48
0.0
 49
0.0
140
0.0
141
0.0
142
1.0
143
1.0
 70
  1712
 72
     0
 73
     0
 74
     0
  7

 75
     0
147
1.0
 76
     0
 77
     2
 78
   300
148
0.0
149
0.0
100
AcDbLayout
  1
Model
 70
     1
 71
     0
 10
0.0
 20
0.0
 11
8.5
 21
11.0
 12
0.0
 22
0.0
 32
0.0
 14
0.0
 24
0.0
 34
0.0
 15
8.5
 25
11.0
 35
0.0
146
0.0
 13
0.0
 23
0.0
 33
0.0
 16
1.0
 26
0.0
 36
0.0
 17
0.0
 27
1.0
 37
0.0
 76
     0
330
1F
  0
MLINESTYLE
  5
18
102
{ACAD_REACTORS
330
17
102
}
330
17
100
AcDbMlineStyle
  2
STANDARD
 70
     0
  3

 62
   256
 51
90.0
 52
90.0
 71
     2
 49
0.5
 62
   256
  6
BYLAYER
 49
-0.5
 62
   256
  6
BYLAYER
  0
ACDBPLACEHOLDER
  5
F
102
{ACAD_REACTORS
330
E
102
}
330
E
  0
ENDSEC
  0
EOF
