  0
SECTION
  2
HEADER
  9
$ACADVER
  1
AC1018
  9
$ACADMAINTVER
 70
     0
  9
$DWGCODEPAGE
  3
ANSI_1252
  9
$INSBASE
 10
0.0
 20
0.0
 30
0.0
  9
$EXTMIN
 10
1.327560085792177
 20
1.629571918872649
 30
0.0
  9
$EXTMAX
 10
8.014944989348718
 20
9.88844979298074
 30
0.0
  9
$LIMMIN
 10
0.0
 20
0.0
  9
$LIMMAX
 10
8.5
 20
11.0
  9
$ORTHOMODE
 70
     0
  9
$REGENMODE
 70
     1
  9
$FILLMODE
 70
     1
  9
$QTEXTMODE
 70
     0
  9
$MIRRTEXT
 70
     1
  9
$LTSCALE
 40
1.0
  9
$ATTMODE
 70
     1
  9
$TEXTSIZE
 40
0.25
  9
$TRACEWID
 40
0.05
  9
$TEXTSTYLE
  7
Standard
  9
$CLAYER
  8
0
  9
$CELTYPE
  6
ByLayer
  9
$CECOLOR
 62
   256
  9
$CELTSCALE
 40
1.0
  9
$DISPSILH
 70
     0
  9
$DIMSCALE
 40
1.0
  9
$DIMASZ
 40
0.156
  9
$DIMEXO
 40
0.05
  9
$DIMDLI
 40
0.38
  9
$DIMRND
 40
0.0
  9
$DIMDLE
 40
0.0
  9
$DIMEXE
 40
0.125
  9
$DIMTP
 40
0.0
  9
$DIMTM
 40
0.0
  9
$DIMTXT
 40
0.125
  9
$DIMCEN
 40
0.09
  9
$DIMTSZ
 40
0.0
  9
$DIMTOL
 70
     0
  9
$DIMLIM
 70
     0
  9
$DIMTIH
 70
     1
  9
$DIMTOH
 70
     1
  9
$DIMSE1
 70
     0
  9
$DIMSE2
 70
     0
  9
$DIMTAD
 70
     0
  9
$DIMZIN
 70
     0
  9
$DIMBLK
  1

  9
$DIMASO
 70
     1
  9
$DIMSHO
 70
     1
  9
$DIMPOST
  1

  9
$DIMAPOST
  1

  9
$DIMALT
 70
     0
  9
$DIMALTD
 70
     2
  9
$DIMALTF
 40
25.4
  9
$DIMLFAC
 40
16.0
  9
$DIMTOFL
 70
     0
  9
$DIMTVP
 40
0.0
  9
$DIMTIX
 70
     0
  9
$DIMSOXD
 70
     0
  9
$DIMSAH
 70
     0
  9
$DIMBLK1
  1

  9
$DIMBLK2
  1

  9
$DIMSTYLE
  2
Standard
  9
$DIMCLRD
 70
     0
  9
$DIMCLRE
 70
     0
  9
$DIMCLRT
 70
     0
  9
$DIMTFAC
 40
1.0
  9
$DIMGAP
 40
0.06
  9
$DIMJUST
 70
     0
  9
$DIMSD1
 70
     0
  9
$DIMSD2
 70
     0
  9
$DIMTOLJ
 70
     1
  9
$DIMTZIN
 70
     0
  9
$DIMALTZ
 70
     0
  9
$DIMALTTZ
 70
     0
  9
$DIMUPT
 70
     0
  9
$DIMDEC
 70
     3
  9
$DIMTDEC
 70
     3
  9
$DIMALTU
 70
     2
  9
$DIMALTTD
 70
     2
  9
$DIMTXSTY
  7
Standard
  9
$DIMAUNIT
 70
     0
  9
$DIMADEC
 70
     0
  9
$DIMALTRND
 40
0.0
  9
$DIMAZIN
 70
     0
  9
$DIMDSEP
 70
    46
  9
$DIMATFIT
 70
     3
  9
$DIMFRAC
 70
     0
  9
$DIMLDRBLK
  1

  9
$DIMLUNIT
 70
     2
  9
$DIMLWD
 70
    -2
  9
$DIMLWE
 70
    -2
  9
$DIMTMOVE
 70
     0
  9
$LUNITS
 70
     2
  9
$LUPREC
 70
     3
  9
$SKETCHINC
 40
0.1
  9
$FILLETRAD
 40
0.5
  9
$AUNITS
 70
     0
  9
$AUPREC
 70
     0
  9
$MENU
  1
.
  9
$ELEVATION
 40
0.0
  9
$PELEVATION
 40
0.0
  9
$THICKNESS
 40
0.0
  9
$LIMCHECK
 70
     0
  9
$CHAMFERA
 40
0.5
  9
$CHAMFERB
 40
0.5
  9
$CHAMFERC
 40
1.0
  9
$CHAMFERD
 40
0.0
  9
$SKPOLY
 70
     0
  9
$TDCREATE
 40
2456513.718040081
  9
$TDUCREATE
 40
2456513.926373415
  9
$TDUPDATE
 40
2456570.364891089
  9
$TDUUPDATE
 40
2456570.573224421
  9
$TDINDWG
 40
0.0013068287
  9
$TDUSRTIMER
 40
0.0013068287
  9
$USRTIMER
 70
     1
  9
$ANGBASE
 50
0.0
  9
$ANGDIR
 70
     0
  9
$PDMODE
 70
     0
  9
$PDSIZE
 40
-1.0
  9
$PLINEWID
 40
0.0
  9
$SPLFRAME
 70
     0
  9
$SPLINETYPE
 70
     6
  9
$SPLINESEGS
 70
     8
  9
$HANDSEED
  5
133
  9
$SURFTAB1
 70
     6
  9
$SURFTAB2
 70
     6
  9
$SURFTYPE
 70
     6
  9
$SURFU
 70
     6
  9
$SURFV
 70
     6
  9
$UCSBASE
  2

  9
$UCSNAME
  2

  9
$UCSORG
 10
0.0
 20
0.0
 30
0.0
  9
$UCSXDIR
 10
1.0
 20
0.0
 30
0.0
  9
$UCSYDIR
 10
0.0
 20
1.0
 30
0.0
  9
$UCSORTHOREF
  2

  9
$UCSORTHOVIEW
 70
     0
  9
$UCSORGTOP
 10
0.0
 20
0.0
 30
0.0
  9
$UCSORGBOTTOM
 10
0.0
 20
0.0
 30
0.0
  9
$UCSORGLEFT
 10
0.0
 20
0.0
 30
0.0
  9
$UCSORGRIGHT
 10
0.0
 20
0.0
 30
0.0
  9
$UCSORGFRONT
 10
0.0
 20
0.0
 30
0.0
  9
$UCSORGBACK
 10
0.0
 20
0.0
 30
0.0
  9
$PUCSBASE
  2

  9
$PUCSNAME
  2

  9
$PUCSORG
 10
0.0
 20
0.0
 30
0.0
  9
$PUCSXDIR
 10
1.0
 20
0.0
 30
0.0
  9
$PUCSYDIR
 10
0.0
 20
1.0
 30
0.0
  9
$PUCSORTHOREF
  2

  9
$PUCSORTHOVIEW
 70
     0
  9
$PUCSORGTOP
 10
0.0
 20
0.0
 30
0.0
  9
$PUCSORGBOTTOM
 10
0.0
 20
0.0
 30
0.0
  9
$PUCSORGLEFT
 10
0.0
 20
0.0
 30
0.0
  9
$PUCSORGRIGHT
 10
0.0
 20
0.0
 30
0.0
  9
$PUCSORGFRONT
 10
0.0
 20
0.0
 30
0.0
  9
$PUCSORGBACK
 10
0.0
 20
0.0
 30
0.0
  9
$USERI1
 70
     0
  9
$USERI2
 70
     0
  9
$USERI3
 70
     0
  9
$USERI4
 70
     0
  9
$USERI5
 70
     0
  9
$USERR1
 40
0.0
  9
$USERR2
 40
0.0
  9
$USERR3
 40
0.0
  9
$USERR4
 40
0.0
  9
$USERR5
 40
0.0
  9
$WORLDVIEW
 70
     1
  9
$SHADEDGE
 70
     3
  9
$SHADEDIF
 70
    70
  9
$TILEMODE
 70
     1
  9
$MAXACTVP
 70
    64
  9
$PINSBASE
 10
0.0
 20
0.0
 30
0.0
  9
$PLIMCHECK
 70
     0
  9
$PEXTMIN
 10
1.000000000000000E+20
 20
1.000000000000000E+20
 30
1.000000000000000E+20
  9
$PEXTMAX
 10
-1.000000000000000E+20
 20
-1.000000000000000E+20
 30
-1.000000000000000E+20
  9
$PLIMMIN
 10
0.0
 20
0.0
  9
$PLIMMAX
 10
12.0
 20
9.0
  9
$UNITMODE
 70
     0
  9
$VISRETAIN
 70
     1
  9
$PLINEGEN
 70
     0
  9
$PSLTSCALE
 70
     1
  9
$TREEDEPTH
 70
  3020
  9
$CMLSTYLE
  2
Standard
  9
$CMLJUST
 70
     0
  9
$CMLSCALE
 40
1.0
  9
$PROXYGRAPHICS
 70
     1
  9
$MEASUREMENT
 70
     0
  9
$CELWEIGHT
370
    -1
  9
$ENDCAPS
280
     0
  9
$JOINSTYLE
280
     0
  9
$LWDISPLAY
290
     1
  9
$INSUNITS
 70
     1
  9
$HYPERLINKBASE
  1

  9
$STYLESHEET
  1

  9
$XEDIT
290
     1
  9
$CEPSNTYPE
380
     0
  9
$PSTYLEMODE
290
     1
  9
$FINGERPRINTGUID
  2
{C588F5E9-9160-4C09-827E-24762F276C2A}
  9
$VERSIONGUID
  2
{916B66A1-1266-44E9-9825-73719CCAEED7}
  9
$EXTNAMES
290
     1
  9
$PSVPSCALE
 40
0.0
  9
$OLESTARTUP
290
     0
  9
$SORTENTS
280
   127
  9
$INDEXCTL
280
     0
  9
$HIDETEXT
280
     0
  9
$XCLIPFRAME
290
     0
  9
$HALOGAP
280
     0
  9
$OBSCOLOR
 70
   257
  9
$OBSLTYPE
280
     0
  9
$INTERSECTIONDISPLAY
280
     0
  9
$INTERSECTIONCOLOR
 70
   257
  9
$DIMASSOC
280
     1
  9
$PROJECTNAME
  1

  0
ENDSEC
  0
SECTION
  2
CLASSES
  0
CLASS
  1
ACDBDICTIONARYWDFLT
  2
AcDbDictionaryWithDefault
  3
ObjectDBX Classes
 90
        0
 91
        1
280
     0
281
     0
  0
CLASS
  1
VISUALSTYLE
  2
AcDbVisualStyle
  3
ObjectDBX Classes
 90
     4095
 91
        0
280
     0
281
     0
  0
CLASS
  1
MATERIAL
  2
AcDbMaterial
  3
ObjectDBX Classes
 90
        0
 91
        0
280
     0
281
     0
  0
ENDSEC
  0
SECTION
  2
TABLES
  0
TABLE
  2
VPORT
  5
8
330
0
100
AcDbSymbolTable
 70
     3
  0
VPORT
  5
132
330
8
100
AcDbSymbolTableRecord
100
AcDbViewportTableRecord
  2
*Active
 70
     0
 10
0.0
 20
0.0
 11
1.0
 21
1.0
 12
4.955949094644982
 22
5.737236538405376
 13
0.0
 23
0.0
 14
0.5
 24
0.5
 15
0.5
 25
0.5
 16
0.0
 26
0.0
 36
1.0
 17
0.0
 27
0.0
 37
0.0
 40
9.158733625407442
 41
2.144329896907216
 42
50.0
 43
0.0
 44
0.0
 50
0.0
 51
0.0
 71
     0
 72
  2000
 73
     1
 74
     3
 75
     0
 76
     0
 77
     0
 78
     0
281
     0
 65
     1
110
0.0
120
0.0
130
0.0
111
1.0
121
0.0
131
0.0
112
0.0
122
1.0
132
0.0
 79
     0
146
0.0
  0
ENDTAB
  0
TABLE
  2
LTYPE
  5
5
330
0
100
AcDbSymbolTable
 70
     6
  0
LTYPE
  5
14
330
5
100
AcDbSymbolTableRecord
100
AcDbLinetypeTableRecord
  2
ByBlock
 70
     0
  3

 72
    65
 73
     0
 40
0.0
  0
LTYPE
  5
15
330
5
100
AcDbSymbolTableRecord
100
AcDbLinetypeTableRecord
  2
ByLayer
 70
     0
  3

 72
    65
 73
     0
 40
0.0
  0
LTYPE
  5
16
330
5
100
AcDbSymbolTableRecord
100
AcDbLinetypeTableRecord
  2
Continuous
 70
     0
  3
Solid line
 72
    65
 73
     0
 40
0.0
  0
LTYPE
  5
3F
330
5
100
AcDbSymbolTableRecord
100
AcDbLinetypeTableRecord
  2
HIDDEN
 70
     0
  3
Hidden __ __ __ __ __ __ __ __ __ __ __ __ __ __
 72
    65
 73
     2
 40
0.075
 49
0.05
 74
     0
 49
-0.025
 74
     0
  0
LTYPE
  5
40
330
5
100
AcDbSymbolTableRecord
100
AcDbLinetypeTableRecord
  2
PHANTOM
 70
     0
  3
Phantom ______  __  __  ______  __  __  ______
 72
    65
 73
     6
 40
0.5
 49
0.25
 74
     0
 49
-0.05
 74
     0
 49
0.05
 74
     0
 49
-0.05
 74
     0
 49
0.05
 74
     0
 49
-0.05
 74
     0
  0
LTYPE
  5
41
330
5
100
AcDbSymbolTableRecord
100
AcDbLinetypeTableRecord
  2
CENTER
 70
     0
  3
Center ____ _ ____ _ ____ _ ____ _ ____ _ ____
 72
    65
 73
     4
 40
0.4
 49
0.25
 74
     0
 49
-0.05
 74
     0
 49
0.05
 74
     0
 49
-0.05
 74
     0
  0
LTYPE
  5
42
330
5
100
AcDbSymbolTableRecord
100
AcDbLinetypeTableRecord
  2
CENTERX2
 70
     0
  3
Center (2x) ________  __  ________  __  _____
 72
    65
 73
     4
 40
0.8
 49
0.5
 74
     0
 49
-0.1
 74
     0
 49
0.1
 74
     0
 49
-0.1
 74
     0
  0
LTYPE
  5
43
330
5
100
AcDbSymbolTableRecord
100
AcDbLinetypeTableRecord
  2
DOT2
 70
     0
  3
Dot (.5x) ........................................
 72
    65
 73
     2
 40
0.025
 49
0.0
 74
     0
 49
-0.025
 74
     0
  0
ENDTAB
  0
TABLE
  2
LAYER
  5
2
330
0
100
AcDbSymbolTable
 70
     7
  0
LAYER
  5
10
330
2
100
AcDbSymbolTableRecord
100
AcDbLayerTableRecord
  2
0
 70
     0
 62
     7
  6
Continuous
370
    -3
390
F
  0
LAYER
  5
44
330
2
100
AcDbSymbolTableRecord
100
AcDbLayerTableRecord
  2
SLD-0
 70
     0
 62
   179
  6
Continuous
370
    -3
390
F
  0
LAYER
  5
45
330
2
100
AcDbSymbolTableRecord
100
AcDbLayerTableRecord
  2
SLD-DEFPOINTS
 70
     0
 62
   179
  6
Continuous
370
    -3
390
F
  0
LAYER
  5
46
330
2
100
AcDbSymbolTableRecord
100
AcDbLayerTableRecord
  2
OBJ
 70
     0
 62
   179
  6
Continuous
370
    -3
390
F
  0
LAYER
  5
47
330
2
100
AcDbSymbolTableRecord
100
AcDbLayerTableRecord
  2
FORMAT
 70
     0
 62
     7
  6
Continuous
370
    -3
390
F
  0
LAYER
  5
48
330
2
100
AcDbSymbolTableRecord
100
AcDbLayerTableRecord
  2
TOLERANCES
 70
     0
 62
     7
  6
Continuous
370
    -3
390
F
  0
LAYER
  5
49
330
2
100
AcDbSymbolTableRecord
100
AcDbLayerTableRecord
  2
QTY-BLANK-SIZE-1
 70
     0
 62
     7
  6
Continuous
370
    -3
390
F
  0
ENDTAB
  0
TABLE
  2
STYLE
  5
3
330
0
100
AcDbSymbolTable
 70
     2
  0
STYLE
  5
11
330
3
100
AcDbSymbolTableRecord
100
AcDbTextStyleTableRecord
  2
Standard
 70
     0
 40
0.0
 41
1.0
 50
0.0
 71
     0
 42
0.25
  3
txt
  4

  0
STYLE
  5
123
330
3
100
AcDbSymbolTableRecord
100
AcDbTextStyleTableRecord
  2
SLDTEXTSTYLE0
 70
     0
 40
0.0
 41
0.7
 50
0.0
 71
     0
 42
0.2
  3
TXT
  4

  0
ENDTAB
  0
TABLE
  2
VIEW
  5
6
330
0
100
AcDbSymbolTable
 70
     0
  0
ENDTAB
  0
TABLE
  2
UCS
  5
7
330
0
100
AcDbSymbolTable
 70
     0
  0
ENDTAB
  0
TABLE
  2
APPID
  5
9
330
0
100
AcDbSymbolTable
 70
     1
  0
APPID
  5
12
330
9
100
AcDbSymbolTableRecord
100
AcDbRegAppTableRecord
  2
ACAD
 70
     0
  0
ENDTAB
  0
TABLE
  2
DIMSTYLE
  5
A
330
0
100
AcDbSymbolTable
 70
     1
100
AcDbDimStyleTable
 71
     0
  0
DIMSTYLE
105
27
330
A
100
AcDbSymbolTableRecord
100
AcDbDimStyleTableRecord
  2
Standard
 70
     0
340
11
  0
ENDTAB
  0
TABLE
  2
BLOCK_RECORD
  5
1
330
0
100
AcDbSymbolTable
 70
     1
  0
BLOCK_RECORD
  5
1F
330
1
100
AcDbSymbolTableRecord
100
AcDbBlockTableRecord
  2
*Model_Space
340
22
  0
BLOCK_RECORD
  5
1B
330
1
100
AcDbSymbolTableRecord
100
AcDbBlockTableRecord
  2
*Paper_Space
340
1E
  0
BLOCK_RECORD
  5
23
330
1
100
AcDbSymbolTableRecord
100
AcDbBlockTableRecord
  2
*Paper_Space0
340
26
  0
ENDTAB
  0
ENDSEC
  0
SECTION
  2
BLOCKS
  0
BLOCK
  5
20
330
1F
100
AcDbEntity
  8
0
100
AcDbBlockBegin
  2
*Model_Space
 70
     0
 10
0.0
 20
0.0
 30
0.0
  3
*Model_Space
  1

  0
ENDBLK
  5
21
330
1F
100
AcDbEntity
  8
0
100
AcDbBlockEnd
  0
BLOCK
  5
1C
330
1B
100
AcDbEntity
 67
     1
  8
0
100
AcDbBlockBegin
  2
*Paper_Space
 70
     0
 10
0.0
 20
0.0
 30
0.0
  3
*Paper_Space
  1

  0
ENDBLK
  5
1D
330
1B
100
AcDbEntity
 67
     1
  8
0
100
AcDbBlockEnd
  0
BLOCK
  5
24
330
23
100
AcDbEntity
  8
0
100
AcDbBlockBegin
  2
*Paper_Space0
 70
     0
 10
0.0
 20
0.0
 30
0.0
  3
*Paper_Space0
  1

  0
ENDBLK
  5
25
330
23
100
AcDbEntity
  8
0
100
AcDbBlockEnd
  0
ENDSEC
  0
SECTION
  2
ENTITIES
  0
LINE
  5
4A
330
1F
100
AcDbEntity
  8
0
  6
Continuous
 62
     7
370
    15
100
AcDbLine
 10
4.754105356179131
 20
7.462145792992104
 30
0.0
 11
4.747355675661522
 21
7.460398847125789
 31
0.0
  0
LINE
  5
4B
330
1F
100
AcDbEntity
  8
0
  6
Continuous
 62
     7
370
    15
100
AcDbLine
 10
4.761592078578718
 20
7.405393268294443
 30
0.0
 11
4.768341759096326
 21
7.407140214160758
 31
0.0
  0
LINE
  5
4C
330
1F
100
AcDbEntity
  8
0
  6
Continuous
 62
     7
370
    15
100
AcDbLine
 10
2.136156576183626
 20
6.991648600424798
 30
0.0
 11
2.129407046513722
 21
6.989901693600742
 31
0.0
  0
LINE
  5
4D
330
1F
100
AcDbEntity
  8
0
  6
Continuous
 62
     7
370
    15
100
AcDbLine
 10
2.143643449430916
 20
6.934896011738499
 30
0.0
 11
2.150392979100822
 21
6.936642918562554
 31
0.0
  0
LINE
  5
4E
330
1F
100
AcDbEntity
  8
0
  6
Continuous
 62
     7
370
    15
100
AcDbLine
 10
2.028023813100383
 20
7.300289112091324
 30
0.0
 11
2.021274283430478
 21
7.298542205267268
 31
0.0
  0
LINE
  5
4F
330
1F
100
AcDbEntity
  8
0
  6
Continuous
 62
     7
370
    15
100
AcDbLine
 10
2.03551098804308
 20
7.243536445320507
 30
0.0
 11
2.042260517712986
 21
7.245283352144562
 31
0.0
  0
LINE
  5
50
330
1F
100
AcDbEntity
  8
0
  6
Continuous
 62
     7
370
    15
100
AcDbLine
 10
2.276861280611048
 20
6.820987846867692
 30
0.0
 11
2.270111750941142
 21
6.819240940043636
 31
0.0
  0
LINE
  5
51
330
1F
100
AcDbEntity
  8
0
  6
Continuous
 62
     7
370
    15
100
AcDbLine
 10
2.284348153858338
 20
6.76423536121229
 30
0.0
 11
2.291097683528242
 21
6.765982268036346
 31
0.0
  0
LINE
  5
52
330
1F
100
AcDbEntity
  8
0
  6
Continuous
 62
     7
370
    15
100
AcDbLine
 10
2.027819565309102
 20
7.534787238053508
 30
0.0
 11
2.021070035639198
 21
7.533040331229451
 31
0.0
  0
LINE
  5
53
330
1F
100
AcDbEntity
  8
0
  6
Continuous
 62
     7
370
    15
100
AcDbLine
 10
2.0353067402518
 20
7.478034674313588
 30
0.0
 11
2.042056269921704
 21
7.479781581137643
 31
0.0
  0
LINE
  5
54
330
1F
100
AcDbEntity
  8
0
  6
Continuous
 62
     7
370
    15
100
AcDbLine
 10
4.505063640877185
 20
8.175945184177919
 30
0.0
 11
4.498313960359577
 21
8.174198238311603
 31
0.0
  0
LINE
  5
55
330
1F
100
AcDbEntity
  8
0
  6
Continuous
 62
     7
370
    15
100
AcDbLine
 10
4.51255066497218
 20
8.11919258139574
 30
0.0
 11
4.519300345489789
 21
8.120939527262056
 31
0.0
  0
LINE
  5
56
330
1F
100
AcDbEntity
  8
0
  6
Continuous
 62
     7
370
    15
100
AcDbLine
 10
4.505267888668466
 20
7.941447058215737
 30
0.0
 11
4.498518208150858
 21
7.939700112349422
 31
0.0
  0
LINE
  5
57
330
1F
100
AcDbEntity
  8
0
  6
Continuous
 62
     7
370
    15
100
AcDbLine
 10
4.51275491276346
 20
7.88469435240266
 30
0.0
 11
4.51950459328107
 21
7.886441298268974
 31
0.0
  0
LINE
  5
58
330
1F
100
AcDbEntity
  8
0
  6
Continuous
 62
     7
370
    15
100
AcDbLine
 10
4.613400651751709
 20
7.63280654654921
 30
0.0
 11
4.606650971234101
 21
7.631059600682895
 31
0.0
  0
LINE
  5
59
330
1F
100
AcDbEntity
  8
0
  6
Continuous
 62
     7
370
    15
100
AcDbLine
 10
4.620887374151296
 20
7.576053918820653
 30
0.0
 11
4.627637054668905
 21
7.577800864686967
 31
0.0
  0
LINE
  5
5A
330
1F
100
AcDbEntity
  8
0
  6
Continuous
 62
     7
370
    15
100
AcDbLine
 10
4.43305935545645
 20
7.604228421400748
 30
0.0
 11
4.796473799967271
 21
7.163443464190561
 31
0.0
  0
SPLINE
  5
5B
330
1F
100
AcDbEntity
  8
0
  6
Continuous
 62
     7
370
    15
100
AcDbSpline
210
0.0
220
0.0
230
1.0
 70
     8
 71
     3
 72
    10
 73
     6
 74
     0
 42
0.0000000001
 43
0.0000000001
 40
0.0
 40
0.0
 40
0.0
 40
0.0
 40
0.3639234256870623
 40
0.7899975580547164
 40
1.0
 40
1.0
 40
1.0
 40
1.0
 10
4.437431676158269
 20
7.608332569381577
 30
0.0
 10
4.437124713996261
 20
7.607955226565554
 30
0.0
 10
4.436458366788897
 20
7.607136098468363
 30
0.0
 10
4.435837805178245
 20
7.606556312788824
 30
0.0
 10
4.435861631130917
 20
7.606559105008455
 30
0.0
 10
4.435869497335152
 20
7.606560026867496
 30
0.0
  0
LINE
  5
5C
330
1F
100
AcDbEntity
  8
0
  6
Continuous
 62
     7
370
    15
100
AcDbLine
 10
1.955815430736069
 20
6.963070514318593
 30
0.0
 11
2.319229875246891
 21
6.522285557108408
 31
0.0
  0
SPLINE
  5
5D
330
1F
100
AcDbEntity
  8
0
  6
Continuous
 62
     7
370
    15
100
AcDbSpline
210
0.0
220
0.0
230
1.0
 70
     8
 71
     3
 72
    10
 73
     6
 74
     0
 42
0.0000000001
 43
0.0000000001
 40
0.0
 40
0.0
 40
0.0
 40
0.0
 40
0.3638906930561648
 40
0.789997278558178
 40
1.0
 40
1.0
 40
1.0
 40
1.0
 10
1.960187600590185
 20
6.967174623257164
 30
0.0
 10
1.959880706913599
 20
6.966797292207413
 30
0.0
 10
1.95921444868294
 20
6.965978116262255
 30
0.0
 10
1.958593713634741
 20
6.965398374055888
 30
0.0
 10
1.95861755189422
 20
6.965401160753327
 30
0.0
 10
1.958625421767068
 20
6.965402080743084
 30
0.0
  0
LWPOLYLINE
  5
5E
330
1F
100
AcDbEntity
  8
0
  6
Continuous
 62
     7
370
    15
100
AcDbPolyline
 90
       12
 70
   128
 43
0.0
 10
4.747355675661522
 20
7.460398847125789
 10
4.751101224153024
 20
7.460820551025493
 10
4.757088067831265
 20
7.459427133671855
 10
4.762842606045272
 20
7.455676427438844
 10
4.767853766773733
 20
7.449901514719033
 10
4.77167594589889
 20
7.442615631672425
 10
4.773969736086637
 20
7.434466081156815
 10
4.774531191241103
 20
7.426176997636809
 10
4.773310229924542
 20
7.418485032169264
 10
4.770415764179277
 20
7.412073527624388
 10
4.766104838493005
 20
7.407512171787959
 10
4.761592078578718
 20
7.405393268294443
  0
LWPOLYLINE
  5
5F
330
1F
100
AcDbEntity
  8
0
  6
Continuous
 62
     7
370
    15
100
AcDbPolyline
 90
       21
 70
   128
 43
0.0
 10
4.7358686229983
 20
7.427203736247938
 10
4.739049699381254
 20
7.419296111586312
 10
4.743677405246026
 20
7.412703469296711
 10
4.749299197480472
 20
7.408071072538002
 10
4.755364481964817
 20
7.405852475835314
 10
4.76127952213593
 20
7.40626491958297
 10
4.766465666201087
 20
7.409267768786063
 10
4.77041516078846
 20
7.414567231171741
 10
4.772740930689466
 20
7.421644582572089
 10
4.773215799261808
 20
7.429807113259339
 10
4.771793305412638
 20
7.438255582958988
 10
4.768612530725091
 20
7.446163129536096
 10
4.76398482486032
 20
7.452755771825697
 10
4.758363032625875
 20
7.457388168584406
 10
4.752297748141529
 20
7.459606765287094
 10
4.746382406275007
 20
7.459194399623955
 10
4.741196262209852
 20
7.456191550420862
 10
4.737247069317886
 20
7.450892009950668
 10
4.734920997721473
 20
7.443814736634836
 10
4.734446129149131
 20
7.435652205947587
 10
4.7358686229983
 20
7.427203736247938
  0
LWPOLYLINE
  5
60
330
1F
100
AcDbEntity
  8
0
  6
Continuous
 62
     7
370
    15
100
AcDbPolyline
 90
       12
 70
   128
 43
0.0
 10
4.768341759096326
 20
7.407140214160758
 10
4.772854519010614
 20
7.409259117654275
 10
4.777165444696886
 20
7.413820473490702
 10
4.780059910442151
 20
7.420231978035578
 10
4.781280871758712
 20
7.427923943503125
 10
4.780719416604246
 20
7.436213027023129
 10
4.778425626416499
 20
7.444362577538739
 10
4.774603447291341
 20
7.451648460585349
 10
4.769592286562881
 20
7.457423373305159
 10
4.763837748348874
 20
7.46117407953817
 10
4.757850904670633
 20
7.462567496891807
 10
4.754105356179131
 20
7.462145792992104
  0
LWPOLYLINE
  5
61
330
1F
100
AcDbEntity
  8
0
  6
Continuous
 62
     7
370
    15
100
AcDbPolyline
 90
       12
 70
   128
 43
0.0
 10
2.129407046513722
 20
6.989901693600742
 10
2.133152595005223
 20
6.990323294469547
 10
2.139139438683463
 20
6.988929980146807
 10
2.144893976897471
 20
6.985179273913797
 10
2.149905137625931
 20
6.979404361193986
 10
2.153727316751089
 20
6.972118478147377
 10
2.156020805243428
 20
6.963969005716285
 10
2.156582260397893
 20
6.955679922196281
 10
2.15536160077674
 20
6.947987878644216
 10
2.152467135031475
 20
6.941576374099341
 10
2.148156209345203
 20
6.937014915232015
 10
2.143643449430916
 20
6.934896011738499
  0
LWPOLYLINE
  5
62
330
1F
100
AcDbEntity
  8
0
  6
Continuous
 62
     7
370
    15
100
AcDbPolyline
 90
       21
 70
   128
 43
0.0
 10
2.117919993850498
 20
6.95670658272289
 10
2.121100768538046
 20
6.948798933114884
 10
2.125728776098226
 20
6.942206212740765
 10
2.131350266637262
 20
6.937573997097472
 10
2.137415551121607
 20
6.935355400394784
 10
2.143330892988128
 20
6.935767663027025
 10
2.148517037053285
 20
6.938770512230119
 10
2.152466229945251
 20
6.944070052700313
 10
2.154792301541665
 20
6.951147429047041
 10
2.155267170114006
 20
6.959309856703394
 10
2.153844676264838
 20
6.967758326403042
 10
2.150663599881883
 20
6.975666054095566
 10
2.146035894017111
 20
6.982258696385168
 10
2.140414403478073
 20
6.98689091202846
 10
2.13434881729832
 20
6.989109586815668
 10
2.128433777127207
 20
6.988697246098908
 10
2.123247633062051
 20
6.985694396895813
 10
2.119298440170085
 20
6.980394856425619
 10
2.116972368573671
 20
6.973317480078891
 10
2.116497500001329
 20
6.965155052422539
 10
2.117919993850498
 20
6.95670658272289
  0
LWPOLYLINE
  5
63
330
1F
100
AcDbEntity
  8
0
  6
Continuous
 62
     7
370
    15
100
AcDbPolyline
 90
       12
 70
   128
 43
0.0
 10
2.150392979100822
 20
6.936642918562554
 10
2.154905739015108
 20
6.938761822056071
 10
2.159216664701379
 20
6.943323280923397
 10
2.162111130446644
 20
6.949734785468272
 10
2.163331790067798
 20
6.957426829020336
 10
2.162770334913332
 20
6.965715912540341
 10
2.160476846420995
 20
6.973865384971434
 10
2.156654667295836
 20
6.981151268018042
 10
2.151643506567375
 20
6.986926180737852
 10
2.145888968353367
 20
6.990676886970864
 10
2.139902124675128
 20
6.992070201293604
 10
2.136156576183626
 20
6.991648600424798
  0
LWPOLYLINE
  5
64
330
1F
100
AcDbEntity
  8
0
  6
Continuous
 62
     7
370
    15
100
AcDbPolyline
 90
       12
 70
   128
 43
0.0
 10
2.021274283430478
 20
7.298542205267268
 10
2.02501983192198
 20
7.298963806136073
 10
2.031006977295628
 20
7.297570413728816
 10
2.036761515509636
 20
7.293819707495805
 10
2.041772374542688
 20
7.288044872860512
 10
2.045594553667845
 20
7.280758989813904
 10
2.047888343855594
 20
7.272609439298293
 10
2.048449799010058
 20
7.264320355778289
 10
2.047229139388905
 20
7.256628312226225
 10
2.044334673643639
 20
7.25021680768135
 10
2.040023747957369
 20
7.245655451844921
 10
2.03551098804308
 20
7.243536445320507
  0
LWPOLYLINE
  5
65
330
1F
100
AcDbEntity
  8
0
  6
Continuous
 62
     7
370
    15
100
AcDbPolyline
 90
       21
 70
   128
 43
0.0
 10
2.009787532462662
 20
7.265347016304899
 10
2.01296830715021
 20
7.257439469727791
 10
2.017596013014982
 20
7.250846827438189
 10
2.023217805249427
 20
7.246214430679481
 10
2.029283089733773
 20
7.243995833976791
 10
2.035198431600294
 20
7.244408199639931
 10
2.040384273970043
 20
7.247411126927542
 10
2.044333768557416
 20
7.252710589313219
 10
2.04665984015383
 20
7.25978786262905
 10
2.047134708726171
 20
7.2679503933163
 10
2.045711913181595
 20
7.276398941100467
 10
2.042531138494047
 20
7.284306487677574
 10
2.037903432629275
 20
7.290899129967175
 10
2.032281640394829
 20
7.295531526725885
 10
2.026216355910484
 20
7.297750123428573
 10
2.02030131573937
 20
7.297337679680917
 10
2.015115171674215
 20
7.294334830477822
 10
2.011165677086841
 20
7.289035368092147
 10
2.008839907185836
 20
7.281958016691798
 10
2.008364736918085
 20
7.273795564089065
 10
2.009787532462662
 20
7.265347016304899
  0
LWPOLYLINE
  5
66
330
1F
100
AcDbEntity
  8
0
  6
Continuous
 62
     7
370
    15
100
AcDbPolyline
 90
       12
 70
   128
 43
0.0
 10
2.042260517712986
 20
7.245283352144562
 10
2.046773277627273
 20
7.247402358668977
 10
2.051084203313545
 20
7.251963714505405
 10
2.053978669058809
 20
7.258375219050281
 10
2.055199328679962
 20
7.266067262602343
 10
2.054637873525498
 20
7.274356346122349
 10
2.052344083337749
 20
7.282505896637959
 10
2.048521904212592
 20
7.289791779684568
 10
2.04351104517954
 20
7.295566614319861
 10
2.037756506965533
 20
7.299317320552873
 10
2.031769361591884
 20
7.300710712960129
 10
2.028023813100383
 20
7.300289112091324
  0
LWPOLYLINE
  5
67
330
1F
100
AcDbEntity
  8
0
  6
Continuous
 62
     7
370
    15
100
AcDbPolyline
 90
       12
 70
   128
 43
0.0
 10
2.270111750941142
 20
6.819240940043636
 10
2.273857299432645
 20
6.81966264394334
 10
2.279844143110885
 20
6.818269226589702
 10
2.285598681324892
 20
6.81451852035669
 10
2.290609842053353
 20
6.80874360763688
 10
2.29443202117851
 20
6.801457724590272
 10
2.296725811366257
 20
6.793308174074661
 10
2.297287266520723
 20
6.785019090554656
 10
2.296066305204162
 20
6.77732712508711
 10
2.293171839458897
 20
6.770915620542234
 10
2.288860913772625
 20
6.766354264705806
 10
2.284348153858338
 20
6.76423536121229
  0
LWPOLYLINE
  5
68
330
1F
100
AcDbEntity
  8
0
  6
Continuous
 62
     7
370
    15
100
AcDbPolyline
 90
       21
 70
   128
 43
0.0
 10
2.25862469827792
 20
6.786045829165783
 10
2.261805774660875
 20
6.778138204504159
 10
2.266433480525647
 20
6.771545562214557
 10
2.272055272760093
 20
6.766913165455848
 10
2.278120557244438
 20
6.764694568753159
 10
2.284035597415552
 20
6.765107012500816
 10
2.289221741480706
 20
6.76810986170391
 10
2.293171236068082
 20
6.773409324089588
 10
2.295497005969086
 20
6.780486675489935
 10
2.295971874541427
 20
6.788649206177185
 10
2.29454938069226
 20
6.797097675876834
 10
2.291368606004712
 20
6.805005222453942
 10
2.286740900139941
 20
6.811597864743544
 10
2.281119107905495
 20
6.816230261502252
 10
2.27505382342115
 20
6.818448858204941
 10
2.269138481554628
 20
6.818036492541802
 10
2.263952337489472
 20
6.815033643338708
 10
2.260003144597506
 20
6.809734102868514
 10
2.257677073001092
 20
6.802656829552683
 10
2.257202204428751
 20
6.794494298865433
 10
2.25862469827792
 20
6.786045829165783
  0
LWPOLYLINE
  5
69
330
1F
100
AcDbEntity
  8
0
  6
Continuous
 62
     7
370
    15
100
AcDbPolyline
 90
       12
 70
   128
 43
0.0
 10
2.291097683528242
 20
6.765982268036346
 10
2.295610443442531
 20
6.768101171529862
 10
2.299921369128803
 20
6.77266252736629
 10
2.302815834874067
 20
6.779074031911165
 10
2.304036796190627
 20
6.786765997378712
 10
2.303475341036163
 20
6.795055080898717
 10
2.301181550848415
 20
6.803204631414327
 10
2.297359371723257
 20
6.810490514460936
 10
2.292348210994798
 20
6.816265427180747
 10
2.28659367278079
 20
6.820016133413758
 10
2.280606829102549
 20
6.821409550767395
 10
2.276861280611048
 20
6.820987846867692
  0
LWPOLYLINE
  5
6A
330
1F
100
AcDbEntity
  8
0
  6
Continuous
 62
     7
370
    15
100
AcDbPolyline
 90
       12
 70
   128
 43
0.0
 10
2.021070035639198
 20
7.533040331229451
 10
2.0248155841307
 20
7.533462035129154
 10
2.030802427808939
 20
7.53206851474462
 10
2.036557267718354
 20
7.528317730427089
 10
2.041568126751406
 20
7.522542895791797
 10
2.045390305876565
 20
7.515257012745188
 10
2.047684096064312
 20
7.507107462229579
 10
2.048245551218778
 20
7.498818584771369
 10
2.047024891597624
 20
7.49112633515751
 10
2.044130425852359
 20
7.484714830612634
 10
2.039819500166087
 20
7.480153577807103
 10
2.0353067402518
 20
7.478034674313588
  0
LWPOLYLINE
  5
6B
330
1F
100
AcDbEntity
  8
0
  6
Continuous
 62
     7
370
    15
100
AcDbPolyline
 90
       21
 70
   128
 43
0.0
 10
2.009583284671383
 20
7.499845142267081
 10
2.01276405935893
 20
7.491937492659075
 10
2.017391765223702
 20
7.485344850369474
 10
2.023013557458146
 20
7.480712556641664
 10
2.029078841942491
 20
7.478493856908077
 10
2.034993882113605
 20
7.478906300655734
 10
2.040180026178761
 20
7.481909252889725
 10
2.044129520766134
 20
7.487208612244504
 10
2.04645529066714
 20
7.494285963644853
 10
2.046930460934891
 20
7.502448519278483
 10
2.045507665390315
 20
7.510897067062649
 10
2.042326890702765
 20
7.51880451060886
 10
2.037699184837995
 20
7.52539715289846
 10
2.032077392603549
 20
7.530029652688067
 10
2.026012108119204
 20
7.532248146359858
 10
2.020096766252683
 20
7.531835780696719
 10
2.014910923882935
 20
7.528832956440005
 10
2.010961429295561
 20
7.52353339102343
 10
2.008635659394555
 20
7.516456039623082
 10
2.008160489126805
 20
7.508293690051248
 10
2.009583284671383
 20
7.499845142267081
  0
LWPOLYLINE
  5
6C
330
1F
100
AcDbEntity
  8
0
  6
Continuous
 62
     7
370
    15
100
AcDbPolyline
 90
       12
 70
   128
 43
0.0
 10
2.042056269921704
 20
7.479781581137643
 10
2.046569029835993
 20
7.48190048463116
 10
2.050879955522265
 20
7.48646173743669
 10
2.053774421267529
 20
7.492873241981565
 10
2.054995080888682
 20
7.500565491595425
 10
2.054433625734218
 20
7.508854369053635
 10
2.052139835546469
 20
7.517003919569244
 10
2.048317656421312
 20
7.524289802615853
 10
2.04330679738826
 20
7.530064637251146
 10
2.037551957478843
 20
7.533815421568674
 10
2.031565113800604
 20
7.535208941953211
 10
2.027819565309102
 20
7.534787238053508
  0
LWPOLYLINE
  5
6D
330
1F
100
AcDbEntity
  8
0
  6
Continuous
 62
     7
370
    15
100
AcDbPolyline
 90
       12
 70
   128
 43
0.0
 10
4.498313960359577
 20
8.174198238311603
 10
4.502059508851079
 20
8.174619942211307
 10
4.508046352529319
 20
8.173226421826772
 10
4.513801192438735
 20
8.169475637509243
 10
4.518812051471786
 20
8.16370080287395
 10
4.522634230596944
 20
8.156414919827343
 10
4.524928020784692
 20
8.148265369311731
 10
4.525489475939157
 20
8.139976491853522
 10
4.524268816318004
 20
8.132284242239663
 10
4.52137435057274
 20
8.125872737694788
 10
4.517063424886467
 20
8.121311484889258
 10
4.51255066497218
 20
8.11919258139574
  0
LWPOLYLINE
  5
6E
330
1F
100
AcDbEntity
  8
0
  6
Continuous
 62
     7
370
    15
100
AcDbPolyline
 90
       21
 70
   128
 43
0.0
 10
4.486827209391762
 20
8.141003049349235
 10
4.490007984079309
 20
8.133095399741229
 10
4.494635689944081
 20
8.126502757451627
 10
4.500257482178526
 20
8.121870463723817
 10
4.506322766662871
 20
8.11965176399023
 10
4.512237806833985
 20
8.120064207737886
 10
4.517423950899141
 20
8.12306715997188
 10
4.521373445486514
 20
8.128366519326657
 10
4.523699215387519
 20
8.135443870727005
 10
4.52417438565527
 20
8.143606426360637
 10
4.522751590110694
 20
8.152054974144803
 10
4.519570815423146
 20
8.159962417691012
 10
4.514943109558374
 20
8.166555059980613
 10
4.509321317323929
 20
8.171187559770221
 10
4.503256032839584
 20
8.173406053442011
 10
4.497340690973061
 20
8.172993687778873
 10
4.492154848603314
 20
8.169990863522158
 10
4.48820535401594
 20
8.164691298105584
 10
4.485879584114934
 20
8.157613946705236
 10
4.485404413847185
 20
8.149451597133401
 10
4.486827209391762
 20
8.141003049349235
  0
LWPOLYLINE
  5
6F
330
1F
100
AcDbEntity
  8
0
  6
Continuous
 62
     7
370
    15
100
AcDbPolyline
 90
       12
 70
   128
 43
0.0
 10
4.519300345489789
 20
8.120939527262056
 10
4.523813105404076
 20
8.123058430755571
 10
4.528124031090348
 20
8.127619683561102
 10
4.531018496835613
 20
8.134031188105977
 10
4.532239156456766
 20
8.141723437719836
 10
4.5316777013023
 20
8.150012315178047
 10
4.529383911114553
 20
8.158161865693656
 10
4.525561731989395
 20
8.165447748740264
 10
4.520550872956343
 20
8.171222583375557
 10
4.514796033046929
 20
8.174973367693086
 10
4.508809189368688
 20
8.176366888077623
 10
4.505063640877185
 20
8.175945184177919
  0
LWPOLYLINE
  5
70
330
1F
100
AcDbEntity
  8
0
  6
Continuous
 62
     7
370
    15
100
AcDbPolyline
 90
       12
 70
   128
 43
0.0
 10
4.498518208150858
 20
7.939700112349422
 10
4.502263756642359
 20
7.940121713218227
 10
4.508250902016007
 20
7.93872832081097
 10
4.514005440230015
 20
7.93497761457796
 10
4.519016299263068
 20
7.929202779942665
 10
4.522838478388226
 20
7.921916896896057
 10
4.525132268575972
 20
7.913767346380446
 10
4.525693723730438
 20
7.905478262860442
 10
4.524473064109284
 20
7.897786219308378
 10
4.52157859836402
 20
7.891374714763503
 10
4.517267672677747
 20
7.886813358927075
 10
4.51275491276346
 20
7.88469435240266
  0
LWPOLYLINE
  5
71
330
1F
100
AcDbEntity
  8
0
  6
Continuous
 62
     7
370
    15
100
AcDbPolyline
 90
       21
 70
   128
 43
0.0
 10
4.487031457183042
 20
7.906504923387053
 10
4.490212231870589
 20
7.898597376809945
 10
4.494839937735362
 20
7.892004734520343
 10
4.500461729969805
 20
7.887372337761634
 10
4.506527014454151
 20
7.885153741058945
 10
4.512442356320673
 20
7.885566106722085
 10
4.517628198690421
 20
7.888569034009695
 10
4.521577693277795
 20
7.893868496395373
 10
4.523903764874209
 20
7.900945769711204
 10
4.52437863344655
 20
7.909108300398453
 10
4.522955837901973
 20
7.91755684818262
 10
4.519775063214426
 20
7.925464394759728
 10
4.515147357349655
 20
7.932057037049329
 10
4.509525565115209
 20
7.936689433808036
 10
4.503460280630864
 20
7.938908030510726
 10
4.497545240459751
 20
7.93849558676307
 10
4.492359096394594
 20
7.935492737559975
 10
4.488409601807221
 20
7.930193275174298
 10
4.486083831906214
 20
7.923115923773951
 10
4.485608661638465
 20
7.914953471171219
 10
4.487031457183042
 20
7.906504923387053
  0
LWPOLYLINE
  5
72
330
1F
100
AcDbEntity
  8
0
  6
Continuous
 62
     7
370
    15
100
AcDbPolyline
 90
       12
 70
   128
 43
0.0
 10
4.51950459328107
 20
7.886441298268974
 10
4.524017353195356
 20
7.888560304793389
 10
4.528328278881628
 20
7.893121660629817
 10
4.531222744626893
 20
7.899533165174692
 10
4.532443404248047
 20
7.907225208726756
 10
4.53188194909358
 20
7.915514292246761
 10
4.529588158905834
 20
7.923663842762371
 10
4.525765979780675
 20
7.93094972580898
 10
4.520755120747623
 20
7.936724560444273
 10
4.515000582533616
 20
7.940475266677284
 10
4.509013437159969
 20
7.941868659084541
 10
4.505267888668466
 20
7.941447058215737
  0
LWPOLYLINE
  5
73
330
1F
100
AcDbEntity
  8
0
  6
Continuous
 62
     7
370
    15
100
AcDbPolyline
 90
       12
 70
   128
 43
0.0
 10
4.606650971234101
 20
7.631059600682895
 10
4.610396519725602
 20
7.631481201551701
 10
4.616383363403843
 20
7.630087887228961
 10
4.62213790161785
 20
7.626337180995951
 10
4.627149062346311
 20
7.62056226827614
 10
4.630971241471469
 20
7.61327638522953
 10
4.633264729963809
 20
7.605126912798438
 10
4.633826185118272
 20
7.596837829278433
 10
4.632605525497121
 20
7.589145785726369
 10
4.629711059751856
 20
7.582734281181494
 10
4.625400134065583
 20
7.578172822314168
 10
4.620887374151296
 20
7.576053918820653
  0
LWPOLYLINE
  5
74
330
1F
100
AcDbEntity
  8
0
  6
Continuous
 62
     7
370
    15
100
AcDbPolyline
 90
       21
 70
   128
 43
0.0
 10
4.595163918570877
 20
7.597864489805044
 10
4.598344693258424
 20
7.589956840197038
 10
4.602972700818604
 20
7.583364119822919
 10
4.608594191357642
 20
7.578731904179625
 10
4.614659475841988
 20
7.576513307476937
 10
4.620574817708509
 20
7.576925570109178
 10
4.625760961773665
 20
7.579928419312272
 10
4.629710154665631
 20
7.585227959782466
 10
4.632036226262044
 20
7.592305336129196
 10
4.632511094834386
 20
7.600467763785547
 10
4.631088600985217
 20
7.608916233485196
 10
4.627907524602262
 20
7.616823961177719
 10
4.62327981873749
 20
7.623416603467322
 10
4.617658328198453
 20
7.628048819110613
 10
4.6115927420187
 20
7.630267493897821
 10
4.605677701847586
 20
7.629855153181061
 10
4.60049155778243
 20
7.626852303977968
 10
4.596542364890465
 20
7.621552763507773
 10
4.594216293294051
 20
7.614475387161045
 10
4.593741424721709
 20
7.606312959504693
 10
4.595163918570877
 20
7.597864489805044
  0
LWPOLYLINE
  5
75
330
1F
100
AcDbEntity
  8
0
  6
Continuous
 62
     7
370
    15
100
AcDbPolyline
 90
       12
 70
   128
 43
0.0
 10
4.627637054668905
 20
7.577800864686967
 10
4.632149814583192
 20
7.579919768180483
 10
4.636460740269464
 20
7.58448122704781
 10
4.639355206014729
 20
7.590892731592683
 10
4.640575865635882
 20
7.598584775144748
 10
4.640014410481417
 20
7.606873858664752
 10
4.637720921989078
 20
7.615023331095844
 10
4.63389874286392
 20
7.622309214142454
 10
4.628887582135459
 20
7.628084126862265
 10
4.623133043921452
 20
7.631834833095276
 10
4.617146200243212
 20
7.633228147418016
 10
4.613400651751709
 20
7.63280654654921
  0
LINE
  5
76
330
1F
100
AcDbEntity
  8
0
  6
Continuous
 62
     7
370
    15
100
AcDbLine
 10
1.906102061390149
 20
7.032937575493451
 30
0.0
 11
1.959825264405062
 21
6.967776661139652
 31
0.0
  0
LINE
  5
77
330
1F
100
AcDbEntity
  8
0
  6
Continuous
 62
     7
370
    15
100
AcDbLine
 10
2.32350640765664
 20
6.526668190898202
 30
0.0
 11
5.206632195625809
 21
3.029727711880763
 31
0.0
  0
LINE
  5
78
330
1F
100
AcDbEntity
  8
0
  6
Continuous
 62
     7
370
    15
100
AcDbLine
 10
1.906102061390149
 20
8.328690002434722
 30
0.0
 11
1.906102061390149
 21
7.728182038219069
 31
0.0
  0
LINE
  5
79
330
1F
100
AcDbEntity
  8
0
  6
Continuous
 62
     7
370
    15
100
AcDbLine
 10
1.906102061390149
 20
7.125400594210006
 30
0.0
 11
1.906102061390149
 21
7.032937575493451
 31
0.0
  0
LINE
  5
7A
330
1F
100
AcDbEntity
  8
0
  6
Continuous
 62
     7
370
    15
100
AcDbLine
 10
3.352456698689676
 20
7.954345876329258
 30
0.0
 11
1.906102061390149
 21
8.328690002434722
 31
0.0
  0
LINE
  5
7B
330
1F
100
AcDbEntity
  8
0
  6
Continuous
 62
     7
370
    15
100
AcDbLine
 10
3.352456698689676
 20
6.724985838788626
 30
0.0
 11
3.352456698689676
 21
7.954345876329258
 31
0.0
  0
LINE
  5
7C
330
1F
100
AcDbEntity
  8
0
  6
Continuous
 62
     7
370
    15
100
AcDbLine
 10
4.798811543404795
 20
6.350641659000054
 30
0.0
 11
3.352456698689676
 21
6.724985838788626
 31
0.0
  0
LINE
  5
7D
330
1F
100
AcDbEntity
  8
0
  6
Continuous
 62
     7
370
    15
100
AcDbLine
 10
4.798811543404795
 20
5.121281466913075
 30
0.0
 11
4.798811543404795
 21
6.350641659000054
 31
0.0
  0
LINE
  5
7E
330
1F
100
AcDbEntity
  8
0
  6
Continuous
 62
     7
370
    15
100
AcDbLine
 10
5.241677813044812
 20
5.006659241896731
 30
0.0
 11
4.798811543404795
 21
5.121281466913075
 31
0.0
  0
LINE
  5
7F
330
1F
100
AcDbEntity
  8
0
  6
Continuous
 62
     7
370
    15
100
AcDbLine
 10
5.241677813044812
 20
5.006659241896731
 30
0.0
 11
5.241677813044812
 21
4.331028101506503
 31
0.0
  0
LINE
  5
80
330
1F
100
AcDbEntity
  8
0
  6
Continuous
 62
     7
370
    15
100
AcDbLine
 10
5.241677813044812
 20
4.331028101506503
 30
0.0
 11
5.344853588581311
 21
4.228367189057578
 31
0.0
  0
LINE
  5
81
330
1F
100
AcDbEntity
  8
0
  6
Continuous
 62
     7
370
    15
100
AcDbLine
 10
5.344853588581311
 20
4.228367189057578
 30
0.0
 11
5.206632195625809
 21
4.198276183152708
 31
0.0
  0
LINE
  5
82
330
1F
100
AcDbEntity
  8
0
  6
Continuous
 62
     7
370
    15
100
AcDbLine
 10
5.206632195625809
 20
4.198276183152708
 30
0.0
 11
5.206632195625809
 21
3.029727711880763
 31
0.0
  0
LINE
  5
83
330
1F
100
AcDbEntity
  8
0
  6
Continuous
 62
     7
370
    15
100
AcDbLine
 10
5.241677813044812
 20
5.006659241896731
 30
0.0
 11
5.434525138244135
 21
5.056571802455396
 31
0.0
  0
LINE
  5
84
330
1F
100
AcDbEntity
  8
0
  6
Continuous
 62
     7
370
    15
100
AcDbLine
 10
5.434525138244135
 20
4.380940662065167
 30
0.0
 11
5.241677813044812
 21
4.331028101506503
 31
0.0
  0
LINE
  5
85
330
1F
100
AcDbEntity
  8
0
  6
Continuous
 62
     7
370
    15
100
AcDbLine
 10
5.434525138244135
 20
5.056571802455396
 30
0.0
 11
5.434525138244135
 21
4.380940662065167
 31
0.0
  0
LINE
  5
86
330
1F
100
AcDbEntity
  8
0
  6
Continuous
 62
     7
370
    15
100
AcDbLine
 10
4.798811543404795
 20
5.121281466913075
 30
0.0
 11
4.991658868604119
 21
5.17119402747174
 31
0.0
  0
LINE
  5
87
330
1F
100
AcDbEntity
  8
0
  6
Continuous
 62
     7
370
    15
100
AcDbLine
 10
5.434525138244135
 20
5.056571802455396
 30
0.0
 11
4.991658868604119
 21
5.17119402747174
 31
0.0
  0
LINE
  5
88
330
1F
100
AcDbEntity
  8
0
  6
Continuous
 62
     7
370
    15
100
AcDbLine
 10
5.537700913780635
 20
4.278279749616243
 30
0.0
 11
5.344853588581311
 21
4.228367189057578
 31
0.0
  0
LINE
  5
89
330
1F
100
AcDbEntity
  8
0
  6
Continuous
 62
     7
370
    15
100
AcDbLine
 10
5.434525138244135
 20
4.380940662065167
 30
0.0
 11
5.537700913780635
 21
4.278279749616243
 31
0.0
  0
LINE
  5
8A
330
1F
100
AcDbEntity
  8
0
  6
Continuous
 62
     7
370
    15
100
AcDbLine
 10
4.798811543404795
 20
6.350641659000054
 30
0.0
 11
4.991658868604119
 21
6.400554219558719
 31
0.0
  0
LINE
  5
8B
330
1F
100
AcDbEntity
  8
0
  6
Continuous
 62
     7
370
    15
100
AcDbLine
 10
3.352456698689676
 20
6.724985838788626
 30
0.0
 11
3.545304023889
 21
6.77489839934729
 31
0.0
  0
LINE
  5
8C
330
1F
100
AcDbEntity
  8
0
  6
Continuous
 62
     7
370
    15
100
AcDbLine
 10
4.991658868604119
 20
6.400554219558719
 30
0.0
 11
3.545304023889
 21
6.77489839934729
 31
0.0
  0
LINE
  5
8D
330
1F
100
AcDbEntity
  8
0
  6
Continuous
 62
     7
370
    15
100
AcDbLine
 10
4.991658868604119
 20
5.17119402747174
 30
0.0
 11
4.991658868604119
 21
6.400554219558719
 31
0.0
  0
LINE
  5
8E
330
1F
100
AcDbEntity
  8
0
  6
Continuous
 62
     7
370
    15
100
AcDbLine
 10
5.399479520825133
 20
3.079640272439426
 30
0.0
 11
5.206632195625809
 21
3.029727711880763
 31
0.0
  0
LINE
  5
8F
330
1F
100
AcDbEntity
  8
0
  6
Continuous
 62
     7
370
    15
100
AcDbLine
 10
5.399479520825133
 20
4.242505404835992
 30
0.0
 11
5.399479520825133
 21
3.079640272439426
 31
0.0
  0
LINE
  5
90
330
1F
100
AcDbEntity
  8
0
  6
Continuous
 62
     7
370
    15
100
AcDbLine
 10
3.352456698689676
 20
7.954345876329258
 30
0.0
 11
3.545304023889
 21
8.004258436887923
 31
0.0
  0
LINE
  5
91
330
1F
100
AcDbEntity
  8
0
  6
Continuous
 62
     7
370
    15
100
AcDbLine
 10
1.906102061390149
 20
8.328690002434722
 30
0.0
 11
2.098949386589473
 21
8.378602562993387
 31
0.0
  0
LINE
  5
92
330
1F
100
AcDbEntity
  8
0
  6
Continuous
 62
     7
370
    15
100
AcDbLine
 10
3.545304023889
 20
8.004258436887923
 30
0.0
 11
2.098949386589473
 21
8.378602562993387
 31
0.0
  0
LINE
  5
93
330
1F
100
AcDbEntity
  8
0
  6
Continuous
 62
     7
370
    15
100
AcDbLine
 10
3.545304023889
 20
6.77489839934729
 30
0.0
 11
3.545304023889
 21
8.004258436887923
 31
0.0
  0
LINE
  5
94
330
1F
100
AcDbEntity
  8
0
  6
Continuous
 62
     7
370
    15
100
AcDbLine
 10
4.383346136958234
 20
7.674095521617863
 30
0.0
 11
4.437069339973147
 21
7.608934607264064
 31
0.0
  0
LINE
  5
95
330
1F
100
AcDbEntity
  8
0
  6
Continuous
 62
     7
370
    15
100
AcDbLine
 10
4.800750483224724
 20
7.167826137022615
 30
0.0
 11
7.683876271193892
 21
3.670885658005174
 31
0.0
  0
LINE
  5
96
330
1F
100
AcDbEntity
  8
0
  6
Continuous
 62
     7
370
    15
100
AcDbLine
 10
4.383346136958234
 20
8.969847948559134
 30
0.0
 11
4.383346136958234
 21
8.369339984343481
 31
0.0
  0
LINE
  5
97
330
1F
100
AcDbEntity
  8
0
  6
Continuous
 62
     7
370
    15
100
AcDbLine
 10
4.383346136958234
 20
7.766558540334417
 30
0.0
 11
4.383346136958234
 21
7.674095521617863
 31
0.0
  0
LINE
  5
98
330
1F
100
AcDbEntity
  8
0
  6
Continuous
 62
     7
370
    15
100
AcDbLine
 10
5.82970077425776
 20
8.59550382245367
 30
0.0
 11
4.383346136958234
 21
8.969847948559134
 31
0.0
  0
LINE
  5
99
330
1F
100
AcDbEntity
  8
0
  6
Continuous
 62
     7
370
    15
100
AcDbLine
 10
5.82970077425776
 20
7.366143784913037
 30
0.0
 11
5.82970077425776
 21
8.59550382245367
 31
0.0
  0
LINE
  5
9A
330
1F
100
AcDbEntity
  8
0
  6
Continuous
 62
     7
370
    15
100
AcDbLine
 10
7.276055618972879
 20
6.991799605124466
 30
0.0
 11
5.82970077425776
 21
7.366143784913037
 31
0.0
  0
LINE
  5
9B
330
1F
100
AcDbEntity
  8
0
  6
Continuous
 62
     7
370
    15
100
AcDbLine
 10
7.276055618972879
 20
5.762439413037487
 30
0.0
 11
7.276055618972879
 21
6.991799605124466
 31
0.0
  0
LINE
  5
9C
330
1F
100
AcDbEntity
  8
0
  6
Continuous
 62
     7
370
    15
100
AcDbLine
 10
7.718921888612896
 20
5.647817188021144
 30
0.0
 11
7.276055618972879
 21
5.762439413037487
 31
0.0
  0
LINE
  5
9D
330
1F
100
AcDbEntity
  8
0
  6
Continuous
 62
     7
370
    15
100
AcDbLine
 10
7.718921888612896
 20
5.647817188021144
 30
0.0
 11
7.718921888612896
 21
4.972186047630914
 31
0.0
  0
LINE
  5
9E
330
1F
100
AcDbEntity
  8
0
  6
Continuous
 62
     7
370
    15
100
AcDbLine
 10
7.718921888612896
 20
4.972186047630914
 30
0.0
 11
7.822097664149394
 21
4.86952513518199
 31
0.0
  0
LINE
  5
9F
330
1F
100
AcDbEntity
  8
0
  6
Continuous
 62
     7
370
    15
100
AcDbLine
 10
7.822097664149394
 20
4.86952513518199
 30
0.0
 11
7.683876271193892
 21
4.839434129277121
 31
0.0
  0
LINE
  5
A0
330
1F
100
AcDbEntity
  8
0
  6
Continuous
 62
     7
370
    15
100
AcDbLine
 10
7.683876271193892
 20
4.839434129277121
 30
0.0
 11
7.683876271193892
 21
3.670885658005174
 31
0.0
  0
LINE
  5
A1
330
1F
100
AcDbEntity
  8
0
  6
Continuous
 62
     7
370
    15
100
AcDbLine
 10
7.276055618972879
 20
5.762439413037487
 30
0.0
 11
7.468902944172203
 21
5.812351973596152
 31
0.0
  0
LINE
  5
A2
330
1F
100
AcDbEntity
  8
0
  6
Continuous
 62
     7
370
    15
100
AcDbLine
 10
7.718921888612896
 20
5.647817188021144
 30
0.0
 11
7.911769213812219
 21
5.697729748579807
 31
0.0
  0
LINE
  5
A3
330
1F
100
AcDbEntity
  8
0
  6
Continuous
 62
     7
370
    15
100
AcDbLine
 10
7.911769213812219
 20
5.697729748579807
 30
0.0
 11
7.468902944172203
 21
5.812351973596152
 31
0.0
  0
LINE
  5
A4
330
1F
100
AcDbEntity
  8
0
  6
Continuous
 62
     7
370
    15
100
AcDbLine
 10
7.911769213812219
 20
5.02209860818958
 30
0.0
 11
7.718921888612896
 21
4.972186047630914
 31
0.0
  0
LINE
  5
A5
330
1F
100
AcDbEntity
  8
0
  6
Continuous
 62
     7
370
    15
100
AcDbLine
 10
7.911769213812219
 20
5.697729748579807
 30
0.0
 11
7.911769213812219
 21
5.02209860818958
 31
0.0
  0
LINE
  5
A6
330
1F
100
AcDbEntity
  8
0
  6
Continuous
 62
     7
370
    15
100
AcDbLine
 10
8.014944989348718
 20
4.919437695740654
 30
0.0
 11
7.822097664149394
 21
4.86952513518199
 31
0.0
  0
LINE
  5
A7
330
1F
100
AcDbEntity
  8
0
  6
Continuous
 62
     7
370
    15
100
AcDbLine
 10
7.911769213812219
 20
5.02209860818958
 30
0.0
 11
8.014944989348718
 21
4.919437695740654
 31
0.0
  0
LINE
  5
A8
330
1F
100
AcDbEntity
  8
0
  6
Continuous
 62
     7
370
    15
100
AcDbLine
 10
7.276055618972879
 20
6.991799605124466
 30
0.0
 11
7.468902944172203
 21
7.04171216568313
 31
0.0
  0
LINE
  5
A9
330
1F
100
AcDbEntity
  8
0
  6
Continuous
 62
     7
370
    15
100
AcDbLine
 10
5.82970077425776
 20
7.366143784913037
 30
0.0
 11
6.022548099457083
 21
7.416056345471702
 31
0.0
  0
LINE
  5
AA
330
1F
100
AcDbEntity
  8
0
  6
Continuous
 62
     7
370
    15
100
AcDbLine
 10
7.468902944172203
 20
7.04171216568313
 30
0.0
 11
6.022548099457083
 21
7.416056345471702
 31
0.0
  0
LINE
  5
AB
330
1F
100
AcDbEntity
  8
0
  6
Continuous
 62
     7
370
    15
100
AcDbLine
 10
7.468902944172203
 20
5.812351973596152
 30
0.0
 11
7.468902944172203
 21
7.04171216568313
 31
0.0
  0
LINE
  5
AC
330
1F
100
AcDbEntity
  8
0
  6
Continuous
 62
     7
370
    15
100
AcDbLine
 10
7.876723596393216
 20
3.720798218563839
 30
0.0
 11
7.683876271193892
 21
3.670885658005174
 31
0.0
  0
LINE
  5
AD
330
1F
100
AcDbEntity
  8
0
  6
Continuous
 62
     7
370
    15
100
AcDbLine
 10
7.876723596393216
 20
4.883663350960404
 30
0.0
 11
7.876723596393216
 21
3.720798218563839
 31
0.0
  0
LINE
  5
AE
330
1F
100
AcDbEntity
  8
0
  6
Continuous
 62
     7
370
    15
100
AcDbLine
 10
5.82970077425776
 20
8.59550382245367
 30
0.0
 11
6.022548099457083
 21
8.645416383012335
 31
0.0
  0
LINE
  5
AF
330
1F
100
AcDbEntity
  8
0
  6
Continuous
 62
     7
370
    15
100
AcDbLine
 10
6.022548099457083
 20
7.416056345471702
 30
0.0
 11
6.022548099457083
 21
8.645416383012335
 31
0.0
  0
LINE
  5
B0
330
1F
100
AcDbEntity
  8
0
  6
Continuous
 62
     7
370
    15
100
AcDbLine
 10
4.383346136958234
 20
8.969847948559134
 30
0.0
 11
4.576193462157557
 21
9.0197605091178
 31
0.0
  0
LINE
  5
B1
330
1F
100
AcDbEntity
  8
0
  6
Continuous
 62
     7
370
    15
100
AcDbLine
 10
6.022548099457083
 20
8.645416383012335
 30
0.0
 11
4.576193462157557
 21
9.0197605091178
 31
0.0
  0
LINE
  5
B2
330
1F
100
AcDbEntity
  8
0
  6
Continuous
 62
     7
370
    15
100
AcDbLine
 10
1.520407410991501
 20
8.948429993557827
 30
0.0
 11
1.327560085792177
 21
8.998342554116492
 31
0.0
  0
LINE
  5
B3
330
1F
100
AcDbEntity
  8
0
  6
Continuous
 62
     7
370
    15
100
AcDbLine
 10
4.766670366535477
 20
9.88844979298074
 30
0.0
 11
1.327560085792177
 21
8.998342554116492
 31
0.0
  0
LINE
  5
B4
330
1F
100
AcDbEntity
  8
0
  6
Continuous
 62
     7
370
    15
100
AcDbLine
 10
4.766670366535477
 20
9.88844979298074
 30
0.0
 11
4.959517691734801
 21
9.838537232422076
 31
0.0
  0
LINE
  5
B5
330
1F
100
AcDbEntity
  8
0
  6
Continuous
 62
     7
370
    15
100
AcDbLine
 10
4.959517691734801
 20
9.838537232422076
 30
0.0
 11
1.520407410991501
 21
8.948429993557827
 31
0.0
  0
LINE
  5
B6
330
1F
100
AcDbEntity
  8
0
  6
Continuous
 62
     7
370
    15
100
AcDbLine
 10
1.520407410991501
 20
8.948429993557827
 30
0.0
 11
1.520407410991501
 21
6.445804022546041
 31
0.0
  0
LINE
  5
B7
330
1F
100
AcDbEntity
  8
0
  6
Continuous
 62
     7
370
    15
100
AcDbLine
 10
1.520407410991501
 20
6.445804022546041
 30
0.0
 11
1.327560085792177
 21
6.495716583104705
 31
0.0
  0
LINE
  5
B8
330
1F
100
AcDbEntity
  8
0
  6
Continuous
 62
     7
370
    15
100
AcDbLine
 10
1.327560085792177
 20
8.998342554116492
 30
0.0
 11
1.327560085792177
 21
6.495716583104705
 31
0.0
  0
LINE
  5
B9
330
1F
100
AcDbEntity
  8
0
  6
Continuous
 62
     7
370
    15
100
AcDbLine
 10
1.520407410991501
 20
6.445804022546041
 30
0.0
 11
2.230714856075035
 21
6.629645117211773
 31
0.0
  0
LINE
  5
BA
330
1F
100
AcDbEntity
  8
0
  6
Continuous
 62
     7
370
    15
100
AcDbLine
 10
3.545304023888994
 20
6.969885830327501
 30
0.0
 11
4.707958931643118
 21
7.270803063336185
 31
0.0
  0
LINE
  5
BB
330
1F
100
AcDbEntity
  8
0
  6
Continuous
 62
     7
370
    15
100
AcDbLine
 10
4.959517691734801
 20
9.838537232422076
 30
0.0
 11
4.959517691734801
 21
8.92054882905977
 31
0.0
  0
LINE
  5
BC
330
1F
100
AcDbEntity
  8
0
  6
Continuous
 62
     7
370
    15
100
AcDbLine
 10
3.875274023935424
 20
7.055288380242201
 30
0.0
 11
3.875274023935424
 21
6.689495722753863
 31
0.0
  0
LINE
  5
BD
330
1F
100
AcDbEntity
  8
0
  6
Continuous
 62
     7
370
    15
100
AcDbLine
 10
3.698045470013187
 20
4.859491156935173
 30
0.0
 11
3.61146944722916
 21
4.837083633389437
 31
0.0
  0
LINE
  5
BE
330
1F
100
AcDbEntity
  8
0
  6
Continuous
 62
     7
370
    15
100
AcDbLine
 10
3.61146944722916
 20
4.837083633389437
 30
0.0
 11
3.521720795533604
 21
4.560285527166939
 31
0.0
  0
LINE
  5
BF
330
1F
100
AcDbEntity
  8
0
  6
Continuous
 62
     7
370
    15
100
AcDbLine
 10
3.521720795533604
 20
4.560285527166939
 30
0.0
 11
3.479472577365589
 21
4.715108846806474
 31
0.0
  0
LINE
  5
C0
330
1F
100
AcDbEntity
  8
0
  6
Continuous
 62
     7
370
    15
100
AcDbLine
 10
3.479472577365589
 20
4.715108846806474
 30
0.0
 11
3.168167265436373
 21
4.634537103237613
 31
0.0
  0
LINE
  5
C1
330
1F
100
AcDbEntity
  8
0
  6
Continuous
 62
     7
370
    15
100
AcDbLine
 10
3.168167265436373
 20
5.502179664395169
 30
0.0
 11
3.168167265436373
 21
4.634537103237613
 31
0.0
  0
LINE
  5
C2
330
1F
100
AcDbEntity
  8
0
  6
Continuous
 62
     7
370
    15
100
AcDbLine
 10
2.461060506937319
 20
9.306493717769503
 30
0.0
 11
2.489612658664037
 21
9.299103877123974
 31
0.0
  0
LINE
  5
C3
330
1F
100
AcDbEntity
  8
0
  6
Continuous
 62
     7
370
    15
100
AcDbLine
 10
3.168167265436372
 20
9.489506413789769
 30
0.0
 11
2.461060506937319
 21
9.306493717769503
 31
0.0
  0
LINE
  5
C4
330
1F
100
AcDbEntity
  8
0
  6
Continuous
 62
     7
370
    15
100
AcDbLine
 10
3.196719417163089
 20
9.482116573144237
 30
0.0
 11
3.168167265436372
 21
9.489506413789769
 31
0.0
  0
LINE
  5
C5
330
1F
100
AcDbEntity
  8
0
  6
Continuous
 62
     7
370
    15
100
AcDbLine
 10
2.461060506937319
 20
4.817549799257876
 30
0.0
 11
3.168167265436373
 21
4.634537103237613
 31
0.0
  0
LINE
  5
C6
330
1F
100
AcDbEntity
  8
0
  6
Continuous
 62
     7
370
    15
100
AcDbLine
 10
2.461060506937319
 20
9.306493717769503
 30
0.0
 11
2.461060506937319
 21
9.291714141525282
 31
0.0
  0
LINE
  5
C7
330
1F
100
AcDbEntity
  8
0
  6
Continuous
 62
     7
370
    15
100
AcDbLine
 10
2.461060506937319
 20
6.359828776122871
 30
0.0
 11
2.461060506937319
 21
4.817549799257876
 31
0.0
  0
LINE
  5
C8
330
1F
100
AcDbEntity
  8
0
  6
Continuous
 62
     7
370
    15
100
AcDbLine
 10
3.20150098768599
 20
4.643164512056972
 30
0.0
 11
3.521720795533604
 21
4.560285527166939
 31
0.0
  0
LINE
  5
C9
330
1F
100
AcDbEntity
  8
0
  6
Continuous
 62
     7
370
    15
100
AcDbLine
 10
4.673035123745136
 20
7.448832346476208
 30
0.0
 11
4.669235873470994
 21
7.482333452557262
 31
0.0
  0
LINE
  5
CA
330
1F
100
AcDbEntity
  8
0
  6
Continuous
 62
     7
370
    15
100
AcDbLine
 10
4.669235873470994
 20
7.482333452557262
 30
0.0
 11
4.645431200686061
 21
7.483304579815724
 31
0.0
  0
LINE
  5
CB
330
1F
100
AcDbEntity
  8
0
  6
Continuous
 62
     7
370
    15
100
AcDbLine
 10
4.645431200686061
 20
7.483304579815724
 30
0.0
 11
4.649230752655612
 21
7.449803395650154
 31
0.0
  0
LINE
  5
CC
330
1F
100
AcDbEntity
  8
0
  6
Continuous
 62
     7
370
    15
100
AcDbLine
 10
4.649230752655612
 20
7.449803395650154
 30
0.0
 11
4.673035123745136
 21
7.448832346476208
 31
0.0
  0
LINE
  5
CD
330
1F
100
AcDbEntity
  8
0
  6
Continuous
 62
     7
370
    15
100
AcDbLine
 10
4.625947409535868
 20
7.679996777743696
 30
0.0
 11
4.43740859645955
 21
7.608323790457381
 31
0.0
  0
LINE
  5
CE
330
1F
100
AcDbEntity
  8
0
  6
Continuous
 62
     7
370
    15
100
AcDbLine
 10
4.625947409535868
 20
7.679996777743696
 30
0.0
 11
4.812292595299925
 21
7.453978934848388
 31
0.0
  0
LINE
  5
CF
330
1F
100
AcDbEntity
  8
0
  6
Continuous
 62
     7
370
    15
100
AcDbLine
 10
4.794398437254986
 20
7.17533115722478
 30
0.0
 11
4.812292595299925
 21
7.453978934848388
 31
0.0
  0
LINE
  5
D0
330
1F
100
AcDbEntity
  8
0
  6
Continuous
 62
     7
370
    15
100
AcDbLine
 10
4.794398437254986
 20
7.17533115722478
 30
0.0
 11
4.43740859645955
 21
7.608323790457381
 31
0.0
  0
LINE
  5
D1
330
1F
100
AcDbEntity
  8
0
  6
Continuous
 62
     7
370
    15
100
AcDbLine
 10
4.625947409535868
 20
7.679996777743696
 30
0.0
 11
4.632632828931553
 21
7.681727091607797
 31
0.0
  0
LINE
  5
D2
330
1F
100
AcDbEntity
  8
0
  6
Continuous
 62
     7
370
    15
100
AcDbLine
 10
4.632632828931553
 20
7.681727091607797
 30
0.0
 11
4.81897801469561
 21
7.455709248712489
 31
0.0
  0
LINE
  5
D3
330
1F
100
AcDbEntity
  8
0
  6
Continuous
 62
     7
370
    15
100
AcDbLine
 10
4.812292595299925
 20
7.453978934848388
 30
0.0
 11
4.81897801469561
 21
7.455709248712489
 31
0.0
  0
SPLINE
  5
D4
330
1F
100
AcDbEntity
  8
0
  6
Continuous
 62
     7
370
    15
100
AcDbSpline
210
0.0
220
0.0
230
1.0
 70
     8
 71
     3
 72
    10
 73
     6
 74
     0
 42
0.0000000001
 43
0.0000000001
 40
0.0
 40
0.0
 40
0.0
 40
0.0
 40
0.0725579316625849
 40
0.5362762040782904
 40
1.0
 40
1.0
 40
1.0
 40
1.0
 10
4.433190743806675
 20
7.604349316702888
 30
0.0
 10
4.433131888201499
 20
7.604332114974845
 30
0.0
 10
4.432696885992791
 20
7.604204976876953
 30
0.0
 10
4.433783375911336
 20
7.605613720425908
 30
0.0
 10
4.436200184812268
 20
7.607420430193522
 30
0.0
 10
4.437408596459549
 20
7.608323790457381
 30
0.0
  0
SPLINE
  5
D5
330
1F
100
AcDbEntity
  8
0
  6
Continuous
 62
     7
370
    15
100
AcDbSpline
210
0.0
220
0.0
230
1.0
 70
     8
 71
     3
 72
    11
 73
     7
 74
     0
 42
0.0000000001
 43
0.0000000001
 40
0.0
 40
0.0
 40
0.0
 40
0.0
 40
0.2500000848355299
 40
0.5000018218499962
 40
0.7500051225214028
 40
1.0
 40
1.0
 40
1.0
 40
1.0
 10
4.794398437254986
 20
7.17533115722478
 30
0.0
 10
4.794146735601286
 20
7.173189517222634
 30
0.0
 10
4.793643330630464
 20
7.168906223064855
 30
0.0
 10
4.79565667477303
 20
7.16384020355537
 30
0.0
 10
4.799616762020673
 20
7.160298328582142
 30
0.0
 10
4.803663492392551
 20
7.159575340727765
 30
0.0
 10
4.805686823491977
 20
7.159213852890464
 30
0.0
  0
LINE
  5
D6
330
1F
100
AcDbEntity
  8
0
  6
Continuous
 62
     7
370
    15
100
AcDbLine
 10
4.794398437254986
 20
7.17533115722478
 30
0.0
 11
4.80108385665067
 21
7.17706147108888
 31
0.0
  0
LINE
  5
D7
330
1F
100
AcDbEntity
  8
0
  6
Continuous
 62
     7
370
    15
100
AcDbLine
 10
4.80108385665067
 20
7.17706147108888
 30
0.0
 11
4.81897801469561
 21
7.455709248712489
 31
0.0
  0
LINE
  5
D8
330
1F
100
AcDbEntity
  8
0
  6
Continuous
 62
     7
370
    15
100
AcDbLine
 10
4.805686823491978
 20
7.159213852890464
 30
0.0
 11
4.806588892762182
 21
7.160744578248345
 31
0.0
  0
LINE
  5
D9
330
1F
100
AcDbEntity
  8
0
  6
Continuous
 62
     7
370
    15
100
AcDbLine
 10
4.897913601269628
 20
7.047352225555262
 30
0.0
 11
4.898815368844425
 21
7.048883028997662
 31
0.0
  0
LINE
  5
DA
330
1F
100
AcDbEntity
  8
0
  6
Continuous
 62
     7
370
    15
100
AcDbLine
 10
4.897913601269628
 20
7.047352225555262
 30
0.0
 11
4.805686823491978
 21
7.159213852890464
 31
0.0
  0
LINE
  5
DB
330
1F
100
AcDbEntity
  8
0
  6
Continuous
 62
     7
370
    15
100
AcDbLine
 10
4.901159240469915
 20
7.046040425293069
 30
0.0
 11
4.897913601269628
 21
7.047352225555262
 31
0.0
  0
LINE
  5
DC
330
1F
100
AcDbEntity
  8
0
  6
Continuous
 62
     7
370
    15
100
AcDbLine
 10
4.561003550903079
 20
8.174240981257609
 30
0.0
 11
4.567688970298764
 21
8.175971295121708
 31
0.0
  0
LINE
  5
DD
330
1F
100
AcDbEntity
  8
0
  6
Continuous
 62
     7
370
    15
100
AcDbLine
 10
4.561003550903079
 20
8.174240981257609
 30
0.0
 11
4.380620469793798
 21
8.362800074184008
 31
0.0
  0
LINE
  5
DE
330
1F
100
AcDbEntity
  8
0
  6
Continuous
 62
     7
370
    15
100
AcDbLine
 10
4.387305889189483
 20
8.364530388048109
 30
0.0
 11
4.380620469793798
 21
8.362800074184008
 31
0.0
  0
LINE
  5
DF
330
1F
100
AcDbEntity
  8
0
  6
Continuous
 62
     7
370
    15
100
AcDbLine
 10
4.567688970298764
 20
8.175971295121708
 30
0.0
 11
4.387305889189483
 21
8.364530388048109
 31
0.0
  0
LINE
  5
E0
330
1F
100
AcDbEntity
  8
0
  6
Continuous
 62
     7
370
    15
100
AcDbLine
 10
4.474020239318122
 20
8.041366221715838
 30
0.0
 11
4.457295452674959
 21
8.02198029325109
 31
0.0
  0
LINE
  5
E1
330
1F
100
AcDbEntity
  8
0
  6
Continuous
 62
     7
370
    15
100
AcDbLine
 10
4.456659780450102
 20
8.068705716468242
 30
0.0
 11
4.474020239318122
 21
8.041366221715838
 31
0.0
  0
LINE
  5
E2
330
1F
100
AcDbEntity
  8
0
  6
Continuous
 62
     7
370
    15
100
AcDbLine
 10
4.439935295502347
 20
8.049319709918975
 30
0.0
 11
4.456659780450102
 21
8.068705716468242
 31
0.0
  0
LINE
  5
E3
330
1F
100
AcDbEntity
  8
0
  6
Continuous
 62
     7
370
    15
100
AcDbLine
 10
4.457295452674959
 20
8.02198029325109
 30
0.0
 11
4.439935295502347
 21
8.049319709918975
 31
0.0
  0
LINE
  5
E4
330
1F
100
AcDbEntity
  8
0
  6
Continuous
 62
     7
370
    15
100
AcDbLine
 10
4.561003550903079
 20
8.174240981257609
 30
0.0
 11
4.561273869988732
 21
7.863678855096269
 31
0.0
  0
LINE
  5
E5
330
1F
100
AcDbEntity
  8
0
  6
Continuous
 62
     7
370
    15
100
AcDbLine
 10
4.381138782504905
 20
7.767842278436312
 30
0.0
 11
4.561273869988732
 21
7.863678855096269
 31
0.0
  0
LINE
  5
E6
330
1F
100
AcDbEntity
  8
0
  6
Continuous
 62
     7
370
    15
100
AcDbLine
 10
4.381138782504905
 20
7.767842278436312
 30
0.0
 11
4.380620469793798
 21
8.362800074184008
 31
0.0
  0
LINE
  5
E7
330
1F
100
AcDbEntity
  8
0
  6
Continuous
 62
     7
370
    15
100
AcDbLine
 10
4.561273869988732
 20
7.863678855096269
 30
0.0
 11
4.567959289384417
 21
7.86540916896037
 31
0.0
  0
LINE
  5
E8
330
1F
100
AcDbEntity
  8
0
  6
Continuous
 62
     7
370
    15
100
AcDbLine
 10
4.567688970298764
 20
8.175971295121708
 30
0.0
 11
4.567959289384417
 21
7.86540916896037
 31
0.0
  0
LINE
  5
E9
330
1F
100
AcDbEntity
  8
0
  6
Continuous
 62
     7
370
    15
100
AcDbLine
 10
4.649230752655612
 20
7.449803395650154
 30
0.0
 11
4.655916172051297
 21
7.451533709514255
 31
0.0
  0
LINE
  5
EA
330
1F
100
AcDbEntity
  8
0
  6
Continuous
 62
     7
370
    15
100
AcDbLine
 10
4.655916172051297
 20
7.451533709514255
 30
0.0
 11
4.67280719286432
 21
7.450844728051722
 31
0.0
  0
LINE
  5
EB
330
1F
100
AcDbEntity
  8
0
  6
Continuous
 62
     7
370
    15
100
AcDbLine
 10
4.381138782504905
 20
7.767842278436312
 30
0.0
 11
4.38782420190059
 21
7.769572592300412
 31
0.0
  0
LINE
  5
EC
330
1F
100
AcDbEntity
  8
0
  6
Continuous
 62
     7
370
    15
100
AcDbLine
 10
4.38782420190059
 20
7.769572592300412
 30
0.0
 11
4.567959289384417
 21
7.86540916896037
 31
0.0
  0
LINE
  5
ED
330
1F
100
AcDbEntity
  8
0
  6
Continuous
 62
     7
370
    15
100
AcDbLine
 10
4.652345003505675
 20
7.48302252393744
 30
0.0
 11
4.655916172051297
 21
7.451533709514255
 31
0.0
  0
SPLINE
  5
EE
330
1F
100
AcDbEntity
  8
0
  6
Continuous
 62
     7
370
    15
100
AcDbSpline
210
0.0
220
0.0
230
1.0
 70
     8
 71
     3
 72
     9
 73
     5
 74
     0
 42
0.0000000001
 43
0.0000000001
 40
0.0
 40
0.0
 40
0.0
 40
0.0
 40
0.4998661389575961
 40
1.0
 40
1.0
 40
1.0
 40
1.0
 10
4.384905600522677
 20
8.370984353682127
 30
0.0
 10
4.385018011503378
 20
8.36987806606973
 30
0.0
 10
4.385242893670701
 20
8.36766489833106
 30
0.0
 10
4.386618101292071
 20
8.36557541127637
 30
0.0
 10
4.387305889189483
 20
8.364530388048109
 30
0.0
  0
LINE
  5
EF
330
1F
100
AcDbEntity
  8
0
  6
Continuous
 62
     7
370
    15
100
AcDbLine
 10
4.377474390078182
 20
8.366053571289695
 30
0.0
 11
4.380620469793798
 21
8.362800074184008
 31
0.0
  0
LINE
  5
F0
330
1F
100
AcDbEntity
  8
0
  6
Continuous
 62
     7
370
    15
100
AcDbLine
 10
4.381138782504905
 20
7.767842278436312
 30
0.0
 11
4.377563541071274
 21
7.766897724069678
 31
0.0
  0
LINE
  5
F1
330
1F
100
AcDbEntity
  8
0
  6
Continuous
 62
     7
370
    15
100
AcDbLine
 10
4.439935295502347
 20
8.049319709918975
 30
0.0
 11
4.446620714898032
 21
8.051050023783076
 31
0.0
  0
LINE
  5
F2
330
1F
100
AcDbEntity
  8
0
  6
Continuous
 62
     7
370
    15
100
AcDbLine
 10
4.446620714898032
 20
8.051050023783076
 30
0.0
 11
4.458861402690677
 21
8.065238691781873
 31
0.0
  0
SPLINE
  5
F3
330
1F
100
AcDbEntity
  8
0
  6
Continuous
 62
     7
370
    15
100
AcDbSpline
210
0.0
220
0.0
230
1.0
 70
     8
 71
     3
 72
     9
 73
     5
 74
     0
 42
0.0000000001
 43
0.0000000001
 40
0.0
 40
0.0
 40
0.0
 40
0.0
 40
0.5001241430094748
 40
1.0
 40
1.0
 40
1.0
 40
1.0
 10
4.38782420190059
 20
7.769572592300412
 30
0.0
 10
4.387137821578826
 20
7.768962550752302
 30
0.0
 10
4.385765401687971
 20
7.767742770510459
 30
0.0
 10
4.385543355989182
 20
7.766646965552417
 30
0.0
 10
4.385432360705211
 20
7.766099199109921
 30
0.0
  0
LINE
  5
F4
330
1F
100
AcDbEntity
  8
0
  6
Continuous
 62
     7
370
    15
100
AcDbLine
 10
4.461779400677773
 20
8.027177618688307
 30
0.0
 11
4.446620714898032
 21
8.051050023783076
 31
0.0
  0
LINE
  5
F5
330
1F
100
AcDbEntity
  8
0
  6
Continuous
 62
     7
370
    15
100
AcDbLine
 10
4.43639897277636
 20
7.607122706992815
 30
0.0
 11
4.389131448103866
 21
7.664453478734236
 31
0.0
  0
LINE
  5
F6
330
1F
100
AcDbEntity
  8
0
  6
Continuous
 62
     7
370
    15
100
AcDbLine
 10
2.195791199024756
 20
6.807674439394055
 30
0.0
 11
2.191991948750614
 21
6.841175545475109
 31
0.0
  0
LINE
  5
F7
330
1F
100
AcDbEntity
  8
0
  6
Continuous
 62
     7
370
    15
100
AcDbLine
 10
2.191991948750614
 20
6.841175545475109
 30
0.0
 11
2.168187275965681
 21
6.842146672733571
 31
0.0
  0
LINE
  5
F8
330
1F
100
AcDbEntity
  8
0
  6
Continuous
 62
     7
370
    15
100
AcDbLine
 10
2.168187275965681
 20
6.842146672733571
 30
0.0
 11
2.171986827935232
 21
6.808645488568001
 31
0.0
  0
LINE
  5
F9
330
1F
100
AcDbEntity
  8
0
  6
Continuous
 62
     7
370
    15
100
AcDbLine
 10
2.171986827935232
 20
6.808645488568001
 30
0.0
 11
2.195791199024756
 21
6.807674439394055
 31
0.0
  0
LINE
  5
FA
330
1F
100
AcDbEntity
  8
0
  6
Continuous
 62
     7
370
    15
100
AcDbLine
 10
2.148703484815488
 20
7.038838870661542
 30
0.0
 11
1.96016467173917
 21
6.967165883375228
 31
0.0
  0
LINE
  5
FB
330
1F
100
AcDbEntity
  8
0
  6
Continuous
 62
     7
370
    15
100
AcDbLine
 10
2.148703484815488
 20
7.038838870661542
 30
0.0
 11
2.335048670579545
 21
6.812821027766235
 31
0.0
  0
LINE
  5
FC
330
1F
100
AcDbEntity
  8
0
  6
Continuous
 62
     7
370
    15
100
AcDbLine
 10
2.317154512534605
 20
6.534173250142626
 30
0.0
 11
2.335048670579545
 21
6.812821027766235
 31
0.0
  0
LINE
  5
FD
330
1F
100
AcDbEntity
  8
0
  6
Continuous
 62
     7
370
    15
100
AcDbLine
 10
2.317154512534605
 20
6.534173250142626
 30
0.0
 11
1.96016467173917
 21
6.967165883375228
 31
0.0
  0
LINE
  5
FE
330
1F
100
AcDbEntity
  8
0
  6
Continuous
 62
     7
370
    15
100
AcDbLine
 10
2.148703484815488
 20
7.038838870661542
 30
0.0
 11
2.155388753363468
 21
7.040569145483384
 31
0.0
  0
LINE
  5
FF
330
1F
100
AcDbEntity
  8
0
  6
Continuous
 62
     7
370
    15
100
AcDbLine
 10
2.155388753363468
 20
7.040569145483384
 30
0.0
 11
2.341733939127526
 21
6.814551302588077
 31
0.0
  0
LINE
  5
100
330
1F
100
AcDbEntity
  8
0
  6
Continuous
 62
     7
370
    15
100
AcDbLine
 10
2.335048670579545
 20
6.812821027766235
 30
0.0
 11
2.341733939127526
 21
6.814551302588077
 31
0.0
  0
SPLINE
  5
101
330
1F
100
AcDbEntity
  8
0
  6
Continuous
 62
     7
370
    15
100
AcDbSpline
210
0.0
220
0.0
230
1.0
 70
     8
 71
     3
 72
    10
 73
     6
 74
     0
 42
0.0000000001
 43
0.0000000001
 40
0.0
 40
0.0
 40
0.0
 40
0.0
 40
0.0725478716902035
 40
0.5362759096034965
 40
1.0
 40
1.0
 40
1.0
 40
1.0
 10
1.955946668238592
 20
6.963191370578476
 30
0.0
 10
1.955887868899743
 20
6.963174184586878
 30
0.0
 10
1.955453222531903
 20
6.96304714525324
 30
0.0
 10
1.956539071732637
 20
6.964455696249439
 30
0.0
 10
1.958956141832918
 20
6.966262490230052
 30
0.0
 10
1.96016467173917
 20
6.967165883375228
 30
0.0
  0
SPLINE
  5
102
330
1F
100
AcDbEntity
  8
0
  6
Continuous
 62
     7
370
    15
100
AcDbSpline
210
0.0
220
0.0
230
1.0
 70
     8
 71
     3
 72
    11
 73
     7
 74
     0
 42
0.0000000001
 43
0.0000000001
 40
0.0
 40
0.0
 40
0.0
 40
0.0
 40
0.24999955880377
 40
0.500005875738291
 40
0.750004321669354
 40
1.0
 40
1.0
 40
1.0
 40
1.0
 10
2.317154512534605
 20
6.534173250142626
 30
0.0
 10
2.316902734213553
 20
6.532031575858908
 30
0.0
 10
2.316399170765243
 20
6.52774816939651
 30
0.0
 10
2.31841279019778
 20
6.522682438491638
 30
0.0
 10
2.32237269243273
 20
6.519140317807128
 30
0.0
 10
2.326419403560044
 20
6.518417375779185
 30
0.0
 10
2.328442747923892
 20
6.518055906766052
 30
0.0
  0
LINE
  5
103
330
1F
100
AcDbEntity
  8
0
  6
Continuous
 62
     7
370
    15
100
AcDbLine
 10
2.317154512534605
 20
6.534173250142626
 30
0.0
 11
2.323839781082587
 21
6.535903524964468
 31
0.0
  0
LINE
  5
104
330
1F
100
AcDbEntity
  8
0
  6
Continuous
 62
     7
370
    15
100
AcDbLine
 10
2.323839781082587
 20
6.535903524964468
 30
0.0
 11
2.341733939127526
 21
6.814551302588077
 31
0.0
  0
LINE
  5
105
330
1F
100
AcDbEntity
  8
0
  6
Continuous
 62
     7
370
    15
100
AcDbLine
 10
2.328442747923894
 20
6.518055906766052
 30
0.0
 11
2.329344817194098
 21
6.519586632123933
 31
0.0
  0
LINE
  5
106
330
1F
100
AcDbEntity
  8
0
  6
Continuous
 62
     7
370
    15
100
AcDbLine
 10
2.420669525701544
 20
6.40619427943085
 30
0.0
 11
2.421571293276341
 21
6.407725082873249
 31
0.0
  0
LINE
  5
107
330
1F
100
AcDbEntity
  8
0
  6
Continuous
 62
     7
370
    15
100
AcDbLine
 10
2.420669525701544
 20
6.40619427943085
 30
0.0
 11
2.328442747923894
 21
6.518055906766052
 31
0.0
  0
LINE
  5
108
330
1F
100
AcDbEntity
  8
0
  6
Continuous
 62
     7
370
    15
100
AcDbLine
 10
2.423915164901833
 20
6.404882479168657
 30
0.0
 11
2.420669525701544
 21
6.40619427943085
 31
0.0
  0
LINE
  5
109
330
1F
100
AcDbEntity
  8
0
  6
Continuous
 62
     7
370
    15
100
AcDbLine
 10
2.083759626182699
 20
7.533083074175456
 30
0.0
 11
2.09044489473068
 21
7.534813348997297
 31
0.0
  0
LINE
  5
10A
330
1F
100
AcDbEntity
  8
0
  6
Continuous
 62
     7
370
    15
100
AcDbLine
 10
2.083759626182699
 20
7.533083074175456
 30
0.0
 11
1.903376545073419
 21
7.721642167101855
 31
0.0
  0
LINE
  5
10B
330
1F
100
AcDbEntity
  8
0
  6
Continuous
 62
     7
370
    15
100
AcDbLine
 10
1.910061813621398
 20
7.723372441923697
 30
0.0
 11
1.903376545073419
 21
7.721642167101855
 31
0.0
  0
LINE
  5
10C
330
1F
100
AcDbEntity
  8
0
  6
Continuous
 62
     7
370
    15
100
AcDbLine
 10
2.09044489473068
 20
7.534813348997297
 30
0.0
 11
1.910061813621398
 21
7.723372441923697
 31
0.0
  0
LINE
  5
10D
330
1F
100
AcDbEntity
  8
0
  6
Continuous
 62
     7
370
    15
100
AcDbLine
 10
1.996776314597743
 20
7.400208314633685
 30
0.0
 11
1.98005152795458
 21
7.380822386168937
 31
0.0
  0
LINE
  5
10E
330
1F
100
AcDbEntity
  8
0
  6
Continuous
 62
     7
370
    15
100
AcDbLine
 10
1.979415855729722
 20
7.427547809386087
 30
0.0
 11
1.996776314597743
 21
7.400208314633685
 31
0.0
  0
LINE
  5
10F
330
1F
100
AcDbEntity
  8
0
  6
Continuous
 62
     7
370
    15
100
AcDbLine
 10
1.962691370781968
 20
7.408161802836822
 30
0.0
 11
1.979415855729722
 21
7.427547809386087
 31
0.0
  0
LINE
  5
110
330
1F
100
AcDbEntity
  8
0
  6
Continuous
 62
     7
370
    15
100
AcDbLine
 10
1.98005152795458
 20
7.380822386168937
 30
0.0
 11
1.962691370781968
 21
7.408161802836822
 31
0.0
  0
LINE
  5
111
330
1F
100
AcDbEntity
  8
0
  6
Continuous
 62
     7
370
    15
100
AcDbLine
 10
2.083759626182699
 20
7.533083074175456
 30
0.0
 11
2.084029945268353
 21
7.222520948014116
 31
0.0
  0
LINE
  5
112
330
1F
100
AcDbEntity
  8
0
  6
Continuous
 62
     7
370
    15
100
AcDbLine
 10
1.903894857784525
 20
7.126684371354158
 30
0.0
 11
2.084029945268353
 21
7.222520948014116
 31
0.0
  0
LINE
  5
113
330
1F
100
AcDbEntity
  8
0
  6
Continuous
 62
     7
370
    15
100
AcDbLine
 10
1.903894857784525
 20
7.126684371354158
 30
0.0
 11
1.903376545073419
 21
7.721642167101855
 31
0.0
  0
LINE
  5
114
330
1F
100
AcDbEntity
  8
0
  6
Continuous
 62
     7
370
    15
100
AcDbLine
 10
2.084029945268353
 20
7.222520948014116
 30
0.0
 11
2.090715213816332
 21
7.224251222835958
 31
0.0
  0
LINE
  5
115
330
1F
100
AcDbEntity
  8
0
  6
Continuous
 62
     7
370
    15
100
AcDbLine
 10
2.09044489473068
 20
7.534813348997297
 30
0.0
 11
2.090715213816332
 21
7.224251222835958
 31
0.0
  0
LINE
  5
116
330
1F
100
AcDbEntity
  8
0
  6
Continuous
 62
     7
370
    15
100
AcDbLine
 10
2.171986827935232
 20
6.808645488568001
 30
0.0
 11
2.178672096483212
 21
6.810375763389843
 31
0.0
  0
LINE
  5
117
330
1F
100
AcDbEntity
  8
0
  6
Continuous
 62
     7
370
    15
100
AcDbLine
 10
2.178672096483212
 20
6.810375763389843
 30
0.0
 11
2.195563117296236
 21
6.80968678192731
 31
0.0
  0
LINE
  5
118
330
1F
100
AcDbEntity
  8
0
  6
Continuous
 62
     7
370
    15
100
AcDbLine
 10
1.903894857784525
 20
7.126684371354158
 30
0.0
 11
1.910580126332506
 21
7.128414646176
 31
0.0
  0
LINE
  5
119
330
1F
100
AcDbEntity
  8
0
  6
Continuous
 62
     7
370
    15
100
AcDbLine
 10
1.910580126332506
 20
7.128414646176
 30
0.0
 11
2.090715213816332
 21
7.224251222835958
 31
0.0
  0
LINE
  5
11A
330
1F
100
AcDbEntity
  8
0
  6
Continuous
 62
     7
370
    15
100
AcDbLine
 10
2.17510092793759
 20
6.841864577813028
 30
0.0
 11
2.178672096483212
 21
6.810375763389843
 31
0.0
  0
SPLINE
  5
11B
330
1F
100
AcDbEntity
  8
0
  6
Continuous
 62
     7
370
    15
100
AcDbSpline
210
0.0
220
0.0
230
1.0
 70
     8
 71
     3
 72
     9
 73
     5
 74
     0
 42
0.0000000001
 43
0.0000000001
 40
0.0
 40
0.0
 40
0.0
 40
0.0
 40
0.4998585255516226
 40
1.0
 40
1.0
 40
1.0
 40
1.0
 10
1.907661524954592
 20
7.729826407557715
 30
0.0
 10
1.907774017306618
 20
7.728720131591662
 30
0.0
 10
1.907999065687859
 20
7.726506953443239
 30
0.0
 10
1.909374101288615
 20
7.724417476168641
 30
0.0
 10
1.910061813621398
 20
7.723372441923697
 30
0.0
  0
LINE
  5
11C
330
1F
100
AcDbEntity
  8
0
  6
Continuous
 62
     7
370
    15
100
AcDbLine
 10
1.900230163662394
 20
7.724895586123025
 30
0.0
 11
1.903376545073419
 21
7.721642167101855
 31
0.0
  0
LINE
  5
11D
330
1F
100
AcDbEntity
  8
0
  6
Continuous
 62
     7
370
    15
100
AcDbLine
 10
1.903894857784525
 20
7.126684371354158
 30
0.0
 11
1.900319465503189
 21
7.125739777945265
 31
0.0
  0
LINE
  5
11E
330
1F
100
AcDbEntity
  8
0
  6
Continuous
 62
     7
370
    15
100
AcDbLine
 10
1.962691370781968
 20
7.408161802836822
 30
0.0
 11
1.969376639329948
 21
7.409892077658665
 31
0.0
  0
LINE
  5
11F
330
1F
100
AcDbEntity
  8
0
  6
Continuous
 62
     7
370
    15
100
AcDbLine
 10
1.969376639329948
 20
7.409892077658665
 30
0.0
 11
1.981617327122592
 21
7.424080745657462
 31
0.0
  0
SPLINE
  5
120
330
1F
100
AcDbEntity
  8
0
  6
Continuous
 62
     7
370
    15
100
AcDbSpline
210
0.0
220
0.0
230
1.0
 70
     8
 71
     3
 72
     9
 73
     5
 74
     0
 42
0.0000000001
 43
0.0000000001
 40
0.0
 40
0.0
 40
0.0
 40
0.0
 40
0.5001317560351034
 40
1.0
 40
1.0
 40
1.0
 40
1.0
 10
1.910580126332506
 20
7.128414646176
 30
0.0
 10
1.909893821563536
 20
7.127804628247174
 30
0.0
 10
1.908521573629487
 20
7.126584913799001
 30
0.0
 10
1.908299361782744
 20
7.125489043665003
 30
0.0
 10
1.908188285137127
 20
7.124941252985508
 30
0.0
  0
LINE
  5
121
330
1F
100
AcDbEntity
  8
0
  6
Continuous
 62
     7
370
    15
100
AcDbLine
 10
1.984535325109689
 20
7.386019672563895
 30
0.0
 11
1.969376639329948
 21
7.409892077658665
 31
0.0
  0
LINE
  5
122
330
1F
100
AcDbEntity
  8
0
  6
Continuous
 62
     7
370
    15
100
AcDbLine
 10
1.959154897208277
 20
6.965964760868403
 30
0.0
 11
1.911887372535783
 21
7.023295532609824
 31
0.0
  0
TEXT
  5
12A
330
1F
100
AcDbEntity
  8
0
100
AcDbText
 10
3.970322539214762
 20
2.218380442325369
 30
0.0
 40
0.25
  1
USP  CSH-TZ
100
AcDbText
  0
TEXT
  5
12B
330
1F
100
AcDbEntity
  8
0
100
AcDbText
 10
3.049156871551943
 20
1.629571918872649
 30
0.0
 40
0.25
  1
SIMPSON  LSCZ
100
AcDbText
  0
ENDSEC
  0
SECTION
  2
OBJECTS
  0
DICTIONARY
  5
C
330
0
100
AcDbDictionary
281
     1
  3
ACAD_COLOR
350
127
  3
ACAD_GROUP
350
D
  3
ACAD_LAYOUT
350
1A
  3
ACAD_MATERIAL
350
126
  3
ACAD_MLINESTYLE
350
17
  3
ACAD_PLOTSETTINGS
350
19
  3
ACAD_PLOTSTYLENAME
350
E
  0
DICTIONARY
  5
127
102
{ACAD_REACTORS
330
C
102
}
330
C
100
AcDbDictionary
281
     1
  0
DICTIONARY
  5
D
102
{ACAD_REACTORS
330
C
102
}
330
C
100
AcDbDictionary
281
     1
  0
DICTIONARY
  5
1A
102
{ACAD_REACTORS
330
C
102
}
330
C
100
AcDbDictionary
281
     1
  3
Layout1
350
1E
  3
Layout2
350
26
  3
Model
350
22
  0
DICTIONARY
  5
126
102
{ACAD_REACTORS
330
C
102
}
330
C
100
AcDbDictionary
281
     1
  0
DICTIONARY
  5
17
102
{ACAD_REACTORS
330
C
102
}
330
C
100
AcDbDictionary
281
     1
  3
Standard
350
18
  0
DICTIONARY
  5
19
102
{ACAD_REACTORS
330
C
102
}
330
C
100
AcDbDictionary
281
     1
  0
ACDBDICTIONARYWDFLT
  5
E
102
{ACAD_REACTORS
330
C
102
}
330
C
100
AcDbDictionary
281
     1
  3
Normal
350
F
100
AcDbDictionaryWithDefault
340
F
  0
LAYOUT
  5
1E
102
{ACAD_REACTORS
330
1A
102
}
330
1A
100
AcDbPlotSettings
  1

  2
none_device
  4

  6

 40
0.0
 41
0.0
 42
0.0
 43
0.0
 44
0.0
 45
0.0
 46
0.0
 47
0.0
 48
0.0
 49
0.0
140
0.0
141
0.0
142
1.0
143
1.0
 70
   688
 72
     0
 73
     0
 74
     5
  7

 75
    16
147
1.0
 76
     0
 77
     2
 78
   300
148
0.0
149
0.0
100
AcDbLayout
  1
Layout1
 70
     1
 71
     1
 10
0.0
 20
0.0
 11
12.0
 21
9.0
 12
0.0
 22
0.0
 32
0.0
 14
1.000000000000000E+20
 24
1.000000000000000E+20
 34
1.000000000000000E+20
 15
-1.000000000000000E+20
 25
-1.000000000000000E+20
 35
-1.000000000000000E+20
146
0.0
 13
0.0
 23
0.0
 33
0.0
 16
1.0
 26
0.0
 36
0.0
 17
0.0
 27
1.0
 37
0.0
 76
     0
330
1B
  0
LAYOUT
  5
26
102
{ACAD_REACTORS
330
1A
102
}
330
1A
100
AcDbPlotSettings
  1

  2
none_device
  4

  6

 40
0.0
 41
0.0
 42
0.0
 43
0.0
 44
0.0
 45
0.0
 46
0.0
 47
0.0
 48
0.0
 49
0.0
140
0.0
141
0.0
142
1.0
143
1.0
 70
   688
 72
     0
 73
     0
 74
     5
  7

 75
    16
147
1.0
 76
     0
 77
     2
 78
   300
148
0.0
149
0.0
100
AcDbLayout
  1
Layout2
 70
     1
 71
     2
 10
0.0
 20
0.0
 11
0.0
 21
0.0
 12
0.0
 22
0.0
 32
0.0
 14
0.0
 24
0.0
 34
0.0
 15
0.0
 25
0.0
 35
0.0
146
0.0
 13
0.0
 23
0.0
 33
0.0
 16
1.0
 26
0.0
 36
0.0
 17
0.0
 27
1.0
 37
0.0
 76
     0
330
23
  0
LAYOUT
  5
22
102
{ACAD_REACTORS
330
1A
102
}
330
1A
100
AcDbPlotSettings
  1

  2
none_device
  4

  6

 40
0.0
 41
0.0
 42
0.0
 43
0.0
 44
0.0
 45
0.0
 46
0.0
 47
0.0
 48
0.0
 49
0.0
140
0.0
141
0.0
142
1.0
143
1.0
 70
  1712
 72
     0
 73
     0
 74
     0
  7

 75
     0
147
1.0
 76
     0
 77
     2
 78
   300
148
0.0
149
0.0
100
AcDbLayout
  1
Model
 70
     1
 71
     0
 10
0.0
 20
0.0
 11
8.5
 21
11.0
 12
0.0
 22
0.0
 32
0.0
 14
0.0
 24
0.0
 34
0.0
 15
8.5
 25
11.0
 35
0.0
146
0.0
 13
0.0
 23
0.0
 33
0.0
 16
1.0
 26
0.0
 36
0.0
 17
0.0
 27
1.0
 37
0.0
 76
     0
330
1F
  0
MLINESTYLE
  5
18
102
{ACAD_REACTORS
330
17
102
}
330
17
100
AcDbMlineStyle
  2
STANDARD
 70
     0
  3

 62
   256
 51
90.0
 52
90.0
 71
     2
 49
0.5
 62
   256
  6
BYLAYER
 49
-0.5
 62
   256
  6
BYLAYER
  0
ACDBPLACEHOLDER
  5
F
102
{ACAD_REACTORS
330
E
102
}
330
E
  0
ENDSEC
  0
EOF
