  0
SECTION
  2
HEADER
  9
$ACADVER
  1
AC1018
  9
$ACADMAINTVER
 70
     0
  9
$DWGCODEPAGE
  3
ANSI_1252
  9
$INSBASE
 10
0.0
 20
0.0
 30
0.0
  9
$EXTMIN
 10
0.2500000000039853
 20
0.8604006399498532
 30
0.0
  9
$EXTMAX
 10
8.083831733141417
 20
10.75636776389939
 30
0.0
  9
$LIMMIN
 10
0.0
 20
0.0
  9
$LIMMAX
 10
8.5
 20
11.0
  9
$ORTHOMODE
 70
     0
  9
$REGENMODE
 70
     1
  9
$FILLMODE
 70
     1
  9
$QTEXTMODE
 70
     0
  9
$MIRRTEXT
 70
     1
  9
$LTSCALE
 40
1.0
  9
$ATTMODE
 70
     1
  9
$TEXTSIZE
 40
0.25
  9
$TRACEWID
 40
0.05
  9
$TEXTSTYLE
  7
Standard
  9
$CLAYER
  8
0
  9
$CELTYPE
  6
ByLayer
  9
$CECOLOR
 62
   256
  9
$CELTSCALE
 40
1.0
  9
$DISPSILH
 70
     0
  9
$DIMSCALE
 40
1.0
  9
$DIMASZ
 40
0.156
  9
$DIMEXO
 40
0.05
  9
$DIMDLI
 40
0.38
  9
$DIMRND
 40
0.0
  9
$DIMDLE
 40
0.0
  9
$DIMEXE
 40
0.125
  9
$DIMTP
 40
0.0
  9
$DIMTM
 40
0.0
  9
$DIMTXT
 40
0.125
  9
$DIMCEN
 40
0.09
  9
$DIMTSZ
 40
0.0
  9
$DIMTOL
 70
     0
  9
$DIMLIM
 70
     0
  9
$DIMTIH
 70
     1
  9
$DIMTOH
 70
     1
  9
$DIMSE1
 70
     0
  9
$DIMSE2
 70
     0
  9
$DIMTAD
 70
     0
  9
$DIMZIN
 70
     0
  9
$DIMBLK
  1

  9
$DIMASO
 70
     1
  9
$DIMSHO
 70
     1
  9
$DIMPOST
  1

  9
$DIMAPOST
  1

  9
$DIMALT
 70
     0
  9
$DIMALTD
 70
     2
  9
$DIMALTF
 40
25.4
  9
$DIMLFAC
 40
12.0
  9
$DIMTOFL
 70
     0
  9
$DIMTVP
 40
0.0
  9
$DIMTIX
 70
     0
  9
$DIMSOXD
 70
     0
  9
$DIMSAH
 70
     0
  9
$DIMBLK1
  1

  9
$DIMBLK2
  1

  9
$DIMSTYLE
  2
Standard
  9
$DIMCLRD
 70
     0
  9
$DIMCLRE
 70
     0
  9
$DIMCLRT
 70
     0
  9
$DIMTFAC
 40
1.0
  9
$DIMGAP
 40
0.06
  9
$DIMJUST
 70
     0
  9
$DIMSD1
 70
     0
  9
$DIMSD2
 70
     0
  9
$DIMTOLJ
 70
     1
  9
$DIMTZIN
 70
     0
  9
$DIMALTZ
 70
     0
  9
$DIMALTTZ
 70
     0
  9
$DIMUPT
 70
     0
  9
$DIMDEC
 70
     3
  9
$DIMTDEC
 70
     3
  9
$DIMALTU
 70
     2
  9
$DIMALTTD
 70
     2
  9
$DIMTXSTY
  7
Standard
  9
$DIMAUNIT
 70
     0
  9
$DIMADEC
 70
     0
  9
$DIMALTRND
 40
0.0
  9
$DIMAZIN
 70
     0
  9
$DIMDSEP
 70
    46
  9
$DIMATFIT
 70
     3
  9
$DIMFRAC
 70
     0
  9
$DIMLDRBLK
  1

  9
$DIMLUNIT
 70
     2
  9
$DIMLWD
 70
    -2
  9
$DIMLWE
 70
    -2
  9
$DIMTMOVE
 70
     0
  9
$LUNITS
 70
     2
  9
$LUPREC
 70
     3
  9
$SKETCHINC
 40
0.1
  9
$FILLETRAD
 40
0.5
  9
$AUNITS
 70
     0
  9
$AUPREC
 70
     0
  9
$MENU
  1
.
  9
$ELEVATION
 40
0.0
  9
$PELEVATION
 40
0.0
  9
$THICKNESS
 40
0.0
  9
$LIMCHECK
 70
     0
  9
$CHAMFERA
 40
0.5
  9
$CHAMFERB
 40
0.5
  9
$CHAMFERC
 40
1.0
  9
$CHAMFERD
 40
0.0
  9
$SKPOLY
 70
     0
  9
$TDCREATE
 40
2456513.654504502
  9
$TDUCREATE
 40
2456513.862837836
  9
$TDUPDATE
 40
2456570.363760486
  9
$TDUUPDATE
 40
2456570.572093820
  9
$TDINDWG
 40
0.0014477894
  9
$TDUSRTIMER
 40
0.0014477894
  9
$USRTIMER
 70
     1
  9
$ANGBASE
 50
0.0
  9
$ANGDIR
 70
     0
  9
$PDMODE
 70
     0
  9
$PDSIZE
 40
-1.0
  9
$PLINEWID
 40
0.0
  9
$SPLFRAME
 70
     0
  9
$SPLINETYPE
 70
     6
  9
$SPLINESEGS
 70
     8
  9
$HANDSEED
  5
228
  9
$SURFTAB1
 70
     6
  9
$SURFTAB2
 70
     6
  9
$SURFTYPE
 70
     6
  9
$SURFU
 70
     6
  9
$SURFV
 70
     6
  9
$UCSBASE
  2

  9
$UCSNAME
  2

  9
$UCSORG
 10
0.0
 20
0.0
 30
0.0
  9
$UCSXDIR
 10
1.0
 20
0.0
 30
0.0
  9
$UCSYDIR
 10
0.0
 20
1.0
 30
0.0
  9
$UCSORTHOREF
  2

  9
$UCSORTHOVIEW
 70
     0
  9
$UCSORGTOP
 10
0.0
 20
0.0
 30
0.0
  9
$UCSORGBOTTOM
 10
0.0
 20
0.0
 30
0.0
  9
$UCSORGLEFT
 10
0.0
 20
0.0
 30
0.0
  9
$UCSORGRIGHT
 10
0.0
 20
0.0
 30
0.0
  9
$UCSORGFRONT
 10
0.0
 20
0.0
 30
0.0
  9
$UCSORGBACK
 10
0.0
 20
0.0
 30
0.0
  9
$PUCSBASE
  2

  9
$PUCSNAME
  2

  9
$PUCSORG
 10
0.0
 20
0.0
 30
0.0
  9
$PUCSXDIR
 10
1.0
 20
0.0
 30
0.0
  9
$PUCSYDIR
 10
0.0
 20
1.0
 30
0.0
  9
$PUCSORTHOREF
  2

  9
$PUCSORTHOVIEW
 70
     0
  9
$PUCSORGTOP
 10
0.0
 20
0.0
 30
0.0
  9
$PUCSORGBOTTOM
 10
0.0
 20
0.0
 30
0.0
  9
$PUCSORGLEFT
 10
0.0
 20
0.0
 30
0.0
  9
$PUCSORGRIGHT
 10
0.0
 20
0.0
 30
0.0
  9
$PUCSORGFRONT
 10
0.0
 20
0.0
 30
0.0
  9
$PUCSORGBACK
 10
0.0
 20
0.0
 30
0.0
  9
$USERI1
 70
     0
  9
$USERI2
 70
     0
  9
$USERI3
 70
     0
  9
$USERI4
 70
     0
  9
$USERI5
 70
     0
  9
$USERR1
 40
0.0
  9
$USERR2
 40
0.0
  9
$USERR3
 40
0.0
  9
$USERR4
 40
0.0
  9
$USERR5
 40
0.0
  9
$WORLDVIEW
 70
     1
  9
$SHADEDGE
 70
     3
  9
$SHADEDIF
 70
    70
  9
$TILEMODE
 70
     1
  9
$MAXACTVP
 70
    64
  9
$PINSBASE
 10
0.0
 20
0.0
 30
0.0
  9
$PLIMCHECK
 70
     0
  9
$PEXTMIN
 10
1.000000000000000E+20
 20
1.000000000000000E+20
 30
1.000000000000000E+20
  9
$PEXTMAX
 10
-1.000000000000000E+20
 20
-1.000000000000000E+20
 30
-1.000000000000000E+20
  9
$PLIMMIN
 10
0.0
 20
0.0
  9
$PLIMMAX
 10
12.0
 20
9.0
  9
$UNITMODE
 70
     0
  9
$VISRETAIN
 70
     1
  9
$PLINEGEN
 70
     0
  9
$PSLTSCALE
 70
     1
  9
$TREEDEPTH
 70
  3020
  9
$CMLSTYLE
  2
Standard
  9
$CMLJUST
 70
     0
  9
$CMLSCALE
 40
1.0
  9
$PROXYGRAPHICS
 70
     1
  9
$MEASUREMENT
 70
     0
  9
$CELWEIGHT
370
    -1
  9
$ENDCAPS
280
     0
  9
$JOINSTYLE
280
     0
  9
$LWDISPLAY
290
     1
  9
$INSUNITS
 70
     1
  9
$HYPERLINKBASE
  1

  9
$STYLESHEET
  1

  9
$XEDIT
290
     1
  9
$CEPSNTYPE
380
     0
  9
$PSTYLEMODE
290
     1
  9
$FINGERPRINTGUID
  2
{16A1B108-E77E-4198-8215-336CA51C7085}
  9
$VERSIONGUID
  2
{E865B1AE-6F30-458B-95B6-17D551D052CA}
  9
$EXTNAMES
290
     1
  9
$PSVPSCALE
 40
0.0
  9
$OLESTARTUP
290
     0
  9
$SORTENTS
280
   127
  9
$INDEXCTL
280
     0
  9
$HIDETEXT
280
     0
  9
$XCLIPFRAME
290
     0
  9
$HALOGAP
280
     0
  9
$OBSCOLOR
 70
   257
  9
$OBSLTYPE
280
     0
  9
$INTERSECTIONDISPLAY
280
     0
  9
$INTERSECTIONCOLOR
 70
   257
  9
$DIMASSOC
280
     1
  9
$PROJECTNAME
  1

  0
ENDSEC
  0
SECTION
  2
CLASSES
  0
CLASS
  1
ACDBDICTIONARYWDFLT
  2
AcDbDictionaryWithDefault
  3
ObjectDBX Classes
 90
        0
 91
        1
280
     0
281
     0
  0
CLASS
  1
VISUALSTYLE
  2
AcDbVisualStyle
  3
ObjectDBX Classes
 90
     4095
 91
        0
280
     0
281
     0
  0
CLASS
  1
MATERIAL
  2
AcDbMaterial
  3
ObjectDBX Classes
 90
        0
 91
        0
280
     0
281
     0
  0
ENDSEC
  0
SECTION
  2
TABLES
  0
TABLE
  2
VPORT
  5
8
330
0
100
AcDbSymbolTable
 70
     3
  0
VPORT
  5
227
330
8
100
AcDbSymbolTableRecord
100
AcDbViewportTableRecord
  2
*Active
 70
     0
 10
0.0
 20
0.0
 11
1.0
 21
1.0
 12
4.173203343835126
 22
5.700041379194789
 13
0.0
 23
0.0
 14
0.5
 24
0.5
 15
0.5
 25
0.5
 16
0.0
 26
0.0
 36
1.0
 17
0.0
 27
0.0
 37
0.0
 40
10.58998519583291
 41
2.144329896907216
 42
50.0
 43
0.0
 44
0.0
 50
0.0
 51
0.0
 71
     0
 72
  2000
 73
     1
 74
     3
 75
     0
 76
     0
 77
     0
 78
     0
281
     0
 65
     1
110
0.0
120
0.0
130
0.0
111
1.0
121
0.0
131
0.0
112
0.0
122
1.0
132
0.0
 79
     0
146
0.0
  0
ENDTAB
  0
TABLE
  2
LTYPE
  5
5
330
0
100
AcDbSymbolTable
 70
     6
  0
LTYPE
  5
14
330
5
100
AcDbSymbolTableRecord
100
AcDbLinetypeTableRecord
  2
ByBlock
 70
     0
  3

 72
    65
 73
     0
 40
0.0
  0
LTYPE
  5
15
330
5
100
AcDbSymbolTableRecord
100
AcDbLinetypeTableRecord
  2
ByLayer
 70
     0
  3

 72
    65
 73
     0
 40
0.0
  0
LTYPE
  5
16
330
5
100
AcDbSymbolTableRecord
100
AcDbLinetypeTableRecord
  2
Continuous
 70
     0
  3
Solid line
 72
    65
 73
     0
 40
0.0
  0
LTYPE
  5
3F
330
5
100
AcDbSymbolTableRecord
100
AcDbLinetypeTableRecord
  2
HIDDEN
 70
     0
  3
Hidden __ __ __ __ __ __ __ __ __ __ __ __ __ __
 72
    65
 73
     2
 40
0.075
 49
0.05
 74
     0
 49
-0.025
 74
     0
  0
LTYPE
  5
40
330
5
100
AcDbSymbolTableRecord
100
AcDbLinetypeTableRecord
  2
PHANTOM
 70
     0
  3
Phantom ______  __  __  ______  __  __  ______
 72
    65
 73
     6
 40
0.5
 49
0.25
 74
     0
 49
-0.05
 74
     0
 49
0.05
 74
     0
 49
-0.05
 74
     0
 49
0.05
 74
     0
 49
-0.05
 74
     0
  0
LTYPE
  5
41
330
5
100
AcDbSymbolTableRecord
100
AcDbLinetypeTableRecord
  2
CENTER
 70
     0
  3
Center ____ _ ____ _ ____ _ ____ _ ____ _ ____
 72
    65
 73
     4
 40
0.4
 49
0.25
 74
     0
 49
-0.05
 74
     0
 49
0.05
 74
     0
 49
-0.05
 74
     0
  0
LTYPE
  5
42
330
5
100
AcDbSymbolTableRecord
100
AcDbLinetypeTableRecord
  2
CENTERX2
 70
     0
  3
Center (2x) ________  __  ________  __  _____
 72
    65
 73
     4
 40
0.8
 49
0.5
 74
     0
 49
-0.1
 74
     0
 49
0.1
 74
     0
 49
-0.1
 74
     0
  0
LTYPE
  5
43
330
5
100
AcDbSymbolTableRecord
100
AcDbLinetypeTableRecord
  2
DOT2
 70
     0
  3
Dot (.5x) ........................................
 72
    65
 73
     2
 40
0.025
 49
0.0
 74
     0
 49
-0.025
 74
     0
  0
ENDTAB
  0
TABLE
  2
LAYER
  5
2
330
0
100
AcDbSymbolTable
 70
    20
  0
LAYER
  5
10
330
2
100
AcDbSymbolTableRecord
100
AcDbLayerTableRecord
  2
0
 70
     0
 62
     7
  6
Continuous
370
    -3
390
F
  0
LAYER
  5
44
330
2
100
AcDbSymbolTableRecord
100
AcDbLayerTableRecord
  2
SLD-0
 70
     0
 62
   179
  6
Continuous
370
    -3
390
F
  0
LAYER
  5
45
330
2
100
AcDbSymbolTableRecord
100
AcDbLayerTableRecord
  2
SLD-DEFPOINTS
 70
     0
 62
   179
  6
Continuous
370
    -3
390
F
  0
LAYER
  5
46
330
2
100
AcDbSymbolTableRecord
100
AcDbLayerTableRecord
  2
OBJ
 70
     0
 62
   179
  6
Continuous
370
    -3
390
F
  0
LAYER
  5
47
330
2
100
AcDbSymbolTableRecord
100
AcDbLayerTableRecord
  2
FORMAT
 70
     0
 62
     7
  6
Continuous
370
    -3
390
F
  0
LAYER
  5
48
330
2
100
AcDbSymbolTableRecord
100
AcDbLayerTableRecord
  2
REV-1
 70
     0
 62
    -7
  6
Continuous
370
    -3
390
F
  0
LAYER
  5
49
330
2
100
AcDbSymbolTableRecord
100
AcDbLayerTableRecord
  2
REV-2
 70
     0
 62
    -7
  6
Continuous
370
    -3
390
F
  0
LAYER
  5
4A
330
2
100
AcDbSymbolTableRecord
100
AcDbLayerTableRecord
  2
REV-3
 70
     0
 62
    -7
  6
Continuous
370
    -3
390
F
  0
LAYER
  5
4B
330
2
100
AcDbSymbolTableRecord
100
AcDbLayerTableRecord
  2
PAINT
 70
     0
 62
    -7
  6
Continuous
370
    -3
390
F
  0
LAYER
  5
4C
330
2
100
AcDbSymbolTableRecord
100
AcDbLayerTableRecord
  2
STAMP-AREA
 70
     0
 62
    -7
  6
Continuous
370
    -3
390
F
  0
LAYER
  5
4D
330
2
100
AcDbSymbolTableRecord
100
AcDbLayerTableRecord
  2
TOLERANCES
 70
     0
 62
     7
  6
Continuous
370
    -3
390
F
  0
LAYER
  5
4E
330
2
100
AcDbSymbolTableRecord
100
AcDbLayerTableRecord
  2
BLANK-SIZE-1
 70
     0
 62
    -7
  6
Continuous
370
    -3
390
F
  0
LAYER
  5
4F
330
2
100
AcDbSymbolTableRecord
100
AcDbLayerTableRecord
  2
BLANK-SIZE-2
 70
     0
 62
    -7
  6
Continuous
370
    -3
390
F
  0
LAYER
  5
50
330
2
100
AcDbSymbolTableRecord
100
AcDbLayerTableRecord
  2
BLANK-SIZE-3
 70
     0
 62
    -7
  6
Continuous
370
    -3
390
F
  0
LAYER
  5
51
330
2
100
AcDbSymbolTableRecord
100
AcDbLayerTableRecord
  2
BLANK-SIZE-4
 70
     0
 62
    -7
  6
Continuous
370
    -3
390
F
  0
LAYER
  5
52
330
2
100
AcDbSymbolTableRecord
100
AcDbLayerTableRecord
  2
BLANK-SIZE-5
 70
     0
 62
    -7
  6
Continuous
370
    -3
390
F
  0
LAYER
  5
53
330
2
100
AcDbSymbolTableRecord
100
AcDbLayerTableRecord
  2
HDG
 70
     0
 62
    -7
  6
Continuous
370
    -3
390
F
  0
LAYER
  5
54
330
2
100
AcDbSymbolTableRecord
100
AcDbLayerTableRecord
  2
FAX-NOTE
 70
     0
 62
    -7
  6
Continuous
370
    -3
390
F
  0
LAYER
  5
55
330
2
100
AcDbSymbolTableRecord
100
AcDbLayerTableRecord
  2
TOP_MOUNT_PAINT
 70
     0
 62
    -7
  6
Continuous
370
    -3
390
F
  0
LAYER
  5
56
330
2
100
AcDbSymbolTableRecord
100
AcDbLayerTableRecord
  2
QTY-BLANK-SIZE-1
 70
     0
 62
     7
  6
Continuous
370
    -3
390
F
  0
ENDTAB
  0
TABLE
  2
STYLE
  5
3
330
0
100
AcDbSymbolTable
 70
     2
  0
STYLE
  5
11
330
3
100
AcDbSymbolTableRecord
100
AcDbTextStyleTableRecord
  2
Standard
 70
     0
 40
0.0
 41
1.0
 50
0.0
 71
     0
 42
0.25
  3
txt
  4

  0
STYLE
  5
7F
330
3
100
AcDbSymbolTableRecord
100
AcDbTextStyleTableRecord
  2
SLDTEXTSTYLE0
 70
     0
 40
0.0
 41
0.7
 50
0.0
 71
     0
 42
0.2
  3
TXT
  4

  0
ENDTAB
  0
TABLE
  2
VIEW
  5
6
330
0
100
AcDbSymbolTable
 70
     0
  0
ENDTAB
  0
TABLE
  2
UCS
  5
7
330
0
100
AcDbSymbolTable
 70
     0
  0
ENDTAB
  0
TABLE
  2
APPID
  5
9
330
0
100
AcDbSymbolTable
 70
     1
  0
APPID
  5
12
330
9
100
AcDbSymbolTableRecord
100
AcDbRegAppTableRecord
  2
ACAD
 70
     0
  0
ENDTAB
  0
TABLE
  2
DIMSTYLE
  5
A
330
0
100
AcDbSymbolTable
 70
     1
100
AcDbDimStyleTable
 71
     0
  0
DIMSTYLE
105
27
330
A
100
AcDbSymbolTableRecord
100
AcDbDimStyleTableRecord
  2
Standard
 70
     0
340
11
  0
ENDTAB
  0
TABLE
  2
BLOCK_RECORD
  5
1
330
0
100
AcDbSymbolTable
 70
     3
  0
BLOCK_RECORD
  5
1F
330
1
100
AcDbSymbolTableRecord
100
AcDbBlockTableRecord
  2
*Model_Space
340
22
  0
BLOCK_RECORD
  5
1B
330
1
100
AcDbSymbolTableRecord
100
AcDbBlockTableRecord
  2
*Paper_Space
340
1E
  0
BLOCK_RECORD
  5
23
330
1
100
AcDbSymbolTableRecord
100
AcDbBlockTableRecord
  2
*Paper_Space0
340
26
  0
BLOCK_RECORD
  5
83
330
1
100
AcDbSymbolTableRecord
100
AcDbBlockTableRecord
  2
SW_NOTE_0
340
0
102
{BLKREFS
331
88
102
}
  0
BLOCK_RECORD
  5
8A
330
1
100
AcDbSymbolTableRecord
100
AcDbBlockTableRecord
  2
SW_NOTE_1
340
0
102
{BLKREFS
331
91
102
}
  0
ENDTAB
  0
ENDSEC
  0
SECTION
  2
BLOCKS
  0
BLOCK
  5
20
330
1F
100
AcDbEntity
  8
0
100
AcDbBlockBegin
  2
*Model_Space
 70
     0
 10
0.0
 20
0.0
 30
0.0
  3
*Model_Space
  1

  0
ENDBLK
  5
21
330
1F
100
AcDbEntity
  8
0
100
AcDbBlockEnd
  0
BLOCK
  5
1C
330
1B
100
AcDbEntity
 67
     1
  8
0
100
AcDbBlockBegin
  2
*Paper_Space
 70
     0
 10
0.0
 20
0.0
 30
0.0
  3
*Paper_Space
  1

  0
ENDBLK
  5
1D
330
1B
100
AcDbEntity
 67
     1
  8
0
100
AcDbBlockEnd
  0
BLOCK
  5
24
330
23
100
AcDbEntity
  8
0
100
AcDbBlockBegin
  2
*Paper_Space0
 70
     0
 10
0.0
 20
0.0
 30
0.0
  3
*Paper_Space0
  1

  0
ENDBLK
  5
25
330
23
100
AcDbEntity
  8
0
100
AcDbBlockEnd
  0
BLOCK
  5
84
330
83
100
AcDbEntity
  8
0
100
AcDbBlockBegin
  2
SW_NOTE_0
 70
     0
 10
0.0
 20
0.0
 30
0.0
  3
SW_NOTE_0
  1

  0
MTEXT
  5
86
330
83
100
AcDbEntity
  8
PAINT
 62
     0
100
AcDbMText
 10
0.0
 20
0.1342778895595794
 30
0.0
 40
0.1041666666666667
 41
0.0
 71
     1
 72
     1
  1
NOTE:
  7
SLDTEXTSTYLE0
 73
     1
 44
1.0
  0
MTEXT
  5
87
330
83
100
AcDbEntity
  8
PAINT
 62
     0
100
AcDbMText
 10
0.0
 20
-0.0046109976508103
 30
0.0
 40
0.1041666666666667
 41
0.0
 71
     1
 72
     1
  1
PAINT WITH PRIMER AFTER FABRICATION.
  7
SLDTEXTSTYLE0
 73
     1
 44
1.0
  0
ENDBLK
  5
85
330
83
100
AcDbEntity
  8
0
100
AcDbBlockEnd
  0
BLOCK
  5
8B
330
8A
100
AcDbEntity
  8
0
100
AcDbBlockBegin
  2
SW_NOTE_1
 70
     0
 10
0.0
 20
0.0
 30
0.0
  3
SW_NOTE_1
  1

  0
MTEXT
  5
8D
330
8A
100
AcDbEntity
  8
TOP_MOUNT_PAINT
 62
     0
100
AcDbMText
 10
0.0
 20
0.1342778895595794
 30
0.0
 40
0.1041666666666667
 41
0.0
 71
     1
 72
     1
  1
NOTE:
  7
SLDTEXTSTYLE0
 73
     1
 44
1.0
  0
MTEXT
  5
8E
330
8A
100
AcDbEntity
  8
TOP_MOUNT_PAINT
 62
     0
100
AcDbMText
 10
0.0
 20
-0.0046109976508103
 30
0.0
 40
0.1041666666666667
 41
0.0
 71
     1
 72
     1
  1
DIMENSIONS IN BRACKETS ARE FOR INFORMATIONAL
  7
SLDTEXTSTYLE0
 73
     1
 44
1.0
  0
MTEXT
  5
8F
330
8A
100
AcDbEntity
  8
TOP_MOUNT_PAINT
 62
     0
100
AcDbMText
 10
0.1562500000000003
 20
-0.1434998848612001
 30
0.0
 40
0.1041666666666667
 41
0.0
 71
     1
 72
     1
  1
PURPOSES ONLY. NOT A PRODUCT SPECIFICATION
  7
SLDTEXTSTYLE0
 73
     1
 44
1.0
  0
MTEXT
  5
90
330
8A
100
AcDbEntity
  8
TOP_MOUNT_PAINT
 62
     0
100
AcDbMText
 10
0.0
 20
-0.2823887720715896
 30
0.0
 40
0.1041666666666667
 41
0.0
 71
     1
 72
     1
  1
PAINT PER USP SPECIFICATION AFTER FAGRICATION
  7
SLDTEXTSTYLE0
 73
     1
 44
1.0
  0
ENDBLK
  5
8C
330
8A
100
AcDbEntity
  8
0
100
AcDbBlockEnd
  0
ENDSEC
  0
SECTION
  2
ENTITIES
  0
LINE
  5
57
330
1F
100
AcDbEntity
  8
REV-1
 62
     7
100
AcDbLine
 10
4.20200000000004
 20
2.401805066185815
 30
0.0
 11
0.2500000000039954
 21
2.401805066185815
 31
0.0
  0
LINE
  5
58
330
1F
100
AcDbEntity
  8
REV-1
100
AcDbLine
 10
0.5412821291398489
 20
2.214305066185815
 30
0.0
 11
0.5412821291398492
 21
2.401805066185815
 31
0.0
  0
LINE
  5
59
330
1F
100
AcDbEntity
  8
REV-1
100
AcDbLine
 10
1.102000000003129
 20
2.214305066185815
 30
0.0
 11
1.102000000003129
 21
2.401805066185815
 31
0.0
  0
LINE
  5
5A
330
1F
100
AcDbEntity
  8
REV-1
100
AcDbLine
 10
1.702000000002528
 20
2.214305066185815
 30
0.0
 11
1.702000000002529
 21
2.401805066185815
 31
0.0
  0
LINE
  5
5B
330
1F
100
AcDbEntity
  8
REV-1
100
AcDbLine
 10
3.754000000000474
 20
2.214305066185815
 30
0.0
 11
3.754000000000474
 21
2.401805066185815
 31
0.0
  0
LINE
  5
5C
330
1F
100
AcDbEntity
  8
REV-1
100
AcDbLine
 10
4.20200000000004
 20
2.401805066185815
 30
0.0
 11
4.20200000000004
 21
2.297445540486282
 31
0.0
  0
LINE
  5
5D
330
1F
100
AcDbEntity
  8
REV-2
 62
     7
100
AcDbLine
 10
4.202000000000033
 20
2.582962363383948
 30
0.0
 11
0.2500000000039883
 21
2.582962363383948
 31
0.0
  0
LINE
  5
5E
330
1F
100
AcDbEntity
  8
REV-2
100
AcDbLine
 10
3.754000000000467
 20
2.395462363383948
 30
0.0
 11
3.754000000000467
 21
2.582962363383948
 31
0.0
  0
LINE
  5
5F
330
1F
100
AcDbEntity
  8
STAMP-AREA
100
AcDbLine
 10
0.2500000000039864
 20
9.153817415119126
 30
0.0
 11
4.507433697227471
 21
9.153817415119126
 31
0.0
  0
LINE
  5
60
330
1F
100
AcDbEntity
  8
REV-2
100
AcDbLine
 10
1.702000000002521
 20
2.395462363383948
 30
0.0
 11
1.702000000002521
 21
2.582962363383948
 31
0.0
  0
LINE
  5
61
330
1F
100
AcDbEntity
  8
REV-2
100
AcDbLine
 10
0.5412821291398418
 20
2.395462363383948
 30
0.0
 11
0.5412821291398421
 21
2.582962363383948
 31
0.0
  0
LINE
  5
62
330
1F
100
AcDbEntity
  8
REV-2
100
AcDbLine
 10
1.102000000003122
 20
2.395462363383948
 30
0.0
 11
1.102000000003122
 21
2.582962363383948
 31
0.0
  0
LINE
  5
63
330
1F
100
AcDbEntity
  8
STAMP-AREA
100
AcDbLine
 10
4.507433697227471
 20
9.153817415119126
 30
0.0
 11
4.507433697227471
 21
10.75636776389939
 31
0.0
  0
LINE
  5
64
330
1F
100
AcDbEntity
  8
REV-3
100
AcDbLine
 10
3.754000000000459
 20
2.576619660582081
 30
0.0
 11
3.754000000000459
 21
2.764119660582081
 31
0.0
  0
LINE
  5
65
330
1F
100
AcDbEntity
  8
REV-3
100
AcDbLine
 10
0.5412821291398347
 20
2.576619660582081
 30
0.0
 11
0.541282129139835
 21
2.764119660582081
 31
0.0
  0
LINE
  5
66
330
1F
100
AcDbEntity
  8
REV-3
100
AcDbLine
 10
1.102000000003114
 20
2.576619660582081
 30
0.0
 11
1.102000000003115
 21
2.764119660582081
 31
0.0
  0
LINE
  5
67
330
1F
100
AcDbEntity
  8
REV-3
100
AcDbLine
 10
0.2500000000039853
 20
2.764119660582081
 30
0.0
 11
4.202000000000033
 21
2.764119660582081
 31
0.0
  0
LINE
  5
68
330
1F
100
AcDbEntity
  8
REV-3
100
AcDbLine
 10
1.702000000002514
 20
2.576619660582081
 30
0.0
 11
1.702000000002515
 21
2.764119660582081
 31
0.0
  0
LINE
  5
69
330
1F
100
AcDbEntity
  8
REV-2
100
AcDbLine
 10
4.20200000000004
 20
2.401805066185815
 30
0.0
 11
4.202000000000033
 21
2.582962363383948
 31
0.0
  0
LINE
  5
6A
330
1F
100
AcDbEntity
  8
REV-3
100
AcDbLine
 10
4.202000000000033
 20
2.764119660582081
 30
0.0
 11
4.202000000000033
 21
2.582962363383948
 31
0.0
  0
LINE
  5
6B
330
1F
100
AcDbEntity
  8
BLANK-SIZE-1
100
AcDbLine
 10
0.2500000000039867
 20
10.52494462524623
 30
0.0
 11
1.980274032124935
 21
10.52494462524623
 31
0.0
  0
LINE
  5
6C
330
1F
100
AcDbEntity
  8
BLANK-SIZE-1
100
AcDbLine
 10
1.980274032124935
 20
10.52494462524623
 30
0.0
 11
1.980274032124935
 21
10.75636776389939
 31
0.0
  0
LINE
  5
6D
330
1F
100
AcDbEntity
  8
BLANK-SIZE-1
100
AcDbLine
 10
1.980274032124935
 20
10.52494462524623
 30
0.0
 11
2.290622804470809
 21
10.52494462524623
 31
0.0
  0
LINE
  5
6E
330
1F
100
AcDbEntity
  8
BLANK-SIZE-1
100
AcDbLine
 10
2.290622804470809
 20
10.52494462524623
 30
0.0
 11
2.290622804470809
 21
10.75636776389939
 31
0.0
  0
LINE
  5
6F
330
1F
100
AcDbEntity
  8
BLANK-SIZE-2
100
AcDbLine
 10
0.2500000000039864
 20
10.29352148659306
 30
0.0
 11
1.980274032124934
 21
10.29352148659306
 31
0.0
  0
LINE
  5
70
330
1F
100
AcDbEntity
  8
BLANK-SIZE-2
100
AcDbLine
 10
1.980274032124934
 20
10.29352148659306
 30
0.0
 11
1.980274032124934
 21
10.52494462524623
 31
0.0
  0
LINE
  5
71
330
1F
100
AcDbEntity
  8
BLANK-SIZE-2
100
AcDbLine
 10
1.980274032124934
 20
10.29352148659306
 30
0.0
 11
2.290622804470809
 21
10.29352148659306
 31
0.0
  0
LINE
  5
72
330
1F
100
AcDbEntity
  8
BLANK-SIZE-2
100
AcDbLine
 10
2.290622804470809
 20
10.29352148659306
 30
0.0
 11
2.290622804470809
 21
10.52494462524623
 31
0.0
  0
LINE
  5
73
330
1F
100
AcDbEntity
  8
BLANK-SIZE-3
100
AcDbLine
 10
0.2500000000039864
 20
10.06209834793989
 30
0.0
 11
1.980274032124934
 21
10.06209834793989
 31
0.0
  0
LINE
  5
74
330
1F
100
AcDbEntity
  8
BLANK-SIZE-3
100
AcDbLine
 10
1.980274032124934
 20
10.06209834793989
 30
0.0
 11
1.980274032124934
 21
10.29352148659306
 31
0.0
  0
LINE
  5
75
330
1F
100
AcDbEntity
  8
BLANK-SIZE-3
100
AcDbLine
 10
1.980274032124934
 20
10.06209834793989
 30
0.0
 11
2.290622804470809
 21
10.06209834793989
 31
0.0
  0
LINE
  5
76
330
1F
100
AcDbEntity
  8
BLANK-SIZE-3
100
AcDbLine
 10
2.290622804470809
 20
10.06209834793989
 30
0.0
 11
2.290622804470809
 21
10.29352148659306
 31
0.0
  0
LINE
  5
77
330
1F
100
AcDbEntity
  8
BLANK-SIZE-4
100
AcDbLine
 10
0.2500000000039864
 20
9.830675209286724
 30
0.0
 11
1.980274032124934
 21
9.830675209286724
 31
0.0
  0
LINE
  5
78
330
1F
100
AcDbEntity
  8
BLANK-SIZE-4
100
AcDbLine
 10
1.980274032124934
 20
9.830675209286724
 30
0.0
 11
1.980274032124934
 21
10.06209834793989
 31
0.0
  0
LINE
  5
79
330
1F
100
AcDbEntity
  8
BLANK-SIZE-4
100
AcDbLine
 10
1.980274032124934
 20
9.830675209286724
 30
0.0
 11
2.290622804470809
 21
9.830675209286724
 31
0.0
  0
LINE
  5
7A
330
1F
100
AcDbEntity
  8
BLANK-SIZE-4
100
AcDbLine
 10
2.290622804470809
 20
9.830675209286724
 30
0.0
 11
2.290622804470809
 21
10.06209834793989
 31
0.0
  0
LINE
  5
7B
330
1F
100
AcDbEntity
  8
BLANK-SIZE-5
100
AcDbLine
 10
0.2500000000039864
 20
9.599252070633557
 30
0.0
 11
1.980274032124934
 21
9.599252070633557
 31
0.0
  0
LINE
  5
7C
330
1F
100
AcDbEntity
  8
BLANK-SIZE-5
100
AcDbLine
 10
1.980274032124934
 20
9.599252070633557
 30
0.0
 11
1.980274032124934
 21
9.830675209286724
 31
0.0
  0
LINE
  5
7D
330
1F
100
AcDbEntity
  8
BLANK-SIZE-5
100
AcDbLine
 10
1.980274032124934
 20
9.599252070633557
 30
0.0
 11
2.290622804470809
 21
9.599252070633557
 31
0.0
  0
LINE
  5
7E
330
1F
100
AcDbEntity
  8
BLANK-SIZE-5
100
AcDbLine
 10
2.290622804470809
 20
9.599252070633557
 30
0.0
 11
2.290622804470809
 21
9.830675209286724
 31
0.0
  0
MTEXT
  5
80
330
1F
100
AcDbEntity
  8
REV-1
100
AcDbMText
 10
0.3976847054683001
 20
2.345321089453109
 30
0.0
 40
0.071999999999928
 41
0.0
 71
     2
 72
     1
  1
A
  7
SLDTEXTSTYLE0
 73
     1
 44
1.0
  0
MTEXT
  5
81
330
1F
100
AcDbEntity
  8
REV-2
100
AcDbMText
 10
0.3984784540071755
 20
2.526478386651242
 30
0.0
 40
0.071999999999928
 41
0.0
 71
     2
 72
     1
  1
B
  7
SLDTEXTSTYLE0
 73
     1
 44
1.0
  0
MTEXT
  5
82
330
1F
100
AcDbEntity
  8
REV-3
100
AcDbMText
 10
0.3977972055775314
 20
2.707635683849374
 30
0.0
 40
0.071999999999928
 41
0.0
 71
     2
 72
     1
  1
C
  7
SLDTEXTSTYLE0
 73
     1
 44
1.0
  0
INSERT
  5
88
330
1F
100
AcDbEntity
  8
PAINT
100
AcDbBlockReference
  2
SW_NOTE_0
 10
0.3726190492669557
 20
2.952499556508746
 30
0.0
  0
MTEXT
  5
89
330
1F
100
AcDbEntity
  8
STAMP-AREA
100
AcDbMText
 10
1.137361720352755
 20
10.11302559596205
 30
0.0
 40
0.1666666666666666
 41
0.0
 71
     1
 72
     1
  1
STAMP DETAIL AREA
  7
SLDTEXTSTYLE0
 73
     1
 44
1.0
  0
INSERT
  5
91
330
1F
100
AcDbEntity
  8
TOP_MOUNT_PAINT
100
AcDbBlockReference
  2
SW_NOTE_1
 10
4.355598574320564
 20
2.654636621380011
 30
0.0
  0
MTEXT
  5
92
330
1F
100
AcDbEntity
  8
BLANK-SIZE-1
100
AcDbMText
 10
0.3378807907583502
 20
10.69464564061513
 30
0.0
 40
0.1041666666666667
 41
0.0
 71
     1
 72
     1
  1
--
  7
SLDTEXTSTYLE0
 73
     1
 44
1.0
  0
MTEXT
  5
93
330
1F
100
AcDbEntity
  8
BLANK-SIZE-1
100
AcDbMText
 10
2.097147970615131
 20
10.69464564061513
 30
0.0
 40
0.1041666666666667
 41
0.0
 71
     1
 72
     1
  1
--
  7
SLDTEXTSTYLE0
 73
     1
 44
1.0
  0
MTEXT
  5
94
330
1F
100
AcDbEntity
  8
BLANK-SIZE-2
100
AcDbMText
 10
2.097147970615131
 20
10.46322250196197
 30
0.0
 40
0.1041666666666667
 41
0.0
 71
     1
 72
     1
  1
--
  7
SLDTEXTSTYLE0
 73
     1
 44
1.0
  0
MTEXT
  5
95
330
1F
100
AcDbEntity
  8
BLANK-SIZE-2
100
AcDbMText
 10
0.3378807907583502
 20
10.46322250196197
 30
0.0
 40
0.1041666666666667
 41
0.0
 71
     1
 72
     1
  1
--
  7
SLDTEXTSTYLE0
 73
     1
 44
1.0
  0
MTEXT
  5
96
330
1F
100
AcDbEntity
  8
BLANK-SIZE-3
100
AcDbMText
 10
0.3378807907583499
 20
10.2317993633088
 30
0.0
 40
0.1041666666666667
 41
0.0
 71
     1
 72
     1
  1
--
  7
SLDTEXTSTYLE0
 73
     1
 44
1.0
  0
MTEXT
  5
97
330
1F
100
AcDbEntity
  8
BLANK-SIZE-3
100
AcDbMText
 10
2.09714797061513
 20
10.2317993633088
 30
0.0
 40
0.1041666666666667
 41
0.0
 71
     1
 72
     1
  1
--
  7
SLDTEXTSTYLE0
 73
     1
 44
1.0
  0
MTEXT
  5
98
330
1F
100
AcDbEntity
  8
BLANK-SIZE-4
100
AcDbMText
 10
2.09714797061513
 20
10.00037622465563
 30
0.0
 40
0.1041666666666667
 41
0.0
 71
     1
 72
     1
  1
--
  7
SLDTEXTSTYLE0
 73
     1
 44
1.0
  0
MTEXT
  5
99
330
1F
100
AcDbEntity
  8
BLANK-SIZE-4
100
AcDbMText
 10
0.3378807907583498
 20
10.00037622465563
 30
0.0
 40
0.1041666666666667
 41
0.0
 71
     1
 72
     1
  1
--
  7
SLDTEXTSTYLE0
 73
     1
 44
1.0
  0
MTEXT
  5
9A
330
1F
100
AcDbEntity
  8
BLANK-SIZE-5
100
AcDbMText
 10
0.3378807907583498
 20
9.768953086002465
 30
0.0
 40
0.1041666666666667
 41
0.0
 71
     1
 72
     1
  1
--
  7
SLDTEXTSTYLE0
 73
     1
 44
1.0
  0
MTEXT
  5
9B
330
1F
100
AcDbEntity
  8
BLANK-SIZE-5
100
AcDbMText
 10
2.09714797061513
 20
9.768953086002467
 30
0.0
 40
0.1041666666666667
 41
0.0
 71
     1
 72
     1
  1
--
  7
SLDTEXTSTYLE0
 73
     1
 44
1.0
  0
MTEXT
  5
9C
330
1F
100
AcDbEntity
  8
BLANK-SIZE-2
100
AcDbMText
 10
0.7735977297276487
 20
0.9124839732831866
 30
0.0
 40
0.1041666666666667
 41
0.0
 71
     1
 72
     1
  1
--
  7
SLDTEXTSTYLE0
 73
     1
 44
1.0
  0
LINE
  5
9D
330
1F
100
AcDbEntity
  8
0
  6
Continuous
 62
     7
370
    15
100
AcDbLine
 10
3.120783645663712
 20
4.678966397914641
 30
0.0
 11
3.117866799732049
 21
4.676119466865293
 31
0.0
  0
LINE
  5
9E
330
1F
100
AcDbEntity
  8
0
  6
Continuous
 62
     7
370
    15
100
AcDbLine
 10
3.161521685696365
 20
4.631392499904456
 30
0.0
 11
3.164438531628027
 21
4.634239430953805
 31
0.0
  0
LINE
  5
9F
330
1F
100
AcDbEntity
  8
0
  6
Continuous
 62
     7
370
    15
100
AcDbLine
 10
3.120783645663712
 20
6.479017644776945
 30
0.0
 11
3.117866799732049
 21
6.476170713727596
 31
0.0
  0
LINE
  5
A0
330
1F
100
AcDbEntity
  8
0
  6
Continuous
 62
     7
370
    15
100
AcDbLine
 10
3.161521685696365
 20
6.431443878768999
 30
0.0
 11
3.164438531628027
 21
6.434290809818348
 31
0.0
  0
LINE
  5
A1
330
1F
100
AcDbEntity
  8
0
  6
Continuous
 62
     7
370
    15
100
AcDbLine
 10
3.078399429808766
 20
6.187426636795761
 30
0.0
 11
3.075482583877103
 21
6.184579705746411
 31
0.0
  0
LINE
  5
A2
330
1F
100
AcDbEntity
  8
0
  6
Continuous
 62
     7
370
    15
100
AcDbLine
 10
3.119137469841419
 20
6.139852770214679
 30
0.0
 11
3.122054315773082
 21
6.142699701264028
 31
0.0
  0
LINE
  5
A3
330
1F
100
AcDbEntity
  8
0
  6
Continuous
 62
     7
370
    15
100
AcDbLine
 10
3.120783645663712
 20
4.078949307246112
 30
0.0
 11
3.117866799732049
 21
4.076102376196764
 31
0.0
  0
LINE
  5
A4
330
1F
100
AcDbEntity
  8
0
  6
Continuous
 62
     7
370
    15
100
AcDbLine
 10
3.161521685696365
 20
4.031375390378464
 30
0.0
 11
3.164438531628027
 21
4.034222321427813
 31
0.0
  0
LINE
  5
A5
330
1F
100
AcDbEntity
  8
0
  6
Continuous
 62
     7
370
    15
100
AcDbLine
 10
3.120783645663712
 20
5.879000635824088
 30
0.0
 11
3.117866799732049
 21
5.876153704774739
 31
0.0
  0
LINE
  5
A6
330
1F
100
AcDbEntity
  8
0
  6
Continuous
 62
     7
370
    15
100
AcDbLine
 10
3.161521685696365
 20
5.831426769243007
 30
0.0
 11
3.164438531628027
 21
5.834273700292356
 31
0.0
  0
LINE
  5
A7
330
1F
100
AcDbEntity
  8
0
  6
Continuous
 62
     7
370
    15
100
AcDbLine
 10
3.120783645663712
 20
7.079034754302936
 30
0.0
 11
3.117866799732049
 21
7.076187823253588
 31
0.0
  0
LINE
  5
A8
330
1F
100
AcDbEntity
  8
0
  6
Continuous
 62
     7
370
    15
100
AcDbLine
 10
3.161521685696365
 20
7.031460887721856
 30
0.0
 11
3.164438531628027
 21
7.034307818771205
 31
0.0
  0
LINE
  5
A9
330
1F
100
AcDbEntity
  8
0
  6
Continuous
 62
     7
370
    15
100
AcDbLine
 10
3.078399429808766
 20
6.787443746321753
 30
0.0
 11
3.075482583877103
 21
6.784596815272403
 31
0.0
  0
LINE
  5
AA
330
1F
100
AcDbEntity
  8
0
  6
Continuous
 62
     7
370
    15
100
AcDbLine
 10
3.119137469841419
 20
6.739869879740671
 30
0.0
 11
3.122054315773082
 21
6.74271681079002
 31
0.0
  0
LINE
  5
AB
330
1F
100
AcDbEntity
  8
0
  6
Continuous
 62
     7
370
    15
100
AcDbLine
 10
3.120783645663712
 20
5.278983526298095
 30
0.0
 11
3.117866799732049
 21
5.276136595248748
 31
0.0
  0
LINE
  5
AC
330
1F
100
AcDbEntity
  8
0
  6
Continuous
 62
     7
370
    15
100
AcDbLine
 10
3.161521685696365
 20
5.231409609430448
 30
0.0
 11
3.164438531628027
 21
5.234256540479798
 31
0.0
  0
LINE
  5
AD
330
1F
100
AcDbEntity
  8
0
  6
Continuous
 62
     7
370
    15
100
AcDbLine
 10
3.078399429808766
 20
5.587409527269768
 30
0.0
 11
3.075482583877103
 21
5.58456259622042
 31
0.0
  0
LINE
  5
AE
330
1F
100
AcDbEntity
  8
0
  6
Continuous
 62
     7
370
    15
100
AcDbLine
 10
3.119137469841419
 20
5.53983561040212
 30
0.0
 11
3.122054315773082
 21
5.542682541451469
 31
0.0
  0
LINE
  5
AF
330
1F
100
AcDbEntity
  8
0
  6
Continuous
 62
     7
370
    15
100
AcDbLine
 10
3.078399429808766
 20
4.987392417743776
 30
0.0
 11
3.075482583877103
 21
4.984545486694428
 31
0.0
  0
LINE
  5
B0
330
1F
100
AcDbEntity
  8
0
  6
Continuous
 62
     7
370
    15
100
AcDbLine
 10
3.119137469841419
 20
4.939818513447771
 30
0.0
 11
3.122054315773082
 21
4.942665444497118
 31
0.0
  0
LINE
  5
B1
330
1F
100
AcDbEntity
  8
0
  6
Continuous
 62
     7
370
    15
100
AcDbLine
 10
3.33849925822333
 20
8.663628010204645
 30
0.0
 11
3.335582412291667
 21
8.660781079155297
 31
0.0
  0
LINE
  5
B2
330
1F
100
AcDbEntity
  8
0
  6
Continuous
 62
     7
370
    15
100
AcDbLine
 10
3.379237298255984
 20
8.616054143623562
 30
0.0
 11
3.382154144187646
 21
8.618901074672912
 31
0.0
  0
LINE
  5
B3
330
1F
100
AcDbEntity
  8
0
  6
Continuous
 62
     7
370
    15
100
AcDbLine
 10
3.297945930641837
 20
8.380287257285635
 30
0.0
 11
3.295029084710175
 21
8.377440326236287
 31
0.0
  0
LINE
  5
B4
330
1F
100
AcDbEntity
  8
0
  6
Continuous
 62
     7
370
    15
100
AcDbLine
 10
3.338683970674491
 20
8.332713390704556
 30
0.0
 11
3.341600816606153
 21
8.335560321753904
 31
0.0
  0
LINE
  5
B5
330
1F
100
AcDbEntity
  8
0
  6
Continuous
 62
     7
370
    15
100
AcDbLine
 10
3.078399429808766
 20
7.987477965373735
 30
0.0
 11
3.075482583877103
 21
7.984631034324388
 31
0.0
  0
LINE
  5
B6
330
1F
100
AcDbEntity
  8
0
  6
Continuous
 62
     7
370
    15
100
AcDbLine
 10
3.119137469841419
 20
7.939904098792656
 30
0.0
 11
3.122054315773082
 21
7.942751029842003
 31
0.0
  0
LINE
  5
B7
330
1F
100
AcDbEntity
  8
0
  6
Continuous
 62
     7
370
    15
100
AcDbLine
 10
3.068456630772684
 20
8.597550618806087
 30
0.0
 11
3.065539784841021
 21
8.594703687756739
 31
0.0
  0
LINE
  5
B8
330
1F
100
AcDbEntity
  8
0
  6
Continuous
 62
     7
370
    15
100
AcDbLine
 10
3.109194670805337
 20
8.549976752225006
 30
0.0
 11
3.112111516736999
 21
8.552823683274354
 31
0.0
  0
LINE
  5
B9
330
1F
100
AcDbEntity
  8
0
  6
Continuous
 62
     7
370
    15
100
AcDbLine
 10
3.120783645663712
 20
7.679051863828928
 30
0.0
 11
3.117866799732049
 21
7.67620493277958
 31
0.0
  0
LINE
  5
BA
330
1F
100
AcDbEntity
  8
0
  6
Continuous
 62
     7
370
    15
100
AcDbLine
 10
3.161521685696365
 20
7.631477997247849
 30
0.0
 11
3.164438531628027
 21
7.634324928297196
 31
0.0
  0
LINE
  5
BB
330
1F
100
AcDbEntity
  8
0
  6
Continuous
 62
     7
370
    15
100
AcDbLine
 10
3.078399429808766
 20
4.387375308217785
 30
0.0
 11
3.075482583877103
 21
4.384528377168436
 31
0.0
  0
LINE
  5
BC
330
1F
100
AcDbEntity
  8
0
  6
Continuous
 62
     7
370
    15
100
AcDbLine
 10
3.119137469841419
 20
4.33980141649342
 30
0.0
 11
3.122054315773082
 21
4.342648347542769
 31
0.0
  0
LINE
  5
BD
330
1F
100
AcDbEntity
  8
0
  6
Continuous
 62
     7
370
    15
100
AcDbLine
 10
3.122000329156144
 20
8.280208684082627
 30
0.0
 11
3.119083483224482
 21
8.277361753033279
 31
0.0
  0
LINE
  5
BE
330
1F
100
AcDbEntity
  8
0
  6
Continuous
 62
     7
370
    15
100
AcDbLine
 10
3.162738369188797
 20
8.232634415209007
 30
0.0
 11
3.165655215120461
 21
8.235481346258355
 31
0.0
  0
LINE
  5
BF
330
1F
100
AcDbEntity
  8
0
  6
Continuous
 62
     7
370
    15
100
AcDbLine
 10
3.078399429808766
 20
7.387460855847745
 30
0.0
 11
3.075482583877103
 21
7.384613924798395
 31
0.0
  0
LINE
  5
C0
330
1F
100
AcDbEntity
  8
0
  6
Continuous
 62
     7
370
    15
100
AcDbLine
 10
3.119137469841419
 20
7.339886989266664
 30
0.0
 11
3.122054315773082
 21
7.342733920316012
 31
0.0
  0
LINE
  5
C1
330
1F
100
AcDbEntity
  8
0
  6
Continuous
 62
     7
370
    15
100
AcDbLine
 10
3.340169859945727
 20
3.865633546579437
 30
0.0
 11
3.337253014014064
 21
3.862786615530088
 31
0.0
  0
LINE
  5
C2
330
1F
100
AcDbEntity
  8
0
  6
Continuous
 62
     7
370
    15
100
AcDbLine
 10
3.380907887007065
 20
3.818059633237114
 30
0.0
 11
3.383824732938727
 21
3.820906564286463
 31
0.0
  0
LINE
  5
C3
330
1F
100
AcDbEntity
  8
0
  6
Continuous
 62
     7
370
    15
100
AcDbLine
 10
3.340169859945727
 20
4.465650656105429
 30
0.0
 11
3.337253014014064
 21
4.462803725056081
 31
0.0
  0
LINE
  5
C4
330
1F
100
AcDbEntity
  8
0
  6
Continuous
 62
     7
370
    15
100
AcDbLine
 10
3.380907887007065
 20
4.418076767906391
 30
0.0
 11
3.383824732938727
 21
4.420923698955738
 31
0.0
  0
LINE
  5
C5
330
1F
100
AcDbEntity
  8
0
  6
Continuous
 62
     7
370
    15
100
AcDbLine
 10
3.340169859945727
 20
5.065667765631421
 30
0.0
 11
3.337253014014064
 21
5.062820834582073
 31
0.0
  0
LINE
  5
C6
330
1F
100
AcDbEntity
  8
0
  6
Continuous
 62
     7
370
    15
100
AcDbLine
 10
3.380907887007065
 20
5.018093877432383
 30
0.0
 11
3.383824732938727
 21
5.02094080848173
 31
0.0
  0
LINE
  5
C7
330
1F
100
AcDbEntity
  8
0
  6
Continuous
 62
     7
370
    15
100
AcDbLine
 10
3.340169859945727
 20
5.665684824870845
 30
0.0
 11
3.337253014014064
 21
5.662837893821496
 31
0.0
  0
LINE
  5
C8
330
1F
100
AcDbEntity
  8
0
  6
Continuous
 62
     7
370
    15
100
AcDbLine
 10
3.380907887007065
 20
5.61811096181509
 30
0.0
 11
3.383824732938727
 21
5.620957892864439
 31
0.0
  0
LINE
  5
C9
330
1F
100
AcDbEntity
  8
0
  6
Continuous
 62
     7
370
    15
100
AcDbLine
 10
3.340169859945727
 20
6.265701934396837
 30
0.0
 11
3.337253014014064
 21
6.262855003347488
 31
0.0
  0
LINE
  5
CA
330
1F
100
AcDbEntity
  8
0
  6
Continuous
 62
     7
370
    15
100
AcDbLine
 10
3.380907887007065
 20
6.218128071341082
 30
0.0
 11
3.383824732938727
 21
6.22097500239043
 31
0.0
  0
LINE
  5
CB
330
1F
100
AcDbEntity
  8
0
  6
Continuous
 62
     7
370
    15
100
AcDbLine
 10
3.078399429808766
 20
3.787358198691793
 30
0.0
 11
3.075482583877103
 21
3.784511267642444
 31
0.0
  0
LINE
  5
CC
330
1F
100
AcDbEntity
  8
0
  6
Continuous
 62
     7
370
    15
100
AcDbLine
 10
3.119137469841419
 20
3.739784332110712
 30
0.0
 11
3.122054315773082
 21
3.74263126316006
 31
0.0
  0
LINE
  5
CD
330
1F
100
AcDbEntity
  8
0
  6
Continuous
 62
     7
370
    15
100
AcDbLine
 10
3.297945930641837
 20
7.780270348905913
 30
0.0
 11
3.295029084710175
 21
7.777423417856565
 31
0.0
  0
LINE
  5
CE
330
1F
100
AcDbEntity
  8
0
  6
Continuous
 62
     7
370
    15
100
AcDbLine
 10
3.338683970674491
 20
7.732696482324833
 30
0.0
 11
3.341600816606153
 21
7.735543413374181
 31
0.0
  0
LINE
  5
CF
330
1F
100
AcDbEntity
  8
0
  6
Continuous
 62
     7
370
    15
100
AcDbLine
 10
3.297945930641837
 20
7.180253239379922
 30
0.0
 11
3.295029084710175
 21
7.177406308330573
 31
0.0
  0
LINE
  5
D0
330
1F
100
AcDbEntity
  8
0
  6
Continuous
 62
     7
370
    15
100
AcDbLine
 10
3.338683970674491
 20
7.132679372798842
 30
0.0
 11
3.341600816606153
 21
7.135526303848189
 31
0.0
  0
LINE
  5
D1
330
1F
100
AcDbEntity
  8
0
  6
Continuous
 62
     7
370
    15
100
AcDbLine
 10
3.340169859945727
 20
8.065753262974812
 30
0.0
 11
3.337253014014064
 21
8.062906331925464
 31
0.0
  0
LINE
  5
D2
330
1F
100
AcDbEntity
  8
0
  6
Continuous
 62
     7
370
    15
100
AcDbLine
 10
3.380907887007065
 20
8.018179399919057
 30
0.0
 11
3.383824732938727
 21
8.021026330968407
 31
0.0
  0
LINE
  5
D3
330
1F
100
AcDbEntity
  8
0
  6
Continuous
 62
     7
370
    15
100
AcDbLine
 10
3.297945930641837
 20
6.58023612985393
 30
0.0
 11
3.295029084710175
 21
6.577389198804582
 31
0.0
  0
LINE
  5
D4
330
1F
100
AcDbEntity
  8
0
  6
Continuous
 62
     7
370
    15
100
AcDbLine
 10
3.338683970674491
 20
6.532662263272849
 30
0.0
 11
3.341600816606153
 21
6.535509194322197
 31
0.0
  0
LINE
  5
D5
330
1F
100
AcDbEntity
  8
0
  6
Continuous
 62
     7
370
    15
100
AcDbLine
 10
3.297945930641837
 20
5.980219020327938
 30
0.0
 11
3.295029084710175
 21
5.97737208927859
 31
0.0
  0
LINE
  5
D6
330
1F
100
AcDbEntity
  8
0
  6
Continuous
 62
     7
370
    15
100
AcDbLine
 10
3.338683970674491
 20
5.932645153746857
 30
0.0
 11
3.341600816606153
 21
5.935492084796205
 31
0.0
  0
LINE
  5
D7
330
1F
100
AcDbEntity
  8
0
  6
Continuous
 62
     7
370
    15
100
AcDbLine
 10
3.297945930641837
 20
5.380201910801947
 30
0.0
 11
3.295029084710175
 21
5.377354979752598
 31
0.0
  0
LINE
  5
D8
330
1F
100
AcDbEntity
  8
0
  6
Continuous
 62
     7
370
    15
100
AcDbLine
 10
3.338683970674491
 20
5.332627993934298
 30
0.0
 11
3.341600816606153
 21
5.335474924983647
 31
0.0
  0
LINE
  5
D9
330
1F
100
AcDbEntity
  8
0
  6
Continuous
 62
     7
370
    15
100
AcDbLine
 10
3.340169859945727
 20
6.865719043922829
 30
0.0
 11
3.337253014014064
 21
6.86287211287348
 31
0.0
  0
LINE
  5
DA
330
1F
100
AcDbEntity
  8
0
  6
Continuous
 62
     7
370
    15
100
AcDbLine
 10
3.380907887007065
 20
6.818145180867074
 30
0.0
 11
3.383824732938727
 21
6.820992111916424
 31
0.0
  0
LINE
  5
DB
330
1F
100
AcDbEntity
  8
0
  6
Continuous
 62
     7
370
    15
100
AcDbLine
 10
3.340169859945727
 20
7.465736153448822
 30
0.0
 11
3.337253014014064
 21
7.462889222399472
 31
0.0
  0
LINE
  5
DC
330
1F
100
AcDbEntity
  8
0
  6
Continuous
 62
     7
370
    15
100
AcDbLine
 10
3.380907887007065
 20
7.418162290393066
 30
0.0
 11
3.383824732938727
 21
7.421009221442414
 31
0.0
  0
LINE
  5
DD
330
1F
100
AcDbEntity
  8
0
  6
Continuous
 62
     7
370
    15
100
AcDbLine
 10
3.297945930641837
 20
4.180167691749963
 30
0.0
 11
3.295029084710175
 21
4.177320760700614
 31
0.0
  0
LINE
  5
DE
330
1F
100
AcDbEntity
  8
0
  6
Continuous
 62
     7
370
    15
100
AcDbLine
 10
3.338683970674491
 20
4.132593774882314
 30
0.0
 11
3.341600816606153
 21
4.135440705931663
 31
0.0
  0
LINE
  5
DF
330
1F
100
AcDbEntity
  8
0
  6
Continuous
 62
     7
370
    15
100
AcDbLine
 10
3.297945930641837
 20
4.780184776132671
 30
0.0
 11
3.295029084710175
 21
4.777337845083323
 31
0.0
  0
LINE
  5
E0
330
1F
100
AcDbEntity
  8
0
  6
Continuous
 62
     7
370
    15
100
AcDbLine
 10
3.338683970674491
 20
4.732610884408306
 30
0.0
 11
3.341600816606153
 21
4.735457815457655
 31
0.0
  0
LINE
  5
E1
330
1F
100
AcDbEntity
  8
0
  6
Continuous
 62
     7
370
    15
100
AcDbLine
 10
6.732237600935484
 20
7.398052018481251
 30
0.0
 11
6.516387066322189
 21
7.363545142744478
 31
0.0
  0
LINE
  5
E2
330
1F
100
AcDbEntity
  8
0
  6
Continuous
 62
     7
370
    15
100
AcDbLine
 10
5.93812412838196
 20
6.622972924595119
 30
0.0
 11
3.506906935443455
 21
7.283725662952893
 31
0.0
  0
LINE
  5
E3
330
1F
100
AcDbEntity
  8
0
  6
Continuous
 62
     7
370
    15
100
AcDbLine
 10
2.966455470499717
 20
7.430608790650517
 30
0.0
 11
0.6215961845327608
 21
8.067891300319539
 31
0.0
  0
LINE
  5
E4
330
1F
100
AcDbEntity
  8
0
  6
Continuous
 62
     7
370
    15
100
AcDbLine
 10
1.482225784225825
 20
8.731722310190164
 30
0.0
 11
1.415709657086285
 21
8.84297039420567
 31
0.0
  0
LINE
  5
E5
330
1F
100
AcDbEntity
  8
0
  6
Continuous
 62
     7
370
    15
100
AcDbLine
 10
1.415709657086285
 20
8.84297039420567
 30
0.0
 11
1.768440951465842
 21
9.187246950997826
 31
0.0
  0
LINE
  5
E6
330
1F
100
AcDbEntity
  8
0
  6
Continuous
 62
     7
370
    15
100
AcDbLine
 10
1.768440951465842
 20
9.187246950997826
 30
0.0
 11
2.966455503376066
 21
8.86165226613531
 31
0.0
  0
LINE
  5
E7
330
1F
100
AcDbEntity
  8
0
  6
Continuous
 62
     7
370
    15
100
AcDbLine
 10
4.018460409060607
 20
8.575739874508663
 30
0.0
 11
4.182584601765427
 21
8.531134435687544
 31
0.0
  0
LINE
  5
E8
330
1F
100
AcDbEntity
  8
0
  6
Continuous
 62
     7
370
    15
100
AcDbLine
 10
4.182584601765427
 20
8.531134435687544
 30
0.0
 11
4.630868907795918
 21
8.596262046064296
 31
0.0
  0
LINE
  5
E9
330
1F
100
AcDbEntity
  8
0
  6
Continuous
 62
     7
370
    15
100
AcDbLine
 10
4.630868907795918
 20
8.596262046064296
 30
0.0
 11
4.819686443285926
 21
8.155833927728405
 31
0.0
  0
LINE
  5
EA
330
1F
100
AcDbEntity
  8
0
  6
Continuous
 62
     7
370
    15
100
AcDbLine
 10
4.819686443285926
 20
8.155833927728405
 30
0.0
 11
5.344068814876013
 21
8.215467914160294
 31
0.0
  0
LINE
  5
EB
330
1F
100
AcDbEntity
  8
0
  6
Continuous
 62
     7
370
    15
100
AcDbLine
 10
5.344068814876013
 20
8.215467914160294
 30
0.0
 11
7.084968895315041
 21
7.742328575273407
 31
0.0
  0
LINE
  5
EC
330
1F
100
AcDbEntity
  8
0
  6
Continuous
 62
     7
370
    15
100
AcDbLine
 10
7.084968895315041
 20
7.742328575273407
 30
0.0
 11
6.732237600935484
 21
7.398052018481251
 31
0.0
  0
LINE
  5
ED
330
1F
100
AcDbEntity
  8
0
  6
Continuous
 62
     7
370
    15
100
AcDbLine
 10
5.93812412838196
 20
6.580114688937293
 30
0.0
 11
5.93812412838196
 21
6.622972924595119
 31
0.0
  0
LINE
  5
EE
330
1F
100
AcDbEntity
  8
0
  6
Continuous
 62
     7
370
    15
100
AcDbLine
 10
5.972471017870379
 20
6.613638306030562
 30
0.0
 11
5.93812412838196
 21
6.580114688937293
 31
0.0
  0
LINE
  5
EF
330
1F
100
AcDbEntity
  8
0
  6
Continuous
 62
     7
370
    15
100
AcDbLine
 10
0.6215961845327608
 20
8.025033064661712
 30
0.0
 11
0.6215961845327608
 21
8.067891300319539
 31
0.0
  0
LINE
  5
F0
330
1F
100
AcDbEntity
  8
0
  6
Continuous
 62
     7
370
    15
100
AcDbLine
 10
5.93812412838196
 20
6.580114688937293
 30
0.0
 11
3.506906935443455
 21
7.240867427295067
 31
0.0
  0
LINE
  5
F1
330
1F
100
AcDbEntity
  8
0
  6
Continuous
 62
     7
370
    15
100
AcDbLine
 10
2.966455470499717
 20
7.387750554992691
 30
0.0
 11
0.6215961845327608
 21
8.025033064661712
 31
0.0
  0
LINE
  5
F2
330
1F
100
AcDbEntity
  8
0
  6
Continuous
 62
     7
370
    15
100
AcDbLine
 10
6.732237600935484
 20
7.355193782823425
 30
0.0
 11
6.732237600935484
 21
7.398052018481251
 31
0.0
  0
LINE
  5
F3
330
1F
100
AcDbEntity
  8
0
  6
Continuous
 62
     7
370
    15
100
AcDbLine
 10
6.732237600935484
 20
7.355193782823425
 30
0.0
 11
6.615678301414396
 21
7.336560012740349
 31
0.0
  0
LINE
  5
F4
330
1F
100
AcDbEntity
  8
0
  6
Continuous
 62
     7
370
    15
100
AcDbLine
 10
7.084968895315041
 20
7.699470339615581
 30
0.0
 11
7.084968895315041
 21
7.742328575273407
 31
0.0
  0
LINE
  5
F5
330
1F
100
AcDbEntity
  8
0
  6
Continuous
 62
     7
370
    15
100
AcDbLine
 10
7.084968895315041
 20
7.699470339615581
 30
0.0
 11
6.732237600935484
 21
7.355193782823425
 31
0.0
  0
LINE
  5
F6
330
1F
100
AcDbEntity
  8
0
  6
Continuous
 62
     7
370
    15
100
AcDbLine
 10
1.415709657086285
 20
8.800112158547843
 30
0.0
 11
1.415709657086285
 21
8.84297039420567
 31
0.0
  0
LINE
  5
F7
330
1F
100
AcDbEntity
  8
0
  6
Continuous
 62
     7
370
    15
100
AcDbLine
 10
1.451628487738003
 20
8.740038099894919
 30
0.0
 11
1.415709657086285
 21
8.800112158547843
 31
0.0
  0
ARC
  5
F8
330
1F
100
AcDbEntity
  8
0
  6
Continuous
 62
     7
370
    15
100
AcDbCircle
 10
3.135088988298992
 20
4.660527239306463
 30
0.0
 40
0.0232319034795196
100
AcDbArc
 50
137.8436645704001
 51
205.7507705775866
  0
LWPOLYLINE
  5
F9
330
1F
100
AcDbEntity
  8
0
  6
Continuous
 62
     7
370
    15
100
AcDbPolyline
 90
        8
 70
   128
 43
0.0
 10
3.161521685696365
 20
4.631392499904456
 10
3.155696527134545
 20
4.627567043712614
 10
3.14834352915355
 20
4.62596428420072
 10
3.140221980703179
 20
4.626830957445664
 10
3.132053553917005
 20
4.630090032159976
 10
3.12456404580707
 20
4.635451926129999
 10
3.11841891082367
 20
4.642440223795252
 10
3.114164189482567
 20
4.650433967598349
  0
LWPOLYLINE
  5
FA
330
1F
100
AcDbEntity
  8
0
  6
Continuous
 62
     7
370
    15
100
AcDbPolyline
 90
       20
 70
   128
 43
0.0
 10
3.115258780919821
 20
4.649342707156129
 10
3.119597478560312
 20
4.641433125066382
 10
3.125955965748274
 20
4.63470466652108
 10
3.133645154295772
 20
4.629886448687992
 10
3.141831792809524
 20
4.627500629029307
 10
3.149628772992474
 20
4.627805716295696
 10
3.156191143324363
 20
4.630768665748821
 10
3.160807790322792
 20
4.6360683866413
 10
3.162978384389368
 20
4.643130591501886
 10
3.162467755566119
 20
4.651189962703941
 10
3.15933123948684
 20
4.659373138646524
 10
3.15390868462913
 20
4.666793360032928
 10
3.146787743490282
 20
4.672646524574219
 10
3.138740053712867
 20
4.676298354490658
 10
3.130637728752717
 20
4.67735311105375
 10
3.123358796985733
 20
4.675696492216855
 10
3.117691992248895
 20
4.671508031705994
 10
3.114251454466641
 20
4.665241600837777
 10
3.113409979259056
 20
4.657576278990086
 10
3.115258780919821
 20
4.649342707156129
  0
LWPOLYLINE
  5
FB
330
1F
100
AcDbEntity
  8
0
  6
Continuous
 62
     7
370
    15
100
AcDbPolyline
 90
       13
 70
   128
 43
0.0
 10
3.164438531628027
 20
4.634239430953805
 10
3.164544507279248
 20
4.634343712443192
 10
3.16852675315774
 20
4.640251293925198
 10
3.170206305088135
 20
4.647611780312911
 10
3.169433863223976
 20
4.655771177465014
 10
3.166278123654476
 20
4.664004471273371
 10
3.161019474344969
 20
4.671580098607442
 10
3.154125142095573
 20
4.677824946255059
 10
3.146207736215447
 20
4.682184119257722
 10
3.137970768995852
 20
4.684270287864634
 10
3.130146108024689
 20
4.683898092091523
 10
3.123429015836281
 20
4.681100595960095
 10
3.120783645663712
 20
4.678966397914641
  0
ARC
  5
FC
330
1F
100
AcDbEntity
  8
0
  6
Continuous
 62
     7
370
    15
100
AcDbCircle
 10
3.135088514291961
 20
6.460578586608575
 30
0.0
 40
0.0232314846808979
100
AcDbArc
 50
137.8430635952781
 51
205.7513200702488
  0
LWPOLYLINE
  5
FD
330
1F
100
AcDbEntity
  8
0
  6
Continuous
 62
     7
370
    15
100
AcDbPolyline
 90
        8
 70
   128
 43
0.0
 10
3.161521685696365
 20
6.431443878768999
 10
3.155696527134545
 20
6.427618410005515
 10
3.14834352915355
 20
6.42601557506377
 10
3.140221980703179
 20
6.426882298595281
 10
3.132053553917005
 20
6.430141323023026
 10
3.12456404580707
 20
6.435503267279616
 10
3.11841891082367
 20
6.442491590088153
 10
3.114164189482567
 20
6.450485296176325
  0
LWPOLYLINE
  5
FE
330
1F
100
AcDbEntity
  8
0
  6
Continuous
 62
     7
370
    15
100
AcDbPolyline
 90
       20
 70
   128
 43
0.0
 10
3.115258780919821
 20
6.449394023162463
 10
3.119597478560312
 20
6.441484503930924
 10
3.125955965748274
 20
6.434756007670697
 10
3.133645154295772
 20
6.429937802409251
 10
3.141831792809524
 20
6.427551932463999
 10
3.149628772992474
 20
6.427857095160238
 10
3.156191143324363
 20
6.430820032041722
 10
3.160807790322792
 20
6.43611967750435
 10
3.162978384389368
 20
6.443181964080609
 10
3.162467755566119
 20
6.451241278710273
 10
3.15933123948684
 20
6.459424492367784
 10
3.15390868462913
 20
6.466844713754189
 10
3.146787743490282
 20
6.47269775886488
 10
3.138740053712867
 20
6.476349695640276
 10
3.130637728752717
 20
6.477404395630979
 10
3.123358796985733
 20
6.475747739079158
 10
3.117691992248895
 20
6.471559410570536
 10
3.114251454466641
 20
6.465292835128439
 10
3.113409979259056
 20
6.457627544709853
 10
3.115258780919821
 20
6.449394023162463
  0
LWPOLYLINE
  5
FF
330
1F
100
AcDbEntity
  8
0
  6
Continuous
 62
     7
370
    15
100
AcDbPolyline
 90
       13
 70
   128
 43
0.0
 10
3.164438531628027
 20
6.434290809818348
 10
3.164544507279248
 20
6.434395066164452
 10
3.16852675315774
 20
6.440302609931531
 10
3.170206305088135
 20
6.447663090033424
 10
3.169433863223976
 20
6.455822524900452
 10
3.166278123654476
 20
6.46405581870881
 10
3.161019474344969
 20
6.471631433471237
 10
3.154125142095573
 20
6.477876274833034
 10
3.146207736215447
 20
6.482235435264056
 10
3.137970768995852
 20
6.484321597585148
 10
3.130146108024689
 20
6.483949332668006
 10
3.123429015836281
 20
6.481151949681354
 10
3.120783645663712
 20
6.479017644776945
  0
ARC
  5
100
330
1F
100
AcDbEntity
  8
0
  6
Continuous
 62
     7
370
    15
100
AcDbCircle
 10
3.092704951440312
 20
6.168987444974817
 30
0.0
 40
0.0232320584635039
100
AcDbArc
 50
137.84390012872
 51
205.7505468997903
  0
LWPOLYLINE
  5
101
330
1F
100
AcDbEntity
  8
0
  6
Continuous
 62
     7
370
    15
100
AcDbPolyline
 90
        8
 70
   128
 43
0.0
 10
3.119137469841419
 20
6.139852770214679
 10
3.113312311279599
 20
6.136027301451196
 10
3.105959313298604
 20
6.134424567082585
 10
3.097837764848233
 20
6.135291190040962
 10
3.089669338062059
 20
6.138550315041841
 10
3.082179829952124
 20
6.143912158725297
 10
3.076034694968725
 20
6.150900481533834
 10
3.071779973627621
 20
6.158894187622006
  0
LWPOLYLINE
  5
102
330
1F
100
AcDbEntity
  8
0
  6
Continuous
 62
     7
370
    15
100
AcDbPolyline
 90
       20
 70
   128
 43
0.0
 10
3.072874565064874
 20
6.157802914608144
 10
3.077213288647998
 20
6.149893388325955
 10
3.083571749893328
 20
6.143164899116377
 10
3.091260938440826
 20
6.138346693854932
 10
3.099447576954578
 20
6.135960823909679
 10
3.107244557137528
 20
6.136265986605919
 10
3.113806927469417
 20
6.139228923487403
 10
3.118423574467846
 20
6.144528669523165
 10
3.120594194477054
 20
6.151590848475637
 10
3.120083565653805
 20
6.159650163105304
 10
3.116947023631894
 20
6.167833383813464
 10
3.111524468774184
 20
6.175253605199869
 10
3.104403527635336
 20
6.181106750883695
 10
3.096355837857921
 20
6.184758587085957
 10
3.088253538840403
 20
6.185813380599143
 10
3.080974581130788
 20
6.184156731097973
 10
3.075307776393949
 20
6.179968302016217
 10
3.071867238611695
 20
6.173701827147255
 10
3.07102576340411
 20
6.166036536728668
 10
3.072874565064874
 20
6.157802914608144
  0
LWPOLYLINE
  5
103
330
1F
100
AcDbEntity
  8
0
  6
Continuous
 62
     7
370
    15
100
AcDbPolyline
 90
       13
 70
   128
 43
0.0
 10
3.122054315773082
 20
6.142699701264028
 10
3.122160291424302
 20
6.142803957610133
 10
3.126142537302794
 20
6.148711501377213
 10
3.127822089233188
 20
6.156071981479104
 10
3.127049673311662
 20
6.164231409295482
 10
3.12389390779953
 20
6.17246471015449
 10
3.118635258490023
 20
6.180040324916918
 10
3.111740926240627
 20
6.186285166278715
 10
3.103823520360501
 20
6.190644326709736
 10
3.095586553140906
 20
6.192730489030828
 10
3.087761892169743
 20
6.192358324686821
 10
3.081044799981335
 20
6.189560841127034
 10
3.078399429808766
 20
6.187426636795761
  0
ARC
  5
104
330
1F
100
AcDbEntity
  8
0
  6
Continuous
 62
     7
370
    15
100
AcDbCircle
 10
3.135089012222609
 20
4.060510137779149
 30
0.0
 40
0.0232319285024241
100
AcDbArc
 50
137.8436843168882
 51
205.7507627116182
  0
LWPOLYLINE
  5
105
330
1F
100
AcDbEntity
  8
0
  6
Continuous
 62
     7
370
    15
100
AcDbPolyline
 90
        8
 70
   128
 43
0.0
 10
3.161521685696365
 20
4.031375390378464
 10
3.155696527134545
 20
4.027549921614982
 10
3.14834352915355
 20
4.025947187246369
 10
3.140221980703179
 20
4.026813860491313
 10
3.132053553917005
 20
4.030072935205626
 10
3.12456404580707
 20
4.035434829175649
 10
3.11841891082367
 20
4.042423101697618
 10
3.114164189482567
 20
4.050416858072357
  0
LWPOLYLINE
  5
106
330
1F
100
AcDbEntity
  8
0
  6
Continuous
 62
     7
370
    15
100
AcDbPolyline
 90
       20
 70
   128
 43
0.0
 10
3.115258780919821
 20
4.049325585058496
 10
3.119597478560312
 20
4.04141601554039
 10
3.125955965748274
 20
4.03468756956673
 10
3.133645154295772
 20
4.029869364305284
 10
3.141831792809524
 20
4.027483494360032
 10
3.149628772992474
 20
4.027788606769704
 10
3.156191143324363
 20
4.030751543651187
 10
3.160807790322792
 20
4.036051289686949
 10
3.162978384389368
 20
4.043113475690073
 10
3.162467755566119
 20
4.051172840606307
 10
3.15933123948684
 20
4.059356003977249
 10
3.15390868462913
 20
4.06677627565022
 10
3.146787743490282
 20
4.072629421334047
 10
3.138740053712867
 20
4.076281257536308
 10
3.130637728752717
 20
4.077336007813579
 10
3.123358796985733
 20
4.075679401548326
 10
3.117691992248895
 20
4.071490922180002
 10
3.114251454466641
 20
4.065224497597607
 10
3.113409979259056
 20
4.057559156892454
 10
3.115258780919821
 20
4.049325585058496
  0
LWPOLYLINE
  5
107
330
1F
100
AcDbEntity
  8
0
  6
Continuous
 62
     7
370
    15
100
AcDbPolyline
 90
       13
 70
   128
 43
0.0
 10
3.164438531628027
 20
4.034222321427813
 10
3.164544507279248
 20
4.034326628060484
 10
3.16852675315774
 20
4.040234171827564
 10
3.170206305088135
 20
4.047594651929457
 10
3.169433863223976
 20
4.055754086796485
 10
3.166278123654476
 20
4.063987380604842
 10
3.161019474344969
 20
4.071562995367271
 10
3.154125142095573
 20
4.077807836729068
 10
3.146207736215447
 20
4.082166997160088
 10
3.137970768995852
 20
4.08425315948118
 10
3.130146108024689
 20
4.083880995137174
 10
3.123429015836281
 20
4.081083511577387
 10
3.120783645663712
 20
4.078949307246112
  0
ARC
  5
108
330
1F
100
AcDbEntity
  8
0
  6
Continuous
 62
     7
370
    15
100
AcDbCircle
 10
3.135089084961497
 20
5.860561455871692
 30
0.0
 40
0.0232319894623564
100
AcDbArc
 50
137.843785546597
 51
205.7506614819051
  0
LWPOLYLINE
  5
109
330
1F
100
AcDbEntity
  8
0
  6
Continuous
 62
     7
370
    15
100
AcDbPolyline
 90
        8
 70
   128
 43
0.0
 10
3.161521685696365
 20
5.831426769243007
 10
3.155696527134545
 20
5.827601300479523
 10
3.14834352915355
 20
5.825998465537778
 10
3.140221980703179
 20
5.826865189069289
 10
3.132053553917005
 20
5.830124213497034
 10
3.12456404580707
 20
5.835486157753624
 10
3.11841891082367
 20
5.842474480562161
 10
3.114164189482567
 20
5.850468186650333
  0
LWPOLYLINE
  5
10A
330
1F
100
AcDbEntity
  8
0
  6
Continuous
 62
     7
370
    15
100
AcDbPolyline
 90
       20
 70
   128
 43
0.0
 10
3.115258780919821
 20
5.849376913636471
 10
3.119597478560312
 20
5.841467394404932
 10
3.125955965748274
 20
5.834738898144705
 10
3.133645154295772
 20
5.829920692883259
 10
3.141831792809524
 20
5.827534822938007
 10
3.149628772992474
 20
5.827839985634246
 10
3.156191143324363
 20
5.83080292251573
 10
3.160807790322792
 20
5.836102567978358
 10
3.162978384389368
 20
5.843164854554617
 10
3.162467755566119
 20
5.851224169184282
 10
3.15933123948684
 20
5.859407382841792
 10
3.15390868462913
 20
5.866827604228197
 10
3.146787743490282
 20
5.872680749912023
 10
3.138740053712867
 20
5.876332586114284
 10
3.130637728752717
 20
5.877387286104987
 10
3.123358796985733
 20
5.8757307301263
 10
3.117691992248895
 20
5.871542301044544
 10
3.114251454466641
 20
5.865275826175582
 10
3.113409979259056
 20
5.857610535756997
 10
3.115258780919821
 20
5.849376913636471
  0
LWPOLYLINE
  5
10B
330
1F
100
AcDbEntity
  8
0
  6
Continuous
 62
     7
370
    15
100
AcDbPolyline
 90
       13
 70
   128
 43
0.0
 10
3.164438531628027
 20
5.834273700292356
 10
3.164544507279248
 20
5.83437795663846
 10
3.16852675315774
 20
5.840285500405539
 10
3.170206305088135
 20
5.847645980507432
 10
3.169433863223976
 20
5.855805415374461
 10
3.166278123654476
 20
5.864038709182818
 10
3.161019474344969
 20
5.871614323945246
 10
3.154125142095573
 20
5.877859165307042
 10
3.146207736215447
 20
5.882218325738064
 10
3.137970768995852
 20
5.884304488059155
 10
3.130146108024689
 20
5.883932323715149
 10
3.123429015836281
 20
5.881134840155362
 10
3.120783645663712
 20
5.879000635824088
  0
ARC
  5
10C
330
1F
100
AcDbEntity
  8
0
  6
Continuous
 62
     7
370
    15
100
AcDbCircle
 10
3.135088514291962
 20
7.060595696134567
 30
0.0
 40
0.0232314846808983
100
AcDbArc
 50
137.8430635952788
 51
205.7513200702484
  0
LWPOLYLINE
  5
10D
330
1F
100
AcDbEntity
  8
0
  6
Continuous
 62
     7
370
    15
100
AcDbPolyline
 90
        8
 70
   128
 43
0.0
 10
3.161521685696365
 20
7.031460887721856
 10
3.155696527134545
 20
7.027635418958372
 10
3.14834352915355
 20
7.026032684589762
 10
3.140221980703179
 20
7.026899307548139
 10
3.132053553917005
 20
7.030158432549018
 10
3.12456404580707
 20
7.035520276232474
 10
3.11841891082367
 20
7.042508699614145
 10
3.114164189482567
 20
7.050502405702317
  0
LWPOLYLINE
  5
10E
330
1F
100
AcDbEntity
  8
0
  6
Continuous
 62
     7
370
    15
100
AcDbPolyline
 90
       20
 70
   128
 43
0.0
 10
3.115258780919821
 20
7.049411132688455
 10
3.119597478560312
 20
7.041501613456916
 10
3.125955965748274
 20
7.034773016623554
 10
3.133645154295772
 20
7.029954911935243
 10
3.141831792809524
 20
7.027569041989991
 10
3.149628772992474
 20
7.02787420468623
 10
3.156191143324363
 20
7.030837141567713
 10
3.160807790322792
 20
7.036136787030342
 10
3.162978384389368
 20
7.043199073606601
 10
3.162467755566119
 20
7.051258388236266
 10
3.15933123948684
 20
7.059441601893776
 10
3.15390868462913
 20
7.066861823280179
 10
3.146787743490282
 20
7.072714868390872
 10
3.138740053712867
 20
7.076366805166268
 10
3.130637728752717
 20
7.077421505156971
 10
3.123358796985733
 20
7.07576484860515
 10
3.117691992248895
 20
7.071576520096528
 10
3.114251454466641
 20
7.065309944654431
 10
3.113409979259056
 20
7.057644654235845
 10
3.115258780919821
 20
7.049411132688455
  0
LWPOLYLINE
  5
10F
330
1F
100
AcDbEntity
  8
0
  6
Continuous
 62
     7
370
    15
100
AcDbPolyline
 90
       13
 70
   128
 43
0.0
 10
3.164438531628027
 20
7.034307818771205
 10
3.164544507279248
 20
7.034412175690443
 10
3.16852675315774
 20
7.040319719457523
 10
3.170206305088135
 20
7.047680199559416
 10
3.169433863223976
 20
7.055839634426444
 10
3.166278123654476
 20
7.064072928234802
 10
3.161019474344969
 20
7.07164854299723
 10
3.154125142095573
 20
7.077893384359026
 10
3.146207736215447
 20
7.082252544790048
 10
3.137970768995852
 20
7.08433870711114
 10
3.130146108024689
 20
7.083966442193998
 10
3.123429015836281
 20
7.081169059207345
 10
3.120783645663712
 20
7.079034754302936
  0
ARC
  5
110
330
1F
100
AcDbEntity
  8
0
  6
Continuous
 62
     7
370
    15
100
AcDbCircle
 10
3.092704865161362
 20
6.769004606458804
 30
0.0
 40
0.0232319596315293
100
AcDbArc
 50
137.8438523108646
 51
205.7505313546666
  0
LWPOLYLINE
  5
111
330
1F
100
AcDbEntity
  8
0
  6
Continuous
 62
     7
370
    15
100
AcDbPolyline
 90
        8
 70
   128
 43
0.0
 10
3.119137469841419
 20
6.739869879740671
 10
3.113312311279599
 20
6.736044410977188
 10
3.105959313298604
 20
6.734441676608577
 10
3.097837764848233
 20
6.735308299566954
 10
3.089669338062059
 20
6.738567424567833
 10
3.082179829952124
 20
6.743929268251289
 10
3.076034694968725
 20
6.75091749048669
 10
3.071779973627621
 20
6.758911397721132
  0
LWPOLYLINE
  5
112
330
1F
100
AcDbEntity
  8
0
  6
Continuous
 62
     7
370
    15
100
AcDbPolyline
 90
       20
 70
   128
 43
0.0
 10
3.072874565064874
 20
6.75782012470727
 10
3.077213288647998
 20
6.749910397278811
 10
3.083571749893328
 20
6.743182008642369
 10
3.091260938440826
 20
6.73836370280779
 10
3.099447576954578
 20
6.735978034008806
 10
3.107244557137528
 20
6.736282995558776
 10
3.113806927469417
 20
6.739245932440259
 10
3.118423574467846
 20
6.744545779049157
 10
3.120594194477054
 20
6.751607857428495
 10
3.120083565653805
 20
6.759667373204429
 10
3.116947023631894
 20
6.767850392766322
 10
3.111524468774184
 20
6.775270614152725
 10
3.104403527635336
 20
6.781123860409687
 10
3.096355837857921
 20
6.784775797185083
 10
3.088253538840403
 20
6.785830490125135
 10
3.080974581130788
 20
6.784173840623966
 10
3.075307776393949
 20
6.779985310969074
 10
3.071867238611695
 20
6.773718936673247
 10
3.07102576340411
 20
6.76605364625466
 10
3.072874565064874
 20
6.75782012470727
  0
LWPOLYLINE
  5
113
330
1F
100
AcDbEntity
  8
0
  6
Continuous
 62
     7
370
    15
100
AcDbPolyline
 90
       13
 70
   128
 43
0.0
 10
3.122054315773082
 20
6.74271681079002
 10
3.122160291424302
 20
6.742820966562989
 10
3.126142537302794
 20
6.748728711476339
 10
3.127822089233188
 20
6.756089191578231
 10
3.127049673311662
 20
6.764248418248338
 10
3.12389390779953
 20
6.772481719107348
 10
3.118635258490023
 20
6.780057535016045
 10
3.111740926240627
 20
6.786302376377841
 10
3.103823520360501
 20
6.790661536808863
 10
3.095586553140906
 20
6.792747699129955
 10
3.087761892169743
 20
6.792375434212813
 10
3.081044799981335
 20
6.789577850079892
 10
3.078399429808766
 20
6.787443746321753
  0
ARC
  5
114
330
1F
100
AcDbEntity
  8
0
  6
Continuous
 62
     7
370
    15
100
AcDbCircle
 10
3.135089012222605
 20
5.260544356831133
 30
0.0
 40
0.0232319285024206
100
AcDbArc
 50
137.8436843168832
 51
205.7507627116224
  0
LWPOLYLINE
  5
115
330
1F
100
AcDbEntity
  8
0
  6
Continuous
 62
     7
370
    15
100
AcDbPolyline
 90
        8
 70
   128
 43
0.0
 10
3.161521685696365
 20
5.231409609430448
 10
3.155696527134545
 20
5.227584140666965
 10
3.14834352915355
 20
5.225981406298353
 10
3.140221980703179
 20
5.226848079543297
 10
3.132053553917005
 20
5.23010715425761
 10
3.12456404580707
 20
5.235469048227632
 10
3.11841891082367
 20
5.242457320749601
 10
3.114164189482567
 20
5.250451077124341
  0
LWPOLYLINE
  5
116
330
1F
100
AcDbEntity
  8
0
  6
Continuous
 62
     7
370
    15
100
AcDbPolyline
 90
       20
 70
   128
 43
0.0
 10
3.115258780919821
 20
5.24935980411048
 10
3.119597478560312
 20
5.241450234592374
 10
3.125955965748274
 20
5.234721788618713
 10
3.133645154295772
 20
5.229903583357267
 10
3.141831792809524
 20
5.227517713412015
 10
3.149628772992474
 20
5.227822825821688
 10
3.156191143324363
 20
5.23078576270317
 10
3.160807790322792
 20
5.236085508738934
 10
3.162978384389368
 20
5.243147694742057
 10
3.162467755566119
 20
5.25120705965829
 10
3.15933123948684
 20
5.2593902733158
 10
3.15390868462913
 20
5.266810494702204
 10
3.146787743490282
 20
5.27266364038603
 10
3.138740053712867
 20
5.276315476588292
 10
3.130637728752717
 20
5.277370226865564
 10
3.123358796985733
 20
5.27571362060031
 10
3.117691992248895
 20
5.271525141231986
 10
3.114251454466641
 20
5.26525871664959
 10
3.113409979259056
 20
5.257593375944437
 10
3.115258780919821
 20
5.24935980411048
  0
LWPOLYLINE
  5
117
330
1F
100
AcDbEntity
  8
0
  6
Continuous
 62
     7
370
    15
100
AcDbPolyline
 90
       13
 70
   128
 43
0.0
 10
3.164438531628027
 20
5.234256540479798
 10
3.164544507279248
 20
5.234360847112467
 10
3.16852675315774
 20
5.240268390879549
 10
3.170206305088135
 20
5.247628870981441
 10
3.169433863223976
 20
5.255788305848469
 10
3.166278123654476
 20
5.264021599656826
 10
3.161019474344969
 20
5.271597214419254
 10
3.154125142095573
 20
5.277842055781051
 10
3.146207736215447
 20
5.282201216212072
 10
3.137970768995852
 20
5.284287378533164
 10
3.130146108024689
 20
5.283915214189158
 10
3.123429015836281
 20
5.28111773062937
 10
3.120783645663712
 20
5.278983526298095
  0
ARC
  5
118
330
1F
100
AcDbEntity
  8
0
  6
Continuous
 62
     7
370
    15
100
AcDbCircle
 10
3.092704836231806
 20
5.568970352056324
 30
0.0
 40
0.0232319619111664
100
AcDbArc
 50
137.8437397953366
 51
205.750707233177
  0
LWPOLYLINE
  5
119
330
1F
100
AcDbEntity
  8
0
  6
Continuous
 62
     7
370
    15
100
AcDbPolyline
 90
        8
 70
   128
 43
0.0
 10
3.119137469841419
 20
5.53983561040212
 10
3.113312311279599
 20
5.536010141638636
 10
3.105959313298604
 20
5.534407407270025
 10
3.097837764848233
 20
5.53527408051497
 10
3.089669338062059
 20
5.538533155229282
 10
3.082179829952124
 20
5.543895049199305
 10
3.076034694968725
 20
5.550883372007842
 10
3.071779973627621
 20
5.558877078096013
  0
LWPOLYLINE
  5
11A
330
1F
100
AcDbEntity
  8
0
  6
Continuous
 62
     7
370
    15
100
AcDbPolyline
 90
       20
 70
   128
 43
0.0
 10
3.072874565064874
 20
5.557785855368719
 10
3.077213288647998
 20
5.549876228513395
 10
3.083571749893328
 20
5.543147789590385
 10
3.091260938440826
 20
5.538329584328939
 10
3.099447576954578
 20
5.535943764670255
 10
3.107244557137528
 20
5.536248826793359
 10
3.113806927469417
 20
5.539211813961411
 10
3.118423574467846
 20
5.544511509710607
 10
3.120594194477054
 20
5.551573688663077
 10
3.120083565653805
 20
5.559633103865879
 10
3.116947023631894
 20
5.567816274287472
 10
3.111524468774184
 20
5.575236495673877
 10
3.104403527635336
 20
5.581089641357703
 10
3.096355837857921
 20
5.584741477559965
 10
3.088253538840403
 20
5.585796220786584
 10
3.080974581130788
 20
5.584139621571982
 10
3.075307776393949
 20
5.579951142203658
 10
3.071867238611695
 20
5.573684717621262
 10
3.07102576340411
 20
5.566019427202677
 10
3.072874565064874
 20
5.557785855368719
  0
LWPOLYLINE
  5
11B
330
1F
100
AcDbEntity
  8
0
  6
Continuous
 62
     7
370
    15
100
AcDbPolyline
 90
       13
 70
   128
 43
0.0
 10
3.122054315773082
 20
5.542682541451469
 10
3.122160291424302
 20
5.542786848084141
 10
3.126142537302794
 20
5.548694442137787
 10
3.127822089233188
 20
5.556054922239679
 10
3.127049673311662
 20
5.56421429976949
 10
3.12389390779953
 20
5.572447600628498
 10
3.118635258490023
 20
5.580023215390927
 10
3.111740926240627
 20
5.586268056752723
 10
3.103823520360501
 20
5.590627267470311
 10
3.095586553140906
 20
5.592713429791404
 10
3.087761892169743
 20
5.592341215160829
 10
3.081044799981335
 20
5.589543731601042
 10
3.078399429808766
 20
5.587409527269768
  0
ARC
  5
11C
330
1F
100
AcDbEntity
  8
0
  6
Continuous
 62
     7
370
    15
100
AcDbCircle
 10
3.092704820758965
 20
4.968953254640967
 30
0.0
 40
0.0232319423127721
100
AcDbArc
 50
137.8437363256916
 51
205.7506948621225
  0
LWPOLYLINE
  5
11D
330
1F
100
AcDbEntity
  8
0
  6
Continuous
 62
     7
370
    15
100
AcDbPolyline
 90
        8
 70
   128
 43
0.0
 10
3.119137469841419
 20
4.939818513447771
 10
3.113312311279599
 20
4.935993057255928
 10
3.105959313298604
 20
4.934390310315675
 10
3.097837764848233
 20
4.935256983560619
 10
3.089669338062059
 20
4.938516058274932
 10
3.082179829952124
 20
4.943877952244955
 10
3.076034694968725
 20
4.950866237338567
 10
3.071779973627621
 20
4.958859993713305
  0
LWPOLYLINE
  5
11E
330
1F
100
AcDbEntity
  8
0
  6
Continuous
 62
     7
370
    15
100
AcDbPolyline
 90
       20
 70
   128
 43
0.0
 10
3.072874565064874
 20
4.957768720699443
 10
3.077213288647998
 20
4.949859144130686
 10
3.083571749893328
 20
4.943130680064394
 10
3.091260938440826
 20
4.938312474802947
 10
3.099447576954578
 20
4.935926642572622
 10
3.107244557137528
 20
4.936231729839009
 10
3.113806927469417
 20
4.939194679292135
 10
3.118423574467846
 20
4.944494412756256
 10
3.120594194477054
 20
4.95155660428037
 10
3.120083565653805
 20
4.959615969196604
 10
3.116947023631894
 20
4.967799164761482
 10
3.111524468774184
 20
4.975219386147885
 10
3.104403527635336
 20
4.981072531831711
 10
3.096355837857921
 20
4.984724368033973
 10
3.088253538840403
 20
4.985779111260591
 10
3.080974581130788
 20
4.98412251204599
 10
3.075307776393949
 20
4.979934057820949
 10
3.071867238611695
 20
4.973667620666913
 10
3.07102576340411
 20
4.966002292533401
 10
3.072874565064874
 20
4.957768720699443
  0
LWPOLYLINE
  5
11F
330
1F
100
AcDbEntity
  8
0
  6
Continuous
 62
     7
370
    15
100
AcDbPolyline
 90
       13
 70
   128
 43
0.0
 10
3.122054315773082
 20
4.942665444497118
 10
3.122160291424302
 20
4.942769738558149
 10
3.126142537302794
 20
4.948677307468512
 10
3.127822089233188
 20
4.956037800142047
 10
3.127049673311662
 20
4.964197190243498
 10
3.12389390779953
 20
4.972430491102506
 10
3.118635258490023
 20
4.980006105864934
 10
3.111740926240627
 20
4.986250972370016
 10
3.103823520360501
 20
4.990610132801036
 10
3.095586553140906
 20
4.992696295122128
 10
3.087761892169743
 20
4.992324105634838
 10
3.081044799981335
 20
4.98952662207505
 10
3.078399429808766
 20
4.987392417743776
  0
ARC
  5
120
330
1F
100
AcDbEntity
  8
0
  6
Continuous
 62
     7
370
    15
100
AcDbCircle
 10
3.352804553584081
 20
8.645188890521831
 30
0.0
 40
0.0232318423091547
100
AcDbArc
 50
137.8436574858938
 51
205.7507261796258
  0
LWPOLYLINE
  5
121
330
1F
100
AcDbEntity
  8
0
  6
Continuous
 62
     7
370
    15
100
AcDbPolyline
 90
        8
 70
   128
 43
0.0
 10
3.379237298255984
 20
8.616054143623562
 10
3.373412126722847
 20
8.612228879531675
 10
3.366059115770537
 20
8.61062594754212
 10
3.357937593262798
 20
8.611492764596116
 10
3.349769166476623
 20
8.614751889596995
 10
3.342279645395373
 20
8.620113535659505
 10
3.336134523383289
 20
8.627101955515852
 10
3.331879802042185
 20
8.635095661604024
  0
LWPOLYLINE
  5
122
330
1F
100
AcDbEntity
  8
0
  6
Continuous
 62
     7
370
    15
100
AcDbPolyline
 90
       20
 70
   128
 43
0.0
 10
3.332974380508123
 20
8.634004593261758
 10
3.337313091119931
 20
8.626094668212354
 10
3.343671565336577
 20
8.619366477196857
 10
3.351360740912759
 20
8.614548376033871
 10
3.359547405369143
 20
8.612162499037969
 10
3.367344372580777
 20
8.612467262966994
 10
3.373906742912665
 20
8.615430400994748
 10
3.378523389911094
 20
8.620730247603646
 10
3.380693996948986
 20
8.627792329508308
 10
3.380183368125738
 20
8.635851845284243
 10
3.377046839075143
 20
8.644034861320809
 10
3.371624284217433
 20
8.651455283853481
 10
3.364503343078585
 20
8.657308127817906
 10
3.356455666272486
 20
8.660960061067974
 10
3.348353341312336
 20
8.66201476105868
 10
3.341074396574036
 20
8.660358309178453
 10
3.335407604808513
 20
8.656169775998236
 10
3.331967054054944
 20
8.649903405227734
 10
3.331125578847359
 20
8.642237913662878
 10
3.332974380508123
 20
8.634004593261758
  0
LWPOLYLINE
  5
123
330
1F
100
AcDbEntity
  8
0
  6
Continuous
 62
     7
370
    15
100
AcDbPolyline
 90
       13
 70
   128
 43
0.0
 10
3.382154144187646
 20
8.618901074672912
 10
3.382260106867551
 20
8.619005435117477
 10
3.386242359231701
 20
8.624912977121894
 10
3.387921898190779
 20
8.632273460749111
 10
3.387149475783594
 20
8.640433091474422
 10
3.383993736214094
 20
8.64866638528278
 10
3.378735073933271
 20
8.656241802424263
 10
3.371840741683875
 20
8.662486844932329
 10
3.363923348775066
 20
8.666846001838024
 10
3.355686368584155
 20
8.668932167684442
 10
3.347861707612992
 20
8.668559701621033
 10
3.341144602453268
 20
8.665762523305975
 10
3.33849925822333
 20
8.663628010204645
  0
ARC
  5
124
330
1F
100
AcDbEntity
  8
0
  6
Continuous
 62
     7
370
    15
100
AcDbCircle
 10
3.312250224712721
 20
8.361848281940995
 30
0.0
 40
0.0232310031701978
100
AcDbArc
 50
137.8422639454891
 51
205.7521197200473
  0
LWPOLYLINE
  5
125
330
1F
100
AcDbEntity
  8
0
  6
Continuous
 62
     7
370
    15
100
AcDbPolyline
 90
        8
 70
   128
 43
0.0
 10
3.338683970674491
 20
8.332713390704556
 10
3.332858799141355
 20
8.328888126612667
 10
3.325505788189044
 20
8.327285194623112
 10
3.317384265681305
 20
8.328152011677108
 10
3.309215838895131
 20
8.331411136677987
 10
3.30172631781388
 20
8.336772782740499
 10
3.295581195801796
 20
8.343761202596844
 10
3.291326474460693
 20
8.351754908685016
  0
LWPOLYLINE
  5
126
330
1F
100
AcDbEntity
  8
0
  6
Continuous
 62
     7
370
    15
100
AcDbPolyline
 90
       20
 70
   128
 43
0.0
 10
3.292421052926631
 20
8.350663840342749
 10
3.296759763538438
 20
8.342754317585885
 10
3.303118237755084
 20
8.336025724277849
 10
3.310807413331266
 20
8.331207623114863
 10
3.31899407778765
 20
8.328821746118959
 10
3.326791044999283
 20
8.329126912340525
 10
3.333353415331173
 20
8.332089648075738
 10
3.337970062329602
 20
8.337389494684636
 10
3.340140669367493
 20
8.3444515765893
 10
3.339630040544244
 20
8.352511092365235
 10
3.33649351149365
 20
8.360694108401801
 10
3.33107095663594
 20
8.368114530934475
 10
3.323950015497092
 20
8.373967374898896
 10
3.315902338690992
 20
8.377619308148966
 10
3.307800013730842
 20
8.37867400813967
 10
3.300521068992543
 20
8.377017556259444
 10
3.29485427722702
 20
8.372829023079226
 10
3.291413726473451
 20
8.366562652308726
 10
3.290572251265866
 20
8.35889716074387
 10
3.292421052926631
 20
8.350663840342749
  0
LWPOLYLINE
  5
127
330
1F
100
AcDbEntity
  8
0
  6
Continuous
 62
     7
370
    15
100
AcDbPolyline
 90
       13
 70
   128
 43
0.0
 10
3.341600816606153
 20
8.335560321753904
 10
3.341706779286058
 20
8.335664682198469
 10
3.345689038135866
 20
8.341572222440222
 10
3.347368564123629
 20
8.348932709592766
 10
3.346596148202102
 20
8.357092338555412
 10
3.343440408632602
 20
8.36532563236377
 10
3.338181746351779
 20
8.372901049505255
 10
3.331287414102382
 20
8.379146092013321
 10
3.323370021193573
 20
8.383505248919016
 10
3.315133041002662
 20
8.385591414765434
 10
3.307308380031499
 20
8.385218948702023
 10
3.300591274871775
 20
8.382421770386965
 10
3.297945930641837
 20
8.380287257285635
  0
ARC
  5
128
330
1F
100
AcDbEntity
  8
0
  6
Continuous
 62
     7
370
    15
100
AcDbCircle
 10
3.092704865161362
 20
7.969038825510788
 30
0.0
 40
0.0232319596315305
100
AcDbArc
 50
137.8438523108661
 51
205.7505313546676
  0
LWPOLYLINE
  5
129
330
1F
100
AcDbEntity
  8
0
  6
Continuous
 62
     7
370
    15
100
AcDbPolyline
 90
        8
 70
   128
 43
0.0
 10
3.119137469841419
 20
7.939904098792656
 10
3.113312311279599
 20
7.936078630029173
 10
3.105959313298604
 20
7.93447589566056
 10
3.097837764848233
 20
7.935342518618937
 10
3.089669338062059
 20
7.938601643619817
 10
3.082179829952124
 20
7.943963487303272
 10
3.076034694968725
 20
7.950951709538674
 10
3.071779973627621
 20
7.958945616773116
  0
LWPOLYLINE
  5
12A
330
1F
100
AcDbEntity
  8
0
  6
Continuous
 62
     7
370
    15
100
AcDbPolyline
 90
       20
 70
   128
 43
0.0
 10
3.072874565064874
 20
7.957854343759255
 10
3.077213288647998
 20
7.949944616330795
 10
3.083571749893328
 20
7.943216227694353
 10
3.091260938440826
 20
7.938398123006042
 10
3.099447576954578
 20
7.936012253060789
 10
3.107244557137528
 20
7.936317214610761
 10
3.113806927469417
 20
7.939280151492243
 10
3.118423574467846
 20
7.944579998101141
 10
3.120594194477054
 20
7.951642076480478
 10
3.120083565653805
 20
7.959701592256413
 10
3.116947023631894
 20
7.967884611818306
 10
3.111524468774184
 20
7.97530483320471
 10
3.104403527635336
 20
7.98115807946167
 10
3.096355837857921
 20
7.984810016237067
 10
3.088253538840403
 20
7.985864709177119
 10
3.080974581130788
 20
7.98420805967595
 10
3.075307776393949
 20
7.980019530021057
 10
3.071867238611695
 20
7.97375315572523
 10
3.07102576340411
 20
7.966087865306644
 10
3.072874565064874
 20
7.957854343759255
  0
LWPOLYLINE
  5
12B
330
1F
100
AcDbEntity
  8
0
  6
Continuous
 62
     7
370
    15
100
AcDbPolyline
 90
       13
 70
   128
 43
0.0
 10
3.122054315773082
 20
7.942751029842003
 10
3.122160291424302
 20
7.942855386761243
 10
3.126142537302794
 20
7.948762930528322
 10
3.127822089233188
 20
7.956123410630215
 10
3.127049673311662
 20
7.964282838446592
 10
3.12389390779953
 20
7.972515938159331
 10
3.118635258490023
 20
7.980091754068029
 10
3.111740926240627
 20
7.986336595429825
 10
3.103823520360501
 20
7.990695755860846
 10
3.095586553140906
 20
7.992781918181938
 10
3.087761892169743
 20
7.992409653264797
 10
3.081044799981335
 20
7.989612069131875
 10
3.078399429808766
 20
7.987477965373735
  0
ARC
  5
12C
330
1F
100
AcDbEntity
  8
0
  6
Continuous
 62
     7
370
    15
100
AcDbCircle
 10
3.082761906011118
 20
8.579111502023954
 30
0.0
 40
0.0232318254453496
100
AcDbArc
 50
137.843629481754
 51
205.7507541837775
  0
LWPOLYLINE
  5
12D
330
1F
100
AcDbEntity
  8
0
  6
Continuous
 62
     7
370
    15
100
AcDbPolyline
 90
        8
 70
   128
 43
0.0
 10
3.109194670805337
 20
8.549976752225006
 10
3.103369512243517
 20
8.546151082315255
 10
3.096016488319891
 20
8.544548556143562
 10
3.087894965812151
 20
8.545414970905019
 10
3.079726539025977
 20
8.548674095905898
 10
3.072237030916042
 20
8.554036140735624
 10
3.066091895932642
 20
8.561024161824756
 10
3.061837174591539
 20
8.569018270205468
  0
LWPOLYLINE
  5
12E
330
1F
100
AcDbEntity
  8
0
  6
Continuous
 62
     7
370
    15
100
AcDbPolyline
 90
       20
 70
   128
 43
0.0
 10
3.062931740086161
 20
8.567926803095987
 10
3.067270463669284
 20
8.560017276813798
 10
3.073628924914615
 20
8.553288687031086
 10
3.081318113462113
 20
8.548470582342774
 10
3.089504777918496
 20
8.546084705346871
 10
3.097301758101446
 20
8.54638986804311
 10
3.103864128433335
 20
8.549352603778325
 10
3.108480749489132
 20
8.554652457437873
 10
3.11065136949834
 20
8.561714535817211
 10
3.110140740675091
 20
8.569774051593146
 10
3.10700419865318
 20
8.577957071155038
 10
3.101581669738103
 20
8.58537748663706
 10
3.094460702656622
 20
8.591230739944673
 10
3.086413038821839
 20
8.594882669669418
 10
3.078310713861689
 20
8.595937369660122
 10
3.071031756152074
 20
8.594280519012681
 10
3.065364977357867
 20
8.590091982307139
 10
3.061924413632981
 20
8.583825615061963
 10
3.061082964368028
 20
8.576160518738996
 10
3.062931740086161
 20
8.567926803095987
  0
LWPOLYLINE
  5
12F
330
1F
100
AcDbEntity
  8
0
  6
Continuous
 62
     7
370
    15
100
AcDbPolyline
 90
       13
 70
   128
 43
0.0
 10
3.112111516736999
 20
8.552823683274354
 10
3.11221749238822
 20
8.552928040193593
 10
3.116199738266712
 20
8.558835583960673
 10
3.117879264254475
 20
8.566196071113216
 10
3.117106848332948
 20
8.574355297783325
 10
3.113951108763448
 20
8.582588591591681
 10
3.108692433511309
 20
8.590164414551031
 10
3.101798127204545
 20
8.596409047715907
 10
3.093880721324419
 20
8.600768208146927
 10
3.085643754104824
 20
8.602854370468019
 10
3.077819067191029
 20
8.602482313747799
 10
3.071101975002621
 20
8.599684729614878
 10
3.068456630772684
 20
8.597550618806087
  0
ARC
  5
130
330
1F
100
AcDbEntity
  8
0
  6
Continuous
 62
     7
370
    15
100
AcDbCircle
 10
3.135088514291964
 20
7.660612805660559
 30
0.0
 40
0.0232314846809007
100
AcDbArc
 50
137.8430635952816
 51
205.7513200702435
  0
LWPOLYLINE
  5
131
330
1F
100
AcDbEntity
  8
0
  6
Continuous
 62
     7
370
    15
100
AcDbPolyline
 90
        8
 70
   128
 43
0.0
 10
3.161521685696365
 20
7.631477997247849
 10
3.155696527134545
 20
7.627652528484365
 10
3.14834352915355
 20
7.626049794115753
 10
3.140221980703179
 20
7.626916417074131
 10
3.132053553917005
 20
7.630175542075011
 10
3.12456404580707
 20
7.635537385758465
 10
3.11841891082367
 20
7.642525809140138
 10
3.114164189482567
 20
7.650519515228309
  0
LWPOLYLINE
  5
132
330
1F
100
AcDbEntity
  8
0
  6
Continuous
 62
     7
370
    15
100
AcDbPolyline
 90
       20
 70
   128
 43
0.0
 10
3.115258780919821
 20
7.649428242214447
 10
3.119597478560312
 20
7.641518722982909
 10
3.125955965748274
 20
7.634790126149546
 10
3.133645154295772
 20
7.629972021461234
 10
3.141831792809524
 20
7.627586151515983
 10
3.149628772992474
 20
7.627891314212223
 10
3.156191143324363
 20
7.630854251093706
 10
3.160807790322792
 20
7.636153896556334
 10
3.162978384389368
 20
7.643216183132593
 10
3.162467755566119
 20
7.651275497762258
 10
3.15933123948684
 20
7.659458711419768
 10
3.15390868462913
 20
7.666878932806171
 10
3.146787743490282
 20
7.672731977916864
 10
3.138740053712867
 20
7.67638391469226
 10
3.130637728752717
 20
7.677438614682964
 10
3.123358796985733
 20
7.675781958131143
 10
3.117691992248895
 20
7.67159362962252
 10
3.114251454466641
 20
7.665327255326692
 10
3.113409979259056
 20
7.657661763761837
 10
3.115258780919821
 20
7.649428242214447
  0
LWPOLYLINE
  5
133
330
1F
100
AcDbEntity
  8
0
  6
Continuous
 62
     7
370
    15
100
AcDbPolyline
 90
       13
 70
   128
 43
0.0
 10
3.164438531628027
 20
7.634324928297196
 10
3.164544507279248
 20
7.634429285216435
 10
3.16852675315774
 20
7.640336828983516
 10
3.170206305088135
 20
7.647697309085408
 10
3.169433863223976
 20
7.655856743952436
 10
3.166278123654476
 20
7.664090037760794
 10
3.161019474344969
 20
7.671665652523222
 10
3.154125142095573
 20
7.677910493885018
 10
3.146207736215447
 20
7.68226965431604
 10
3.137970768995852
 20
7.684355816637132
 10
3.130146108024689
 20
7.68398355171999
 10
3.123429015836281
 20
7.681186168733337
 10
3.120783645663712
 20
7.679051863828928
  0
ARC
  5
134
330
1F
100
AcDbEntity
  8
0
  6
Continuous
 62
     7
370
    15
100
AcDbCircle
 10
3.092704818726764
 20
4.36893614540792
 30
0.0
 40
0.0232319406096548
100
AcDbArc
 50
137.8437334975033
 51
205.7506976903098
  0
LWPOLYLINE
  5
135
330
1F
100
AcDbEntity
  8
0
  6
Continuous
 62
     7
370
    15
100
AcDbPolyline
 90
        8
 70
   128
 43
0.0
 10
3.119137469841419
 20
4.33980141649342
 10
3.113312311279599
 20
4.335975922586653
 10
3.105959313298604
 20
4.334373188218041
 10
3.097837764848233
 20
4.335239861462985
 10
3.089669338062059
 20
4.338498936177298
 10
3.082179829952124
 20
4.34386083014732
 10
3.076034694968725
 20
4.350849127812574
 10
3.071779973627621
 20
4.358842884187313
  0
LWPOLYLINE
  5
136
330
1F
100
AcDbEntity
  8
0
  6
Continuous
 62
     7
370
    15
100
AcDbPolyline
 90
       20
 70
   128
 43
0.0
 10
3.072874565064874
 20
4.357751611173451
 10
3.077213288647998
 20
4.349842034604694
 10
3.083571749893328
 20
4.343113570538402
 10
3.091260938440826
 20
4.338295365276955
 10
3.099447576954578
 20
4.335909545618272
 10
3.107244557137528
 20
4.336214607741376
 10
3.113806927469417
 20
4.339177569766142
 10
3.118423574467846
 20
4.344477290658622
 10
3.120594194477054
 20
4.351539494754378
 10
3.120083565653805
 20
4.359598859670612
 10
3.116947023631894
 20
4.36778205523549
 10
3.111524468774184
 20
4.375202276621893
 10
3.104403527635336
 20
4.38105542230572
 10
3.096355837857921
 20
4.38470725850798
 10
3.088253538840403
 20
4.3857620017346
 10
3.080974581130788
 20
4.384105402519998
 10
3.075307776393949
 20
4.379916948294957
 10
3.071867238611695
 20
4.373650498569278
 10
3.07102576340411
 20
4.365985183007409
 10
3.072874565064874
 20
4.357751611173451
  0
LWPOLYLINE
  5
137
330
1F
100
AcDbEntity
  8
0
  6
Continuous
 62
     7
370
    15
100
AcDbPolyline
 90
       13
 70
   128
 43
0.0
 10
3.122054315773082
 20
4.342648347542769
 10
3.122160291424302
 20
4.342752629032156
 10
3.126142537302794
 20
4.34866019794252
 10
3.127822089233188
 20
4.356020678044413
 10
3.127049673311662
 20
4.364180080717505
 10
3.12389390779953
 20
4.372413381576515
 10
3.118635258490023
 20
4.379988996338942
 10
3.111740926240627
 20
4.386233862844024
 10
3.103823520360501
 20
4.390593023275044
 10
3.095586553140906
 20
4.392679185596136
 10
3.087761892169743
 20
4.392306996108846
 10
3.081044799981335
 20
4.389509512549058
 10
3.078399429808766
 20
4.387375308217785
  0
ARC
  5
138
330
1F
100
AcDbEntity
  8
0
  6
Continuous
 62
     7
370
    15
100
AcDbCircle
 10
3.136306040378748
 20
8.261769346369554
 30
0.0
 40
0.0232322969268849
100
AcDbArc
 50
137.8439472135269
 51
205.7506899009982
  0
LWPOLYLINE
  5
139
330
1F
100
AcDbEntity
  8
0
  6
Continuous
 62
     7
370
    15
100
AcDbPolyline
 90
        8
 70
   128
 43
0.0
 10
3.162738369188797
 20
8.232634415209007
 10
3.156913184684345
 20
8.228809154642444
 10
3.149560186703351
 20
8.227206219127564
 10
3.141438664195612
 20
8.228073036181559
 10
3.133270237409438
 20
8.231332161182438
 10
3.125780703356871
 20
8.236694213062815
 10
3.119635594316103
 20
8.243682227101295
 10
3.115380872974999
 20
8.251675933189467
  0
LWPOLYLINE
  5
13A
330
1F
100
AcDbEntity
  8
0
  6
Continuous
 62
     7
370
    15
100
AcDbPolyline
 90
       20
 70
   128
 43
0.0
 10
3.116475438469621
 20
8.250584868372527
 10
3.120814162052745
 20
8.242675342090336
 10
3.127172623298075
 20
8.235946752307626
 10
3.134861811845573
 20
8.231128647619316
 10
3.143048476301957
 20
8.22874277062341
 10
3.150845430542275
 20
8.229047940370302
 10
3.157407826816795
 20
8.232010669054863
 10
3.162024447872592
 20
8.237310522714412
 10
3.1641950678818
 20
8.244372601093751
 10
3.163684439058552
 20
8.252432116869687
 10
3.160547897036641
 20
8.260615136431578
 10
3.155125342178931
 20
8.268035558964252
 10
3.148004401040083
 20
8.273888805221213
 10
3.139956737205299
 20
8.277540332653417
 10
3.131854412245149
 20
8.278595032644123
 10
3.124575454535534
 20
8.276938584289222
 10
3.118908675741327
 20
8.272750047583679
 10
3.115468112016442
 20
8.266483680338504
 10
3.114626636808857
 20
8.258818188773647
 10
3.116475438469621
 20
8.250584868372527
  0
LWPOLYLINE
  5
13B
330
1F
100
AcDbEntity
  8
0
  6
Continuous
 62
     7
370
    15
100
AcDbPolyline
 90
       13
 70
   128
 43
0.0
 10
3.165655215120461
 20
8.235481346258355
 10
3.165761164829049
 20
8.235585710228246
 10
3.169743436650173
 20
8.241493246944674
 10
3.171422962637936
 20
8.248853734097219
 10
3.170650546716408
 20
8.257013363059865
 10
3.167494807146909
 20
8.265246656868223
 10
3.162236131894769
 20
8.272822077535032
 10
3.155341799645373
 20
8.279067120043098
 10
3.14742441970788
 20
8.283426273423467
 10
3.139187426545653
 20
8.28551244279521
 10
3.13136276557449
 20
8.285140379024339
 10
3.124645673386082
 20
8.282342794891418
 10
3.122000329156144
 20
8.280208684082627
  0
ARC
  5
13C
330
1F
100
AcDbEntity
  8
0
  6
Continuous
 62
     7
370
    15
100
AcDbCircle
 10
3.092704865161363
 20
7.369021715984795
 30
0.0
 40
0.023231959631531
100
AcDbArc
 50
137.8438523108659
 51
205.7505313546627
  0
LWPOLYLINE
  5
13D
330
1F
100
AcDbEntity
  8
0
  6
Continuous
 62
     7
370
    15
100
AcDbPolyline
 90
        8
 70
   128
 43
0.0
 10
3.119137469841419
 20
7.339886989266664
 10
3.113312311279599
 20
7.33606152050318
 10
3.105959313298604
 20
7.334458786134568
 10
3.097837764848233
 20
7.335325409092946
 10
3.089669338062059
 20
7.338584534093825
 10
3.082179829952124
 20
7.34394637777728
 10
3.076034694968725
 20
7.350934600012682
 10
3.071779973627621
 20
7.358928507247124
  0
LWPOLYLINE
  5
13E
330
1F
100
AcDbEntity
  8
0
  6
Continuous
 62
     7
370
    15
100
AcDbPolyline
 90
       20
 70
   128
 43
0.0
 10
3.072874565064874
 20
7.357837234233262
 10
3.077213288647998
 20
7.349927506804803
 10
3.083571749893328
 20
7.343199118168361
 10
3.091260938440826
 20
7.33838101348005
 10
3.099447576954578
 20
7.335995143534798
 10
3.107244557137528
 20
7.336300105084768
 10
3.113806927469417
 20
7.339263041966251
 10
3.118423574467846
 20
7.344562888575149
 10
3.120594194477054
 20
7.351624966954486
 10
3.120083565653805
 20
7.359684482730421
 10
3.116947023631894
 20
7.367867502292314
 10
3.111524468774184
 20
7.375287723678717
 10
3.104403527635336
 20
7.381140969935679
 10
3.096355837857921
 20
7.384792906711075
 10
3.088253538840403
 20
7.385847599651127
 10
3.080974581130788
 20
7.384190950149958
 10
3.075307776393949
 20
7.380002420495066
 10
3.071867238611695
 20
7.37373604619924
 10
3.07102576340411
 20
7.366070755780652
 10
3.072874565064874
 20
7.357837234233262
  0
LWPOLYLINE
  5
13F
330
1F
100
AcDbEntity
  8
0
  6
Continuous
 62
     7
370
    15
100
AcDbPolyline
 90
       13
 70
   128
 43
0.0
 10
3.122054315773082
 20
7.342733920316012
 10
3.122160291424302
 20
7.342838076088981
 10
3.126142537302794
 20
7.34874582100233
 10
3.127822089233188
 20
7.356106301104223
 10
3.127049673311662
 20
7.364265527774331
 10
3.12389390779953
 20
7.37249882863334
 10
3.118635258490023
 20
7.380074644542037
 10
3.111740926240627
 20
7.386319485903833
 10
3.103823520360501
 20
7.390678646334854
 10
3.095586553140906
 20
7.392764808655947
 10
3.087761892169743
 20
7.392392543738805
 10
3.081044799981335
 20
7.389594959605883
 10
3.078399429808766
 20
7.387460855847745
  0
ARC
  5
140
330
1F
100
AcDbEntity
  8
0
  6
Continuous
 62
     7
370
    15
100
AcDbCircle
 10
3.354475121382944
 20
3.847194402844555
 30
0.0
 40
0.0232318333038126
100
AcDbArc
 50
137.8435573601908
 51
205.7507990744713
  0
LWPOLYLINE
  5
141
330
1F
100
AcDbEntity
  8
0
  6
Continuous
 62
     7
370
    15
100
AcDbPolyline
 90
        8
 70
   128
 43
0.0
 10
3.380907887007065
 20
3.818059633237114
 10
3.375082728445244
 20
3.814234164473631
 10
3.367729717492934
 20
3.812631433630345
 10
3.359608182013879
 20
3.813498153636531
 10
3.351439768199021
 20
3.81675717453895
 10
3.34395024711777
 20
3.822119122320867
 10
3.33780511213437
 20
3.829107344556268
 10
3.333550390793266
 20
3.837101151217575
  0
LWPOLYLINE
  5
142
330
1F
100
AcDbEntity
  8
0
  6
Continuous
 62
     7
370
    15
100
AcDbPolyline
 90
       20
 70
   128
 43
0.0
 10
3.33464498223052
 20
3.836009878203713
 10
3.338983692842328
 20
3.828100254873715
 10
3.345342167058974
 20
3.821371762138813
 10
3.353031342635155
 20
3.816553560402693
 10
3.361217994120223
 20
3.814167787505249
 10
3.369014974303173
 20
3.814472849628354
 10
3.375577344635062
 20
3.817435786509837
 10
3.380193978662175
 20
3.822735536070926
 10
3.382364598671383
 20
3.829797715023397
 10
3.381853969848135
 20
3.837857130226199
 10
3.378717427826224
 20
3.846040300647793
 10
3.37329488593983
 20
3.85346051850887
 10
3.366173944800982
 20
3.859313664192697
 10
3.358126255023566
 20
3.862965500394959
 10
3.350023943034732
 20
3.864020247146904
 10
3.342744985325117
 20
3.862363647932301
 10
3.337078193559594
 20
3.858175165038652
 10
3.333637655777341
 20
3.851908790742824
 10
3.332796180569756
 20
3.844243399751103
 10
3.33464498223052
 20
3.836009878203713
  0
LWPOLYLINE
  5
143
330
1F
100
AcDbEntity
  8
0
  6
Continuous
 62
     7
370
    15
100
AcDbPolyline
 90
       13
 70
   128
 43
0.0
 10
3.383824732938727
 20
3.820906564286463
 10
3.383930708589947
 20
3.821010820632567
 10
3.387912960954097
 20
3.82691846321012
 10
3.389592493427518
 20
3.8342789486
 10
3.388820071020333
 20
3.842438277605905
 10
3.385664331450833
 20
3.85067162170083
 10
3.380405675655669
 20
3.85824723822592
 10
3.373511343406272
 20
3.864492079587718
 10
3.365593950497463
 20
3.86885128677998
 10
3.357356970306551
 20
3.870937452626398
 10
3.349532296364073
 20
3.870565241521149
 10
3.342815204175665
 20
3.867767757961362
 10
3.340169859945727
 20
3.865633546579437
  0
ARC
  5
144
330
1F
100
AcDbEntity
  8
0
  6
Continuous
 62
     7
370
    15
100
AcDbCircle
 10
3.354475138887958
 20
4.447211499966957
 30
0.0
 40
0.0232318546053019
100
AcDbArc
 50
137.8435636581507
 51
205.7508086172989
  0
LWPOLYLINE
  5
145
330
1F
100
AcDbEntity
  8
0
  6
Continuous
 62
     7
370
    15
100
AcDbPolyline
 90
        8
 70
   128
 43
0.0
 10
3.380907887007065
 20
4.418076767906391
 10
3.375082728445244
 20
4.414251299142907
 10
3.367729717492934
 20
4.412648543156337
 10
3.359608182013879
 20
4.413515212875956
 10
3.351439768199021
 20
4.416774284064943
 10
3.34395024711777
 20
4.422136181560291
 10
3.33780511213437
 20
4.429124479225544
 10
3.333550390793266
 20
4.437118235600284
  0
LWPOLYLINE
  5
146
330
1F
100
AcDbEntity
  8
0
  6
Continuous
 62
     7
370
    15
100
AcDbPolyline
 90
       20
 70
   128
 43
0.0
 10
3.33464498223052
 20
4.436026962586422
 10
3.338983692842328
 20
4.42811738954299
 10
3.345342167058974
 20
4.421388921951371
 10
3.353031342635155
 20
4.416570720215251
 10
3.361217994120223
 20
4.414184871887958
 10
3.369014974303173
 20
4.414489984297629
 10
3.375577344635062
 20
4.417452921179113
 10
3.380193978662175
 20
4.422752645596918
 10
3.382364598671383
 20
4.429814849692673
 10
3.381853969848135
 20
4.437874214608907
 10
3.378717427826224
 20
4.446057410173785
 10
3.37329488593983
 20
4.453477628034862
 10
3.366173944800982
 20
4.459330773718689
 10
3.358126255023566
 20
4.462982609920951
 10
3.350023943034732
 20
4.464037356672896
 10
3.342744985325117
 20
4.462380757458293
 10
3.337078193559594
 20
4.458192299707927
 10
3.333637655777341
 20
4.451925849982249
 10
3.332796180569756
 20
4.444260534420379
 10
3.33464498223052
 20
4.436026962586422
  0
LWPOLYLINE
  5
147
330
1F
100
AcDbEntity
  8
0
  6
Continuous
 62
     7
370
    15
100
AcDbPolyline
 90
       13
 70
   128
 43
0.0
 10
3.383824732938727
 20
4.420923698955738
 10
3.383930708589947
 20
4.421027980445127
 10
3.387912960954097
 20
4.426935547592827
 10
3.389592493427518
 20
4.434296032982708
 10
3.388820071020333
 20
4.442455437418464
 10
3.385664331450833
 20
4.450688731226822
 10
3.380405675655669
 20
4.458264347751913
 10
3.373511343406272
 20
4.46450918911371
 10
3.365593950497463
 20
4.468868371162688
 10
3.357356970306551
 20
4.470954537009106
 10
3.349532296364073
 20
4.470582351047141
 10
3.342815204175665
 20
4.467784867487353
 10
3.340169859945727
 20
4.465650656105429
  0
ARC
  5
148
330
1F
100
AcDbEntity
  8
0
  6
Continuous
 62
     7
370
    15
100
AcDbCircle
 10
3.354475138887961
 20
5.047228609492949
 30
0.0
 40
0.0232318546053041
100
AcDbArc
 50
137.8435636581527
 51
205.7508086172965
  0
LWPOLYLINE
  5
149
330
1F
100
AcDbEntity
  8
0
  6
Continuous
 62
     7
370
    15
100
AcDbPolyline
 90
        8
 70
   128
 43
0.0
 10
3.380907887007065
 20
5.018093877432383
 10
3.375082728445244
 20
5.014268408668899
 10
3.367729717492934
 20
5.012665652682329
 10
3.359608182013879
 20
5.013532322401948
 10
3.351439768199021
 20
5.016791393590934
 10
3.34395024711777
 20
5.022153291086283
 10
3.33780511213437
 20
5.029141588751536
 10
3.333550390793266
 20
5.037135345126275
  0
LWPOLYLINE
  5
14A
330
1F
100
AcDbEntity
  8
0
  6
Continuous
 62
     7
370
    15
100
AcDbPolyline
 90
       20
 70
   128
 43
0.0
 10
3.33464498223052
 20
5.036044072112413
 10
3.338983692842328
 20
5.028134499068982
 10
3.345342167058974
 20
5.021406031477363
 10
3.353031342635155
 20
5.016587829741244
 10
3.361217994120223
 20
5.014202006557233
 10
3.369014974303173
 20
5.014507093823621
 10
3.375577344635062
 20
5.017470030705105
 10
3.380193978662175
 20
5.02276975512291
 10
3.382364598671383
 20
5.029831959218665
 10
3.381853969848135
 20
5.037891324134899
 10
3.378717427826224
 20
5.046074519699777
 10
3.37329488593983
 20
5.053494737560853
 10
3.366173944800982
 20
5.059347883244681
 10
3.358126255023566
 20
5.062999719446943
 10
3.350023943034732
 20
5.064054466198887
 10
3.342744985325117
 20
5.062397866984285
 10
3.337078193559594
 20
5.058209409233919
 10
3.333637655777341
 20
5.051942959508241
 10
3.332796180569756
 20
5.044277643946371
 10
3.33464498223052
 20
5.036044072112413
  0
LWPOLYLINE
  5
14B
330
1F
100
AcDbEntity
  8
0
  6
Continuous
 62
     7
370
    15
100
AcDbPolyline
 90
       13
 70
   128
 43
0.0
 10
3.383824732938727
 20
5.02094080848173
 10
3.383930708589947
 20
5.021045089971119
 10
3.387912960954097
 20
5.026952657118819
 10
3.389592493427518
 20
5.034313142508699
 10
3.388820071020333
 20
5.042472546944456
 10
3.385664331450833
 20
5.050705840752814
 10
3.380405675655669
 20
5.058281457277904
 10
3.373511343406272
 20
5.064526323782985
 10
3.365593950497463
 20
5.06888548068868
 10
3.357356970306551
 20
5.070971646535098
 10
3.349532296364073
 20
5.070599460573133
 10
3.342815204175665
 20
5.067801977013346
 10
3.340169859945727
 20
5.065667765631421
  0
ARC
  5
14C
330
1F
100
AcDbEntity
  8
0
  6
Continuous
 62
     7
370
    15
100
AcDbCircle
 10
3.354474934999485
 20
5.647245727764039
 30
0.0
 40
0.0232316638403577
100
AcDbArc
 50
137.8433340965015
 51
205.750990656495
  0
LWPOLYLINE
  5
14D
330
1F
100
AcDbEntity
  8
0
  6
Continuous
 62
     7
370
    15
100
AcDbPolyline
 90
        8
 70
   128
 43
0.0
 10
3.380907887007065
 20
5.61811096181509
 10
3.375082728445244
 20
5.614285493051607
 10
3.367729717492934
 20
5.612682762208321
 10
3.359608182013879
 20
5.613549482214507
 10
3.351439768199021
 20
5.616808503116926
 10
3.34395024711777
 20
5.622170450898841
 10
3.33780511213437
 20
5.629158673134245
 10
3.333550390793266
 20
5.637152479795552
  0
LWPOLYLINE
  5
14E
330
1F
100
AcDbEntity
  8
0
  6
Continuous
 62
     7
370
    15
100
AcDbPolyline
 90
       20
 70
   128
 43
0.0
 10
3.33464498223052
 20
5.63606120678169
 10
3.338983692842328
 20
5.628151583451691
 10
3.345342167058974
 20
5.621423191289923
 10
3.353031342635155
 20
5.616604888980668
 10
3.361217994120223
 20
5.614219116083225
 10
3.369014974303173
 20
5.614524178206329
 10
3.375577344635062
 20
5.617487115087812
 10
3.380193978662175
 20
5.622786864648902
 10
3.382364598671383
 20
5.629849043601374
 10
3.381853969848135
 20
5.637908458804174
 10
3.378717427826224
 20
5.6460915789392
 10
3.37329488593983
 20
5.653511796800279
 10
3.366173944800982
 20
5.65936504305724
 10
3.358126255023566
 20
5.663016879259501
 10
3.350023943034732
 20
5.664071575724879
 10
3.342744985325117
 20
5.662414926223711
 10
3.337078193559594
 20
5.658226493616628
 10
3.333637655777341
 20
5.651960119320801
 10
3.332796180569756
 20
5.644294728329079
 10
3.33464498223052
 20
5.63606120678169
  0
LWPOLYLINE
  5
14F
330
1F
100
AcDbEntity
  8
0
  6
Continuous
 62
     7
370
    15
100
AcDbPolyline
 90
       13
 70
   128
 43
0.0
 10
3.383824732938727
 20
5.620957892864439
 10
3.383930708589947
 20
5.621062149210543
 10
3.387912960954097
 20
5.626969791788094
 10
3.389592493427518
 20
5.634330277177975
 10
3.388820071020333
 20
5.642489606183881
 10
3.385664331450833
 20
5.650722899992238
 10
3.380405675655669
 20
5.658298617090464
 10
3.373511343406272
 20
5.664543458452261
 10
3.365593950497463
 20
5.668902615357955
 10
3.357356970306551
 20
5.670988781204374
 10
3.349532296364073
 20
5.670616620385692
 10
3.342815204175665
 20
5.667819036252771
 10
3.340169859945727
 20
5.665684824870845
  0
ARC
  5
150
330
1F
100
AcDbEntity
  8
0
  6
Continuous
 62
     7
370
    15
100
AcDbCircle
 10
3.354474934999486
 20
6.247262837290031
 30
0.0
 40
0.0232316638403593
100
AcDbArc
 50
137.843334096502
 51
205.7509906564956
  0
LWPOLYLINE
  5
151
330
1F
100
AcDbEntity
  8
0
  6
Continuous
 62
     7
370
    15
100
AcDbPolyline
 90
        8
 70
   128
 43
0.0
 10
3.380907887007065
 20
6.218128071341082
 10
3.375082728445244
 20
6.214302602577599
 10
3.367729717492934
 20
6.212699871734313
 10
3.359608182013879
 20
6.213566591740499
 10
3.351439768199021
 20
6.216825612642918
 10
3.34395024711777
 20
6.222187560424833
 10
3.33780511213437
 20
6.229175782660235
 10
3.333550390793266
 20
6.237169589321542
  0
LWPOLYLINE
  5
152
330
1F
100
AcDbEntity
  8
0
  6
Continuous
 62
     7
370
    15
100
AcDbPolyline
 90
       20
 70
   128
 43
0.0
 10
3.33464498223052
 20
6.236078316307682
 10
3.338983692842328
 20
6.228168692977681
 10
3.345342167058974
 20
6.221440300815915
 10
3.353031342635155
 20
6.21662199850666
 10
3.361217994120223
 20
6.214236225609218
 10
3.369014974303173
 20
6.214541287732322
 10
3.375577344635062
 20
6.217504224613804
 10
3.380193978662175
 20
6.222803974174893
 10
3.382364598671383
 20
6.229866153127366
 10
3.381853969848135
 20
6.237925568330166
 10
3.378717427826224
 20
6.246108688465192
 10
3.37329488593983
 20
6.253528906326271
 10
3.366173944800982
 20
6.259382152583232
 10
3.358126255023566
 20
6.263033988785493
 10
3.350023943034732
 20
6.264088685250871
 10
3.342744985325117
 20
6.262432035749702
 10
3.337078193559594
 20
6.25824360314262
 10
3.333637655777341
 20
6.251977228846792
 10
3.332796180569756
 20
6.244311837855071
 10
3.33464498223052
 20
6.236078316307682
  0
LWPOLYLINE
  5
153
330
1F
100
AcDbEntity
  8
0
  6
Continuous
 62
     7
370
    15
100
AcDbPolyline
 90
       13
 70
   128
 43
0.0
 10
3.383824732938727
 20
6.22097500239043
 10
3.383930708589947
 20
6.221079258736534
 10
3.387912960954097
 20
6.226986901314086
 10
3.389592493427518
 20
6.234347386703968
 10
3.388820071020333
 20
6.242506715709873
 10
3.385664331450833
 20
6.25074000951823
 10
3.380405675655669
 20
6.258315726616456
 10
3.373511343406272
 20
6.264560567978253
 10
3.365593950497463
 20
6.268919724883947
 10
3.357356970306551
 20
6.271005890730366
 10
3.349532296364073
 20
6.270633729911684
 10
3.342815204175665
 20
6.267836145778763
 10
3.340169859945727
 20
6.265701934396837
  0
ARC
  5
154
330
1F
100
AcDbEntity
  8
0
  6
Continuous
 62
     7
370
    15
100
AcDbCircle
 10
3.092704951440311
 20
3.76891900687085
 30
0.0
 40
0.0232320584635035
100
AcDbArc
 50
137.8439001287185
 51
205.7505468997933
  0
LWPOLYLINE
  5
155
330
1F
100
AcDbEntity
  8
0
  6
Continuous
 62
     7
370
    15
100
AcDbPolyline
 90
        8
 70
   128
 43
0.0
 10
3.119137469841419
 20
3.739784332110712
 10
3.113312311279599
 20
3.735958863347228
 10
3.105959313298604
 20
3.734356128978617
 10
3.097837764848233
 20
3.735222751936994
 10
3.089669338062059
 20
3.738481876937874
 10
3.082179829952124
 20
3.743843720621329
 10
3.076034694968725
 20
3.750832043429866
 10
3.071779973627621
 20
3.758825749518038
  0
LWPOLYLINE
  5
156
330
1F
100
AcDbEntity
  8
0
  6
Continuous
 62
     7
370
    15
100
AcDbPolyline
 90
       20
 70
   128
 43
0.0
 10
3.072874565064874
 20
3.757734476504176
 10
3.077213288647998
 20
3.749824950221986
 10
3.083571749893328
 20
3.74309646101241
 10
3.091260938440826
 20
3.738278255750964
 10
3.099447576954578
 20
3.735892385805712
 10
3.107244557137528
 20
3.736197548501951
 10
3.113806927469417
 20
3.739160485383435
 10
3.118423574467846
 20
3.744460231419197
 10
3.120594194477054
 20
3.75152241037167
 10
3.120083565653805
 20
3.759581725001336
 10
3.116947023631894
 20
3.767764945709497
 10
3.111524468774184
 20
3.775185167095901
 10
3.104403527635336
 20
3.781038312779728
 10
3.096355837857921
 20
3.784690148981989
 10
3.088253538840403
 20
3.785744942495175
 10
3.080974581130788
 20
3.784088292994006
 10
3.075307776393949
 20
3.779899863912249
 10
3.071867238611695
 20
3.773633389043287
 10
3.07102576340411
 20
3.765968098624701
 10
3.072874565064874
 20
3.757734476504176
  0
LWPOLYLINE
  5
157
330
1F
100
AcDbEntity
  8
0
  6
Continuous
 62
     7
370
    15
100
AcDbPolyline
 90
       13
 70
   128
 43
0.0
 10
3.122054315773082
 20
3.74263126316006
 10
3.122160291424302
 20
3.742735519506164
 10
3.126142537302794
 20
3.748643063273245
 10
3.127822089233188
 20
3.756003543375137
 10
3.127049673311662
 20
3.764162971191514
 10
3.12389390779953
 20
3.772396272050523
 10
3.118635258490023
 20
3.779971886812951
 10
3.111740926240627
 20
3.786216728174747
 10
3.103823520360501
 20
3.790575888605768
 10
3.095586553140906
 20
3.79266205092686
 10
3.087761892169743
 20
3.792289886582854
 10
3.081044799981335
 20
3.789492403023067
 10
3.078399429808766
 20
3.787358198691793
  0
ARC
  5
158
330
1F
100
AcDbEntity
  8
0
  6
Continuous
 62
     7
370
    15
100
AcDbCircle
 10
3.312251226002583
 20
7.761831229223104
 30
0.0
 40
0.0232318423091487
100
AcDbArc
 50
137.8436574858938
 51
205.7507261796394
  0
LWPOLYLINE
  5
159
330
1F
100
AcDbEntity
  8
0
  6
Continuous
 62
     7
370
    15
100
AcDbPolyline
 90
        8
 70
   128
 43
0.0
 10
3.338683970674491
 20
7.732696482324833
 10
3.332858799141355
 20
7.728871017086676
 10
3.325505788189044
 20
7.72726828624339
 10
3.317384265681305
 20
7.728134902151115
 10
3.309215838895131
 20
7.731394027151996
 10
3.30172631781388
 20
7.736755874360776
 10
3.295581195801796
 20
7.743744093070853
 10
3.291326474460693
 20
7.751738000305294
  0
LWPOLYLINE
  5
15A
330
1F
100
AcDbEntity
  8
0
  6
Continuous
 62
     7
370
    15
100
AcDbPolyline
 90
       20
 70
   128
 43
0.0
 10
3.292421052926631
 20
7.750646730816757
 10
3.296759763538438
 20
7.742737006913624
 10
3.303118237755084
 20
7.736008614751857
 10
3.310807413331266
 20
7.731190312442602
 10
3.31899407778765
 20
7.728804636592968
 10
3.326791044999283
 20
7.729109601668262
 10
3.333353415331173
 20
7.732072538549747
 10
3.337970062329602
 20
7.737372385158644
 10
3.340140669367493
 20
7.744434467063308
 10
3.339630040544244
 20
7.752493982839243
 10
3.33649351149365
 20
7.760676998875808
 10
3.33107095663594
 20
7.768097220262212
 10
3.323950015497092
 20
7.773950466519175
 10
3.315902338690992
 20
7.777602198622974
 10
3.307800013730842
 20
7.778657099759948
 10
3.300521068992543
 20
7.777000446733452
 10
3.29485427722702
 20
7.772811913553236
 10
3.291413726473451
 20
7.766545542782734
 10
3.290572251265866
 20
7.758880252364148
 10
3.292421052926631
 20
7.750646730816757
  0
LWPOLYLINE
  5
15B
330
1F
100
AcDbEntity
  8
0
  6
Continuous
 62
     7
370
    15
100
AcDbPolyline
 90
       13
 70
   128
 43
0.0
 10
3.341600816606153
 20
7.735543413374181
 10
3.341706779286058
 20
7.735647572672477
 10
3.345689038135866
 20
7.741555314060501
 10
3.347368564123629
 20
7.748915801213044
 10
3.346596148202102
 20
7.757075027883152
 10
3.343440408632602
 20
7.765308321691509
 10
3.338181746351779
 20
7.772883939979263
 10
3.331287414102382
 20
7.779128982487329
 10
3.323370021193573
 20
7.783488139393024
 10
3.315133041002662
 20
7.785574305239442
 10
3.307308380031499
 20
7.785202040322301
 10
3.300591274871775
 20
7.782404459714704
 10
3.297945930641837
 20
7.780270348905913
  0
ARC
  5
15C
330
1F
100
AcDbEntity
  8
0
  6
Continuous
 62
     7
370
    15
100
AcDbCircle
 10
3.312251226002583
 20
7.161814119697112
 30
0.0
 40
0.0232318423091487
100
AcDbArc
 50
137.8436574858938
 51
205.7507261796394
  0
LWPOLYLINE
  5
15D
330
1F
100
AcDbEntity
  8
0
  6
Continuous
 62
     7
370
    15
100
AcDbPolyline
 90
        8
 70
   128
 43
0.0
 10
3.338683970674491
 20
7.132679372798842
 10
3.332858799141355
 20
7.128853907560683
 10
3.325505788189044
 20
7.127251176717398
 10
3.317384265681305
 20
7.128117792625123
 10
3.309215838895131
 20
7.131376917626004
 10
3.30172631781388
 20
7.136738764834784
 10
3.295581195801796
 20
7.14372698354486
 10
3.291326474460693
 20
7.151720890779301
  0
LWPOLYLINE
  5
15E
330
1F
100
AcDbEntity
  8
0
  6
Continuous
 62
     7
370
    15
100
AcDbPolyline
 90
       20
 70
   128
 43
0.0
 10
3.292421052926631
 20
7.150629621290766
 10
3.296759763538438
 20
7.142719897387633
 10
3.303118237755084
 20
7.135991505225865
 10
3.310807413331266
 20
7.131173202916611
 10
3.31899407778765
 20
7.128787527066976
 10
3.326791044999283
 20
7.12909249214227
 10
3.333353415331173
 20
7.132055429023755
 10
3.337970062329602
 20
7.137355275632653
 10
3.340140669367493
 20
7.144417357537315
 10
3.339630040544244
 20
7.152476873313251
 10
3.33649351149365
 20
7.160659889349817
 10
3.33107095663594
 20
7.16808011073622
 10
3.323950015497092
 20
7.173933356993183
 10
3.315902338690992
 20
7.177585089096983
 10
3.307800013730842
 20
7.178639990233956
 10
3.300521068992543
 20
7.176983337207461
 10
3.29485427722702
 20
7.172794804027244
 10
3.291413726473451
 20
7.166528433256742
 10
3.290572251265866
 20
7.158863142838156
 10
3.292421052926631
 20
7.150629621290766
  0
LWPOLYLINE
  5
15F
330
1F
100
AcDbEntity
  8
0
  6
Continuous
 62
     7
370
    15
100
AcDbPolyline
 90
       13
 70
   128
 43
0.0
 10
3.341600816606153
 20
7.135526303848189
 10
3.341706779286058
 20
7.135630463146484
 10
3.345689038135866
 20
7.141538204534509
 10
3.347368564123629
 20
7.148898691687052
 10
3.346596148202102
 20
7.15705791835716
 10
3.343440408632602
 20
7.165291212165517
 10
3.338181746351779
 20
7.172866830453271
 10
3.331287414102382
 20
7.179111872961337
 10
3.323370021193573
 20
7.183471029867032
 10
3.315133041002662
 20
7.18555719571345
 10
3.307308380031499
 20
7.185184930796308
 10
3.300591274871775
 20
7.182387350188712
 10
3.297945930641837
 20
7.180253239379922
  0
ARC
  5
160
330
1F
100
AcDbEntity
  8
0
  6
Continuous
 62
     7
370
    15
100
AcDbCircle
 10
3.354475112989795
 20
8.047314140210213
 30
0.0
 40
0.0232318130074911
100
AcDbArc
 50
137.8435818069378
 51
205.7507429460556
  0
LWPOLYLINE
  5
161
330
1F
100
AcDbEntity
  8
0
  6
Continuous
 62
     7
370
    15
100
AcDbPolyline
 90
        8
 70
   128
 43
0.0
 10
3.380907887007065
 20
8.018179399919057
 10
3.375082728445244
 20
8.014353931155575
 10
3.367729717492934
 20
8.012751200312289
 10
3.359608182013879
 20
8.01361781974534
 10
3.351439768199021
 20
8.016876941220894
 10
3.34395024711777
 20
8.022238788429675
 10
3.33780511213437
 20
8.029227211811347
 10
3.333550390793266
 20
8.037220917899519
  0
LWPOLYLINE
  5
162
330
1F
100
AcDbEntity
  8
0
  6
Continuous
 62
     7
370
    15
100
AcDbPolyline
 90
       20
 70
   128
 43
0.0
 10
3.33464498223052
 20
8.036129644885656
 10
3.338983692842328
 20
8.028220122128793
 10
3.345342167058974
 20
8.021491528820755
 10
3.353031342635155
 20
8.016673427657771
 10
3.361217994120223
 20
8.014287554187193
 10
3.369014974303173
 20
8.014592716883431
 10
3.375577344635062
 20
8.017555653764915
 10
3.380193978662175
 20
8.022855302752869
 10
3.382364598671383
 20
8.029917582278475
 10
3.381853969848135
 20
8.037976896908142
 10
3.378717427826224
 20
8.046160117616304
 10
3.37329488593983
 20
8.053580335477382
 10
3.366173944800982
 20
8.059433380588073
 10
3.358126255023566
 20
8.063085317363469
 10
3.350023943034732
 20
8.064140013828847
 10
3.342744985325117
 20
8.062483364327677
 10
3.337078193559594
 20
8.058295032293729
 10
3.333637655777341
 20
8.052028456851632
 10
3.332796180569756
 20
8.044363166433047
 10
3.33464498223052
 20
8.036129644885656
  0
LWPOLYLINE
  5
163
330
1F
100
AcDbEntity
  8
0
  6
Continuous
 62
     7
370
    15
100
AcDbPolyline
 90
       13
 70
   128
 43
0.0
 10
3.383824732938727
 20
8.021026330968407
 10
3.383930708589947
 20
8.021130687887646
 10
3.387912960954097
 20
8.027038229892063
 10
3.389592493427518
 20
8.034398715281943
 10
3.388820071020333
 20
8.042558144860983
 10
3.385664331450833
 20
8.050791438669339
 10
3.380405675655669
 20
8.05836705519443
 10
3.373511343406272
 20
8.064611896556227
 10
3.365593950497463
 20
8.068971053461924
 10
3.357356970306551
 20
8.071057219308341
 10
3.349532296364073
 20
8.070684957916524
 10
3.342815204175665
 20
8.067887574929873
 10
3.340169859945727
 20
8.065753262974812
  0
ARC
  5
164
330
1F
100
AcDbEntity
  8
0
  6
Continuous
 62
     7
370
    15
100
AcDbCircle
 10
3.312251226002587
 20
6.56179701017112
 30
0.0
 40
0.0232318423091519
100
AcDbArc
 50
137.8436574858981
 51
205.7507261796355
  0
LWPOLYLINE
  5
165
330
1F
100
AcDbEntity
  8
0
  6
Continuous
 62
     7
370
    15
100
AcDbPolyline
 90
        8
 70
   128
 43
0.0
 10
3.338683970674491
 20
6.532662263272849
 10
3.332858799141355
 20
6.528836798034691
 10
3.325505788189044
 20
6.527234067191406
 10
3.317384265681305
 20
6.528100683099131
 10
3.309215838895131
 20
6.531359808100011
 10
3.30172631781388
 20
6.536721655308792
 10
3.295581195801796
 20
6.543709874018868
 10
3.291326474460693
 20
6.551703781253309
  0
LWPOLYLINE
  5
166
330
1F
100
AcDbEntity
  8
0
  6
Continuous
 62
     7
370
    15
100
AcDbPolyline
 90
       20
 70
   128
 43
0.0
 10
3.292421052926631
 20
6.550612511764774
 10
3.296759763538438
 20
6.542702787861641
 10
3.303118237755084
 20
6.535974395699873
 10
3.310807413331266
 20
6.531156093390618
 10
3.31899407778765
 20
6.528770417540985
 10
3.326791044999283
 20
6.529075382616279
 10
3.333353415331173
 20
6.532038319497763
 10
3.337970062329602
 20
6.53733816610666
 10
3.340140669367493
 20
6.544400248011323
 10
3.339630040544244
 20
6.552459763787259
 10
3.33649351149365
 20
6.560642779823825
 10
3.33107095663594
 20
6.568063001210228
 10
3.323950015497092
 20
6.573916247467191
 10
3.315902338690992
 20
6.577567979570991
 10
3.307800013730842
 20
6.578622880707964
 10
3.300521068992543
 20
6.576966227681469
 10
3.29485427722702
 20
6.572777694501252
 10
3.291413726473451
 20
6.566511323730749
 10
3.290572251265866
 20
6.558846033312164
 10
3.292421052926631
 20
6.550612511764774
  0
LWPOLYLINE
  5
167
330
1F
100
AcDbEntity
  8
0
  6
Continuous
 62
     7
370
    15
100
AcDbPolyline
 90
       13
 70
   128
 43
0.0
 10
3.341600816606153
 20
6.535509194322197
 10
3.341706779286058
 20
6.535613353620492
 10
3.345689038135866
 20
6.541521095008516
 10
3.347368564123629
 20
6.548881582161061
 10
3.346596148202102
 20
6.557040808831168
 10
3.343440408632602
 20
6.565274102639525
 10
3.338181746351779
 20
6.572849720927279
 10
3.331287414102382
 20
6.579094763435345
 10
3.323370021193573
 20
6.583453920341041
 10
3.315133041002662
 20
6.585540086187458
 10
3.307308380031499
 20
6.585167821270317
 10
3.300591274871775
 20
6.58237024066272
 10
3.297945930641837
 20
6.58023612985393
  0
ARC
  5
168
330
1F
100
AcDbEntity
  8
0
  6
Continuous
 62
     7
370
    15
100
AcDbCircle
 10
3.31225129602368
 20
5.961779851030651
 30
0.0
 40
0.0232319275159763
100
AcDbArc
 50
137.8436826787968
 51
205.7507643497168
  0
LWPOLYLINE
  5
169
330
1F
100
AcDbEntity
  8
0
  6
Continuous
 62
     7
370
    15
100
AcDbPolyline
 90
        8
 70
   128
 43
0.0
 10
3.338683970674491
 20
5.932645153746857
 10
3.332858799141355
 20
5.928819688508699
 10
3.325505788189044
 20
5.927216857092279
 10
3.317384265681305
 20
5.928083573573139
 10
3.309215838895131
 20
5.931342598000885
 10
3.30172631781388
 20
5.9367045457828
 10
3.295581195801796
 20
5.943692865066011
 10
3.291326474460693
 20
5.951686571154183
  0
LWPOLYLINE
  5
16A
330
1F
100
AcDbEntity
  8
0
  6
Continuous
 62
     7
370
    15
100
AcDbPolyline
 90
       20
 70
   128
 43
0.0
 10
3.292421052926631
 20
5.950595301665647
 10
3.296759763538438
 20
5.942685778908783
 10
3.303118237755084
 20
5.935957286173881
 10
3.310807413331266
 20
5.931139084437761
 10
3.31899407778765
 20
5.928753207441858
 10
3.326791044999283
 20
5.929058373663422
 10
3.333353415331173
 20
5.932021310544906
 10
3.337970062329602
 20
5.937320956007534
 10
3.340140669367493
 20
5.944383239058466
 10
3.339630040544244
 20
5.952442553688133
 10
3.33649351149365
 20
5.960625770870968
 10
3.33107095663594
 20
5.968045992257373
 10
3.323950015497092
 20
5.973899137941199
 10
3.315902338690992
 20
5.977550970618134
 10
3.307800013730842
 20
5.978605670608837
 10
3.300521068992543
 20
5.976949118155477
 10
3.29485427722702
 20
5.972760685548395
 10
3.291413726473451
 20
5.966494214204757
 10
3.290572251265866
 20
5.958828923786172
 10
3.292421052926631
 20
5.950595301665647
  0
LWPOLYLINE
  5
16B
330
1F
100
AcDbEntity
  8
0
  6
Continuous
 62
     7
370
    15
100
AcDbPolyline
 90
       13
 70
   128
 43
0.0
 10
3.341600816606153
 20
5.935492084796205
 10
3.341706779286058
 20
5.935596344667635
 10
3.345689038135866
 20
5.94150388490939
 10
3.347368564123629
 20
5.948864372061934
 10
3.346596148202102
 20
5.957023799878311
 10
3.343440408632602
 20
5.965257093686668
 10
3.338181746351779
 20
5.972832711974422
 10
3.331287414102382
 20
5.979077553336218
 10
3.323370021193573
 20
5.983436710241914
 10
3.315133041002662
 20
5.985522876088332
 10
3.307308380031499
 20
5.985150711744325
 10
3.300591274871775
 20
5.982353231709863
 10
3.297945930641837
 20
5.980219020327938
  0
ARC
  5
16C
330
1F
100
AcDbEntity
  8
0
  6
Continuous
 62
     7
370
    15
100
AcDbCircle
 10
3.312251223285539
 20
5.361762751989982
 30
0.0
 40
0.0232318665567432
100
AcDbArc
 50
137.8435814495858
 51
205.7508655789212
  0
LWPOLYLINE
  5
16D
330
1F
100
AcDbEntity
  8
0
  6
Continuous
 62
     7
370
    15
100
AcDbPolyline
 90
        8
 70
   128
 43
0.0
 10
3.338683970674491
 20
5.332627993934298
 10
3.332858799141355
 20
5.328802528696141
 10
3.325505788189044
 20
5.327199797852854
 10
3.317384265681305
 20
5.328066464047148
 10
3.309215838895131
 20
5.331325538761459
 10
3.30172631781388
 20
5.336687436256808
 10
3.295581195801796
 20
5.343675705253452
 10
3.291326474460693
 20
5.351669461628192
  0
LWPOLYLINE
  5
16E
330
1F
100
AcDbEntity
  8
0
  6
Continuous
 62
     7
370
    15
100
AcDbPolyline
 90
       20
 70
   128
 43
0.0
 10
3.292421052926631
 20
5.350578192139655
 10
3.296759763538438
 20
5.342668619096223
 10
3.303118237755084
 20
5.335940176647889
 10
3.310807413331266
 20
5.331121974911769
 10
3.31899407778765
 20
5.328736097915866
 10
3.326791044999283
 20
5.329041213850863
 10
3.333353415331173
 20
5.332004150732347
 10
3.337970062329602
 20
5.337303896768109
 10
3.340140669367493
 20
5.344366079245908
 10
3.339630040544244
 20
5.352425444162141
 10
3.33649351149365
 20
5.360608611058409
 10
3.33107095663594
 20
5.368028882731381
 10
3.323950015497092
 20
5.373882028415207
 10
3.315902338690992
 20
5.377533861092142
 10
3.307800013730842
 20
5.378588611369413
 10
3.300521068992543
 20
5.376932008629486
 10
3.29485427722702
 20
5.372743525735836
 10
3.291413726473451
 20
5.366477104678766
 10
3.290572251265866
 20
5.358811763973613
 10
3.292421052926631
 20
5.350578192139655
  0
LWPOLYLINE
  5
16F
330
1F
100
AcDbEntity
  8
0
  6
Continuous
 62
     7
370
    15
100
AcDbPolyline
 90
       13
 70
   128
 43
0.0
 10
3.341600816606153
 20
5.335474924983647
 10
3.341706779286058
 20
5.335579235141644
 10
3.345689038135866
 20
5.341486775383398
 10
3.347368564123629
 20
5.348847262535942
 10
3.346596148202102
 20
5.357006690352319
 10
3.343440408632602
 20
5.365239984160677
 10
3.338181746351779
 20
5.37281560244843
 10
3.331287414102382
 20
5.379060443810227
 10
3.323370021193573
 20
5.383419600715922
 10
3.315133041002662
 20
5.38550576656234
 10
3.307308380031499
 20
5.385133602218333
 10
3.300591274871775
 20
5.382336122183871
 10
3.297945930641837
 20
5.380201910801947
  0
ARC
  5
170
330
1F
100
AcDbEntity
  8
0
  6
Continuous
 62
     7
370
    15
100
AcDbCircle
 10
3.354475112989792
 20
6.84727992115823
 30
0.0
 40
0.0232318130074879
100
AcDbArc
 50
137.8435818069335
 51
205.7507429460633
  0
LWPOLYLINE
  5
171
330
1F
100
AcDbEntity
  8
0
  6
Continuous
 62
     7
370
    15
100
AcDbPolyline
 90
        8
 70
   128
 43
0.0
 10
3.380907887007065
 20
6.818145180867074
 10
3.375082728445244
 20
6.814319712103591
 10
3.367729717492934
 20
6.812716981260304
 10
3.359608182013879
 20
6.813583600693355
 10
3.351439768199021
 20
6.81684272216891
 10
3.34395024711777
 20
6.822204569377691
 10
3.33780511213437
 20
6.829192992759362
 10
3.333550390793266
 20
6.837186698847534
  0
LWPOLYLINE
  5
172
330
1F
100
AcDbEntity
  8
0
  6
Continuous
 62
     7
370
    15
100
AcDbPolyline
 90
       20
 70
   128
 43
0.0
 10
3.33464498223052
 20
6.836095425833672
 10
3.338983692842328
 20
6.828185903076808
 10
3.345342167058974
 20
6.821457309768772
 10
3.353031342635155
 20
6.816639208605786
 10
3.361217994120223
 20
6.81425333513521
 10
3.369014974303173
 20
6.814558497831448
 10
3.375577344635062
 20
6.817521434712931
 10
3.380193978662175
 20
6.822821083700885
 10
3.382364598671383
 20
6.829883363226493
 10
3.381853969848135
 20
6.837942677856157
 10
3.378717427826224
 20
6.846125898564319
 10
3.37329488593983
 20
6.853546116425397
 10
3.366173944800982
 20
6.85939916153609
 10
3.358126255023566
 20
6.863051098311485
 10
3.350023943034732
 20
6.864105794776863
 10
3.342744985325117
 20
6.862449145275694
 10
3.337078193559594
 20
6.858260813241747
 10
3.333637655777341
 20
6.851994237799649
 10
3.332796180569756
 20
6.844328947381063
 10
3.33464498223052
 20
6.836095425833672
  0
LWPOLYLINE
  5
173
330
1F
100
AcDbEntity
  8
0
  6
Continuous
 62
     7
370
    15
100
AcDbPolyline
 90
       13
 70
   128
 43
0.0
 10
3.383824732938727
 20
6.820992111916424
 10
3.383930708589947
 20
6.821096468835661
 10
3.387912960954097
 20
6.827004010840078
 10
3.389592493427518
 20
6.83436449622996
 10
3.388820071020333
 20
6.842523925809
 10
3.385664331450833
 20
6.850757219617356
 10
3.380405675655669
 20
6.858332836142448
 10
3.373511343406272
 20
6.864577677504245
 10
3.365593950497463
 20
6.868936834409939
 10
3.357356970306551
 20
6.871023000256358
 10
3.349532296364073
 20
6.870650738864542
 10
3.342815204175665
 20
6.867853355877889
 10
3.340169859945727
 20
6.865719043922829
  0
ARC
  5
174
330
1F
100
AcDbEntity
  8
0
  6
Continuous
 62
     7
370
    15
100
AcDbCircle
 10
3.354475112989794
 20
7.447297030684221
 30
0.0
 40
0.0232318130074905
100
AcDbArc
 50
137.8435818069363
 51
205.7507429460585
  0
LWPOLYLINE
  5
175
330
1F
100
AcDbEntity
  8
0
  6
Continuous
 62
     7
370
    15
100
AcDbPolyline
 90
        8
 70
   128
 43
0.0
 10
3.380907887007065
 20
7.418162290393066
 10
3.375082728445244
 20
7.414336821629583
 10
3.367729717492934
 20
7.412734090786297
 10
3.359608182013879
 20
7.413600710219347
 10
3.351439768199021
 20
7.416859831694902
 10
3.34395024711777
 20
7.422221678903683
 10
3.33780511213437
 20
7.429210102285354
 10
3.333550390793266
 20
7.437203808373526
  0
LWPOLYLINE
  5
176
330
1F
100
AcDbEntity
  8
0
  6
Continuous
 62
     7
370
    15
100
AcDbPolyline
 90
       20
 70
   128
 43
0.0
 10
3.33464498223052
 20
7.436112535359665
 10
3.338983692842328
 20
7.428203012602801
 10
3.345342167058974
 20
7.421474419294764
 10
3.353031342635155
 20
7.416656318131778
 10
3.361217994120223
 20
7.414270444661201
 10
3.369014974303173
 20
7.41457560735744
 10
3.375577344635062
 20
7.417538544238923
 10
3.380193978662175
 20
7.422838193226877
 10
3.382364598671383
 20
7.429900472752485
 10
3.381853969848135
 20
7.437959787382149
 10
3.378717427826224
 20
7.446143008090311
 10
3.37329488593983
 20
7.453563225951389
 10
3.366173944800982
 20
7.459416271062081
 10
3.358126255023566
 20
7.463068207837477
 10
3.350023943034732
 20
7.464122904302856
 10
3.342744985325117
 20
7.462466254801686
 10
3.337078193559594
 20
7.458277922767738
 10
3.333637655777341
 20
7.452011347325641
 10
3.332796180569756
 20
7.444346056907054
 10
3.33464498223052
 20
7.436112535359665
  0
LWPOLYLINE
  5
177
330
1F
100
AcDbEntity
  8
0
  6
Continuous
 62
     7
370
    15
100
AcDbPolyline
 90
       13
 70
   128
 43
0.0
 10
3.383824732938727
 20
7.421009221442414
 10
3.383930708589947
 20
7.421113578361653
 10
3.387912960954097
 20
7.42702112036607
 10
3.389592493427518
 20
7.434381605755952
 10
3.388820071020333
 20
7.442541035334991
 10
3.385664331450833
 20
7.450774329143349
 10
3.380405675655669
 20
7.458349945668439
 10
3.373511343406272
 20
7.464594787030237
 10
3.365593950497463
 20
7.468953943935932
 10
3.357356970306551
 20
7.471040109782348
 10
3.349532296364073
 20
7.470667848390534
 10
3.342815204175665
 20
7.467870465403881
 10
3.340169859945727
 20
7.465736153448822
  0
ARC
  5
178
330
1F
100
AcDbEntity
  8
0
  6
Continuous
 62
     7
370
    15
100
AcDbCircle
 10
3.312251330364575
 20
4.161728517502377
 30
0.0
 40
0.0232319562958762
100
AcDbArc
 50
137.8437304706164
 51
205.7507165578924
  0
LWPOLYLINE
  5
179
330
1F
100
AcDbEntity
  8
0
  6
Continuous
 62
     7
370
    15
100
AcDbPolyline
 90
        8
 70
   128
 43
0.0
 10
3.338683970674491
 20
4.132593774882314
 10
3.332858799141355
 20
4.128768309644157
 10
3.325505788189044
 20
4.12716557880087
 10
3.317384265681305
 20
4.128032244995163
 10
3.309215838895131
 20
4.131291319709476
 10
3.30172631781388
 20
4.136653217204824
 10
3.295581195801796
 20
4.143641486201468
 10
3.291326474460693
 20
4.151635242576207
  0
LWPOLYLINE
  5
17A
330
1F
100
AcDbEntity
  8
0
  6
Continuous
 62
     7
370
    15
100
AcDbPolyline
 90
       20
 70
   128
 43
0.0
 10
3.292421052926631
 20
4.150543973087672
 10
3.296759763538438
 20
4.14263440004424
 10
3.303118237755084
 20
4.135905957595905
 10
3.310807413331266
 20
4.131087755859785
 10
3.31899407778765
 20
4.128701878863882
 10
3.326791044999283
 20
4.12900699479888
 10
3.333353415331173
 20
4.131969931680362
 10
3.337970062329602
 20
4.137269677716125
 10
3.340140669367493
 20
4.144331860193924
 10
3.339630040544244
 20
4.152391225110156
 10
3.33649351149365
 20
4.160574392006425
 10
3.33107095663594
 20
4.16799461339283
 10
3.323950015497092
 20
4.173847809363222
 10
3.315902338690992
 20
4.177499642040158
 10
3.307800013730842
 20
4.178554392317429
 10
3.300521068992543
 20
4.176897789577502
 10
3.29485427722702
 20
4.172709306683851
 10
3.291413726473451
 20
4.166442885626783
 10
3.290572251265866
 20
4.158777544921629
 10
3.292421052926631
 20
4.150543973087672
  0
LWPOLYLINE
  5
17B
330
1F
100
AcDbEntity
  8
0
  6
Continuous
 62
     7
370
    15
100
AcDbPolyline
 90
       13
 70
   128
 43
0.0
 10
3.341600816606153
 20
4.135440705931663
 10
3.341706779286058
 20
4.13554501608966
 10
3.345689038135866
 20
4.141452556331414
 10
3.347368564123629
 20
4.148813043483958
 10
3.346596148202102
 20
4.156972471300335
 10
3.343440408632602
 20
4.165205765108693
 10
3.338181746351779
 20
4.172781383396446
 10
3.331287414102382
 20
4.179026224758244
 10
3.323370021193573
 20
4.183385381663938
 10
3.315133041002662
 20
4.185471547510355
 10
3.307308380031499
 20
4.185099383166349
 10
3.300591274871775
 20
4.18230185284532
 10
3.297945930641837
 20
4.180167691749963
  0
ARC
  5
17C
330
1F
100
AcDbEntity
  8
0
  6
Continuous
 62
     7
370
    15
100
AcDbCircle
 10
3.31225117500604
 20
4.761745635395524
 30
0.0
 40
0.0232318186353806
100
AcDbArc
 50
137.8435345807687
 51
205.7508946269515
  0
LWPOLYLINE
  5
17D
330
1F
100
AcDbEntity
  8
0
  6
Continuous
 62
     7
370
    15
100
AcDbPolyline
 90
        8
 70
   128
 43
0.0
 10
3.338683970674491
 20
4.732610884408306
 10
3.332858799141355
 20
4.72878542545597
 10
3.325505788189044
 20
4.727182678898131
 10
3.317384265681305
 20
4.728049343520969
 10
3.309215838895131
 20
4.731308418235282
 10
3.30172631781388
 20
4.736670317302085
 10
3.295581195801796
 20
4.743658608299101
 10
3.291326474460693
 20
4.75165235524511
  0
LWPOLYLINE
  5
17E
330
1F
100
AcDbEntity
  8
0
  6
Continuous
 62
     7
370
    15
100
AcDbPolyline
 90
       20
 70
   128
 43
0.0
 10
3.292421052926631
 20
4.750561092042395
 10
3.296759763538438
 20
4.742651512713142
 10
3.303118237755084
 20
4.735923051407345
 10
3.310807413331266
 20
4.731104843385404
 10
3.31899407778765
 20
4.728719010390246
 10
3.326791044999283
 20
4.729024104324871
 10
3.333353415331173
 20
4.731987053777997
 10
3.337970062329602
 20
4.737286777813386
 10
3.340140669367493
 20
4.744348976005737
 10
3.339630040544244
 20
4.75240834720779
 10
3.33649351149365
 20
4.760591526675701
 10
3.33107095663594
 20
4.768011748062104
 10
3.323950015497092
 20
4.773864912603394
 10
3.315902338690992
 20
4.777516738994508
 10
3.307800013730842
 20
4.7785714955576
 10
3.300521068992543
 20
4.776914880246031
 10
3.29485427722702
 20
4.772726416209843
 10
3.291413726473451
 20
4.766459988866954
 10
3.290572251265866
 20
4.758794663876352
 10
3.292421052926631
 20
4.750561092042395
  0
LWPOLYLINE
  5
17F
330
1F
100
AcDbEntity
  8
0
  6
Continuous
 62
     7
370
    15
100
AcDbPolyline
 90
       13
 70
   128
 43
0.0
 10
3.341600816606153
 20
4.735457815457655
 10
3.341706779286058
 20
4.735562103615279
 10
3.345689038135866
 20
4.741469678429049
 10
3.347368564123629
 20
4.748830168724502
 10
3.346596148202102
 20
4.756989561968864
 10
3.343440408632602
 20
4.765222849491401
 10
3.338181746351779
 20
4.772798486636617
 10
3.331287414102382
 20
4.779043334284235
 10
3.323370021193573
 20
4.783402503761572
 10
3.315133041002662
 20
4.785488675893811
 10
3.307308380031499
 20
4.7851164801207
 10
3.300591274871775
 20
4.782318987514596
 10
3.297945930641837
 20
4.780184776132671
  0
LINE
  5
180
330
1F
100
AcDbEntity
  8
0
  6
Continuous
 62
     7
370
    15
100
AcDbLine
 10
0.4497223050629053
 20
6.014543104893288
 30
0.0
 11
2.966455470499717
 21
5.330548957596113
 31
0.0
  0
LINE
  5
181
330
1F
100
AcDbEntity
  8
0
  6
Continuous
 62
     7
370
    15
100
AcDbLine
 10
3.506906935443455
 20
5.183665829898489
 30
0.0
 11
6.295143307626085
 21
4.425882928617806
 31
0.0
  0
LINE
  5
182
330
1F
100
AcDbEntity
  8
0
  6
Continuous
 62
     7
370
    15
100
AcDbLine
 10
0.4497223050629053
 20
6.014543104893288
 30
0.0
 11
0.4497223050629053
 21
6.890761549294773
 31
0.0
  0
LINE
  5
183
330
1F
100
AcDbEntity
  8
0
  6
Continuous
 62
     7
370
    15
100
AcDbLine
 10
0.4497223050629053
 20
6.890761549294773
 30
0.0
 11
0.375766710434378
 21
6.99050204405445
 31
0.0
  0
LINE
  5
184
330
1F
100
AcDbEntity
  8
0
  6
Continuous
 62
     7
370
    15
100
AcDbLine
 10
0.375766710434378
 20
6.99050204405445
 30
0.0
 11
0.5236776921503776
 21
7.079321343644026
 31
0.0
  0
LINE
  5
185
330
1F
100
AcDbEntity
  8
0
  6
Continuous
 62
     7
370
    15
100
AcDbLine
 10
0.5236776921503776
 20
7.079321343644026
 30
0.0
 11
0.4497223050629053
 21
7.17906178199849
 31
0.0
  0
LINE
  5
186
330
1F
100
AcDbEntity
  8
0
  6
Continuous
 62
     7
370
    15
100
AcDbLine
 10
0.4497223050629053
 20
7.17906178199849
 30
0.0
 11
0.4497223050629053
 21
8.071744702289866
 31
0.0
  0
LINE
  5
187
330
1F
100
AcDbEntity
  8
0
  6
Continuous
 62
     7
370
    15
100
AcDbLine
 10
6.295143307626085
 20
6.483084526014383
 30
0.0
 11
3.506906935443455
 21
7.240867427295067
 31
0.0
  0
LINE
  5
188
330
1F
100
AcDbEntity
  8
0
  6
Continuous
 62
     7
370
    15
100
AcDbLine
 10
2.966455470499717
 20
7.387750554992691
 30
0.0
 11
0.4497223050629053
 21
8.071744702289866
 31
0.0
  0
LINE
  5
189
330
1F
100
AcDbEntity
  8
0
  6
Continuous
 62
     7
370
    15
100
AcDbLine
 10
6.295143307626085
 20
6.483084526014383
 30
0.0
 11
6.295143307626085
 21
5.590401605723007
 31
0.0
  0
LINE
  5
18A
330
1F
100
AcDbEntity
  8
0
  6
Continuous
 62
     7
370
    15
100
AcDbLine
 10
6.295143307626085
 20
5.590401605723007
 30
0.0
 11
6.221187712997557
 21
5.530860202849988
 31
0.0
  0
LINE
  5
18B
330
1F
100
AcDbEntity
  8
0
  6
Continuous
 62
     7
370
    15
100
AcDbLine
 10
6.221187712997557
 20
5.530860202849988
 30
0.0
 11
6.369098694713557
 21
5.361642832297523
 31
0.0
  0
LINE
  5
18C
330
1F
100
AcDbEntity
  8
0
  6
Continuous
 62
     7
370
    15
100
AcDbLine
 10
6.369098694713557
 20
5.361642832297523
 30
0.0
 11
6.295143307626085
 21
5.302101373019291
 31
0.0
  0
LINE
  5
18D
330
1F
100
AcDbEntity
  8
0
  6
Continuous
 62
     7
370
    15
100
AcDbLine
 10
6.295143307626085
 20
5.302101373019291
 30
0.0
 11
6.295143307626085
 21
4.425882928617806
 31
0.0
  0
LINE
  5
18E
330
1F
100
AcDbEntity
  8
0
  6
Continuous
 62
     7
370
    15
100
AcDbLine
 10
6.435151926035466
 20
5.727054309453176
 30
0.0
 11
6.295143307626085
 21
5.590401605723007
 31
0.0
  0
LINE
  5
18F
330
1F
100
AcDbEntity
  8
0
  6
Continuous
 62
     7
370
    15
100
AcDbLine
 10
6.329490197114504
 20
6.516608143107653
 30
0.0
 11
6.295143307626085
 21
6.483084526014383
 31
0.0
  0
LINE
  5
190
330
1F
100
AcDbEntity
  8
0
  6
Continuous
 62
     7
370
    15
100
AcDbLine
 10
6.435151926035466
 20
5.727054309453176
 30
0.0
 11
6.435151926035466
 21
6.615659391421507
 31
0.0
  0
LINE
  5
191
330
1F
100
AcDbEntity
  8
0
  6
Continuous
 62
     7
370
    15
100
AcDbLine
 10
0.4873371078781843
 20
8.108457902972665
 30
0.0
 11
0.4497223050629053
 21
8.071744702289866
 31
0.0
  0
LINE
  5
192
330
1F
100
AcDbEntity
  8
0
  6
Continuous
 62
     7
370
    15
100
AcDbLine
 10
6.509107313122939
 20
5.498295536027691
 30
0.0
 11
6.369098694713557
 21
5.361642832297523
 31
0.0
  0
LINE
  5
193
330
1F
100
AcDbEntity
  8
0
  6
Continuous
 62
     7
370
    15
100
AcDbLine
 10
6.509107313122939
 20
5.498295536027691
 30
0.0
 11
6.36715898591771
 21
5.660691245182887
 31
0.0
  0
LINE
  5
194
330
1F
100
AcDbEntity
  8
0
  6
Continuous
 62
     7
370
    15
100
AcDbLine
 10
6.435151926035466
 20
4.562535632347974
 30
0.0
 11
6.295143307626085
 21
4.425882928617806
 31
0.0
  0
LINE
  5
195
330
1F
100
AcDbEntity
  8
0
  6
Continuous
 62
     7
370
    15
100
AcDbLine
 10
6.435151926035466
 20
4.562535632347974
 30
0.0
 11
6.435151926035466
 21
5.426112637145633
 31
0.0
  0
LINE
  5
196
330
1F
100
AcDbEntity
  8
0
  6
Continuous
 62
     7
370
    15
100
AcDbLine
 10
0.4997836074213499
 20
7.111546337427465
 30
0.0
 11
0.375766710434378
 21
6.99050204405445
 31
0.0
  0
LINE
  5
197
330
1F
100
AcDbEntity
  8
0
  6
Continuous
 62
     7
370
    15
100
AcDbLine
 10
6.665386098874948
 20
4.437818835262718
 30
0.0
 11
6.477823560793871
 21
4.413433556240533
 31
0.0
  0
LINE
  5
198
330
1F
100
AcDbEntity
  8
0
  6
Continuous
 62
     7
370
    15
100
AcDbLine
 10
6.477823585344759
 20
4.347034286605282
 30
0.0
 11
6.295143307626084
 21
4.168732735229053
 31
0.0
  0
LINE
  5
199
330
1F
100
AcDbEntity
  8
0
  6
Continuous
 62
     7
370
    15
100
AcDbLine
 10
6.295143307626084
 20
4.168732735229053
 30
0.0
 11
3.506906935443454
 21
4.926515636509737
 31
0.0
  0
LINE
  5
19A
330
1F
100
AcDbEntity
  8
0
  6
Continuous
 62
     7
370
    15
100
AcDbLine
 10
2.966455470499717
 20
5.073398764207362
 30
0.0
 11
0.4497223050629053
 21
5.757392911504537
 31
0.0
  0
LINE
  5
19B
330
1F
100
AcDbEntity
  8
0
  6
Continuous
 62
     7
370
    15
100
AcDbLine
 10
6.808508218977859
 20
4.669792626637266
 30
0.0
 11
6.665386276747719
 21
4.530101223414684
 31
0.0
  0
LINE
  5
19C
330
1F
100
AcDbEntity
  8
0
  6
Continuous
 62
     7
370
    15
100
AcDbLine
 10
0.4497223050629053
 20
5.757392911504537
 30
0.0
 11
0.4497223050629053
 21
5.500242718115785
 31
0.0
  0
LINE
  5
19D
330
1F
100
AcDbEntity
  8
0
  6
Continuous
 62
     7
370
    15
100
AcDbLine
 10
6.295143307626084
 20
4.168732735229053
 30
0.0
 11
6.295143307626084
 21
3.911582541840303
 31
0.0
  0
LINE
  5
19E
330
1F
100
AcDbEntity
  8
0
  6
Continuous
 62
     7
370
    15
100
AcDbLine
 10
6.295143307626084
 20
3.911582541840303
 30
0.0
 11
3.506906935443454
 21
4.669365443120987
 31
0.0
  0
LINE
  5
19F
330
1F
100
AcDbEntity
  8
0
  6
Continuous
 62
     7
370
    15
100
AcDbLine
 10
2.966455470499717
 20
4.81624857081861
 30
0.0
 11
0.4497223050629053
 21
5.500242718115785
 31
0.0
  0
LINE
  5
1A0
330
1F
100
AcDbEntity
  8
0
  6
Continuous
 62
     7
370
    15
100
AcDbLine
 10
6.477823585344759
 20
4.347034286605282
 30
0.0
 11
6.477823585344759
 21
4.089884093216531
 31
0.0
  0
LINE
  5
1A1
330
1F
100
AcDbEntity
  8
0
  6
Continuous
 62
     7
370
    15
100
AcDbLine
 10
6.295143307626084
 20
3.911582541840303
 30
0.0
 11
6.477823585344759
 21
4.089884093216531
 31
0.0
  0
LINE
  5
1A2
330
1F
100
AcDbEntity
  8
0
  6
Continuous
 62
     7
370
    15
100
AcDbLine
 10
6.665386098874948
 20
4.437818835262718
 30
0.0
 11
6.665386098874948
 21
4.180668641873966
 31
0.0
  0
LINE
  5
1A3
330
1F
100
AcDbEntity
  8
0
  6
Continuous
 62
     7
370
    15
100
AcDbLine
 10
6.477823560793871
 20
4.156283362851781
 30
0.0
 11
6.665386098874948
 21
4.180668641873966
 31
0.0
  0
LINE
  5
1A4
330
1F
100
AcDbEntity
  8
0
  6
Continuous
 62
     7
370
    15
100
AcDbLine
 10
6.808508218977859
 20
4.669792626637266
 30
0.0
 11
6.808508218977859
 21
4.412642433248515
 31
0.0
  0
LINE
  5
1A5
330
1F
100
AcDbEntity
  8
0
  6
Continuous
 62
     7
370
    15
100
AcDbLine
 10
6.665386276747719
 20
4.272951030025931
 30
0.0
 11
6.808508218977859
 21
4.412642433248515
 31
0.0
  0
LINE
  5
1A6
330
1F
100
AcDbEntity
  8
0
  6
Continuous
 62
     7
370
    15
100
AcDbLine
 10
6.665386098874948
 20
4.69496902865147
 30
0.0
 11
6.447229481311946
 21
4.666606170066724
 31
0.0
  0
LINE
  5
1A7
330
1F
100
AcDbEntity
  8
0
  6
Continuous
 62
     7
370
    15
100
AcDbLine
 10
6.447229481311946
 20
4.666606170066724
 30
0.0
 11
6.477823585344759
 21
4.604184479994033
 31
0.0
  0
LINE
  5
1A8
330
1F
100
AcDbEntity
  8
0
  6
Continuous
 62
     7
370
    15
100
AcDbLine
 10
6.477823585344759
 20
4.604184479994033
 30
0.0
 11
6.295143307626084
 21
4.425882928617805
 31
0.0
  0
LINE
  5
1A9
330
1F
100
AcDbEntity
  8
0
  6
Continuous
 62
     7
370
    15
100
AcDbLine
 10
6.435151822964538
 20
5.028413088402584
 30
0.0
 11
6.808508218977859
 21
4.926942820026018
 31
0.0
  0
LINE
  5
1AA
330
1F
100
AcDbEntity
  8
0
  6
Continuous
 62
     7
370
    15
100
AcDbLine
 10
6.808508218977859
 20
4.926942820026018
 30
0.0
 11
6.634792188693617
 21
4.757390648957505
 31
0.0
  0
LINE
  5
1AB
330
1F
100
AcDbEntity
  8
0
  6
Continuous
 62
     7
370
    15
100
AcDbLine
 10
6.634792188693617
 20
4.757390648957505
 30
0.0
 11
6.665386098874948
 21
4.69496902865147
 31
0.0
  0
LINE
  5
1AC
330
1F
100
AcDbEntity
  8
0
  6
Continuous
 62
     7
370
    15
100
AcDbLine
 10
6.477823585344759
 20
4.604184479994033
 30
0.0
 11
6.477823585344759
 21
4.347034286605282
 31
0.0
  0
LINE
  5
1AD
330
1F
100
AcDbEntity
  8
0
  6
Continuous
 62
     7
370
    15
100
AcDbLine
 10
6.295143307626084
 20
4.425882928617805
 30
0.0
 11
6.295143307626084
 21
4.168732735229053
 31
0.0
  0
LINE
  5
1AE
330
1F
100
AcDbEntity
  8
0
  6
Continuous
 62
     7
370
    15
100
AcDbLine
 10
0.4497223050629053
 20
6.014543104893288
 30
0.0
 11
0.4497223050629053
 21
5.757392911504537
 31
0.0
  0
LINE
  5
1AF
330
1F
100
AcDbEntity
  8
0
  6
Continuous
 62
     7
370
    15
100
AcDbLine
 10
6.665386098874948
 20
4.69496902865147
 30
0.0
 11
6.665386098874948
 21
4.437818835262718
 31
0.0
  0
LINE
  5
1B0
330
1F
100
AcDbEntity
  8
0
  6
Continuous
 62
     7
370
    15
100
AcDbLine
 10
6.808508218977859
 20
4.926942820026018
 30
0.0
 11
6.808508218977859
 21
4.669792626637266
 31
0.0
  0
LINE
  5
1B1
330
1F
100
AcDbEntity
  8
0
  6
Continuous
 62
     7
370
    15
100
AcDbLine
 10
6.703001047228127
 20
7.041956143266362
 30
0.0
 11
6.484844222124072
 21
7.013593341086829
 31
0.0
  0
LINE
  5
1B2
330
1F
100
AcDbEntity
  8
0
  6
Continuous
 62
     7
370
    15
100
AcDbLine
 10
6.484844222124072
 20
7.013593341086829
 30
0.0
 11
6.515438326156884
 21
6.951171651014139
 31
0.0
  0
LINE
  5
1B3
330
1F
100
AcDbEntity
  8
0
  6
Continuous
 62
     7
370
    15
100
AcDbLine
 10
6.515438326156884
 20
6.951171651014139
 30
0.0
 11
6.332758048438209
 21
6.77287009963791
 31
0.0
  0
LINE
  5
1B4
330
1F
100
AcDbEntity
  8
0
  6
Continuous
 62
     7
370
    15
100
AcDbLine
 10
6.332758048438209
 20
6.77287009963791
 30
0.0
 11
3.506906935443454
 21
7.540875881484929
 31
0.0
  0
LINE
  5
1B5
330
1F
100
AcDbEntity
  8
0
  6
Continuous
 62
     7
370
    15
100
AcDbLine
 10
2.966455470499717
 20
7.687759009182553
 30
0.0
 11
0.4873370458750302
 21
8.361530275913393
 31
0.0
  0
LINE
  5
1B6
330
1F
100
AcDbEntity
  8
0
  6
Continuous
 62
     7
370
    15
100
AcDbLine
 10
0.4873370458750302
 20
8.361530275913393
 30
0.0
 11
0.6700173235937048
 21
8.539831827289621
 31
0.0
  0
LINE
  5
1B7
330
1F
100
AcDbEntity
  8
0
  6
Continuous
 62
     7
370
    15
100
AcDbLine
 10
0.6700173235937048
 20
8.539831827289621
 30
0.0
 11
0.7873344088179467
 21
8.562054425475654
 31
0.0
  0
LINE
  5
1B8
330
1F
100
AcDbEntity
  8
0
  6
Continuous
 62
     7
370
    15
100
AcDbLine
 10
0.7873344088179467
 20
8.562054425475654
 30
0.0
 11
0.7096688554078938
 21
8.670815411428501
 31
0.0
  0
LINE
  5
1B9
330
1F
100
AcDbEntity
  8
0
  6
Continuous
 62
     7
370
    15
100
AcDbLine
 10
0.7096688554078938
 20
8.670815411428501
 30
0.0
 11
0.8269859269425625
 21
8.693037996253092
 31
0.0
  0
LINE
  5
1BA
330
1F
100
AcDbEntity
  8
0
  6
Continuous
 62
     7
370
    15
100
AcDbLine
 10
0.8269859269425625
 20
8.693037996253092
 30
0.0
 11
1.000701957226804
 21
8.862590167321606
 31
0.0
  0
LINE
  5
1BB
330
1F
100
AcDbEntity
  8
0
  6
Continuous
 62
     7
370
    15
100
AcDbLine
 10
1.000701957226804
 20
8.862590167321606
 30
0.0
 11
2.966455492988967
 21
8.328340477304633
 31
0.0
  0
LINE
  5
1BC
330
1F
100
AcDbEntity
  8
0
  6
Continuous
 62
     7
370
    15
100
AcDbLine
 10
4.018460346788244
 20
8.042428099779289
 30
0.0
 11
6.846122959789984
 21
7.273929991046123
 31
0.0
  0
LINE
  5
1BD
330
1F
100
AcDbEntity
  8
0
  6
Continuous
 62
     7
370
    15
100
AcDbLine
 10
6.846122959789984
 20
7.273929991046123
 30
0.0
 11
6.672406929505743
 21
7.10437781997761
 31
0.0
  0
LINE
  5
1BE
330
1F
100
AcDbEntity
  8
0
  6
Continuous
 62
     7
370
    15
100
AcDbLine
 10
6.672406929505743
 20
7.10437781997761
 30
0.0
 11
6.703001047228127
 21
7.041956143266362
 31
0.0
  0
LINE
  5
1BF
330
1F
100
AcDbEntity
  8
0
  6
Continuous
 62
     7
370
    15
100
AcDbLine
 10
6.515438326156884
 20
6.951171651014139
 30
0.0
 11
6.515438326156884
 21
6.694021432482103
 31
0.0
  0
LINE
  5
1C0
330
1F
100
AcDbEntity
  8
0
  6
Continuous
 62
     7
370
    15
100
AcDbLine
 10
6.332758048438209
 20
6.515719881105875
 30
0.0
 11
6.515438326156884
 21
6.694021432482103
 31
0.0
  0
LINE
  5
1C1
330
1F
100
AcDbEntity
  8
0
  6
Continuous
 62
     7
370
    15
100
AcDbLine
 10
6.332758048438209
 20
6.77287009963791
 30
0.0
 11
6.332758048438209
 21
6.515719881105875
 31
0.0
  0
LINE
  5
1C2
330
1F
100
AcDbEntity
  8
0
  6
Continuous
 62
     7
370
    15
100
AcDbLine
 10
0.4873370458750302
 20
8.361530275913393
 30
0.0
 11
0.4873370458750302
 21
8.104380057381359
 31
0.0
  0
LINE
  5
1C3
330
1F
100
AcDbEntity
  8
0
  6
Continuous
 62
     7
370
    15
100
AcDbLine
 10
6.332758048438209
 20
6.515719881105875
 30
0.0
 11
3.506906935443454
 21
7.283725662952893
 31
0.0
  0
LINE
  5
1C4
330
1F
100
AcDbEntity
  8
0
  6
Continuous
 62
     7
370
    15
100
AcDbLine
 10
2.966455470499717
 20
7.430608790650517
 30
0.0
 11
0.4873370458750302
 21
8.104380057381359
 31
0.0
  0
LINE
  5
1C5
330
1F
100
AcDbEntity
  8
0
  6
Continuous
 62
     7
370
    15
100
AcDbLine
 10
6.703001047228127
 20
7.041956143266362
 30
0.0
 11
6.703001047228127
 21
6.784805924734327
 31
0.0
  0
LINE
  5
1C6
330
1F
100
AcDbEntity
  8
0
  6
Continuous
 62
     7
370
    15
100
AcDbLine
 10
6.515438301605997
 20
6.760420702117353
 30
0.0
 11
6.703001047228127
 21
6.784805924734327
 31
0.0
  0
LINE
  5
1C7
330
1F
100
AcDbEntity
  8
0
  6
Continuous
 62
     7
370
    15
100
AcDbLine
 10
6.846122959789984
 20
7.273929991046123
 30
0.0
 11
6.846122959789984
 21
7.016779772514087
 31
0.0
  0
LINE
  5
1C8
330
1F
100
AcDbEntity
  8
0
  6
Continuous
 62
     7
370
    15
100
AcDbLine
 10
6.703001017559844
 20
6.877088369291504
 30
0.0
 11
6.846122959789984
 21
7.016779772514087
 31
0.0
  0
LINE
  5
1C9
330
1F
100
AcDbEntity
  8
0
  6
Continuous
 62
     7
370
    15
100
AcDbLine
 10
0.7096688554078938
 20
8.670815411428501
 30
0.0
 11
0.7096688554078938
 21
8.547342779582731
 31
0.0
  0
LINE
  5
1CA
330
1F
100
AcDbEntity
  8
0
  6
Continuous
 62
     7
370
    15
100
AcDbLine
 10
3.73113720375086
 20
9.922953547268066
 30
0.0
 11
3.801382839597861
 21
10.13486916931831
 31
0.0
  0
LINE
  5
1CB
330
1F
100
AcDbEntity
  8
0
  6
Continuous
 62
     7
370
    15
100
AcDbLine
 10
3.801382839597861
 20
10.13486916931831
 30
0.0
 11
3.844744316504003
 21
10.1055144360942
 31
0.0
  0
LINE
  5
1CC
330
1F
100
AcDbEntity
  8
0
  6
Continuous
 62
     7
370
    15
100
AcDbLine
 10
3.844744316504003
 20
10.1055144360942
 30
0.0
 11
4.018460346788245
 21
10.27506660716271
 31
0.0
  0
LINE
  5
1CD
330
1F
100
AcDbEntity
  8
0
  6
Continuous
 62
     7
370
    15
100
AcDbLine
 10
4.018460346788245
 20
10.27506660716271
 30
0.0
 11
4.018460346788245
 21
8.042428099779289
 31
0.0
  0
LINE
  5
1CE
330
1F
100
AcDbEntity
  8
0
  6
Continuous
 62
     7
370
    15
100
AcDbLine
 10
4.018460346788245
 20
8.042428099779289
 30
0.0
 11
3.506906935384074
 21
7.543136287854037
 31
0.0
  0
LINE
  5
1CF
330
1F
100
AcDbEntity
  8
0
  6
Continuous
 62
     7
370
    15
100
AcDbLine
 10
3.505095435436471
 20
8.749915138697641
 30
0.0
 11
3.505095435436471
 21
9.774006715754504
 31
0.0
  0
LINE
  5
1D0
330
1F
100
AcDbEntity
  8
0
  6
Continuous
 62
     7
370
    15
100
AcDbLine
 10
3.505095435436471
 20
9.774006715754504
 30
0.0
 11
3.687775713155145
 21
9.952308267130732
 31
0.0
  0
LINE
  5
1D1
330
1F
100
AcDbEntity
  8
0
  6
Continuous
 62
     7
370
    15
100
AcDbLine
 10
3.687775713155145
 20
9.952308267130732
 30
0.0
 11
3.73113720375086
 21
9.922953547268066
 31
0.0
  0
LINE
  5
1D2
330
1F
100
AcDbEntity
  8
0
  6
Continuous
 62
     7
370
    15
100
AcDbLine
 10
3.505095435436471
 20
9.774006715754504
 30
0.0
 11
3.239769995654096
 21
9.846116485050883
 31
0.0
  0
LINE
  5
1D3
330
1F
100
AcDbEntity
  8
0
  6
Continuous
 62
     7
370
    15
100
AcDbLine
 10
3.42245027337277
 20
10.02441803642711
 30
0.0
 11
3.239769995654096
 21
9.846116485050883
 31
0.0
  0
LINE
  5
1D4
330
1F
100
AcDbEntity
  8
0
  6
Continuous
 62
     7
370
    15
100
AcDbLine
 10
3.687775713155145
 20
9.952308267130732
 30
0.0
 11
3.42245027337277
 21
10.02441803642711
 31
0.0
  0
LINE
  5
1D5
330
1F
100
AcDbEntity
  8
0
  6
Continuous
 62
     7
370
    15
100
AcDbLine
 10
3.239769995654096
 20
8.82202490799402
 30
0.0
 11
3.239769995654096
 21
9.846116485050883
 31
0.0
  0
LINE
  5
1D6
330
1F
100
AcDbEntity
  8
0
  6
Continuous
 62
     7
370
    15
100
AcDbLine
 10
3.801382839597861
 20
10.13486916931831
 30
0.0
 11
3.536057399815486
 21
10.20697893861469
 31
0.0
  0
LINE
  5
1D7
330
1F
100
AcDbEntity
  8
0
  6
Continuous
 62
     7
370
    15
100
AcDbLine
 10
3.536057399815486
 20
10.20697893861469
 30
0.0
 11
3.471154530622543
 21
10.01118135529734
 31
0.0
  0
LINE
  5
1D8
330
1F
100
AcDbEntity
  8
0
  6
Continuous
 62
     7
370
    15
100
AcDbLine
 10
4.018460346788245
 20
10.27506660716271
 30
0.0
 11
3.75313490700587
 21
10.34717637645909
 31
0.0
  0
LINE
  5
1D9
330
1F
100
AcDbEntity
  8
0
  6
Continuous
 62
     7
370
    15
100
AcDbLine
 10
3.75313490700587
 20
10.34717637645909
 30
0.0
 11
3.593499533716173
 21
10.19136735827975
 31
0.0
  0
LINE
  5
1DA
330
1F
100
AcDbEntity
  8
0
  6
Continuous
 62
     7
370
    15
100
AcDbLine
 10
3.792418578473856
 20
2.789332322518356
 30
0.0
 11
3.722172970006001
 21
2.57741692833727
 31
0.0
  0
LINE
  5
1DB
330
1F
100
AcDbEntity
  8
0
  6
Continuous
 62
     7
370
    15
100
AcDbLine
 10
3.722172970006001
 20
2.57741692833727
 30
0.0
 11
3.678811479410286
 21
2.606771447053665
 31
0.0
  0
LINE
  5
1DC
330
1F
100
AcDbEntity
  8
0
  6
Continuous
 62
     7
370
    15
100
AcDbLine
 10
3.678811479410286
 20
2.606771447053665
 30
0.0
 11
3.505095435436471
 21
2.437219262623708
 31
0.0
  0
LINE
  5
1DD
330
1F
100
AcDbEntity
  8
0
  6
Continuous
 62
     7
370
    15
100
AcDbLine
 10
3.505095435436471
 20
2.437219262623708
 30
0.0
 11
3.505095435436471
 21
3.433217645367583
 31
0.0
  0
LINE
  5
1DE
330
1F
100
AcDbEntity
  8
0
  6
Continuous
 62
     7
370
    15
100
AcDbLine
 10
4.018460346788245
 20
4.530336188289735
 30
0.0
 11
4.018460346788245
 21
2.93827915403192
 31
0.0
  0
LINE
  5
1DF
330
1F
100
AcDbEntity
  8
0
  6
Continuous
 62
     7
370
    15
100
AcDbLine
 10
4.018460346788245
 20
2.93827915403192
 30
0.0
 11
3.835780082759144
 21
2.759977616017136
 31
0.0
  0
LINE
  5
1E0
330
1F
100
AcDbEntity
  8
0
  6
Continuous
 62
     7
370
    15
100
AcDbLine
 10
3.835780082759144
 20
2.759977616017136
 30
0.0
 11
3.792418578473856
 21
2.789332322518356
 31
0.0
  0
LINE
  5
1E1
330
1F
100
AcDbEntity
  8
0
  6
Continuous
 62
     7
370
    15
100
AcDbLine
 10
3.505095435436471
 20
2.437219262623708
 30
0.0
 11
3.239769995654096
 21
2.509329031920088
 31
0.0
  0
LINE
  5
1E2
330
1F
100
AcDbEntity
  8
0
  6
Continuous
 62
     7
370
    15
100
AcDbLine
 10
3.239769995654096
 20
2.509329031920088
 30
0.0
 11
3.239769995654096
 21
3.495358504970811
 31
0.0
  0
LINE
  5
1E3
330
1F
100
AcDbEntity
  8
0
  6
Continuous
 62
     7
370
    15
100
AcDbLine
 10
3.722172970006001
 20
2.57741692833727
 30
0.0
 11
3.664730826930672
 21
2.593028471988904
 31
0.0
  0
LINE
  5
1E4
330
1F
100
AcDbEntity
  8
0
  6
Continuous
 62
     7
370
    15
100
AcDbLine
 10
3.835780082759144
 20
2.759977616017136
 30
0.0
 11
3.787075833182336
 21
2.773214387446282
 31
0.0
  0
LINE
  5
1E5
330
1F
100
AcDbEntity
  8
0
  6
Continuous
 62
     7
370
    15
100
AcDbLine
 10
2.974444555871721
 20
8.891874597805481
 30
0.0
 11
2.974444555871721
 21
9.918226254347262
 31
0.0
  0
LINE
  5
1E6
330
1F
100
AcDbEntity
  8
0
  6
Continuous
 62
     7
370
    15
100
AcDbLine
 10
3.239769995654096
 20
9.846116485050883
 30
0.0
 11
2.974444555871721
 21
9.918226254347262
 31
0.0
  0
LINE
  5
1E7
330
1F
100
AcDbEntity
  8
0
  6
Continuous
 62
     7
370
    15
100
AcDbLine
 10
3.157124833590394
 20
10.09652780572349
 30
0.0
 11
2.974444555871721
 21
9.918226254347262
 31
0.0
  0
LINE
  5
1E8
330
1F
100
AcDbEntity
  8
0
  6
Continuous
 62
     7
370
    15
100
AcDbLine
 10
3.42245027337277
 20
10.02441803642711
 30
0.0
 11
3.157124833590394
 21
10.09652780572349
 31
0.0
  0
LINE
  5
1E9
330
1F
100
AcDbEntity
  8
0
  6
Continuous
 62
     7
370
    15
100
AcDbLine
 10
3.536057399815486
 20
10.20697893861469
 30
0.0
 11
3.270731960033111
 21
10.27908870791107
 31
0.0
  0
LINE
  5
1EA
330
1F
100
AcDbEntity
  8
0
  6
Continuous
 62
     7
370
    15
100
AcDbLine
 10
3.270731960033111
 20
10.27908870791107
 30
0.0
 11
3.205829090840168
 21
10.08329112459372
 31
0.0
  0
LINE
  5
1EB
330
1F
100
AcDbEntity
  8
0
  6
Continuous
 62
     7
370
    15
100
AcDbLine
 10
3.75313490700587
 20
10.34717637645909
 30
0.0
 11
3.487809467223494
 21
10.41928614575547
 31
0.0
  0
LINE
  5
1EC
330
1F
100
AcDbEntity
  8
0
  6
Continuous
 62
     7
370
    15
100
AcDbLine
 10
3.487809467223494
 20
10.41928614575547
 30
0.0
 11
3.328174093933798
 21
10.26347712757613
 31
0.0
  0
LINE
  5
1ED
330
1F
100
AcDbEntity
  8
0
  6
Continuous
 62
     7
370
    15
100
AcDbLine
 10
3.239769995654096
 20
2.509329031920088
 30
0.0
 11
2.974444555871721
 21
2.581438801216466
 31
0.0
  0
LINE
  5
1EE
330
1F
100
AcDbEntity
  8
0
  6
Continuous
 62
     7
370
    15
100
AcDbLine
 10
2.974444555871721
 20
2.581438801216466
 30
0.0
 11
2.974444555871721
 21
3.567468274267191
 31
0.0
  0
LINE
  5
1EF
330
1F
100
AcDbEntity
  8
0
  6
Continuous
 62
     7
370
    15
100
AcDbLine
 10
2.976256077970477
 20
8.893642344400181
 30
0.0
 11
2.966455474613373
 21
8.884076655072261
 31
0.0
  0
LINE
  5
1F0
330
1F
100
AcDbEntity
  8
0
  6
Continuous
 62
     7
370
    15
100
AcDbLine
 10
2.976256077970477
 20
8.893642344400181
 30
0.0
 11
3.506906935443455
 21
8.749422811811491
 31
0.0
  0
LINE
  5
1F1
330
1F
100
AcDbEntity
  8
0
  6
Continuous
 62
     7
370
    15
100
AcDbLine
 10
3.506906935443455
 20
8.749422811811491
 30
0.0
 11
3.49710633208635
 21
8.739857122483574
 31
0.0
  0
LINE
  5
1F2
330
1F
100
AcDbEntity
  8
0
  6
Continuous
 62
     7
370
    15
100
AcDbLine
 10
2.966455474613373
 20
8.884076655072261
 30
0.0
 11
3.49710633208635
 21
8.739857122483574
 31
0.0
  0
LINE
  5
1F3
330
1F
100
AcDbEntity
  8
0
  6
Continuous
 62
     7
370
    15
100
AcDbLine
 10
3.49710633208635
 20
8.739857122483574
 30
0.0
 11
3.49710633208635
 21
3.425420010357838
 31
0.0
  0
LINE
  5
1F4
330
1F
100
AcDbEntity
  8
0
  6
Continuous
 62
     7
370
    15
100
AcDbLine
 10
3.49710633208635
 20
3.425420010357838
 30
0.0
 11
2.966455474613373
 21
3.569639542946525
 31
0.0
  0
LINE
  5
1F5
330
1F
100
AcDbEntity
  8
0
  6
Continuous
 62
     7
370
    15
100
AcDbLine
 10
2.966455474613373
 20
3.569639542946525
 30
0.0
 11
2.966455474613373
 21
8.884076655072261
 31
0.0
  0
LINE
  5
1F6
330
1F
100
AcDbEntity
  8
0
  6
Continuous
 62
     7
370
    15
100
AcDbLine
 10
3.506906935443455
 20
8.749422811811491
 30
0.0
 11
3.506906935443455
 21
3.434985699685757
 31
0.0
  0
LINE
  5
1F7
330
1F
100
AcDbEntity
  8
0
  6
Continuous
 62
     7
370
    15
100
AcDbLine
 10
3.506906935443455
 20
3.434985699685757
 30
0.0
 11
3.49710633208635
 21
3.425420010357838
 31
0.0
  0
LWPOLYLINE
  5
1F8
330
1F
100
AcDbEntity
  8
0
  6
Continuous
 62
     8
370
    15
100
AcDbPolyline
 90
       13
 70
   128
 43
0.0
 10
3.117866799732049
 20
4.676119466865293
 10
3.120512169904618
 20
4.678253664910745
 10
3.127229262093027
 20
4.681051161042175
 10
3.13505392306419
 20
4.681423356815286
 10
3.143290890283785
 20
4.679337188208373
 10
3.15120829616391
 20
4.674978015205711
 10
3.158102628413307
 20
4.668733167558093
 10
3.163361277722813
 20
4.661157540224023
 10
3.166517017292313
 20
4.652924246415666
 10
3.167289459156472
 20
4.644764849263562
 10
3.165609907226077
 20
4.63740436287585
 10
3.161627661347585
 20
4.631496781393844
 10
3.161521685696365
 20
4.631392499904456
  0
LWPOLYLINE
  5
1F9
330
1F
100
AcDbEntity
  8
0
  6
Continuous
 62
     8
370
    15
100
AcDbPolyline
 90
       13
 70
   128
 43
0.0
 10
3.117866799732049
 20
6.476170713727596
 10
3.120512169904618
 20
6.478305018632005
 10
3.127229262093027
 20
6.481102401618657
 10
3.13505392306419
 20
6.4814746665358
 10
3.143290890283785
 20
6.479388504214708
 10
3.15120829616391
 20
6.475029343783686
 10
3.158102628413307
 20
6.46878450242189
 10
3.163361277722813
 20
6.461208887659461
 10
3.166517017292313
 20
6.452975593851104
 10
3.167289459156472
 20
6.444816158984076
 10
3.165609907226077
 20
6.437455678882183
 10
3.161627661347585
 20
6.431548135115103
 10
3.161521685696365
 20
6.431443878768999
  0
LWPOLYLINE
  5
1FA
330
1F
100
AcDbEntity
  8
0
  6
Continuous
 62
     8
370
    15
100
AcDbPolyline
 90
       13
 70
   128
 43
0.0
 10
3.075482583877103
 20
6.184579705746411
 10
3.078127954049673
 20
6.186713910077686
 10
3.084845046238081
 20
6.189511393637473
 10
3.092669707209243
 20
6.18988355798148
 10
3.100906674428839
 20
6.187797395660388
 10
3.108824080308964
 20
6.183438235229367
 10
3.115718412558361
 20
6.17719339386757
 10
3.120977061867868
 20
6.169617779105141
 10
3.124132827379999
 20
6.161384478246133
 10
3.124905243301526
 20
6.153225050429757
 10
3.123225691371131
 20
6.145864570327863
 10
3.119243445492639
 20
6.139957026560783
 10
3.119137469841419
 20
6.139852770214679
  0
LWPOLYLINE
  5
1FB
330
1F
100
AcDbEntity
  8
0
  6
Continuous
 62
     8
370
    15
100
AcDbPolyline
 90
       13
 70
   128
 43
0.0
 10
3.117866799732049
 20
4.076102376196764
 10
3.120512169904618
 20
4.078236580528038
 10
3.127229262093027
 20
4.081034064087825
 10
3.13505392306419
 20
4.081406228431831
 10
3.143290890283785
 20
4.07932006611074
 10
3.15120829616391
 20
4.074960905679719
 10
3.158102628413307
 20
4.068716064317922
 10
3.163361277722813
 20
4.061140449555495
 10
3.166517017292313
 20
4.052907155747137
 10
3.167289459156472
 20
4.044747720880108
 10
3.165609907226077
 20
4.037387240778215
 10
3.161627661347585
 20
4.031479697011136
 10
3.161521685696365
 20
4.031375390378464
  0
LWPOLYLINE
  5
1FC
330
1F
100
AcDbEntity
  8
0
  6
Continuous
 62
     8
370
    15
100
AcDbPolyline
 90
       13
 70
   128
 43
0.0
 10
3.117866799732049
 20
5.876153704774739
 10
3.120512169904618
 20
5.878287909106013
 10
3.127229262093027
 20
5.881085392665801
 10
3.13505392306419
 20
5.881457557009808
 10
3.143290890283785
 20
5.879371394688716
 10
3.15120829616391
 20
5.875012234257694
 10
3.158102628413307
 20
5.868767392895898
 10
3.163361277722813
 20
5.861191778133469
 10
3.166517017292313
 20
5.852958484325112
 10
3.167289459156472
 20
5.844799049458084
 10
3.165609907226077
 20
5.837438569356191
 10
3.161627661347585
 20
5.831531025589111
 10
3.161521685696365
 20
5.831426769243007
  0
LWPOLYLINE
  5
1FD
330
1F
100
AcDbEntity
  8
0
  6
Continuous
 62
     8
370
    15
100
AcDbPolyline
 90
       13
 70
   128
 43
0.0
 10
3.117866799732049
 20
7.076187823253588
 10
3.120512169904618
 20
7.078322128157997
 10
3.127229262093027
 20
7.08111951114465
 10
3.13505392306419
 20
7.081491776061791
 10
3.143290890283785
 20
7.0794056137407
 10
3.15120829616391
 20
7.075046453309679
 10
3.158102628413307
 20
7.068801611947882
 10
3.163361277722813
 20
7.061225997185453
 10
3.166517017292313
 20
7.052992703377096
 10
3.167289459156472
 20
7.044833268510067
 10
3.165609907226077
 20
7.037472788408176
 10
3.161627661347585
 20
7.031565244641095
 10
3.161521685696365
 20
7.031460887721856
  0
LWPOLYLINE
  5
1FE
330
1F
100
AcDbEntity
  8
0
  6
Continuous
 62
     8
370
    15
100
AcDbPolyline
 90
       13
 70
   128
 43
0.0
 10
3.075482583877103
 20
6.784596815272403
 10
3.078127954049673
 20
6.786730919030543
 10
3.084845046238081
 20
6.789528503163466
 10
3.092669707209243
 20
6.789900768080606
 10
3.100906674428839
 20
6.787814605759515
 10
3.108824080308964
 20
6.783455445328494
 10
3.115718412558361
 20
6.777210603966697
 10
3.120977061867868
 20
6.769634788057999
 10
3.124132827379999
 20
6.76140148719899
 10
3.124905243301526
 20
6.753242260528883
 10
3.123225691371131
 20
6.74588178042699
 10
3.119243445492639
 20
6.739974035513641
 10
3.119137469841419
 20
6.739869879740671
  0
LWPOLYLINE
  5
1FF
330
1F
100
AcDbEntity
  8
0
  6
Continuous
 62
     8
370
    15
100
AcDbPolyline
 90
       13
 70
   128
 43
0.0
 10
3.117866799732049
 20
5.276136595248748
 10
3.120512169904618
 20
5.278270799580022
 10
3.127229262093027
 20
5.281068283139809
 10
3.13505392306419
 20
5.281440447483816
 10
3.143290890283785
 20
5.279354285162724
 10
3.15120829616391
 20
5.274995124731702
 10
3.158102628413307
 20
5.268750283369906
 10
3.163361277722813
 20
5.261174668607478
 10
3.166517017292313
 20
5.25294137479912
 10
3.167289459156472
 20
5.244781939932091
 10
3.165609907226077
 20
5.2374214598302
 10
3.161627661347585
 20
5.23151391606312
 10
3.161521685696365
 20
5.231409609430448
  0
LWPOLYLINE
  5
200
330
1F
100
AcDbEntity
  8
0
  6
Continuous
 62
     8
370
    15
100
AcDbPolyline
 90
       13
 70
   128
 43
0.0
 10
3.075482583877103
 20
5.58456259622042
 10
3.078127954049673
 20
5.586696800551694
 10
3.084845046238081
 20
5.589494284111482
 10
3.092669707209243
 20
5.589866498742056
 10
3.100906674428839
 20
5.587780336420963
 10
3.108824080308964
 20
5.583421125703375
 10
3.115718412558361
 20
5.577176284341578
 10
3.120977061867868
 20
5.56960066957915
 10
3.124132827379999
 20
5.561367368720141
 10
3.124905243301526
 20
5.553207991190332
 10
3.123225691371131
 20
5.54584751108844
 10
3.119243445492639
 20
5.539939917034791
 10
3.119137469841419
 20
5.53983561040212
  0
LWPOLYLINE
  5
201
330
1F
100
AcDbEntity
  8
0
  6
Continuous
 62
     8
370
    15
100
AcDbPolyline
 90
       13
 70
   128
 43
0.0
 10
3.075482583877103
 20
4.984545486694428
 10
3.078127954049673
 20
4.986679691025702
 10
3.084845046238081
 20
4.98947717458549
 10
3.092669707209243
 20
4.98984936407278
 10
3.100906674428839
 20
4.987763201751687
 10
3.108824080308964
 20
4.983404041320667
 10
3.115718412558361
 20
4.977159174815586
 10
3.120977061867868
 20
4.969583560053158
 10
3.124132827379999
 20
4.961350259194149
 10
3.124905243301526
 20
4.953190869092697
 10
3.123225691371131
 20
4.945830376419164
 10
3.119243445492639
 20
4.939922807508801
 10
3.119137469841419
 20
4.939818513447771
  0
LWPOLYLINE
  5
202
330
1F
100
AcDbEntity
  8
0
  6
Continuous
 62
     8
370
    15
100
AcDbPolyline
 90
       13
 70
   128
 43
0.0
 10
3.335582412291667
 20
8.660781079155297
 10
3.338227756521606
 20
8.662915592256625
 10
3.344944861681329
 20
8.665712770571683
 10
3.352769522652492
 20
8.666085236635092
 10
3.361006502843403
 20
8.663999070788676
 10
3.368923895752213
 20
8.659639913882982
 10
3.375818228001609
 20
8.653394871374915
 10
3.381076890282431
 20
8.64581945423343
 10
3.384232629851932
 20
8.637586160425074
 10
3.385005052259117
 20
8.629426529699763
 10
3.383325513300038
 20
8.622066046072545
 10
3.379343260935888
 20
8.616158504068128
 10
3.379237298255984
 20
8.616054143623562
  0
LWPOLYLINE
  5
203
330
1F
100
AcDbEntity
  8
0
  6
Continuous
 62
     8
370
    15
100
AcDbPolyline
 90
       13
 70
   128
 43
0.0
 10
3.295029084710175
 20
8.377440326236287
 10
3.297674428940113
 20
8.379574839337617
 10
3.304391534099837
 20
8.382372017652674
 10
3.312216195070999
 20
8.382744483716086
 10
3.32045317526191
 20
8.380658317869668
 10
3.32837056817072
 20
8.376299160963972
 10
3.335264900420116
 20
8.370054118455907
 10
3.340523562700939
 20
8.362478701314422
 10
3.343679302270439
 20
8.354245407506065
 10
3.344451718191966
 20
8.346085778543418
 10
3.342772192204203
 20
8.338725291390874
 10
3.338789933354395
 20
8.33281775114912
 10
3.338683970674491
 20
8.332713390704556
  0
LWPOLYLINE
  5
204
330
1F
100
AcDbEntity
  8
0
  6
Continuous
 62
     8
370
    15
100
AcDbPolyline
 90
       13
 70
   128
 43
0.0
 10
3.075482583877103
 20
7.984631034324388
 10
3.078127954049673
 20
7.986765138082527
 10
3.084845046238081
 20
7.989562722215449
 10
3.092669707209243
 20
7.98993498713259
 10
3.100906674428839
 20
7.987848824811498
 10
3.108824080308964
 20
7.983489664380478
 10
3.115718412558361
 20
7.97724482301868
 10
3.120977061867868
 20
7.969669007109983
 10
3.124132827379999
 20
7.961435907397244
 10
3.124905243301526
 20
7.953276479580867
 10
3.123225691371131
 20
7.945915999478974
 10
3.119243445492639
 20
7.940008455711895
 10
3.119137469841419
 20
7.939904098792656
  0
LWPOLYLINE
  5
205
330
1F
100
AcDbEntity
  8
0
  6
Continuous
 62
     8
370
    15
100
AcDbPolyline
 90
       13
 70
   128
 43
0.0
 10
3.065539784841021
 20
8.594703687756739
 10
3.068185129070959
 20
8.596837798565529
 10
3.074902221259367
 20
8.599635382698449
 10
3.082726908173162
 20
8.600007439418671
 10
3.090963875392757
 20
8.597921277097579
 10
3.098881281272882
 20
8.593562116666559
 10
3.105775587579647
 20
8.587317483501683
 10
3.111034262831785
 20
8.579741660542334
 10
3.114190002401285
 20
8.571508366733976
 10
3.114962418322812
 20
8.563349140063868
 10
3.113282892335049
 20
8.555988652911326
 10
3.109300646456557
 20
8.550081109144244
 10
3.109194670805337
 20
8.549976752225006
  0
LWPOLYLINE
  5
206
330
1F
100
AcDbEntity
  8
0
  6
Continuous
 62
     8
370
    15
100
AcDbPolyline
 90
       13
 70
   128
 43
0.0
 10
3.117866799732049
 20
7.67620493277958
 10
3.120512169904618
 20
7.67833923768399
 10
3.127229262093027
 20
7.681136620670642
 10
3.13505392306419
 20
7.681508885587783
 10
3.143290890283785
 20
7.679422723266691
 10
3.15120829616391
 20
7.675063562835671
 10
3.158102628413307
 20
7.668818721473874
 10
3.163361277722813
 20
7.661243106711445
 10
3.166517017292313
 20
7.653009812903088
 10
3.167289459156472
 20
7.644850378036059
 10
3.165609907226077
 20
7.637489897934167
 10
3.161627661347585
 20
7.631582354167087
 10
3.161521685696365
 20
7.631477997247849
  0
LWPOLYLINE
  5
207
330
1F
100
AcDbEntity
  8
0
  6
Continuous
 62
     8
370
    15
100
AcDbPolyline
 90
       13
 70
   128
 43
0.0
 10
3.075482583877103
 20
4.384528377168436
 10
3.078127954049673
 20
4.38666258149971
 10
3.084845046238081
 20
4.389460065059497
 10
3.092669707209243
 20
4.389832254546788
 10
3.100906674428839
 20
4.387746092225696
 10
3.108824080308964
 20
4.383386931794674
 10
3.115718412558361
 20
4.377142065289595
 10
3.120977061867868
 20
4.369566450527166
 10
3.124132827379999
 20
4.361333149668157
 10
3.124905243301526
 20
4.353173746995064
 10
3.123225691371131
 20
4.345813266893172
 10
3.119243445492639
 20
4.339905697982809
 10
3.119137469841419
 20
4.33980141649342
  0
LWPOLYLINE
  5
208
330
1F
100
AcDbEntity
  8
0
  6
Continuous
 62
     8
370
    15
100
AcDbPolyline
 90
       13
 70
   128
 43
0.0
 10
3.119083483224482
 20
8.277361753033279
 10
3.121728827454419
 20
8.279495863842068
 10
3.128445919642827
 20
8.282293447974991
 10
3.13627058061399
 20
8.282665511745863
 10
3.144507573776217
 20
8.280579342374119
 10
3.152424953713711
 20
8.27622018899375
 10
3.159319285963107
 20
8.269975146485684
 10
3.164577961215246
 20
8.262399725818875
 10
3.167733700784746
 20
8.254166432010517
 10
3.168506116706272
 20
8.246006803047871
 10
3.16682659071851
 20
8.238646315895326
 10
3.162844318897386
 20
8.232738779178898
 10
3.162738369188797
 20
8.232634415209007
  0
LWPOLYLINE
  5
209
330
1F
100
AcDbEntity
  8
0
  6
Continuous
 62
     8
370
    15
100
AcDbPolyline
 90
       13
 70
   128
 43
0.0
 10
3.075482583877103
 20
7.384613924798395
 10
3.078127954049673
 20
7.386748028556535
 10
3.084845046238081
 20
7.389545612689457
 10
3.092669707209243
 20
7.389917877606598
 10
3.100906674428839
 20
7.387831715285506
 10
3.108824080308964
 20
7.383472554854486
 10
3.115718412558361
 20
7.377227713492689
 10
3.120977061867868
 20
7.369651897583991
 10
3.124132827379999
 20
7.361418596724981
 10
3.124905243301526
 20
7.353259370054876
 10
3.123225691371131
 20
7.345898889952982
 10
3.119243445492639
 20
7.339991145039634
 10
3.119137469841419
 20
7.339886989266664
  0
LWPOLYLINE
  5
20A
330
1F
100
AcDbEntity
  8
0
  6
Continuous
 62
     8
370
    15
100
AcDbPolyline
 90
       13
 70
   128
 43
0.0
 10
3.337253014014064
 20
3.862786615530088
 10
3.339898358244002
 20
3.864920826912014
 10
3.34661545043241
 20
3.867718310471801
 10
3.354440124374888
 20
3.86809052157705
 10
3.3626771045658
 20
3.866004355730631
 10
3.370594497474609
 20
3.861645148538369
 10
3.377488829724005
 20
3.855400307176573
 10
3.382747485519171
 20
3.847824690651481
 10
3.385903225088671
 20
3.839591346556557
 10
3.386675647495855
 20
3.831432017550651
 10
3.384996115022435
 20
3.82407153216077
 10
3.381013862658285
 20
3.818163889583219
 10
3.380907887007065
 20
3.818059633237114
  0
LWPOLYLINE
  5
20B
330
1F
100
AcDbEntity
  8
0
  6
Continuous
 62
     8
370
    15
100
AcDbPolyline
 90
       13
 70
   128
 43
0.0
 10
3.337253014014064
 20
4.462803725056081
 10
3.339898358244002
 20
4.464937936438006
 10
3.34661545043241
 20
4.467735419997793
 10
3.354440124374888
 20
4.468107605959757
 10
3.3626771045658
 20
4.46602144011334
 10
3.370594497474609
 20
4.461662258064361
 10
3.377488829724005
 20
4.455417416702564
 10
3.382747485519171
 20
4.447841800177473
 10
3.385903225088671
 20
4.439608506369117
 10
3.386675647495855
 20
4.43144910193336
 10
3.384996115022435
 20
4.424088616543479
 10
3.381013862658285
 20
4.418181049395777
 10
3.380907887007065
 20
4.418076767906391
  0
LWPOLYLINE
  5
20C
330
1F
100
AcDbEntity
  8
0
  6
Continuous
 62
     8
370
    15
100
AcDbPolyline
 90
       13
 70
   128
 43
0.0
 10
3.337253014014064
 20
5.062820834582073
 10
3.339898358244002
 20
5.064955045963997
 10
3.34661545043241
 20
5.067752529523785
 10
3.354440124374888
 20
5.068124715485749
 10
3.3626771045658
 20
5.066038549639332
 10
3.370594497474609
 20
5.061679392733636
 10
3.377488829724005
 20
5.055434526228556
 10
3.382747485519171
 20
5.047858909703465
 10
3.385903225088671
 20
5.039625615895109
 10
3.386675647495855
 20
5.031466211459352
 10
3.384996115022435
 20
5.024105726069471
 10
3.381013862658285
 20
5.018198158921769
 10
3.380907887007065
 20
5.018093877432383
  0
LWPOLYLINE
  5
20D
330
1F
100
AcDbEntity
  8
0
  6
Continuous
 62
     8
370
    15
100
AcDbPolyline
 90
       13
 70
   128
 43
0.0
 10
3.337253014014064
 20
5.662837893821496
 10
3.339898358244002
 20
5.664972105203422
 10
3.34661545043241
 20
5.667769689336343
 10
3.354440124374888
 20
5.668141850155024
 10
3.3626771045658
 20
5.666055684308608
 10
3.370594497474609
 20
5.661696527402911
 10
3.377488829724005
 20
5.655451686041116
 10
3.382747485519171
 20
5.64787596894289
 10
3.385903225088671
 20
5.639642675134532
 10
3.386675647495855
 20
5.631483346128628
 10
3.384996115022435
 20
5.624122860738746
 10
3.381013862658285
 20
5.618215218161195
 10
3.380907887007065
 20
5.61811096181509
  0
LWPOLYLINE
  5
20E
330
1F
100
AcDbEntity
  8
0
  6
Continuous
 62
     8
370
    15
100
AcDbPolyline
 90
       13
 70
   128
 43
0.0
 10
3.337253014014064
 20
6.262855003347488
 10
3.339898358244002
 20
6.264989214729414
 10
3.34661545043241
 20
6.267786798862335
 10
3.354440124374888
 20
6.268158959681016
 10
3.3626771045658
 20
6.2660727938346
 10
3.370594497474609
 20
6.261713636928903
 10
3.377488829724005
 20
6.255468795567107
 10
3.382747485519171
 20
6.247893078468882
 10
3.385903225088671
 20
6.239659784660524
 10
3.386675647495855
 20
6.23150045565462
 10
3.384996115022435
 20
6.224139970264738
 10
3.381013862658285
 20
6.218232327687187
 10
3.380907887007065
 20
6.218128071341082
  0
LWPOLYLINE
  5
20F
330
1F
100
AcDbEntity
  8
0
  6
Continuous
 62
     8
370
    15
100
AcDbPolyline
 90
       13
 70
   128
 43
0.0
 10
3.075482583877103
 20
3.784511267642444
 10
3.078127954049673
 20
3.786645471973718
 10
3.084845046238081
 20
3.789442955533505
 10
3.092669707209243
 20
3.789815119877512
 10
3.100906674428839
 20
3.78772895755642
 10
3.108824080308964
 20
3.783369797125399
 10
3.115718412558361
 20
3.777124955763602
 10
3.120977061867868
 20
3.769549341001174
 10
3.124132827379999
 20
3.761316040142166
 10
3.124905243301526
 20
3.753156612325788
 10
3.123225691371131
 20
3.745796132223896
 10
3.119243445492639
 20
3.739888588456816
 10
3.119137469841419
 20
3.739784332110712
  0
LWPOLYLINE
  5
210
330
1F
100
AcDbEntity
  8
0
  6
Continuous
 62
     8
370
    15
100
AcDbPolyline
 90
       13
 70
   128
 43
0.0
 10
3.295029084710175
 20
7.777423417856565
 10
3.297674428940113
 20
7.779557528665356
 10
3.304391534099837
 20
7.782355109272953
 10
3.312216195070999
 20
7.782727374190094
 10
3.32045317526191
 20
7.780641208343676
 10
3.32837056817072
 20
7.776282051437981
 10
3.335264900420116
 20
7.770037008929914
 10
3.340523562700939
 20
7.762461390642161
 10
3.343679302270439
 20
7.754228096833804
 10
3.344451718191966
 20
7.746068870163696
 10
3.342772192204203
 20
7.738708383011153
 10
3.338789933354395
 20
7.732800641623128
 10
3.338683970674491
 20
7.732696482324833
  0
LWPOLYLINE
  5
211
330
1F
100
AcDbEntity
  8
0
  6
Continuous
 62
     8
370
    15
100
AcDbPolyline
 90
       13
 70
   128
 43
0.0
 10
3.295029084710175
 20
7.177406308330573
 10
3.297674428940113
 20
7.179540419139364
 10
3.304391534099837
 20
7.182337999746961
 10
3.312216195070999
 20
7.182710264664102
 10
3.32045317526191
 20
7.180624098817684
 10
3.32837056817072
 20
7.176264941911989
 10
3.335264900420116
 20
7.170019899403922
 10
3.340523562700939
 20
7.16244428111617
 10
3.343679302270439
 20
7.154210987307812
 10
3.344451718191966
 20
7.146051760637704
 10
3.342772192204203
 20
7.138691273485161
 10
3.338789933354395
 20
7.132783532097136
 10
3.338683970674491
 20
7.132679372798842
  0
LWPOLYLINE
  5
212
330
1F
100
AcDbEntity
  8
0
  6
Continuous
 62
     8
370
    15
100
AcDbPolyline
 90
       13
 70
   128
 43
0.0
 10
3.337253014014064
 20
8.062906331925464
 10
3.339898358244002
 20
8.065040643880525
 10
3.34661545043241
 20
8.067838026867176
 10
3.354440124374888
 20
8.068210288258994
 10
3.3626771045658
 20
8.066124122412574
 10
3.370594497474609
 20
8.061764965506879
 10
3.377488829724005
 20
8.055520124145083
 10
3.382747485519171
 20
8.047944507619991
 10
3.385903225088671
 20
8.039711213811635
 10
3.386675647495855
 20
8.031551784232595
 10
3.384996115022435
 20
8.024191298842714
 10
3.381013862658285
 20
8.018283756838297
 10
3.380907887007065
 20
8.018179399919057
  0
LWPOLYLINE
  5
213
330
1F
100
AcDbEntity
  8
0
  6
Continuous
 62
     8
370
    15
100
AcDbPolyline
 90
       13
 70
   128
 43
0.0
 10
3.295029084710175
 20
6.577389198804582
 10
3.297674428940113
 20
6.579523309613372
 10
3.304391534099837
 20
6.582320890220968
 10
3.312216195070999
 20
6.58269315513811
 10
3.32045317526191
 20
6.580606989291692
 10
3.32837056817072
 20
6.576247832385997
 10
3.335264900420116
 20
6.57000278987793
 10
3.340523562700939
 20
6.562427171590177
 10
3.343679302270439
 20
6.55419387778182
 10
3.344451718191966
 20
6.546034651111712
 10
3.342772192204203
 20
6.538674163959169
 10
3.338789933354395
 20
6.532766422571144
 10
3.338683970674491
 20
6.532662263272849
  0
LWPOLYLINE
  5
214
330
1F
100
AcDbEntity
  8
0
  6
Continuous
 62
     8
370
    15
100
AcDbPolyline
 90
       13
 70
   128
 43
0.0
 10
3.295029084710175
 20
5.97737208927859
 10
3.297674428940113
 20
5.979506300660515
 10
3.304391534099837
 20
5.982303780694976
 10
3.312216195070999
 20
5.982675945038983
 10
3.32045317526191
 20
5.980589779192565
 10
3.32837056817072
 20
5.976230622286871
 10
3.335264900420116
 20
5.969985780925073
 10
3.340523562700939
 20
5.96241016263732
 10
3.343679302270439
 20
5.954176868828962
 10
3.344451718191966
 20
5.946017441012585
 10
3.342772192204203
 20
5.938656953860042
 10
3.338789933354395
 20
5.932749413618287
 10
3.338683970674491
 20
5.932645153746857
  0
LWPOLYLINE
  5
215
330
1F
100
AcDbEntity
  8
0
  6
Continuous
 62
     8
370
    15
100
AcDbPolyline
 90
       13
 70
   128
 43
0.0
 10
3.295029084710175
 20
5.377354979752598
 10
3.297674428940113
 20
5.379489191134523
 10
3.304391534099837
 20
5.382286671168985
 10
3.312216195070999
 20
5.382658835512992
 10
3.32045317526191
 20
5.380572669666573
 10
3.32837056817072
 20
5.376213512760878
 10
3.335264900420116
 20
5.369968671399082
 10
3.340523562700939
 20
5.362393053111328
 10
3.343679302270439
 20
5.354159759302971
 10
3.344451718191966
 20
5.346000331486593
 10
3.342772192204203
 20
5.33863984433405
 10
3.338789933354395
 20
5.332732304092295
 10
3.338683970674491
 20
5.332627993934298
  0
LWPOLYLINE
  5
216
330
1F
100
AcDbEntity
  8
0
  6
Continuous
 62
     8
370
    15
100
AcDbPolyline
 90
       13
 70
   128
 43
0.0
 10
3.337253014014064
 20
6.86287211287348
 10
3.339898358244002
 20
6.865006424828541
 10
3.34661545043241
 20
6.867803807815193
 10
3.354440124374888
 20
6.868176069207009
 10
3.3626771045658
 20
6.866089903360592
 10
3.370594497474609
 20
6.861730746454895
 10
3.377488829724005
 20
6.855485905093099
 10
3.382747485519171
 20
6.847910288568009
 10
3.385903225088671
 20
6.839676994759651
 10
3.386675647495855
 20
6.831517565180612
 10
3.384996115022435
 20
6.82415707979073
 10
3.381013862658285
 20
6.818249537786313
 10
3.380907887007065
 20
6.818145180867074
  0
LWPOLYLINE
  5
217
330
1F
100
AcDbEntity
  8
0
  6
Continuous
 62
     8
370
    15
100
AcDbPolyline
 90
       13
 70
   128
 43
0.0
 10
3.337253014014064
 20
7.462889222399472
 10
3.339898358244002
 20
7.465023534354533
 10
3.34661545043241
 20
7.467820917341185
 10
3.354440124374888
 20
7.468193178733001
 10
3.3626771045658
 20
7.466107012886583
 10
3.370594497474609
 20
7.461747855980887
 10
3.377488829724005
 20
7.455503014619091
 10
3.382747485519171
 20
7.447927398094
 10
3.385903225088671
 20
7.439694104285643
 10
3.386675647495855
 20
7.431534674706602
 10
3.384996115022435
 20
7.424174189316723
 10
3.381013862658285
 20
7.418266647312306
 10
3.380907887007065
 20
7.418162290393066
  0
LWPOLYLINE
  5
218
330
1F
100
AcDbEntity
  8
0
  6
Continuous
 62
     8
370
    15
100
AcDbPolyline
 90
       13
 70
   128
 43
0.0
 10
3.295029084710175
 20
4.177320760700614
 10
3.297674428940113
 20
4.179454921795972
 10
3.304391534099837
 20
4.182252452117001
 10
3.312216195070999
 20
4.182624616461008
 10
3.32045317526191
 20
4.18053845061459
 10
3.32837056817072
 20
4.176179293708894
 10
3.335264900420116
 20
4.169934452347098
 10
3.340523562700939
 20
4.162358834059344
 10
3.343679302270439
 20
4.154125540250987
 10
3.344451718191966
 20
4.145966112434609
 10
3.342772192204203
 20
4.138605625282066
 10
3.338789933354395
 20
4.132698085040312
 10
3.338683970674491
 20
4.132593774882314
  0
LWPOLYLINE
  5
219
330
1F
100
AcDbEntity
  8
0
  6
Continuous
 62
     8
370
    15
100
AcDbPolyline
 90
       13
 70
   128
 43
0.0
 10
3.295029084710175
 20
4.777337845083323
 10
3.297674428940113
 20
4.779472056465247
 10
3.304391534099837
 20
4.782269549071351
 10
3.312216195070999
 20
4.782641744844462
 10
3.32045317526191
 20
4.780555572712223
 10
3.32837056817072
 20
4.776196403234886
 10
3.335264900420116
 20
4.769951555587269
 10
3.340523562700939
 20
4.762375918442052
 10
3.343679302270439
 20
4.754142630919516
 10
3.344451718191966
 20
4.745983237675154
 10
3.342772192204203
 20
4.738622747379699
 10
3.338789933354395
 20
4.73271517256593
 10
3.338683970674491
 20
4.732610884408306
  0
TEXT
  5
21F
330
1F
100
AcDbEntity
  8
0
100
AcDbText
 10
2.516146930849451
 20
1.684843510210097
 30
0.0
 40
0.25
  1
USP CMST
100
AcDbText
  0
TEXT
  5
220
330
1F
100
AcDbEntity
  8
0
100
AcDbText
 10
1.58814919747553
 20
1.184493853172519
 30
0.0
 40
0.25
  1
SIMPSON CMST
100
AcDbText
  0
ENDSEC
  0
SECTION
  2
OBJECTS
  0
DICTIONARY
  5
C
330
0
100
AcDbDictionary
281
     1
  3
ACAD_COLOR
350
21C
  3
ACAD_GROUP
350
D
  3
ACAD_LAYOUT
350
1A
  3
ACAD_MATERIAL
350
21B
  3
ACAD_MLINESTYLE
350
17
  3
ACAD_PLOTSETTINGS
350
19
  3
ACAD_PLOTSTYLENAME
350
E
  0
DICTIONARY
  5
21C
102
{ACAD_REACTORS
330
C
102
}
330
C
100
AcDbDictionary
281
     1
  0
DICTIONARY
  5
D
102
{ACAD_REACTORS
330
C
102
}
330
C
100
AcDbDictionary
281
     1
  0
DICTIONARY
  5
1A
102
{ACAD_REACTORS
330
C
102
}
330
C
100
AcDbDictionary
281
     1
  3
Layout1
350
1E
  3
Layout2
350
26
  3
Model
350
22
  0
DICTIONARY
  5
21B
102
{ACAD_REACTORS
330
C
102
}
330
C
100
AcDbDictionary
281
     1
  0
DICTIONARY
  5
17
102
{ACAD_REACTORS
330
C
102
}
330
C
100
AcDbDictionary
281
     1
  3
Standard
350
18
  0
DICTIONARY
  5
19
102
{ACAD_REACTORS
330
C
102
}
330
C
100
AcDbDictionary
281
     1
  0
ACDBDICTIONARYWDFLT
  5
E
102
{ACAD_REACTORS
330
C
102
}
330
C
100
AcDbDictionary
281
     1
  3
Normal
350
F
100
AcDbDictionaryWithDefault
340
F
  0
LAYOUT
  5
1E
102
{ACAD_REACTORS
330
1A
102
}
330
1A
100
AcDbPlotSettings
  1

  2
none_device
  4

  6

 40
0.0
 41
0.0
 42
0.0
 43
0.0
 44
0.0
 45
0.0
 46
0.0
 47
0.0
 48
0.0
 49
0.0
140
0.0
141
0.0
142
1.0
143
1.0
 70
   688
 72
     0
 73
     0
 74
     5
  7

 75
    16
147
1.0
 76
     0
 77
     2
 78
   300
148
0.0
149
0.0
100
AcDbLayout
  1
Layout1
 70
     1
 71
     1
 10
0.0
 20
0.0
 11
12.0
 21
9.0
 12
0.0
 22
0.0
 32
0.0
 14
1.000000000000000E+20
 24
1.000000000000000E+20
 34
1.000000000000000E+20
 15
-1.000000000000000E+20
 25
-1.000000000000000E+20
 35
-1.000000000000000E+20
146
0.0
 13
0.0
 23
0.0
 33
0.0
 16
1.0
 26
0.0
 36
0.0
 17
0.0
 27
1.0
 37
0.0
 76
     0
330
1B
  0
LAYOUT
  5
26
102
{ACAD_REACTORS
330
1A
102
}
330
1A
100
AcDbPlotSettings
  1

  2
none_device
  4

  6

 40
0.0
 41
0.0
 42
0.0
 43
0.0
 44
0.0
 45
0.0
 46
0.0
 47
0.0
 48
0.0
 49
0.0
140
0.0
141
0.0
142
1.0
143
1.0
 70
   688
 72
     0
 73
     0
 74
     5
  7

 75
    16
147
1.0
 76
     0
 77
     2
 78
   300
148
0.0
149
0.0
100
AcDbLayout
  1
Layout2
 70
     1
 71
     2
 10
0.0
 20
0.0
 11
0.0
 21
0.0
 12
0.0
 22
0.0
 32
0.0
 14
0.0
 24
0.0
 34
0.0
 15
0.0
 25
0.0
 35
0.0
146
0.0
 13
0.0
 23
0.0
 33
0.0
 16
1.0
 26
0.0
 36
0.0
 17
0.0
 27
1.0
 37
0.0
 76
     0
330
23
  0
LAYOUT
  5
22
102
{ACAD_REACTORS
330
1A
102
}
330
1A
100
AcDbPlotSettings
  1

  2
none_device
  4

  6

 40
0.0
 41
0.0
 42
0.0
 43
0.0
 44
0.0
 45
0.0
 46
0.0
 47
0.0
 48
0.0
 49
0.0
140
0.0
141
0.0
142
1.0
143
1.0
 70
  1712
 72
     0
 73
     0
 74
     0
  7

 75
     0
147
1.0
 76
     0
 77
     2
 78
   300
148
0.0
149
0.0
100
AcDbLayout
  1
Model
 70
     1
 71
     0
 10
0.0
 20
0.0
 11
8.5
 21
11.0
 12
0.0
 22
0.0
 32
0.0
 14
0.0
 24
0.0
 34
0.0
 15
8.5
 25
11.0
 35
0.0
146
0.0
 13
0.0
 23
0.0
 33
0.0
 16
1.0
 26
0.0
 36
0.0
 17
0.0
 27
1.0
 37
0.0
 76
     0
330
1F
  0
MLINESTYLE
  5
18
102
{ACAD_REACTORS
330
17
102
}
330
17
100
AcDbMlineStyle
  2
STANDARD
 70
     0
  3

 62
   256
 51
90.0
 52
90.0
 71
     2
 49
0.5
 62
   256
  6
BYLAYER
 49
-0.5
 62
   256
  6
BYLAYER
  0
ACDBPLACEHOLDER
  5
F
102
{ACAD_REACTORS
330
E
102
}
330
E
  0
ENDSEC
  0
EOF
