  0
SECTION
  2
HEADER
  9
$ACADVER
  1
AC1018
  9
$ACADMAINTVER
 70
     0
  9
$DWGCODEPAGE
  3
ANSI_1252
  9
$INSBASE
 10
0.0
 20
0.0
 30
0.0
  9
$EXTMIN
 10
1.701401329971401
 20
2.708728372080918
 30
0.0
  9
$EXTMAX
 10
7.446643916015367
 20
9.418860914148607
 30
0.0
  9
$LIMMIN
 10
0.0
 20
0.0
  9
$LIMMAX
 10
8.5
 20
11.0
  9
$ORTHOMODE
 70
     0
  9
$REGENMODE
 70
     1
  9
$FILLMODE
 70
     1
  9
$QTEXTMODE
 70
     0
  9
$MIRRTEXT
 70
     1
  9
$LTSCALE
 40
1.0
  9
$ATTMODE
 70
     1
  9
$TEXTSIZE
 40
0.25
  9
$TRACEWID
 40
0.05
  9
$TEXTSTYLE
  7
Standard
  9
$CLAYER
  8
0
  9
$CELTYPE
  6
ByLayer
  9
$CECOLOR
 62
   256
  9
$CELTSCALE
 40
1.0
  9
$DISPSILH
 70
     0
  9
$DIMSCALE
 40
1.0
  9
$DIMASZ
 40
0.156
  9
$DIMEXO
 40
0.05
  9
$DIMDLI
 40
0.38
  9
$DIMRND
 40
0.0
  9
$DIMDLE
 40
0.0
  9
$DIMEXE
 40
0.125
  9
$DIMTP
 40
0.0
  9
$DIMTM
 40
0.0
  9
$DIMTXT
 40
0.125
  9
$DIMCEN
 40
0.09
  9
$DIMTSZ
 40
0.0
  9
$DIMTOL
 70
     0
  9
$DIMLIM
 70
     0
  9
$DIMTIH
 70
     1
  9
$DIMTOH
 70
     1
  9
$DIMSE1
 70
     0
  9
$DIMSE2
 70
     0
  9
$DIMTAD
 70
     0
  9
$DIMZIN
 70
     0
  9
$DIMBLK
  1

  9
$DIMASO
 70
     1
  9
$DIMSHO
 70
     1
  9
$DIMPOST
  1

  9
$DIMAPOST
  1

  9
$DIMALT
 70
     0
  9
$DIMALTD
 70
     2
  9
$DIMALTF
 40
25.4
  9
$DIMLFAC
 40
8.0
  9
$DIMTOFL
 70
     0
  9
$DIMTVP
 40
0.0
  9
$DIMTIX
 70
     0
  9
$DIMSOXD
 70
     0
  9
$DIMSAH
 70
     0
  9
$DIMBLK1
  1

  9
$DIMBLK2
  1

  9
$DIMSTYLE
  2
Standard
  9
$DIMCLRD
 70
     0
  9
$DIMCLRE
 70
     0
  9
$DIMCLRT
 70
     0
  9
$DIMTFAC
 40
1.0
  9
$DIMGAP
 40
0.06
  9
$DIMJUST
 70
     0
  9
$DIMSD1
 70
     0
  9
$DIMSD2
 70
     0
  9
$DIMTOLJ
 70
     1
  9
$DIMTZIN
 70
     0
  9
$DIMALTZ
 70
     0
  9
$DIMALTTZ
 70
     0
  9
$DIMUPT
 70
     0
  9
$DIMDEC
 70
     3
  9
$DIMTDEC
 70
     3
  9
$DIMALTU
 70
     2
  9
$DIMALTTD
 70
     2
  9
$DIMTXSTY
  7
Standard
  9
$DIMAUNIT
 70
     0
  9
$DIMADEC
 70
     0
  9
$DIMALTRND
 40
0.0
  9
$DIMAZIN
 70
     0
  9
$DIMDSEP
 70
    46
  9
$DIMATFIT
 70
     3
  9
$DIMFRAC
 70
     0
  9
$DIMLDRBLK
  1

  9
$DIMLUNIT
 70
     2
  9
$DIMLWD
 70
    -2
  9
$DIMLWE
 70
    -2
  9
$DIMTMOVE
 70
     0
  9
$LUNITS
 70
     2
  9
$LUPREC
 70
     3
  9
$SKETCHINC
 40
0.1
  9
$FILLETRAD
 40
0.5
  9
$AUNITS
 70
     0
  9
$AUPREC
 70
     0
  9
$MENU
  1
.
  9
$ELEVATION
 40
0.0
  9
$PELEVATION
 40
0.0
  9
$THICKNESS
 40
0.0
  9
$LIMCHECK
 70
     0
  9
$CHAMFERA
 40
0.5
  9
$CHAMFERB
 40
0.5
  9
$CHAMFERC
 40
1.0
  9
$CHAMFERD
 40
0.0
  9
$SKPOLY
 70
     0
  9
$TDCREATE
 40
2456513.394860440
  9
$TDUCREATE
 40
2456513.603193773
  9
$TDUPDATE
 40
2456570.346849606
  9
$TDUUPDATE
 40
2456570.555182940
  9
$TDINDWG
 40
0.0016477778
  9
$TDUSRTIMER
 40
0.0016477778
  9
$USRTIMER
 70
     1
  9
$ANGBASE
 50
0.0
  9
$ANGDIR
 70
     0
  9
$PDMODE
 70
     0
  9
$PDSIZE
 40
-1.0
  9
$PLINEWID
 40
0.0
  9
$SPLFRAME
 70
     0
  9
$SPLINETYPE
 70
     6
  9
$SPLINESEGS
 70
     8
  9
$HANDSEED
  5
C4
  9
$SURFTAB1
 70
     6
  9
$SURFTAB2
 70
     6
  9
$SURFTYPE
 70
     6
  9
$SURFU
 70
     6
  9
$SURFV
 70
     6
  9
$UCSBASE
  2

  9
$UCSNAME
  2

  9
$UCSORG
 10
0.0
 20
0.0
 30
0.0
  9
$UCSXDIR
 10
1.0
 20
0.0
 30
0.0
  9
$UCSYDIR
 10
0.0
 20
1.0
 30
0.0
  9
$UCSORTHOREF
  2

  9
$UCSORTHOVIEW
 70
     0
  9
$UCSORGTOP
 10
0.0
 20
0.0
 30
0.0
  9
$UCSORGBOTTOM
 10
0.0
 20
0.0
 30
0.0
  9
$UCSORGLEFT
 10
0.0
 20
0.0
 30
0.0
  9
$UCSORGRIGHT
 10
0.0
 20
0.0
 30
0.0
  9
$UCSORGFRONT
 10
0.0
 20
0.0
 30
0.0
  9
$UCSORGBACK
 10
0.0
 20
0.0
 30
0.0
  9
$PUCSBASE
  2

  9
$PUCSNAME
  2

  9
$PUCSORG
 10
0.0
 20
0.0
 30
0.0
  9
$PUCSXDIR
 10
1.0
 20
0.0
 30
0.0
  9
$PUCSYDIR
 10
0.0
 20
1.0
 30
0.0
  9
$PUCSORTHOREF
  2

  9
$PUCSORTHOVIEW
 70
     0
  9
$PUCSORGTOP
 10
0.0
 20
0.0
 30
0.0
  9
$PUCSORGBOTTOM
 10
0.0
 20
0.0
 30
0.0
  9
$PUCSORGLEFT
 10
0.0
 20
0.0
 30
0.0
  9
$PUCSORGRIGHT
 10
0.0
 20
0.0
 30
0.0
  9
$PUCSORGFRONT
 10
0.0
 20
0.0
 30
0.0
  9
$PUCSORGBACK
 10
0.0
 20
0.0
 30
0.0
  9
$USERI1
 70
     0
  9
$USERI2
 70
     0
  9
$USERI3
 70
     0
  9
$USERI4
 70
     0
  9
$USERI5
 70
     0
  9
$USERR1
 40
0.0
  9
$USERR2
 40
0.0
  9
$USERR3
 40
0.0
  9
$USERR4
 40
0.0
  9
$USERR5
 40
0.0
  9
$WORLDVIEW
 70
     1
  9
$SHADEDGE
 70
     3
  9
$SHADEDIF
 70
    70
  9
$TILEMODE
 70
     1
  9
$MAXACTVP
 70
    64
  9
$PINSBASE
 10
0.0
 20
0.0
 30
0.0
  9
$PLIMCHECK
 70
     0
  9
$PEXTMIN
 10
1.000000000000000E+20
 20
1.000000000000000E+20
 30
1.000000000000000E+20
  9
$PEXTMAX
 10
-1.000000000000000E+20
 20
-1.000000000000000E+20
 30
-1.000000000000000E+20
  9
$PLIMMIN
 10
0.0
 20
0.0
  9
$PLIMMAX
 10
12.0
 20
9.0
  9
$UNITMODE
 70
     0
  9
$VISRETAIN
 70
     1
  9
$PLINEGEN
 70
     0
  9
$PSLTSCALE
 70
     1
  9
$TREEDEPTH
 70
  3020
  9
$CMLSTYLE
  2
Standard
  9
$CMLJUST
 70
     0
  9
$CMLSCALE
 40
1.0
  9
$PROXYGRAPHICS
 70
     1
  9
$MEASUREMENT
 70
     0
  9
$CELWEIGHT
370
    -1
  9
$ENDCAPS
280
     0
  9
$JOINSTYLE
280
     0
  9
$LWDISPLAY
290
     1
  9
$INSUNITS
 70
     1
  9
$HYPERLINKBASE
  1

  9
$STYLESHEET
  1

  9
$XEDIT
290
     1
  9
$CEPSNTYPE
380
     0
  9
$PSTYLEMODE
290
     1
  9
$FINGERPRINTGUID
  2
{7B210ADA-A9E4-4748-BD25-F9A1DC41A547}
  9
$VERSIONGUID
  2
{61E728BF-1C43-4AFD-AB45-B401D6D19F59}
  9
$EXTNAMES
290
     1
  9
$PSVPSCALE
 40
0.0
  9
$OLESTARTUP
290
     0
  9
$SORTENTS
280
   127
  9
$INDEXCTL
280
     0
  9
$HIDETEXT
280
     0
  9
$XCLIPFRAME
290
     0
  9
$HALOGAP
280
     0
  9
$OBSCOLOR
 70
   257
  9
$OBSLTYPE
280
     0
  9
$INTERSECTIONDISPLAY
280
     0
  9
$INTERSECTIONCOLOR
 70
   257
  9
$DIMASSOC
280
     1
  9
$PROJECTNAME
  1

  0
ENDSEC
  0
SECTION
  2
CLASSES
  0
CLASS
  1
ACDBDICTIONARYWDFLT
  2
AcDbDictionaryWithDefault
  3
ObjectDBX Classes
 90
        0
 91
        1
280
     0
281
     0
  0
CLASS
  1
VISUALSTYLE
  2
AcDbVisualStyle
  3
ObjectDBX Classes
 90
     4095
 91
        0
280
     0
281
     0
  0
CLASS
  1
MATERIAL
  2
AcDbMaterial
  3
ObjectDBX Classes
 90
        0
 91
        0
280
     0
281
     0
  0
ENDSEC
  0
SECTION
  2
TABLES
  0
TABLE
  2
VPORT
  5
8
330
0
100
AcDbSymbolTable
 70
     3
  0
VPORT
  5
C3
330
8
100
AcDbSymbolTableRecord
100
AcDbViewportTableRecord
  2
*Active
 70
     0
 10
0.0
 20
0.0
 11
1.0
 21
1.0
 12
5.838015552560385
 22
5.753827890794514
 13
0.0
 23
0.0
 14
0.5
 24
0.5
 15
0.5
 25
0.5
 16
0.0
 26
0.0
 36
1.0
 17
0.0
 27
0.0
 37
0.0
 40
8.626882331075062
 41
2.144329896907216
 42
50.0
 43
0.0
 44
0.0
 50
0.0
 51
0.0
 71
     0
 72
  2000
 73
     1
 74
     3
 75
     0
 76
     0
 77
     0
 78
     0
281
     0
 65
     1
110
0.0
120
0.0
130
0.0
111
1.0
121
0.0
131
0.0
112
0.0
122
1.0
132
0.0
 79
     0
146
0.0
  0
ENDTAB
  0
TABLE
  2
LTYPE
  5
5
330
0
100
AcDbSymbolTable
 70
     6
  0
LTYPE
  5
14
330
5
100
AcDbSymbolTableRecord
100
AcDbLinetypeTableRecord
  2
ByBlock
 70
     0
  3

 72
    65
 73
     0
 40
0.0
  0
LTYPE
  5
15
330
5
100
AcDbSymbolTableRecord
100
AcDbLinetypeTableRecord
  2
ByLayer
 70
     0
  3

 72
    65
 73
     0
 40
0.0
  0
LTYPE
  5
16
330
5
100
AcDbSymbolTableRecord
100
AcDbLinetypeTableRecord
  2
Continuous
 70
     0
  3
Solid line
 72
    65
 73
     0
 40
0.0
  0
LTYPE
  5
3F
330
5
100
AcDbSymbolTableRecord
100
AcDbLinetypeTableRecord
  2
HIDDEN
 70
     0
  3
Hidden __ __ __ __ __ __ __ __ __ __ __ __ __ __
 72
    65
 73
     2
 40
0.075
 49
0.05
 74
     0
 49
-0.025
 74
     0
  0
LTYPE
  5
40
330
5
100
AcDbSymbolTableRecord
100
AcDbLinetypeTableRecord
  2
PHANTOM
 70
     0
  3
Phantom ______  __  __  ______  __  __  ______
 72
    65
 73
     6
 40
0.5
 49
0.25
 74
     0
 49
-0.05
 74
     0
 49
0.05
 74
     0
 49
-0.05
 74
     0
 49
0.05
 74
     0
 49
-0.05
 74
     0
  0
LTYPE
  5
41
330
5
100
AcDbSymbolTableRecord
100
AcDbLinetypeTableRecord
  2
CENTER
 70
     0
  3
Center ____ _ ____ _ ____ _ ____ _ ____ _ ____
 72
    65
 73
     4
 40
0.4
 49
0.25
 74
     0
 49
-0.05
 74
     0
 49
0.05
 74
     0
 49
-0.05
 74
     0
  0
LTYPE
  5
42
330
5
100
AcDbSymbolTableRecord
100
AcDbLinetypeTableRecord
  2
CENTERX2
 70
     0
  3
Center (2x) ________  __  ________  __  _____
 72
    65
 73
     4
 40
0.8
 49
0.5
 74
     0
 49
-0.1
 74
     0
 49
0.1
 74
     0
 49
-0.1
 74
     0
  0
LTYPE
  5
43
330
5
100
AcDbSymbolTableRecord
100
AcDbLinetypeTableRecord
  2
DOT2
 70
     0
  3
Dot (.5x) ........................................
 72
    65
 73
     2
 40
0.025
 49
0.0
 74
     0
 49
-0.025
 74
     0
  0
ENDTAB
  0
TABLE
  2
LAYER
  5
2
330
0
100
AcDbSymbolTable
 70
     7
  0
LAYER
  5
10
330
2
100
AcDbSymbolTableRecord
100
AcDbLayerTableRecord
  2
0
 70
     0
 62
     7
  6
Continuous
370
    -3
390
F
  0
LAYER
  5
44
330
2
100
AcDbSymbolTableRecord
100
AcDbLayerTableRecord
  2
SLD-0
 70
     0
 62
   179
  6
Continuous
370
    -3
390
F
  0
LAYER
  5
45
330
2
100
AcDbSymbolTableRecord
100
AcDbLayerTableRecord
  2
SLD-DEFPOINTS
 70
     0
 62
   179
  6
Continuous
370
    -3
390
F
  0
LAYER
  5
46
330
2
100
AcDbSymbolTableRecord
100
AcDbLayerTableRecord
  2
OBJ
 70
     0
 62
   179
  6
Continuous
370
    -3
390
F
  0
LAYER
  5
47
330
2
100
AcDbSymbolTableRecord
100
AcDbLayerTableRecord
  2
FORMAT
 70
     0
 62
     7
  6
Continuous
370
    -3
390
F
  0
LAYER
  5
48
330
2
100
AcDbSymbolTableRecord
100
AcDbLayerTableRecord
  2
TOLERANCES
 70
     0
 62
     7
  6
Continuous
370
    -3
390
F
  0
LAYER
  5
49
330
2
100
AcDbSymbolTableRecord
100
AcDbLayerTableRecord
  2
QTY-BLANK-SIZE-1
 70
     0
 62
     7
  6
Continuous
370
    -3
390
F
  0
ENDTAB
  0
TABLE
  2
STYLE
  5
3
330
0
100
AcDbSymbolTable
 70
     2
  0
STYLE
  5
11
330
3
100
AcDbSymbolTableRecord
100
AcDbTextStyleTableRecord
  2
Standard
 70
     0
 40
0.0
 41
1.0
 50
0.0
 71
     0
 42
0.25
  3
txt
  4

  0
STYLE
  5
B4
330
3
100
AcDbSymbolTableRecord
100
AcDbTextStyleTableRecord
  2
SLDTEXTSTYLE0
 70
     0
 40
0.0
 41
0.7
 50
0.0
 71
     0
 42
0.2
  3
TXT
  4

  0
ENDTAB
  0
TABLE
  2
VIEW
  5
6
330
0
100
AcDbSymbolTable
 70
     0
  0
ENDTAB
  0
TABLE
  2
UCS
  5
7
330
0
100
AcDbSymbolTable
 70
     0
  0
ENDTAB
  0
TABLE
  2
APPID
  5
9
330
0
100
AcDbSymbolTable
 70
     1
  0
APPID
  5
12
330
9
100
AcDbSymbolTableRecord
100
AcDbRegAppTableRecord
  2
ACAD
 70
     0
  0
ENDTAB
  0
TABLE
  2
DIMSTYLE
  5
A
330
0
100
AcDbSymbolTable
 70
     1
100
AcDbDimStyleTable
 71
     0
  0
DIMSTYLE
105
27
330
A
100
AcDbSymbolTableRecord
100
AcDbDimStyleTableRecord
  2
Standard
 70
     0
340
11
  0
ENDTAB
  0
TABLE
  2
BLOCK_RECORD
  5
1
330
0
100
AcDbSymbolTable
 70
     1
  0
BLOCK_RECORD
  5
1F
330
1
100
AcDbSymbolTableRecord
100
AcDbBlockTableRecord
  2
*Model_Space
340
22
  0
BLOCK_RECORD
  5
1B
330
1
100
AcDbSymbolTableRecord
100
AcDbBlockTableRecord
  2
*Paper_Space
340
1E
  0
BLOCK_RECORD
  5
23
330
1
100
AcDbSymbolTableRecord
100
AcDbBlockTableRecord
  2
*Paper_Space0
340
26
  0
ENDTAB
  0
ENDSEC
  0
SECTION
  2
BLOCKS
  0
BLOCK
  5
20
330
1F
100
AcDbEntity
  8
0
100
AcDbBlockBegin
  2
*Model_Space
 70
     0
 10
0.0
 20
0.0
 30
0.0
  3
*Model_Space
  1

  0
ENDBLK
  5
21
330
1F
100
AcDbEntity
  8
0
100
AcDbBlockEnd
  0
BLOCK
  5
1C
330
1B
100
AcDbEntity
 67
     1
  8
0
100
AcDbBlockBegin
  2
*Paper_Space
 70
     0
 10
0.0
 20
0.0
 30
0.0
  3
*Paper_Space
  1

  0
ENDBLK
  5
1D
330
1B
100
AcDbEntity
 67
     1
  8
0
100
AcDbBlockEnd
  0
BLOCK
  5
24
330
23
100
AcDbEntity
  8
0
100
AcDbBlockBegin
  2
*Paper_Space0
 70
     0
 10
0.0
 20
0.0
 30
0.0
  3
*Paper_Space0
  1

  0
ENDBLK
  5
25
330
23
100
AcDbEntity
  8
0
100
AcDbBlockEnd
  0
ENDSEC
  0
SECTION
  2
ENTITIES
  0
LINE
  5
4A
330
1F
100
AcDbEntity
  8
0
  6
Continuous
 62
     7
370
    15
100
AcDbLine
 10
5.317552811788521
 20
6.915673525056596
 30
0.0
 11
5.298991242218995
 21
6.924802398563874
 31
0.0
  0
LINE
  5
4B
330
1F
100
AcDbEntity
  8
0
  6
Continuous
 62
     7
370
    15
100
AcDbLine
 10
5.230033646732871
 20
6.784592178843235
 30
0.0
 11
5.248595216302398
 21
6.775463305335956
 31
0.0
  0
LINE
  5
4C
330
1F
100
AcDbEntity
  8
0
  6
Continuous
 62
     7
370
    15
100
AcDbLine
 10
5.317552811788521
 20
7.623116677480124
 30
0.0
 11
5.298991242218995
 21
7.632245550987403
 31
0.0
  0
LINE
  5
4D
330
1F
100
AcDbEntity
  8
0
  6
Continuous
 62
     7
370
    15
100
AcDbLine
 10
5.230033646732871
 20
7.492035351220057
 30
0.0
 11
5.248595216302398
 21
7.48290647771278
 31
0.0
  0
LINE
  5
4E
330
1F
100
AcDbEntity
  8
0
  6
Continuous
 62
     7
370
    15
100
AcDbLine
 10
4.739139480998156
 20
6.786250789060364
 30
0.0
 11
4.757700998713785
 21
6.795379637065074
 31
0.0
  0
LINE
  5
4F
330
1F
100
AcDbEntity
  8
0
  6
Continuous
 62
     7
370
    15
100
AcDbLine
 10
4.68874340322766
 20
6.93558986227287
 30
0.0
 11
4.670181885512032
 21
6.926461014268159
 31
0.0
  0
LINE
  5
50
330
1F
100
AcDbEntity
  8
0
  6
Continuous
 62
     7
370
    15
100
AcDbLine
 10
5.450135347863056
 20
6.817623609541342
 30
0.0
 11
5.43157377829353
 21
6.826752483048618
 31
0.0
  0
LINE
  5
51
330
1F
100
AcDbEntity
  8
0
  6
Continuous
 62
     7
370
    15
100
AcDbLine
 10
5.362616156880458
 20
6.686542245089539
 30
0.0
 11
5.381177726449982
 21
6.677413371582262
 31
0.0
  0
LINE
  5
52
330
1F
100
AcDbEntity
  8
0
  6
Continuous
 62
     7
370
    15
100
AcDbLine
 10
4.871721965218793
 20
6.557788522382551
 30
0.0
 11
4.890283482934422
 21
6.566917370387261
 31
0.0
  0
LINE
  5
53
330
1F
100
AcDbEntity
  8
0
  6
Continuous
 62
     7
370
    15
100
AcDbLine
 10
4.821325939302196
 20
6.707127564605333
 30
0.0
 11
4.802764421586568
 21
6.697998716600622
 31
0.0
  0
LINE
  5
54
330
1F
100
AcDbEntity
  8
0
  6
Continuous
 62
     7
370
    15
100
AcDbLine
 10
4.871721965218793
 20
7.265231642880809
 30
0.0
 11
4.890283482934422
 21
7.274360490885519
 31
0.0
  0
LINE
  5
55
330
1F
100
AcDbEntity
  8
0
  6
Continuous
 62
     7
370
    15
100
AcDbLine
 10
4.821325939302196
 20
7.414570729000838
 30
0.0
 11
4.802764421586568
 21
7.405441880996129
 31
0.0
  0
LINE
  5
56
330
1F
100
AcDbEntity
  8
0
  6
Continuous
 62
     7
370
    15
100
AcDbLine
 10
4.739139480998156
 20
7.493693934999073
 30
0.0
 11
4.757700998713785
 21
7.502822783003783
 31
0.0
  0
LINE
  5
57
330
1F
100
AcDbEntity
  8
0
  6
Continuous
 62
     7
370
    15
100
AcDbLine
 10
4.68874340322766
 20
7.643032982771128
 30
0.0
 11
4.670181885512032
 21
7.633904134766417
 31
0.0
  0
LINE
  5
58
330
1F
100
AcDbEntity
  8
0
  6
Continuous
 62
     7
370
    15
100
AcDbLine
 10
5.450135347863056
 20
7.52506673652442
 30
0.0
 11
5.43157377829353
 21
7.534195610031698
 31
0.0
  0
LINE
  5
59
330
1F
100
AcDbEntity
  8
0
  6
Continuous
 62
     7
370
    15
100
AcDbLine
 10
5.362616156880458
 20
7.393985397513069
 30
0.0
 11
5.381177726449982
 21
7.384856524005792
 31
0.0
  0
LWPOLYLINE
  5
5A
330
1F
100
AcDbEntity
  8
0
  6
Continuous
 62
     7
370
    15
100
AcDbPolyline
 90
       13
 70
   128
 43
0.0
 10
5.298991242218995
 20
6.924802398563874
 10
5.305008213012127
 20
6.920881392949158
 10
5.314284408726894
 20
6.90869017234267
 10
5.319138141020218
 20
6.891701428871908
 10
5.319138141020218
 20
6.871424715703405
 10
5.314284408726894
 20
6.849661695584853
 10
5.305008213012127
 20
6.828346103453535
 10
5.29213382344276
 20
6.809371947625538
 10
5.276805085160649
 20
6.794425115801073
 10
5.260384148219356
 20
6.784833758182115
 10
5.244330025754396
 20
6.781450081344979
 10
5.230069166653183
 20
6.784574721855681
 10
5.230033646732871
 20
6.784592178843235
  0
LWPOLYLINE
  5
5B
330
1F
100
AcDbEntity
  8
0
  6
Continuous
 62
     7
370
    15
100
AcDbPolyline
 90
       21
 70
   128
 43
0.0
 10
5.209269738396176
 20
6.829266870108465
 10
5.211887012057272
 20
6.810206363741114
 10
5.219482571075327
 20
6.795586026608738
 10
5.231312882403101
 20
6.786836995485913
 10
5.246220048492308
 20
6.784815752233267
 10
5.262744693230134
 20
6.789720069593593
 10
5.279269337967962
 20
6.801069915546265
 10
5.294176504057166
 20
6.817754318944995
 10
5.30600681538494
 20
6.838140018535802
 10
5.313602374402996
 20
6.860231587800047
 10
5.316219648064094
 20
6.881866527336595
 10
5.313602374402996
 20
6.900927041685264
 10
5.30600681538494
 20
6.91554737881764
 10
5.294176504057166
 20
6.924296401959148
 10
5.279269337967962
 20
6.926317649202452
 10
5.262744693230134
 20
6.921413327851467
 10
5.246220048492308
 20
6.910063485889454
 10
5.231312882403101
 20
6.893379078500065
 10
5.219482571075327
 20
6.872993386890577
 10
5.211887012057272
 20
6.850901817626331
 10
5.209269738396176
 20
6.829266870108465
  0
LWPOLYLINE
  5
5C
330
1F
100
AcDbEntity
  8
0
  6
Continuous
 62
     7
370
    15
100
AcDbPolyline
 90
       13
 70
   128
 43
0.0
 10
5.248595216302398
 20
6.775463305335956
 10
5.248630736222709
 20
6.775445848348403
 10
5.262891595323923
 20
6.7723212078377
 10
5.278945717788882
 20
6.775704884674837
 10
5.295366654730176
 20
6.785296242293796
 10
5.310695393012287
 20
6.80024307411826
 10
5.323569782581654
 20
6.819217229946257
 10
5.332845978296421
 20
6.840532822077576
 10
5.337699710589745
 20
6.862295842196128
 10
5.337699710589745
 20
6.88257255536463
 10
5.332845978296421
 20
6.899561298835394
 10
5.323569782581654
 20
6.911752519441879
 10
5.317552811788521
 20
6.915673525056596
  0
LWPOLYLINE
  5
5D
330
1F
100
AcDbEntity
  8
0
  6
Continuous
 62
     7
370
    15
100
AcDbPolyline
 90
       13
 70
   128
 43
0.0
 10
5.298991242218995
 20
7.632245550987403
 10
5.305008213012127
 20
7.628324577297957
 10
5.314284408726894
 20
7.616133332747518
 10
5.319138141020218
 20
7.599144581295438
 10
5.319138141020218
 20
7.578867884089569
 10
5.314284408726894
 20
7.557104848008382
 10
5.305008213012127
 20
7.535789243905087
 10
5.29213382344276
 20
7.516815072114455
 10
5.276805085160649
 20
7.501868280196578
 10
5.260384148219356
 20
7.492276902624325
 10
5.244330025754396
 20
7.488893229777848
 10
5.230069166653183
 20
7.492017894232503
 10
5.230033646732871
 20
7.492035351220057
  0
LWPOLYLINE
  5
5E
330
1F
100
AcDbEntity
  8
0
  6
Continuous
 62
     7
370
    15
100
AcDbPolyline
 90
       21
 70
   128
 43
0.0
 10
5.209269738396176
 20
7.536709998588041
 10
5.211887012057272
 20
7.517649516164643
 10
5.219482571075327
 20
7.503029187013584
 10
5.231312882403101
 20
7.494280147909441
 10
5.246220048492308
 20
7.492258900666138
 10
5.262744693230134
 20
7.497163190091853
 10
5.279269337967962
 20
7.508513063979136
 10
5.294176504057166
 20
7.525197471368525
 10
5.30600681538494
 20
7.545583178940648
 10
5.313602374402996
 20
7.567674740223577
 10
5.316219648064094
 20
7.589309655816171
 10
5.313602374402996
 20
7.60837020209011
 10
5.30600681538494
 20
7.622990531241169
 10
5.294176504057166
 20
7.631739570345311
 10
5.279269337967962
 20
7.633760817588616
 10
5.262744693230134
 20
7.628856464312359
 10
5.246220048492308
 20
7.617506654275618
 10
5.231312882403101
 20
7.600822246886229
 10
5.219482571075327
 20
7.580436539314105
 10
5.211887012057272
 20
7.558344978031177
 10
5.209269738396176
 20
7.536709998588041
  0
LWPOLYLINE
  5
5F
330
1F
100
AcDbEntity
  8
0
  6
Continuous
 62
     7
370
    15
100
AcDbPolyline
 90
       13
 70
   128
 43
0.0
 10
5.248595216302398
 20
7.48290647771278
 10
5.248630736222709
 20
7.482889020725226
 10
5.262891595323923
 20
7.479764356270571
 10
5.278945717788882
 20
7.483148029117049
 10
5.295366654730176
 20
7.492739406689302
 10
5.310695393012287
 20
7.507686198607177
 10
5.323569782581654
 20
7.526660370397809
 10
5.332845978296421
 20
7.547975974501104
 10
5.337699710589745
 20
7.569739010582292
 10
5.337699710589745
 20
7.59001570778816
 10
5.332845978296421
 20
7.607004459240241
 10
5.323569782581654
 20
7.619195703790679
 10
5.317552811788521
 20
7.623116677480124
  0
ARC
  5
60
330
1F
100
AcDbEntity
  8
0
  6
Continuous
 62
     7
370
    15
100
AcDbCircle
 10
4.712919984899672
 20
6.897409269434056
 30
0.0
 40
0.0451914236428406
100
AcDbArc
 50
122.3426658982299
 51
186.0401163117879
  0
LWPOLYLINE
  5
61
330
1F
100
AcDbEntity
  8
0
  6
Continuous
 62
     7
370
    15
100
AcDbPolyline
 90
        9
 70
   128
 43
0.0
 10
4.757700998713785
 20
6.795379637065074
 10
4.750843528083652
 20
6.792990170706163
 10
4.735514789801541
 20
6.79312117077295
 10
4.719093904714145
 20
6.799681940695009
 10
4.703039730395288
 20
6.812089631083442
 10
4.688778871294075
 20
6.829241705736572
 10
4.677578532976339
 20
6.849614094555915
 10
4.670433688042014
 20
6.871396732765478
 10
4.667979443037067
 20
6.8926540125575
  0
LWPOLYLINE
  5
62
330
1F
100
AcDbEntity
  8
0
  6
Continuous
 62
     7
370
    15
100
AcDbPolyline
 90
       21
 70
   128
 43
0.0
 10
4.67151504923646
 20
6.8926540125575
 10
4.674132322897556
 20
6.871019069030293
 10
4.681727881915612
 20
6.848927501761377
 10
4.693558141389488
 20
6.828541827673137
 10
4.708465307478693
 20
6.811857423276743
 10
4.724990004070419
 20
6.80050755281917
 10
4.741514596954348
 20
6.795603259963745
 10
4.756421763043554
 20
6.797624504214055
 10
4.768252126225227
 20
6.806373509834313
 10
4.775847685243282
 20
6.82099384497136
 10
4.778464958904377
 20
6.84005435532937
 10
4.775847685243282
 20
6.861689298856576
 10
4.768252126225227
 20
6.883780868120822
 10
4.756421763043554
 20
6.904166593214196
 10
4.741514596954348
 20
6.920850992622266
 10
4.724990004070419
 20
6.93220081706303
 10
4.708465307478693
 20
6.937105155935264
 10
4.693558141389488
 20
6.935083916673279
 10
4.681727881915612
 20
6.926334860047886
 10
4.674132322897556
 20
6.911714522915509
 10
4.67151504923646
 20
6.8926540125575
  0
LWPOLYLINE
  5
63
330
1F
100
AcDbEntity
  8
0
  6
Continuous
 62
     7
370
    15
100
AcDbPolyline
 90
        9
 70
   128
 43
0.0
 10
4.649417925321439
 20
6.883525164552789
 10
4.651872170326385
 20
6.862267884760768
 10
4.65901701526071
 20
6.840485246551205
 10
4.670217353578447
 20
6.820112857731861
 10
4.68447821267966
 20
6.802960783078732
 10
4.700532386998516
 20
6.790553092690298
 10
4.716953272085913
 20
6.783992322768241
 10
4.732282010368024
 20
6.783861322701453
 10
4.739139480998156
 20
6.786250789060364
  0
ARC
  5
64
330
1F
100
AcDbEntity
  8
0
  6
Continuous
 62
     7
370
    15
100
AcDbCircle
 10
4.694358467184042
 20
6.888280421429348
 30
0.0
 40
0.0451914236428386
100
AcDbArc
 50
122.3426658982301
 51
186.0401163117904
  0
LWPOLYLINE
  5
65
330
1F
100
AcDbEntity
  8
0
  6
Continuous
 62
     7
370
    15
100
AcDbPolyline
 90
       13
 70
   128
 43
0.0
 10
5.43157377829353
 20
6.826752483048618
 10
5.437590749086663
 20
6.822831476935069
 10
5.446866944801429
 20
6.810640247349602
 10
5.451720677094753
 20
6.793651507869498
 10
5.451720677094753
 20
6.773374790710335
 10
5.446866944801429
 20
6.751611770591783
 10
5.437590749086663
 20
6.730296182451123
 10
5.424716333590347
 20
6.711322013871844
 10
5.409387621235184
 20
6.696375194798663
 10
5.392966684293891
 20
6.686783833189045
 10
5.376912535901983
 20
6.683400147591283
 10
5.362651702727719
 20
6.68652480085327
 10
5.362616156880458
 20
6.686542245089539
  0
LWPOLYLINE
  5
66
330
1F
100
AcDbEntity
  8
0
  6
Continuous
 62
     7
370
    15
100
AcDbPolyline
 90
       21
 70
   128
 43
0.0
 10
5.341852274470711
 20
6.731216949106054
 10
5.344469522204859
 20
6.712156425996761
 10
5.352065081222914
 20
6.697536088864385
 10
5.363895418477636
 20
6.688787070492843
 10
5.378802558639893
 20
6.686765818479573
 10
5.395327229304669
 20
6.691670144600525
 10
5.411851874042497
 20
6.703019994543855
 10
5.426759014204753
 20
6.719704381200642
 10
5.438589351459476
 20
6.740090093542732
 10
5.446184910477532
 20
6.762181662806979
 10
5.448802158211679
 20
6.783816593582901
 10
5.446184910477532
 20
6.802877116692195
 10
5.438589351459476
 20
6.817497451829241
 10
5.426759014204753
 20
6.826246470200782
 10
5.411851874042497
 20
6.828267726703544
 10
5.395327229304669
 20
6.823363408844385
 10
5.378802558639893
 20
6.812013550639262
 10
5.363895418477636
 20
6.795329159492983
 10
5.352065081222914
 20
6.774943447150894
 10
5.344469522204859
 20
6.752851879881977
 10
5.341852274470711
 20
6.731216949106054
  0
LWPOLYLINE
  5
67
330
1F
100
AcDbEntity
  8
0
  6
Continuous
 62
     7
370
    15
100
AcDbPolyline
 90
       13
 70
   128
 43
0.0
 10
5.381177726449982
 20
6.677413371582262
 10
5.381213272297244
 20
6.677395927345992
 10
5.395474105471509
 20
6.674271274084006
 10
5.411528253863416
 20
6.677654959681768
 10
5.427949190804711
 20
6.687246321291385
 10
5.443277903159874
 20
6.702193140364566
 10
5.456152318656189
 20
6.721167308943846
 10
5.465428514370956
 20
6.742482897084506
 10
5.47028224666428
 20
6.764245917203058
 10
5.47028224666428
 20
6.784522634362219
 10
5.465428514370956
 20
6.801511373842323
 10
5.456152318656189
 20
6.813702603427793
 10
5.450135347863056
 20
6.817623609541342
  0
ARC
  5
68
330
1F
100
AcDbEntity
  8
0
  6
Continuous
 62
     7
370
    15
100
AcDbCircle
 10
4.845502517383545
 20
6.668946973502981
 30
0.0
 40
0.0451914202548293
100
AcDbArc
 50
122.342663229862
 51
186.0401189801575
  0
LWPOLYLINE
  5
69
330
1F
100
AcDbEntity
  8
0
  6
Continuous
 62
     7
370
    15
100
AcDbPolyline
 90
        9
 70
   128
 43
0.0
 10
4.890283482934422
 20
6.566917370387261
 10
4.883426064158188
 20
6.564527877029285
 10
4.868097377729975
 20
6.564658843612188
 10
4.851676388934782
 20
6.571219660548721
 10
4.835622266469823
 20
6.583627330422912
 10
4.82136140736861
 20
6.600779411062029
 10
4.810161069050874
 20
6.621151793895385
 10
4.803016224116549
 20
6.642934435097942
 10
4.800561979111603
 20
6.664191714889963
  0
LWPOLYLINE
  5
6A
330
1F
100
AcDbEntity
  8
0
  6
Continuous
 62
     7
370
    15
100
AcDbPolyline
 90
       21
 70
   128
 43
0.0
 10
4.804097585310996
 20
6.664191714889963
 10
4.806714755264295
 20
6.642556826358551
 10
4.814310314282351
 20
6.620465249112987
 10
4.826140677464024
 20
6.600079532000931
 10
4.841047843553229
 20
6.583395124611542
 10
4.857572488291056
 20
6.57204528264953
 10
4.874097184882782
 20
6.567140935795977
 10
4.889004299118089
 20
6.569162208541849
 10
4.900834662299762
 20
6.577911206180788
 10
4.908430221317818
 20
6.592531551294483
 10
4.911047443125015
 20
6.6115920831644
 10
4.908430221317818
 20
6.633226997198382
 10
4.900834662299762
 20
6.655318566462627
 10
4.889004299118089
 20
6.675704291556
 10
4.874097184882782
 20
6.692388669452163
 10
4.857572488291056
 20
6.703738540907401
 10
4.841047843553229
 20
6.708642858267728
 10
4.826140677464024
 20
6.706621615015084
 10
4.814310314282351
 20
6.697872609394825
 10
4.806714755264295
 20
6.683252272262449
 10
4.804097585310996
 20
6.664191714889963
  0
LWPOLYLINE
  5
6B
330
1F
100
AcDbEntity
  8
0
  6
Continuous
 62
     7
370
    15
100
AcDbPolyline
 90
        9
 70
   128
 43
0.0
 10
4.782000461395974
 20
6.655062866885254
 10
4.784454706400921
 20
6.633805587093231
 10
4.791599551335246
 20
6.612022945890675
 10
4.802799889652982
 20
6.59165056305732
 10
4.817060748754196
 20
6.5744984824182
 10
4.833114871219153
 20
6.562090812544012
 10
4.849535860014347
 20
6.555529995607478
 10
4.864864546442559
 20
6.555399029024576
 10
4.871721965218793
 20
6.557788522382551
  0
ARC
  5
6C
330
1F
100
AcDbEntity
  8
0
  6
Continuous
 62
     7
370
    15
100
AcDbCircle
 10
4.826940999667918
 20
6.659818125498268
 30
0.0
 40
0.0451914202548317
100
AcDbArc
 50
122.3426632298627
 51
186.0401189801527
  0
ARC
  5
6D
330
1F
100
AcDbEntity
  8
0
  6
Continuous
 62
     7
370
    15
100
AcDbCircle
 10
4.84550259798429
 20
7.376390096709756
 30
0.0
 40
0.0451914981736309
100
AcDbArc
 50
122.3427216285822
 51
186.0400814535596
  0
LWPOLYLINE
  5
6E
330
1F
100
AcDbEntity
  8
0
  6
Continuous
 62
     7
370
    15
100
AcDbPolyline
 90
        9
 70
   128
 43
0.0
 10
4.890283482934422
 20
7.274360490885519
 10
4.883426064158188
 20
7.271971013490179
 10
4.868097377729975
 20
7.272101996035718
 10
4.851676388934782
 20
7.278662828934886
 10
4.835622266469823
 20
7.291070466883805
 10
4.82136140736861
 20
7.308222531560288
 10
4.810161069050874
 20
7.328594930356279
 10
4.803016224116549
 20
7.350377603484106
 10
4.800561979111603
 20
7.371634859332175
  0
LWPOLYLINE
  5
6F
330
1F
100
AcDbEntity
  8
0
  6
Continuous
 62
     7
370
    15
100
AcDbPolyline
 90
       21
 70
   128
 43
0.0
 10
4.804097585310996
 20
7.371634859332175
 10
4.806714755264295
 20
7.349999994744715
 10
4.814310314282351
 20
7.327908433461787
 10
4.826140677464024
 20
7.307522700387095
 10
4.841047843553229
 20
7.290838261072436
 10
4.857572488291056
 20
7.279488419110423
 10
4.874097184882782
 20
7.27458407225687
 10
4.889004299118089
 20
7.276605376928013
 10
4.900834662299762
 20
7.285354390529588
 10
4.908430221317818
 20
7.299974719680648
 10
4.911047443125015
 20
7.319035227606612
 10
4.908430221317818
 20
7.340670181547181
 10
4.900834662299762
 20
7.36276174283011
 10
4.889004299118089
 20
7.383147412054258
 10
4.874097184882782
 20
7.399831793941079
 10
4.857572488291056
 20
7.411181693330931
 10
4.841047843553229
 20
7.416085982756645
 10
4.826140677464024
 20
7.414064735513342
 10
4.814310314282351
 20
7.405315785762307
 10
4.806714755264295
 20
7.390695456611249
 10
4.804097585310996
 20
7.371634859332175
  0
LWPOLYLINE
  5
70
330
1F
100
AcDbEntity
  8
0
  6
Continuous
 62
     7
370
    15
100
AcDbPolyline
 90
        9
 70
   128
 43
0.0
 10
4.782000461395974
 20
7.362506011327464
 10
4.784454706400921
 20
7.341248755479395
 10
4.791599551335246
 20
7.319466082351568
 10
4.802799889652982
 20
7.299093683555578
 10
4.817060748754196
 20
7.281941618879095
 10
4.833114871219153
 20
7.269533980930177
 10
4.849535860014347
 20
7.262973148031006
 10
4.864864546442559
 20
7.262842165485468
 10
4.871721965218793
 20
7.265231642880809
  0
ARC
  5
71
330
1F
100
AcDbEntity
  8
0
  6
Continuous
 62
     7
370
    15
100
AcDbCircle
 10
4.826941080268667
 20
7.367261248705043
 30
0.0
 40
0.0451914981736372
100
AcDbArc
 50
122.3427216285864
 51
186.0400814535554
  0
ARC
  5
72
330
1F
100
AcDbEntity
  8
0
  6
Continuous
 62
     7
370
    15
100
AcDbCircle
 10
4.712919840438023
 20
7.604852464656374
 30
0.0
 40
0.0451912832269418
100
AcDbArc
 50
122.3425618401795
 51
186.0401744511123
  0
LWPOLYLINE
  5
73
330
1F
100
AcDbEntity
  8
0
  6
Continuous
 62
     7
370
    15
100
AcDbPolyline
 90
        9
 70
   128
 43
0.0
 10
4.757700998713785
 20
7.502822783003783
 10
4.750843528083652
 20
7.50043333111101
 10
4.735514789801541
 20
7.500564307233845
 10
4.719093904714145
 20
7.507125057202609
 10
4.703039730395288
 20
7.519532752579364
 10
4.688778871294075
 20
7.536684849181119
 10
4.677578532976339
 20
7.55705724797711
 10
4.670433688042014
 20
7.578839857254395
 10
4.667979443037067
 20
7.600097176953006
  0
LWPOLYLINE
  5
74
330
1F
100
AcDbEntity
  8
0
  6
Continuous
 62
     7
370
    15
100
AcDbPolyline
 90
       21
 70
   128
 43
0.0
 10
4.67151504923646
 20
7.600097176953006
 10
4.674132322897556
 20
7.578462197509869
 10
4.681727881915612
 20
7.556370636226941
 10
4.693558141389488
 20
7.535984954157385
 10
4.708465307478693
 20
7.519300546767995
 10
4.724990004070419
 20
7.507950711228687
 10
4.741514596954348
 20
7.503046383454997
 10
4.756421763043554
 20
7.505067630698301
 10
4.768252126225227
 20
7.513816644299878
 10
4.775847685243282
 20
7.528436973450935
 10
4.778464958904377
 20
7.547497519724875
 10
4.775847685243282
 20
7.56913243531747
 10
4.768252126225227
 20
7.591223996600398
 10
4.756421763043554
 20
7.611609729675089
 10
4.741514596954348
 20
7.628294137064479
 10
4.724990004070419
 20
7.639643985449194
 10
4.708465307478693
 20
7.644548300377477
 10
4.693558141389488
 20
7.642527053134172
 10
4.681727881915612
 20
7.633777988527462
 10
4.674132322897556
 20
7.619157659376403
 10
4.67151504923646
 20
7.600097176953006
  0
LWPOLYLINE
  5
75
330
1F
100
AcDbEntity
  8
0
  6
Continuous
 62
     7
370
    15
100
AcDbPolyline
 90
        9
 70
   128
 43
0.0
 10
4.649417925321439
 20
7.590968328948295
 10
4.651872170326385
 20
7.569711009249685
 10
4.65901701526071
 20
7.547928399972399
 10
4.670217353578447
 20
7.527556001176409
 10
4.68447821267966
 20
7.510403904574655
 10
4.700532386998516
 20
7.497996209197898
 10
4.716953272085913
 20
7.491435459229133
 10
4.732282010368024
 20
7.491304483106299
 10
4.739139480998156
 20
7.493693934999073
  0
ARC
  5
76
330
1F
100
AcDbEntity
  8
0
  6
Continuous
 62
     7
370
    15
100
AcDbCircle
 10
4.69435832272239
 20
7.595723616651667
 30
0.0
 40
0.0451912832269368
100
AcDbArc
 50
122.3425618401766
 51
186.0401744511175
  0
LWPOLYLINE
  5
77
330
1F
100
AcDbEntity
  8
0
  6
Continuous
 62
     7
370
    15
100
AcDbPolyline
 90
       13
 70
   128
 43
0.0
 10
5.43157377829353
 20
7.534195610031698
 10
5.437590749086663
 20
7.530274636342252
 10
5.446866944801429
 20
7.518083391791813
 10
5.451720677094753
 20
7.501094640339732
 10
5.451720677094753
 20
7.480817943133864
 10
5.446866944801429
 20
7.459054907052677
 10
5.437590749086663
 20
7.437739302949382
 10
5.424716333590347
 20
7.418765182258009
 10
5.409387621235184
 20
7.403818339240874
 10
5.392966684293891
 20
7.39422696166862
 10
5.376912535901983
 20
7.39084327607086
 10
5.362651702727719
 20
7.393967953276799
 10
5.362616156880458
 20
7.393985397513069
  0
LWPOLYLINE
  5
78
330
1F
100
AcDbEntity
  8
0
  6
Continuous
 62
     7
370
    15
100
AcDbPolyline
 90
       21
 70
   128
 43
0.0
 10
5.341852274470711
 20
7.438660121482878
 10
5.344469522204859
 20
7.419599562457654
 10
5.352065081222914
 20
7.404979233306597
 10
5.363895418477636
 20
7.396230206953737
 10
5.378802558639893
 20
7.394208946959149
 10
5.395327229304669
 20
7.399113312986689
 10
5.411851874042497
 20
7.410463123023431
 10
5.426759014204753
 20
7.427147517661536
 10
5.438589351459476
 20
7.447533237984943
 10
5.446184910477532
 20
7.469624799267872
 10
5.448802158211679
 20
7.491259765959725
 10
5.446184910477532
 20
7.510320261134406
 10
5.438589351459476
 20
7.524940590285464
 10
5.426759014204753
 20
7.533689616638324
 10
5.411851874042497
 20
7.535710876632911
 10
5.395327229304669
 20
7.530806587207196
 10
5.378802558639893
 20
7.519456700568629
 10
5.363895418477636
 20
7.502772305930525
 10
5.352065081222914
 20
7.482386585607118
 10
5.344469522204859
 20
7.460295024324189
 10
5.341852274470711
 20
7.438660121482878
  0
LWPOLYLINE
  5
79
330
1F
100
AcDbEntity
  8
0
  6
Continuous
 62
     7
370
    15
100
AcDbPolyline
 90
       13
 70
   128
 43
0.0
 10
5.381177726449982
 20
7.384856524005792
 10
5.381213272297244
 20
7.384839079769521
 10
5.395474105471509
 20
7.381714402563582
 10
5.411528253863416
 20
7.385098088161344
 10
5.427949190804711
 20
7.394689465733596
 10
5.443277903159874
 20
7.40963630875073
 10
5.456152318656189
 20
7.428610429442104
 10
5.465428514370956
 20
7.449926033545399
 10
5.47028224666428
 20
7.471689069626586
 10
5.47028224666428
 20
7.491965766832455
 10
5.465428514370956
 20
7.508954518284536
 10
5.456152318656189
 20
7.521145762834974
 10
5.450135347863056
 20
7.52506673652442
  0
LINE
  5
7A
330
1F
100
AcDbEntity
  8
0
  6
Continuous
 62
     7
370
    15
100
AcDbLine
 10
5.060158564833647
 20
5.763785131358027
 30
0.0
 11
5.060158564833647
 21
6.372271134291183
 31
0.0
  0
LINE
  5
7B
330
1F
100
AcDbEntity
  8
0
  6
Continuous
 62
     7
370
    15
100
AcDbLine
 10
5.060158564833647
 20
7.582269815007943
 30
0.0
 11
5.060158564833647
 21
8.15820808423361
 31
0.0
  0
LINE
  5
7C
330
1F
100
AcDbEntity
  8
0
  6
Continuous
 62
     7
370
    15
100
AcDbLine
 10
2.408508206320222
 20
7.067908719491311
 30
0.0
 11
5.060158564833647
 21
5.763785131358027
 31
0.0
  0
LINE
  5
7D
330
1F
100
AcDbEntity
  8
0
  6
Continuous
 62
     7
370
    15
100
AcDbLine
 10
2.408508206320222
 20
7.067908719491311
 30
0.0
 11
2.408508206320222
 21
8.19161589952832
 31
0.0
  0
LINE
  5
7E
330
1F
100
AcDbEntity
  8
0
  6
Continuous
 62
     7
370
    15
100
AcDbLine
 10
2.408508206320222
 20
8.19161589952832
 30
0.0
 11
2.231731422415643
 21
8.352061814375943
 31
0.0
  0
LINE
  5
7F
330
1F
100
AcDbEntity
  8
0
  6
Continuous
 62
     7
370
    15
100
AcDbLine
 10
2.231731422415643
 20
8.352061814375943
 30
0.0
 11
2.496896494564714
 21
8.383314347654801
 31
0.0
  0
LINE
  5
80
330
1F
100
AcDbEntity
  8
0
  6
Continuous
 62
     7
370
    15
100
AcDbLine
 10
2.496896494564714
 20
8.383314347654801
 30
0.0
 11
2.496896494564714
 21
9.418860914148607
 31
0.0
  0
LINE
  5
81
330
1F
100
AcDbEntity
  8
0
  6
Continuous
 62
     7
370
    15
100
AcDbLine
 10
5.060158564833647
 20
8.15820808423361
 30
0.0
 11
2.496896494564714
 21
9.418860914148607
 31
0.0
  0
LINE
  5
82
330
1F
100
AcDbEntity
  8
0
  6
Continuous
 62
     7
370
    15
100
AcDbLine
 10
5.060158564833647
 20
5.763785131358027
 30
0.0
 11
4.529828472389405
 21
5.502960403530342
 31
0.0
  0
LINE
  5
83
330
1F
100
AcDbEntity
  8
0
  6
Continuous
 62
     7
370
    15
100
AcDbLine
 10
1.878178113875979
 20
6.807083991663627
 30
0.0
 11
4.529828472389405
 21
5.502960403530342
 31
0.0
  0
LINE
  5
84
330
1F
100
AcDbEntity
  8
0
  6
Continuous
 62
     7
370
    15
100
AcDbLine
 10
1.878178113875979
 20
6.807083991663627
 30
0.0
 11
2.408508206320222
 21
7.067908719491311
 31
0.0
  0
LINE
  5
85
330
1F
100
AcDbEntity
  8
0
  6
Continuous
 62
     7
370
    15
100
AcDbLine
 10
1.878178113875979
 20
6.807083991663627
 30
0.0
 11
1.878178113875979
 21
7.930791171700636
 31
0.0
  0
LINE
  5
86
330
1F
100
AcDbEntity
  8
0
  6
Continuous
 62
     7
370
    15
100
AcDbLine
 10
1.878178113875979
 20
7.930791171700636
 30
0.0
 11
2.408508206320222
 21
8.19161589952832
 31
0.0
  0
LINE
  5
87
330
1F
100
AcDbEntity
  8
0
  6
Continuous
 62
     7
370
    15
100
AcDbLine
 10
1.701401329971401
 20
8.091237086548257
 30
0.0
 11
2.231731422415643
 21
8.352061814375943
 31
0.0
  0
LINE
  5
88
330
1F
100
AcDbEntity
  8
0
  6
Continuous
 62
     7
370
    15
100
AcDbLine
 10
1.878178113875979
 20
7.930791171700636
 30
0.0
 11
1.701401329971401
 21
8.091237086548257
 31
0.0
  0
LINE
  5
89
330
1F
100
AcDbEntity
  8
0
  6
Continuous
 62
     7
370
    15
100
AcDbLine
 10
1.966566402120472
 20
9.158036186320924
 30
0.0
 11
2.496896494564714
 21
9.418860914148607
 31
0.0
  0
LINE
  5
8A
330
1F
100
AcDbEntity
  8
0
  6
Continuous
 62
     7
370
    15
100
AcDbLine
 10
1.966566402120472
 20
8.221649414973519
 30
0.0
 11
1.966566402120472
 21
9.158036186320924
 31
0.0
  0
LINE
  5
8B
330
1F
100
AcDbEntity
  8
0
  6
Continuous
 62
     7
370
    15
100
AcDbLine
 10
2.850449854958286
 20
4.677015436326435
 30
0.0
 11
2.850449854958286
 21
5.832966948260446
 31
0.0
  0
LINE
  5
8C
330
1F
100
AcDbEntity
  8
0
  6
Continuous
 62
     7
370
    15
100
AcDbLine
 10
2.850449854958286
 20
5.832966948260446
 30
0.0
 11
2.673673071053708
 21
5.787285294317385
 31
0.0
  0
LINE
  5
8D
330
1F
100
AcDbEntity
  8
0
  6
Continuous
 62
     7
370
    15
100
AcDbLine
 10
2.673673071053708
 20
5.787285294317385
 30
0.0
 11
2.938838143202779
 21
6.140153691788525
 31
0.0
  0
LINE
  5
8E
330
1F
100
AcDbEntity
  8
0
  6
Continuous
 62
     7
370
    15
100
AcDbLine
 10
2.938838143202779
 20
6.140153691788525
 30
0.0
 11
2.938838143202779
 21
6.285434552788117
 31
0.0
  0
LINE
  5
8F
330
1F
100
AcDbEntity
  8
0
  6
Continuous
 62
     7
370
    15
100
AcDbLine
 10
6.651148842166374
 20
8.940682267716663
 30
0.0
 11
5.060158564833647
 21
8.15820808423361
 31
0.0
  0
LINE
  5
90
330
1F
100
AcDbEntity
  8
0
  6
Continuous
 62
     7
370
    15
100
AcDbLine
 10
6.651148842166374
 20
8.940682267716663
 30
0.0
 11
6.651148842166374
 21
7.965926812084885
 31
0.0
  0
LINE
  5
91
330
1F
100
AcDbEntity
  8
0
  6
Continuous
 62
     7
370
    15
100
AcDbLine
 10
6.651148842166374
 20
7.965926812084885
 30
0.0
 11
6.916313810607648
 21
7.873883116938863
 31
0.0
  0
LINE
  5
92
330
1F
100
AcDbEntity
  8
0
  6
Continuous
 62
     7
370
    15
100
AcDbLine
 10
6.916313810607648
 20
7.873883116938863
 30
0.0
 11
6.739537130410867
 21
7.745681584993377
 31
0.0
  0
LINE
  5
93
330
1F
100
AcDbEntity
  8
0
  6
Continuous
 62
     7
370
    15
100
AcDbLine
 10
6.739537130410867
 20
7.745681584993377
 30
0.0
 11
6.739537130410867
 21
6.589730073059365
 31
0.0
  0
LINE
  5
94
330
1F
100
AcDbEntity
  8
0
  6
Continuous
 62
     7
370
    15
100
AcDbLine
 10
2.850449854958286
 20
4.677015436326435
 30
0.0
 11
6.739537130410867
 21
6.589730073059365
 31
0.0
  0
LINE
  5
95
330
1F
100
AcDbEntity
  8
0
  6
Continuous
 62
     7
370
    15
100
AcDbLine
 10
7.269867235818585
 20
7.484856850790052
 30
0.0
 11
6.739537130410867
 21
7.745681584993377
 31
0.0
  0
LINE
  5
96
330
1F
100
AcDbEntity
  8
0
  6
Continuous
 62
     7
370
    15
100
AcDbLine
 10
7.269867235818585
 20
7.484856850790052
 30
0.0
 11
7.269867235818585
 21
6.32890533885604
 31
0.0
  0
LINE
  5
97
330
1F
100
AcDbEntity
  8
0
  6
Continuous
 62
     7
370
    15
100
AcDbLine
 10
7.269867235818585
 20
6.32890533885604
 30
0.0
 11
6.739537130410867
 21
6.589730073059365
 31
0.0
  0
LINE
  5
98
330
1F
100
AcDbEntity
  8
0
  6
Continuous
 62
     7
370
    15
100
AcDbLine
 10
3.380779960366005
 20
4.41619070212311
 30
0.0
 11
2.850449854958286
 21
4.677015436326435
 31
0.0
  0
LINE
  5
99
330
1F
100
AcDbEntity
  8
0
  6
Continuous
 62
     7
370
    15
100
AcDbLine
 10
3.380779960366005
 20
4.41619070212311
 30
0.0
 11
7.269867235818585
 21
6.32890533885604
 31
0.0
  0
LINE
  5
9A
330
1F
100
AcDbEntity
  8
0
  6
Continuous
 62
     7
370
    15
100
AcDbLine
 10
7.446643916015367
 20
7.613058382735538
 30
0.0
 11
6.916313810607648
 21
7.873883116938863
 31
0.0
  0
LINE
  5
9B
330
1F
100
AcDbEntity
  8
0
  6
Continuous
 62
     7
370
    15
100
AcDbLine
 10
7.446643916015367
 20
7.613058382735538
 30
0.0
 11
7.269867235818585
 21
7.484856850790052
 31
0.0
  0
LINE
  5
9C
330
1F
100
AcDbEntity
  8
0
  6
Continuous
 62
     7
370
    15
100
AcDbLine
 10
7.181478947574094
 20
8.679857533513338
 30
0.0
 11
6.651148842166374
 21
8.940682267716663
 31
0.0
  0
LINE
  5
9D
330
1F
100
AcDbEntity
  8
0
  6
Continuous
 62
     7
370
    15
100
AcDbLine
 10
7.181478947574094
 20
8.679857533513338
 30
0.0
 11
7.181478947574094
 21
7.743470762165932
 31
0.0
  0
LINE
  5
9E
330
1F
100
AcDbEntity
  8
0
  6
Continuous
 62
     7
370
    15
100
AcDbLine
 10
2.850449777177439
 20
5.700343714124396
 30
0.0
 11
2.673673071053708
 21
5.787285294317385
 31
0.0
  0
LINE
  5
9F
330
1F
100
AcDbEntity
  8
0
  6
Continuous
 62
     7
370
    15
100
AcDbLine
 10
5.546294461301745
 20
6.601480192792897
 30
0.0
 11
5.527909713525306
 21
6.610522102545498
 31
0.0
  0
LINE
  5
A0
330
1F
100
AcDbEntity
  8
0
  6
Continuous
 62
     7
370
    15
100
AcDbLine
 10
5.094453229383964
 20
6.379257528050048
 30
0.0
 11
5.546294461301745
 21
6.601480192792897
 31
0.0
  0
LINE
  5
A1
330
1F
100
AcDbEntity
  8
0
  6
Continuous
 62
     7
370
    15
100
AcDbLine
 10
5.076068481607527
 20
6.38829943780265
 30
0.0
 11
5.527909713525306
 21
6.610522102545498
 31
0.0
  0
LINE
  5
A2
330
1F
100
AcDbEntity
  8
0
  6
Continuous
 62
     7
370
    15
100
AcDbLine
 10
5.527909713525306
 20
7.807733594945926
 30
0.0
 11
5.527909713525306
 21
6.610522102545498
 31
0.0
  0
LINE
  5
A3
330
1F
100
AcDbEntity
  8
0
  6
Continuous
 62
     7
370
    15
100
AcDbLine
 10
5.546294461301745
 20
7.798691685193324
 30
0.0
 11
5.527909713525306
 21
7.807733594945926
 31
0.0
  0
LINE
  5
A4
330
1F
100
AcDbEntity
  8
0
  6
Continuous
 62
     7
370
    15
100
AcDbLine
 10
5.546294461301745
 20
7.798691685193324
 30
0.0
 11
5.546294461301745
 21
6.601480192792897
 31
0.0
  0
LINE
  5
A5
330
1F
100
AcDbEntity
  8
0
  6
Continuous
 62
     7
370
    15
100
AcDbLine
 10
5.076068481607527
 20
7.585510930203078
 30
0.0
 11
5.527909713525306
 21
7.807733594945926
 31
0.0
  0
LINE
  5
A6
330
1F
100
AcDbEntity
  8
0
  6
Continuous
 62
     7
370
    15
100
AcDbLine
 10
4.592407467995884
 20
6.61052207704293
 30
0.0
 11
4.574022720219446
 21
6.601480167290329
 31
0.0
  0
LINE
  5
A7
330
1F
100
AcDbEntity
  8
0
  6
Continuous
 62
     7
370
    15
100
AcDbLine
 10
4.592407467995884
 20
6.61052207704293
 30
0.0
 11
5.044248648059766
 21
6.38829943780265
 31
0.0
  0
LINE
  5
A8
330
1F
100
AcDbEntity
  8
0
  6
Continuous
 62
     7
370
    15
100
AcDbLine
 10
4.574022720219446
 20
6.601480167290329
 30
0.0
 11
5.025863900283328
 21
6.379257528050048
 31
0.0
  0
LINE
  5
A9
330
1F
100
AcDbEntity
  8
0
  6
Continuous
 62
     7
370
    15
100
AcDbLine
 10
4.574022720219446
 20
7.798691659690756
 30
0.0
 11
4.574022720219446
 21
6.601480167290329
 31
0.0
  0
LINE
  5
AA
330
1F
100
AcDbEntity
  8
0
  6
Continuous
 62
     7
370
    15
100
AcDbLine
 10
4.592407467995884
 20
7.807733569443358
 30
0.0
 11
4.574022720219446
 21
7.798691659690756
 31
0.0
  0
LINE
  5
AB
330
1F
100
AcDbEntity
  8
0
  6
Continuous
 62
     7
370
    15
100
AcDbLine
 10
4.592407467995884
 20
7.807733569443358
 30
0.0
 11
4.592407467995884
 21
6.61052207704293
 31
0.0
  0
LINE
  5
AC
330
1F
100
AcDbEntity
  8
0
  6
Continuous
 62
     7
370
    15
100
AcDbLine
 10
4.592407467995884
 20
7.807733569443358
 30
0.0
 11
5.044248648059766
 21
7.585510930203078
 31
0.0
  0
ARC
  5
AD
330
1F
100
AcDbEntity
  8
0
  6
Continuous
 62
     7
370
    15
100
AcDbCircle
 10
5.060158564833646
 20
7.622059685763256
 30
0.0
 40
0.0398614724357935
100
AcDbArc
 50
246.4761867490754
 51
293.5238132509286
  0
ARC
  5
AE
330
1F
100
AcDbEntity
  8
0
  6
Continuous
 62
     7
370
    15
100
AcDbCircle
 10
5.060158564833646
 20
6.424848193362834
 30
0.0
 40
0.0398614724357984
100
AcDbArc
 50
246.4761867490785
 51
293.5238132509255
  0
ARC
  5
AF
330
1F
100
AcDbEntity
  8
0
  6
Continuous
 62
     7
370
    15
100
AcDbCircle
 10
5.060158564833646
 20
6.458039583849984
 30
0.0
 40
0.0859228510507142
100
AcDbArc
 50
246.475996701433
 51
293.5240032985697
  0
LINE
  5
B0
330
1F
100
AcDbEntity
  8
0
  6
Continuous
 62
     8
370
    15
100
AcDbLine
 10
5.076068481607527
 20
6.38829943780265
 30
0.0
 11
5.094453229383964
 21
6.379257528050048
 31
0.0
  0
LINE
  5
B1
330
1F
100
AcDbEntity
  8
0
  6
Continuous
 62
     8
370
    15
100
AcDbLine
 10
5.076068481607527
 20
7.585510930203078
 30
0.0
 11
5.076068481607527
 21
6.38829943780265
 31
0.0
  0
LINE
  5
B2
330
1F
100
AcDbEntity
  8
0
  6
Continuous
 62
     8
370
    15
100
AcDbLine
 10
5.025863900283328
 20
6.379257528050048
 30
0.0
 11
5.044248648059766
 21
6.38829943780265
 31
0.0
  0
LINE
  5
B3
330
1F
100
AcDbEntity
  8
0
  6
Continuous
 62
     8
370
    15
100
AcDbLine
 10
5.044248648059766
 20
7.585510930203078
 30
0.0
 11
5.044248648059766
 21
6.38829943780265
 31
0.0
  0
TEXT
  5
BB
330
1F
100
AcDbEntity
  8
0
100
AcDbText
 10
3.866272478710293
 20
3.295579742217036
 30
0.0
 40
0.25
  1
USP  A
100
AcDbText
  0
TEXT
  5
BC
330
1F
100
AcDbEntity
  8
0
100
AcDbText
 10
2.923282619089214
 20
2.709681974711607
 30
0.0
 40
0.25
  1
SIMPSON  GA
100
AcDbText
  0
ENDSEC
  0
SECTION
  2
OBJECTS
  0
DICTIONARY
  5
C
330
0
100
AcDbDictionary
281
     1
  3
ACAD_COLOR
350
B8
  3
ACAD_GROUP
350
D
  3
ACAD_LAYOUT
350
1A
  3
ACAD_MATERIAL
350
B7
  3
ACAD_MLINESTYLE
350
17
  3
ACAD_PLOTSETTINGS
350
19
  3
ACAD_PLOTSTYLENAME
350
E
  0
DICTIONARY
  5
B8
102
{ACAD_REACTORS
330
C
102
}
330
C
100
AcDbDictionary
281
     1
  0
DICTIONARY
  5
D
102
{ACAD_REACTORS
330
C
102
}
330
C
100
AcDbDictionary
281
     1
  0
DICTIONARY
  5
1A
102
{ACAD_REACTORS
330
C
102
}
330
C
100
AcDbDictionary
281
     1
  3
Layout1
350
1E
  3
Layout2
350
26
  3
Model
350
22
  0
DICTIONARY
  5
B7
102
{ACAD_REACTORS
330
C
102
}
330
C
100
AcDbDictionary
281
     1
  0
DICTIONARY
  5
17
102
{ACAD_REACTORS
330
C
102
}
330
C
100
AcDbDictionary
281
     1
  3
Standard
350
18
  0
DICTIONARY
  5
19
102
{ACAD_REACTORS
330
C
102
}
330
C
100
AcDbDictionary
281
     1
  0
ACDBDICTIONARYWDFLT
  5
E
102
{ACAD_REACTORS
330
C
102
}
330
C
100
AcDbDictionary
281
     1
  3
Normal
350
F
100
AcDbDictionaryWithDefault
340
F
  0
LAYOUT
  5
1E
102
{ACAD_REACTORS
330
1A
102
}
330
1A
100
AcDbPlotSettings
  1

  2
none_device
  4

  6

 40
0.0
 41
0.0
 42
0.0
 43
0.0
 44
0.0
 45
0.0
 46
0.0
 47
0.0
 48
0.0
 49
0.0
140
0.0
141
0.0
142
1.0
143
1.0
 70
   688
 72
     0
 73
     0
 74
     5
  7

 75
    16
147
1.0
 76
     0
 77
     2
 78
   300
148
0.0
149
0.0
100
AcDbLayout
  1
Layout1
 70
     1
 71
     1
 10
0.0
 20
0.0
 11
12.0
 21
9.0
 12
0.0
 22
0.0
 32
0.0
 14
1.000000000000000E+20
 24
1.000000000000000E+20
 34
1.000000000000000E+20
 15
-1.000000000000000E+20
 25
-1.000000000000000E+20
 35
-1.000000000000000E+20
146
0.0
 13
0.0
 23
0.0
 33
0.0
 16
1.0
 26
0.0
 36
0.0
 17
0.0
 27
1.0
 37
0.0
 76
     0
330
1B
  0
LAYOUT
  5
26
102
{ACAD_REACTORS
330
1A
102
}
330
1A
100
AcDbPlotSettings
  1

  2
none_device
  4

  6

 40
0.0
 41
0.0
 42
0.0
 43
0.0
 44
0.0
 45
0.0
 46
0.0
 47
0.0
 48
0.0
 49
0.0
140
0.0
141
0.0
142
1.0
143
1.0
 70
   688
 72
     0
 73
     0
 74
     5
  7

 75
    16
147
1.0
 76
     0
 77
     2
 78
   300
148
0.0
149
0.0
100
AcDbLayout
  1
Layout2
 70
     1
 71
     2
 10
0.0
 20
0.0
 11
0.0
 21
0.0
 12
0.0
 22
0.0
 32
0.0
 14
0.0
 24
0.0
 34
0.0
 15
0.0
 25
0.0
 35
0.0
146
0.0
 13
0.0
 23
0.0
 33
0.0
 16
1.0
 26
0.0
 36
0.0
 17
0.0
 27
1.0
 37
0.0
 76
     0
330
23
  0
LAYOUT
  5
22
102
{ACAD_REACTORS
330
1A
102
}
330
1A
100
AcDbPlotSettings
  1

  2
none_device
  4

  6

 40
0.0
 41
0.0
 42
0.0
 43
0.0
 44
0.0
 45
0.0
 46
0.0
 47
0.0
 48
0.0
 49
0.0
140
0.0
141
0.0
142
1.0
143
1.0
 70
  1712
 72
     0
 73
     0
 74
     0
  7

 75
     0
147
1.0
 76
     0
 77
     2
 78
   300
148
0.0
149
0.0
100
AcDbLayout
  1
Model
 70
     1
 71
     0
 10
0.0
 20
0.0
 11
8.5
 21
11.0
 12
0.0
 22
0.0
 32
0.0
 14
0.0
 24
0.0
 34
0.0
 15
8.5
 25
11.0
 35
0.0
146
0.0
 13
0.0
 23
0.0
 33
0.0
 16
1.0
 26
0.0
 36
0.0
 17
0.0
 27
1.0
 37
0.0
 76
     0
330
1F
  0
MLINESTYLE
  5
18
102
{ACAD_REACTORS
330
17
102
}
330
17
100
AcDbMlineStyle
  2
STANDARD
 70
     0
  3

 62
   256
 51
90.0
 52
90.0
 71
     2
 49
0.5
 62
   256
  6
BYLAYER
 49
-0.5
 62
   256
  6
BYLAYER
  0
ACDBPLACEHOLDER
  5
F
102
{ACAD_REACTORS
330
E
102
}
330
E
  0
ENDSEC
  0
EOF
