  0
SECTION
  2
HEADER
  9
$ACADVER
  1
AC1014
  9
$ACADMAINTVER
 70
     9
  9
$DWGCODEPAGE
  3
ANSI_1252
  9
$INSBASE
 10
0.0
 20
0.0
 30
0.0
  9
$EXTMIN
 10
0.0003661829982491
 20
0.0006270988277421
 30
0.0
  9
$EXTMAX
 10
7.784877219740923
 20
20.55012316519018
 30
0.0
  9
$LIMMIN
 10
0.0
 20
0.0
  9
$LIMMAX
 10
12.0
 20
9.0
  9
$ORTHOMODE
 70
     0
  9
$REGENMODE
 70
     1
  9
$FILLMODE
 70
     1
  9
$QTEXTMODE
 70
     0
  9
$MIRRTEXT
 70
     1
  9
$DRAGMODE
 70
     2
  9
$LTSCALE
 40
0.5
  9
$OSMODE
 70
    37
  9
$ATTMODE
 70
     1
  9
$TEXTSIZE
 40
0.375
  9
$TRACEWID
 40
0.05
  9
$TEXTSTYLE
  7
STANDARD
  9
$CLAYER
  8
0
  9
$CELTYPE
  6
BYLAYER
  9
$CECOLOR
 62
   256
  9
$CELTSCALE
 40
1.0
  9
$DELOBJ
 70
     1
  9
$DISPSILH
 70
     1
  9
$DIMSCALE
 40
1.5
  9
$DIMASZ
 40
0.18
  9
$DIMEXO
 40
0.0625
  9
$DIMDLI
 40
0.38
  9
$DIMRND
 40
0.0
  9
$DIMDLE
 40
0.0
  9
$DIMEXE
 40
0.18
  9
$DIMTP
 40
0.0
  9
$DIMTM
 40
0.0
  9
$DIMTXT
 40
0.18
  9
$DIMCEN
 40
0.09
  9
$DIMTSZ
 40
0.0
  9
$DIMTOL
 70
     0
  9
$DIMLIM
 70
     0
  9
$DIMTIH
 70
     1
  9
$DIMTOH
 70
     1
  9
$DIMSE1
 70
     0
  9
$DIMSE2
 70
     0
  9
$DIMTAD
 70
     0
  9
$DIMZIN
 70
     0
  9
$DIMBLK
  1

  9
$DIMASO
 70
     1
  9
$DIMSHO
 70
     1
  9
$DIMPOST
  1

  9
$DIMAPOST
  1

  9
$DIMALT
 70
     0
  9
$DIMALTD
 70
     2
  9
$DIMALTF
 40
25.4
  9
$DIMLFAC
 40
1.0
  9
$DIMTOFL
 70
     0
  9
$DIMTVP
 40
0.0
  9
$DIMTIX
 70
     0
  9
$DIMSOXD
 70
     0
  9
$DIMSAH
 70
     0
  9
$DIMBLK1
  1

  9
$DIMBLK2
  1

  9
$DIMSTYLE
  2
STANDARD
  9
$DIMCLRD
 70
     0
  9
$DIMCLRE
 70
     0
  9
$DIMCLRT
 70
     0
  9
$DIMTFAC
 40
1.0
  9
$DIMGAP
 40
0.09
  9
$DIMJUST
 70
     0
  9
$DIMSD1
 70
     0
  9
$DIMSD2
 70
     0
  9
$DIMTOLJ
 70
     1
  9
$DIMTZIN
 70
     0
  9
$DIMALTZ
 70
     0
  9
$DIMALTTZ
 70
     0
  9
$DIMFIT
 70
     3
  9
$DIMUPT
 70
     0
  9
$DIMUNIT
 70
     2
  9
$DIMDEC
 70
     4
  9
$DIMTDEC
 70
     4
  9
$DIMALTU
 70
     2
  9
$DIMALTTD
 70
     2
  9
$DIMTXSTY
  7
STANDARD
  9
$DIMAUNIT
 70
     0
  9
$LUNITS
 70
     5
  9
$LUPREC
 70
     4
  9
$SKETCHINC
 40
0.1
  9
$FILLETRAD
 40
0.0
  9
$AUNITS
 70
     0
  9
$AUPREC
 70
     2
  9
$MENU
  1
CUSTOM
  9
$ELEVATION
 40
0.0
  9
$PELEVATION
 40
0.0
  9
$THICKNESS
 40
0.0
  9
$LIMCHECK
 70
     0
  9
$BLIPMODE
 70
     0
  9
$CHAMFERA
 40
0.0
  9
$CHAMFERB
 40
0.0
  9
$CHAMFERC
 40
0.0
  9
$CHAMFERD
 40
0.0
  9
$SKPOLY
 70
     0
  9
$TDCREATE
 40
2450049.604998495
  9
$TDUPDATE
 40
2452759.746905914
  9
$TDINDWG
 40
0.3995529051
  9
$TDUSRTIMER
 40
0.3995529051
  9
$USRTIMER
 70
     1
  9
$ANGBASE
 50
0.0
  9
$ANGDIR
 70
     0
  9
$PDMODE
 70
     0
  9
$PDSIZE
 40
0.0
  9
$PLINEWID
 40
0.0
  9
$COORDS
 70
     1
  9
$SPLFRAME
 70
     0
  9
$SPLINETYPE
 70
     6
  9
$SPLINESEGS
 70
     8
  9
$ATTDIA
 70
     0
  9
$ATTREQ
 70
     1
  9
$HANDLING
 70
     1
  9
$HANDSEED
  5
18C
  9
$SURFTAB1
 70
     6
  9
$SURFTAB2
 70
     6
  9
$SURFTYPE
 70
     6
  9
$SURFU
 70
     6
  9
$SURFV
 70
     6
  9
$UCSNAME
  2

  9
$UCSORG
 10
0.0
 20
0.0
 30
0.0
  9
$UCSXDIR
 10
1.0
 20
0.0
 30
0.0
  9
$UCSYDIR
 10
0.0
 20
1.0
 30
0.0
  9
$PUCSNAME
  2

  9
$PUCSORG
 10
0.0
 20
0.0
 30
0.0
  9
$PUCSXDIR
 10
1.0
 20
0.0
 30
0.0
  9
$PUCSYDIR
 10
0.0
 20
1.0
 30
0.0
  9
$USERI1
 70
     0
  9
$USERI2
 70
     0
  9
$USERI3
 70
     0
  9
$USERI4
 70
     0
  9
$USERI5
 70
     0
  9
$USERR1
 40
0.0
  9
$USERR2
 40
0.0
  9
$USERR3
 40
0.0
  9
$USERR4
 40
0.0
  9
$USERR5
 40
0.0
  9
$WORLDVIEW
 70
     1
  9
$SHADEDGE
 70
     3
  9
$SHADEDIF
 70
    70
  9
$TILEMODE
 70
     1
  9
$MAXACTVP
 70
    16
  9
$PINSBASE
 10
0.0
 20
0.0
 30
0.0
  9
$PLIMCHECK
 70
     0
  9
$PEXTMIN
 10
1.000000000000000E+20
 20
1.000000000000000E+20
 30
1.000000000000000E+20
  9
$PEXTMAX
 10
-1.000000000000000E+20
 20
-1.000000000000000E+20
 30
-1.000000000000000E+20
  9
$PLIMMIN
 10
0.0
 20
0.0
  9
$PLIMMAX
 10
12.0
 20
9.0
  9
$UNITMODE
 70
     0
  9
$VISRETAIN
 70
     0
  9
$PLINEGEN
 70
     0
  9
$PSLTSCALE
 70
     0
  9
$TREEDEPTH
 70
  3020
  9
$PICKSTYLE
 70
     1
  9
$CMLSTYLE
  2
STANDARD
  9
$CMLJUST
 70
     0
  9
$CMLSCALE
 40
1.0
  9
$PROXYGRAPHICS
 70
     1
  9
$MEASUREMENT
 70
     0
  0
ENDSEC
  0
SECTION
  2
CLASSES
  0
CLASS
  1
ACDBDICTIONARYWDFLT
  2
AcDbDictionaryWithDefault
  3
AutoCAD 2000
 90
        0
280
     1
281
     0
  0
CLASS
  1
ACDBPLACEHOLDER
  2
AcDbPlaceHolder
  3
AutoCAD 2000
 90
        0
280
     1
281
     0
  0
CLASS
  1
LAYOUT
  2
AcDbLayout
  3
AutoCAD 2000
 90
        0
280
     1
281
     0
  0
CLASS
  1
LONG_TRANSACTION
  2
AcDbLongTransaction
  3
AutoCAD 2000
 90
        0
280
     1
281
     0
  0
CLASS
  1
LWPOLYLINE
  2
AcDbPolyline
  3
"AutoCAD"
 90
        0
280
     1
281
     1
  0
CLASS
  1
HATCH
  2
AcDbHatch
  3
"ACAD_SEDONA"
 90
        0
280
     1
281
     1
  0
CLASS
  1
XRECORD
  2
AcDbXrecord
  3
"<Built In>"
 90
        0
280
     0
281
     0
  0
CLASS
  1
LONG_TRANSACTION
  2
AcDbLongTransaction
  3
AutoCAD 2000
 90
        0
280
     1
281
     0
  0
CLASS
  1
LWPOLYLINE
  2
AcDbPolyline
  3
"AutoCAD"
 90
        0
280
     1
281
     1
  0
CLASS
  1
HATCH
  2
AcDbHatch
  3
"ACAD_SEDONA"
 90
        0
280
     1
281
     1
  0
CLASS
  1
XRECORD
  2
AcDbXrecord
  3
"<Built In>"
 90
        0
280
     0
281
     0
  0
CLASS
  1
LONG_TRANSACTION
  2
AcDbLongTransaction
  3
AutoCAD 2000
 90
        0
280
     1
281
     0
  0
CLASS
  1
LWPOLYLINE
  2
AcDbPolyline
  3
"AutoCAD"
 90
        0
280
     1
281
     1
  0
CLASS
  1
HATCH
  2
AcDbHatch
  3
"ACAD_SEDONA"
 90
        0
280
     1
281
     1
  0
CLASS
  1
XRECORD
  2
AcDbXrecord
  3
"<Built In>"
 90
        0
280
     0
281
     0
  0
CLASS
  1
DICTIONARYVAR
  2
AcDbDictionaryVar
  3
"AutoCAD"
 90
        0
280
     0
281
     0
  0
CLASS
  1
LONG_TRANSACTION
  2
AcDbLongTransaction
  3
AutoCAD 2000
 90
        0
280
     0
281
     0
  0
CLASS
  1
LWPOLYLINE
  2
AcDbPolyline
  3
"AutoCAD"
 90
        0
280
     0
281
     1
  0
CLASS
  1
HATCH
  2
AcDbHatch
  3
"ACAD_SEDONA"
 90
        0
280
     0
281
     1
  0
CLASS
  1
XRECORD
  2
AcDbXrecord
  3
"<Built In>"
 90
        0
280
     0
281
     0
  0
CLASS
  1
LONG_TRANSACTION
  2
AcDbLongTransaction
  3
AutoCAD 2000
 90
        0
280
     0
281
     0
  0
CLASS
  1
LWPOLYLINE
  2
AcDbPolyline
  3
"AutoCAD"
 90
        0
280
     0
281
     1
  0
CLASS
  1
HATCH
  2
AcDbHatch
  3
"ACAD_SEDONA"
 90
        0
280
     0
281
     1
  0
CLASS
  1
XRECORD
  2
AcDbXrecord
  3
"<Built In>"
 90
        0
280
     0
281
     0
  0
ENDSEC
  0
SECTION
  2
TABLES
  0
TABLE
  2
VPORT
  5
16E
100
AcDbSymbolTable
 70
     1
  0
VPORT
  5
188
100
AcDbSymbolTableRecord
100
AcDbViewportTableRecord
  2
*ACTIVE
 70
     0
 10
0.0
 20
0.0
 11
1.0
 21
1.0
 12
3.892666454086437
 22
10.52893908183937
 13
0.0
 23
0.0
 14
1.0
 24
1.0
 15
0.0
 25
0.0
 16
0.0
 26
0.0
 36
1.0
 17
0.0
 27
0.0
 37
0.0
 40
21.20799201713981
 41
1.457627118644067
 42
50.0
 43
0.0
 44
0.0
 50
0.0
 51
0.0
 71
     0
 72
   100
 73
     1
 74
     0
 75
     0
 76
     0
 77
     0
 78
     0
  0
ENDTAB
  0
TABLE
  2
LTYPE
  5
169
100
AcDbSymbolTable
 70
     2
  0
LTYPE
  5
16A
100
AcDbSymbolTableRecord
100
AcDbLinetypeTableRecord
  2
BYBLOCK
 70
     0
  3

 72
    65
 73
     0
 40
0.0
  0
LTYPE
  5
16B
100
AcDbSymbolTableRecord
100
AcDbLinetypeTableRecord
  2
BYLAYER
 70
     0
  3

 72
    65
 73
     0
 40
0.0
  0
LTYPE
  5
5
100
AcDbSymbolTableRecord
100
AcDbLinetypeTableRecord
  2
CONTINUOUS
 70
     0
  3
Solid line
 72
    65
 73
     0
 40
0.0
  0
LTYPE
  5
20
100
AcDbSymbolTableRecord
100
AcDbLinetypeTableRecord
  2
CENTER
 70
     0
  3
____ _ ____ _ ____ _ ____ _ ____ _ ____ _ ____ 
 72
    65
 73
     4
 40
2.0
 49
1.25
 74
     0
 49
-0.25
 74
     0
 49
0.25
 74
     0
 49
-0.25
 74
     0
  0
ENDTAB
  0
TABLE
  2
LAYER
  5
167
100
AcDbSymbolTable
 70
     6
  0
LAYER
  5
18
100
AcDbSymbolTableRecord
100
AcDbLayerTableRecord
  2
0
 70
     0
 62
     7
  6
CONTINUOUS
  0
LAYER
  5
4
100
AcDbSymbolTableRecord
100
AcDbLayerTableRecord
  2
USP
 70
     0
 62
     7
  6
CONTINUOUS
  0
LAYER
  5
1F
100
AcDbSymbolTableRecord
100
AcDbLayerTableRecord
  2
USP-CEN
 70
     0
 62
     7
  6
CENTER
  0
LAYER
  5
B
100
AcDbSymbolTableRecord
100
AcDbLayerTableRecord
  2
USP-GEO
 70
     0
 62
     7
  6
CONTINUOUS
  0
LAYER
  5
8
100
AcDbSymbolTableRecord
100
AcDbLayerTableRecord
  2
USP-TXT
 70
     0
 62
     7
  6
CONTINUOUS
  0
LAYER
  5
AD
100
AcDbSymbolTableRecord
100
AcDbLayerTableRecord
  2
USP-DIM
 70
     0
 62
     7
  6
CONTINUOUS
  0
ENDTAB
  0
TABLE
  2
STYLE
  5
168
100
AcDbSymbolTable
 70
     1
  0
STYLE
  5
9
100
AcDbSymbolTableRecord
100
AcDbTextStyleTableRecord
  2
STANDARD
 70
     0
 40
0.0
 41
1.0
 50
0.0
 71
     0
 42
0.375
  3
txt
  4

  0
ENDTAB
  0
TABLE
  2
VIEW
  5
16C
100
AcDbSymbolTable
 70
     0
  0
ENDTAB
  0
TABLE
  2
UCS
  5
16D
100
AcDbSymbolTable
 70
     0
  0
ENDTAB
  0
TABLE
  2
APPID
  5
170
100
AcDbSymbolTable
 70
     1
  0
APPID
  5
171
100
AcDbSymbolTableRecord
100
AcDbRegAppTableRecord
  2
ACAD
 70
     0
  0
ENDTAB
  0
TABLE
  2
DIMSTYLE
  5
172
100
AcDbSymbolTable
 70
     1
  0
DIMSTYLE
105
17A
100
AcDbSymbolTableRecord
100
AcDbDimStyleTableRecord
  2
STANDARD
 70
     0
  3

  4

  5

  6

  7

 40
1.0
 41
0.18
 42
0.0625
 43
0.38
 44
0.18
 45
0.0
 46
0.0
 47
0.0
 48
0.0
140
0.18
141
0.09
142
0.0
143
25.4
144
1.0
145
0.0
146
1.0
147
0.09
 71
     0
 72
     0
 73
     1
 74
     1
 75
     0
 76
     0
 77
     0
 78
     0
170
     0
171
     2
172
     0
173
     0
174
     0
175
     0
176
     0
177
     0
178
     0
270
     2
271
     4
272
     4
273
     2
274
     2
340
9
275
     0
280
     0
281
     0
282
     0
283
     1
284
     0
285
     0
286
     0
287
     3
288
     0
  0
ENDTAB
  0
TABLE
  2
BLOCK_RECORD
  5
1
100
AcDbSymbolTable
 70
     2
  0
BLOCK_RECORD
  5
2
102
{ACAD_XDICTIONARY
360
15E
102
}
100
AcDbSymbolTableRecord
100
AcDbBlockTableRecord
  2
*MODEL_SPACE
  0
BLOCK_RECORD
  5
162
102
{ACAD_XDICTIONARY
360
163
102
}
100
AcDbSymbolTableRecord
100
AcDbBlockTableRecord
  2
*PAPER_SPACE
  0
BLOCK_RECORD
  5
6
100
AcDbSymbolTableRecord
100
AcDbBlockTableRecord
  2
STB16_T
  0
BLOCK_RECORD
  5
1B
100
AcDbSymbolTableRecord
100
AcDbBlockTableRecord
  2
STB16_S
  0
ENDTAB
  0
ENDSEC
  0
SECTION
  2
BLOCKS
  0
BLOCK
  5
160
100
AcDbEntity
  8
0
100
AcDbBlockBegin
  2
*MODEL_SPACE
 70
     0
 10
0.0
 20
0.0
 30
0.0
  3
*MODEL_SPACE
  1

  0
ENDBLK
  5
161
100
AcDbEntity
  8
0
100
AcDbBlockEnd
  0
BLOCK
  5
165
100
AcDbEntity
 67
     1
  8
0
100
AcDbBlockBegin
  2
*PAPER_SPACE
 70
     0
 10
0.0
 20
0.0
 30
0.0
  3
*PAPER_SPACE
  1

  0
ENDBLK
  5
166
100
AcDbEntity
 67
     1
  8
0
100
AcDbBlockEnd
  0
BLOCK
  5
17
100
AcDbEntity
  8
0
100
AcDbBlockBegin
  2
STB16_T
 70
     0
 10
0.0
 20
0.0
 30
0.0
  3
STB16_T
  1

  0
TEXT
  5
7
100
AcDbEntity
  8
USP-TXT
100
AcDbText
 10
-0.494531145798147
 20
-0.7318998872072556
 30
0.0
 40
0.25
  1
STB16 - TOP VIEW
 72
     1
 11
1.463802187535186
 21
-0.7318998872072556
 31
0.0
100
AcDbText
  0
LINE
  5
A
100
AcDbEntity
  8
USP-GEO
100
AcDbLine
 10
0.0526043750703771
 20
0.338495765616571
 30
0.0
 11
0.2766897944122348
 21
0.338495765616571
 31
0.0
  0
LINE
  5
C
100
AcDbEntity
  8
USP-GEO
100
AcDbLine
 10
0.0526043750703771
 20
0.338495765616571
 30
0.0
 11
0.2933604522494058
 21
0.0977396884375388
 31
0.0
  0
CIRCLE
  5
D
100
AcDbEntity
  8
USP-GEO
100
AcDbCircle
 10
0.3125
 20
0.3125
 30
0.0
 40
0.3125
  0
LINE
  5
E
100
AcDbEntity
  8
USP-GEO
100
AcDbLine
 10
0.0526043750703771
 20
0.338495765616571
 30
0.0
 11
0.2933604522494058
 21
0.5792518427956069
 31
0.0
  0
LINE
  5
F
100
AcDbEntity
  8
USP-GEO
100
AcDbLine
 10
0.3125
 20
0.0
 30
0.0
 11
2.875
 21
0.0
 31
0.0
  0
LINE
  5
10
100
AcDbEntity
  8
USP-GEO
100
AcDbLine
 10
0.3125
 20
0.625
 30
0.0
 11
2.875
 21
0.625
 31
0.0
  0
TEXT
  5
11
100
AcDbEntity
  8
USP-TXT
100
AcDbText
 10
0.3370317601592774
 20
0.5685929922979156
 30
0.0
 40
0.1252667904795466
  1
16
 50
224.9999999999998
100
AcDbText
  0
ARC
  5
12
100
AcDbEntity
  8
USP-GEO
100
AcDbCircle
 10
0.270961548550531
 20
0.2468801158929139
 30
0.0
 40
0.0917945536235113
100
AcDbArc
 50
2.700639296551189
 51
86.42225290831403
  0
ARC
  5
13
100
AcDbEntity
  8
USP-GEO
100
AcDbCircle
 10
0.4719256336191507
 20
0.2666287767007489
 30
0.0
 40
0.1103546195663747
100
AcDbArc
 50
188.0341477349642
 51
325.7948827715896
  0
TEXT
  5
14
100
AcDbEntity
  8
USP-TXT
100
AcDbText
 10
0.4422778409626318
 20
0.4233594004675752
 30
0.0
 40
0.1252667904795466
  1
U
 50
224.9999999999998
100
AcDbText
  0
ARC
  5
15
100
AcDbEntity
  8
USP-GEO
100
AcDbCircle
 10
2.543399999999998
 20
0.3125
 30
0.0
 40
0.3125
100
AcDbArc
 50
270.0
 51
90.0
  0
LINE
  5
16
100
AcDbEntity
  8
USP-GEO
100
AcDbLine
 10
2.875
 20
0.0
 30
0.0
 11
2.875
 21
0.625
 31
0.0
  0
ENDBLK
  5
19
100
AcDbEntity
  8
0
100
AcDbBlockEnd
  0
BLOCK
  5
15C
100
AcDbEntity
  8
0
100
AcDbBlockBegin
  2
STB16_S
 70
     0
 10
0.0
 20
0.0
 30
0.0
  3
STB16_S
  1

  0
LINE
  5
1C
100
AcDbEntity
  8
USP-GEO
100
AcDbLine
 10
0.6250000000000036
 20
12.7811940236108
 30
0.0
 11
0.6250000000000036
 21
6.062194023610807
 31
0.0
  0
LINE
  5
1D
100
AcDbEntity
  8
USP-GEO
100
AcDbLine
 10
0.0000000000000036
 20
12.7811940236108
 30
0.0
 11
0.0000000000000036
 21
6.062194023610807
 31
0.0
  0
LINE
  5
1E
100
AcDbEntity
  8
USP-CEN
100
AcDbLine
 10
0.3125000000000035
 20
10.68864938749179
 30
0.0
 11
0.3125000000000035
 21
6.062194023610807
 31
0.0
  0
TEXT
  5
21
100
AcDbEntity
  8
USP-TXT
100
AcDbText
 10
-0.6158556930645776
 20
-0.7318998872072556
 30
0.0
 40
0.25
  1
STB16 - SIDE VIEW
 72
     1
 11
1.425810973602089
 21
-0.7318998872072556
 31
0.0
100
AcDbText
  0
ARC
  5
22
100
AcDbEntity
  8
USP-GEO
100
AcDbCircle
 10
1.5625
 20
6.062194023610807
 30
0.0
 40
1.5625
100
AcDbArc
 50
180.0
 51
250.0
  0
ARC
  5
23
100
AcDbEntity
  8
USP-GEO
100
AcDbCircle
 10
2.873436724422713
 20
1.562347709536794
 30
0.0
 40
0.9375
100
AcDbArc
 50
129.200041424262
 51
269.200041424261
  0
ARC
  5
24
100
AcDbEntity
  8
USP-GEO
100
AcDbCircle
 10
2.873436724422713
 20
1.562347709536794
 30
0.0
 40
1.5625
100
AcDbArc
 50
129.2000414242615
 51
269.2000414242613
  0
ARC
  5
25
100
AcDbEntity
  8
USP-CEN
100
AcDbCircle
 10
2.873436724422713
 20
1.562347709536794
 30
0.0
 40
1.25
100
AcDbArc
 50
129.2000414242618
 51
269.2000414242612
  0
LINE
  5
26
100
AcDbEntity
  8
USP-GEO
100
AcDbLine
 10
2.851621947204165
 20
0.0
 30
0.0
 11
2.860347858091575
 21
0.6249390838147165
 31
0.0
  0
ARC
  5
27
100
AcDbEntity
  8
USP-GEO
100
AcDbCircle
 10
1.293362067068677
 20
3.499707788919955
 30
0.0
 40
0.9375
100
AcDbArc
 50
309.2000414242618
 51
69.99999999999953
  0
ARC
  5
28
100
AcDbEntity
  8
USP-GEO
100
AcDbCircle
 10
1.293362067068677
 20
3.499707788919955
 30
0.0
 40
1.5625
100
AcDbArc
 50
309.2000414242614
 51
69.99999999999976
  0
ARC
  5
29
100
AcDbEntity
  8
USP-CEN
100
AcDbCircle
 10
1.293362067068677
 20
3.499707788919955
 30
0.0
 40
1.25
100
AcDbArc
 50
309.2000414242614
 51
69.99999999999975
  0
ARC
  5
2A
100
AcDbEntity
  8
USP-GEO
100
AcDbCircle
 10
1.5625
 20
6.062194023610807
 30
0.0
 40
0.9375
100
AcDbArc
 50
180.0
 51
250.0
  0
ARC
  5
2B
100
AcDbEntity
  8
USP-CEN
100
AcDbCircle
 10
1.5625
 20
6.062194023610807
 30
0.0
 40
1.25
100
AcDbArc
 50
179.9999999999998
 51
250.0
  0
LINE
  5
2C
100
AcDbEntity
  8
USP-CEN
100
AcDbLine
 10
1.134974820842916
 20
4.887578247628422
 30
0.0
 11
1.720887246225775
 21
4.674323564902344
 31
0.0
  0
LINE
  5
2D
100
AcDbEntity
  8
USP-GEO
100
AcDbLine
 10
1.028093526053641
 20
4.593924303632825
 30
0.0
 11
1.614005951436503
 21
4.380669620906743
 31
0.0
  0
LINE
  5
2E
100
AcDbEntity
  8
USP-GEO
100
AcDbLine
 10
1.241856115632185
 20
5.181232191624019
 30
0.0
 11
1.827768541015043
 21
4.967977508897938
 31
0.0
  0
LINE
  5
2F
100
AcDbEntity
  8
USP-GEO
100
AcDbLine
 10
0.6250000000000036
 20
14.3055160022413
 30
0.0
 11
0.0000000000000036
 21
14.2742660022413
 31
0.0
  0
LINE
  5
30
100
AcDbEntity
  8
USP-GEO
100
AcDbLine
 10
0.5625000000000036
 20
14.3492660022413
 30
0.0
 11
0.0625000000000036
 21
14.32426600224131
 31
0.0
  0
LINE
  5
31
100
AcDbEntity
  8
USP-GEO
100
AcDbLine
 10
0.6250000000000036
 20
14.4930160022413
 30
0.0
 11
0.0000000000000036
 21
14.4617660022413
 31
0.0
  0
LINE
  5
32
100
AcDbEntity
  8
USP-GEO
100
AcDbLine
 10
0.6250000000000036
 20
14.3992660022413
 30
0.0
 11
0.0000000000000036
 21
14.3680160022413
 31
0.0
  0
LINE
  5
33
100
AcDbEntity
  8
USP-GEO
100
AcDbLine
 10
0.5625000000000036
 20
14.4430160022413
 30
0.0
 11
0.0625000000000036
 21
14.4180160022413
 31
0.0
  0
LINE
  5
34
100
AcDbEntity
  8
USP-GEO
100
AcDbLine
 10
0.6250000000000036
 20
14.5867660022413
 30
0.0
 11
0.0000000000000036
 21
14.5555160022413
 31
0.0
  0
LINE
  5
35
100
AcDbEntity
  8
USP-GEO
100
AcDbLine
 10
0.6250000000000036
 20
14.4930160022413
 30
0.0
 11
0.0000000000000036
 21
14.4617660022413
 31
0.0
  0
LINE
  5
36
100
AcDbEntity
  8
USP-GEO
100
AcDbLine
 10
0.5625000000000036
 20
14.5367660022413
 30
0.0
 11
0.0625000000000036
 21
14.51176600224131
 31
0.0
  0
LINE
  5
37
100
AcDbEntity
  8
USP-GEO
100
AcDbLine
 10
0.6250000000000036
 20
14.6805160022413
 30
0.0
 11
0.0000000000000036
 21
14.64926600224131
 31
0.0
  0
LINE
  5
38
100
AcDbEntity
  8
USP-GEO
100
AcDbLine
 10
0.6250000000000036
 20
14.5867660022413
 30
0.0
 11
0.0000000000000036
 21
14.5555160022413
 31
0.0
  0
LINE
  5
39
100
AcDbEntity
  8
USP-GEO
100
AcDbLine
 10
0.5625000000000036
 20
14.6305160022413
 30
0.0
 11
0.0625000000000036
 21
14.6055160022413
 31
0.0
  0
LINE
  5
3A
100
AcDbEntity
  8
USP-GEO
100
AcDbLine
 10
0.6250000000000036
 20
14.6805160022413
 30
0.0
 11
0.0000000000000036
 21
14.64926600224131
 31
0.0
  0
LINE
  5
3B
100
AcDbEntity
  8
USP-GEO
100
AcDbLine
 10
0.6250000000000036
 20
15.9930160022413
 30
0.0
 11
0.0000000000000036
 21
15.9617660022413
 31
0.0
  0
LINE
  5
3C
100
AcDbEntity
  8
USP-GEO
100
AcDbLine
 10
0.6250000000000036
 20
15.9930160022413
 30
0.0
 11
0.0000000000000036
 21
15.9617660022413
 31
0.0
  0
LINE
  5
3D
100
AcDbEntity
  8
USP-GEO
100
AcDbLine
 10
0.5625000000000036
 20
15.3805160022413
 30
0.0
 11
0.0625000000000036
 21
15.3555160022413
 31
0.0
  0
LINE
  5
3E
100
AcDbEntity
  8
USP-GEO
100
AcDbLine
 10
0.6250000000000036
 20
15.43051600224131
 30
0.0
 11
0.0000000000000036
 21
15.39926600224131
 31
0.0
  0
LINE
  5
3F
100
AcDbEntity
  8
USP-GEO
100
AcDbLine
 10
0.6250000000000036
 20
15.5242660022413
 30
0.0
 11
0.0000000000000036
 21
15.4930160022413
 31
0.0
  0
LINE
  5
40
100
AcDbEntity
  8
USP-GEO
100
AcDbLine
 10
0.6250000000000036
 20
15.43051600224131
 30
0.0
 11
0.0000000000000036
 21
15.39926600224131
 31
0.0
  0
LINE
  5
41
100
AcDbEntity
  8
USP-GEO
100
AcDbLine
 10
0.5625000000000036
 20
15.4742660022413
 30
0.0
 11
0.0625000000000036
 21
15.44926600224131
 31
0.0
  0
LINE
  5
42
100
AcDbEntity
  8
USP-GEO
100
AcDbLine
 10
0.6250000000000036
 20
15.5242660022413
 30
0.0
 11
0.0000000000000036
 21
15.4930160022413
 31
0.0
  0
LINE
  5
43
100
AcDbEntity
  8
USP-GEO
100
AcDbLine
 10
0.5625000000000036
 20
15.5680160022413
 30
0.0
 11
0.0625000000000036
 21
15.5430160022413
 31
0.0
  0
LINE
  5
44
100
AcDbEntity
  8
USP-GEO
100
AcDbLine
 10
0.6250000000000036
 20
15.71176600224131
 30
0.0
 11
0.0000000000000036
 21
15.6805160022413
 31
0.0
  0
LINE
  5
45
100
AcDbEntity
  8
USP-GEO
100
AcDbLine
 10
0.5625000000000036
 20
15.6617660022413
 30
0.0
 11
0.0625000000000036
 21
15.6367660022413
 31
0.0
  0
LINE
  5
46
100
AcDbEntity
  8
USP-GEO
100
AcDbLine
 10
0.6250000000000036
 20
15.8055160022413
 30
0.0
 11
0.0000000000000036
 21
15.7742660022413
 31
0.0
  0
LINE
  5
47
100
AcDbEntity
  8
USP-GEO
100
AcDbLine
 10
0.6250000000000036
 20
15.71176600224131
 30
0.0
 11
0.0000000000000036
 21
15.6805160022413
 31
0.0
  0
LINE
  5
48
100
AcDbEntity
  8
USP-GEO
100
AcDbLine
 10
0.5625000000000036
 20
15.7555160022413
 30
0.0
 11
0.0625000000000036
 21
15.73051600224131
 31
0.0
  0
LINE
  5
49
100
AcDbEntity
  8
USP-GEO
100
AcDbLine
 10
0.6250000000000036
 20
15.89926600224131
 30
0.0
 11
0.0000000000000036
 21
15.86801600224131
 31
0.0
  0
LINE
  5
4A
100
AcDbEntity
  8
USP-GEO
100
AcDbLine
 10
0.6250000000000036
 20
15.8055160022413
 30
0.0
 11
0.0000000000000036
 21
15.7742660022413
 31
0.0
  0
LINE
  5
4B
100
AcDbEntity
  8
USP-GEO
100
AcDbLine
 10
0.5625000000000036
 20
15.8492660022413
 30
0.0
 11
0.0625000000000036
 21
15.8242660022413
 31
0.0
  0
LINE
  5
4C
100
AcDbEntity
  8
USP-GEO
100
AcDbLine
 10
0.6250000000000036
 20
15.89926600224131
 30
0.0
 11
0.0000000000000036
 21
15.86801600224131
 31
0.0
  0
LINE
  5
4D
100
AcDbEntity
  8
USP-GEO
100
AcDbLine
 10
0.5625000000000036
 20
15.9430160022413
 30
0.0
 11
0.0625000000000036
 21
15.91801600224131
 31
0.0
  0
LINE
  5
4E
100
AcDbEntity
  8
USP-GEO
100
AcDbLine
 10
0.6250000000000036
 20
15.6180160022413
 30
0.0
 11
0.0000000000000036
 21
15.58676600224131
 31
0.0
  0
LINE
  5
4F
100
AcDbEntity
  8
USP-GEO
100
AcDbLine
 10
0.6250000000000036
 20
15.6180160022413
 30
0.0
 11
0.0000000000000036
 21
15.58676600224131
 31
0.0
  0
LINE
  5
50
100
AcDbEntity
  8
USP-GEO
100
AcDbLine
 10
0.6250000000000036
 20
15.0555160022413
 30
0.0
 11
0.0000000000000036
 21
15.0242660022413
 31
0.0
  0
LINE
  5
51
100
AcDbEntity
  8
USP-GEO
100
AcDbLine
 10
0.5625000000000036
 20
15.0055160022413
 30
0.0
 11
0.0625000000000036
 21
14.98051600224131
 31
0.0
  0
LINE
  5
52
100
AcDbEntity
  8
USP-GEO
100
AcDbLine
 10
0.6250000000000036
 20
15.1492660022413
 30
0.0
 11
0.0000000000000036
 21
15.11801600224131
 31
0.0
  0
LINE
  5
53
100
AcDbEntity
  8
USP-GEO
100
AcDbLine
 10
0.6250000000000036
 20
15.0555160022413
 30
0.0
 11
0.0000000000000036
 21
15.0242660022413
 31
0.0
  0
LINE
  5
54
100
AcDbEntity
  8
USP-GEO
100
AcDbLine
 10
0.5625000000000036
 20
15.0992660022413
 30
0.0
 11
0.0625000000000036
 21
15.0742660022413
 31
0.0
  0
LINE
  5
55
100
AcDbEntity
  8
USP-GEO
100
AcDbLine
 10
0.6250000000000036
 20
15.24301600224131
 30
0.0
 11
0.0000000000000036
 21
15.2117660022413
 31
0.0
  0
LINE
  5
56
100
AcDbEntity
  8
USP-GEO
100
AcDbLine
 10
0.6250000000000036
 20
15.1492660022413
 30
0.0
 11
0.0000000000000036
 21
15.11801600224131
 31
0.0
  0
LINE
  5
57
100
AcDbEntity
  8
USP-GEO
100
AcDbLine
 10
0.5625000000000036
 20
15.1930160022413
 30
0.0
 11
0.0625000000000036
 21
15.1680160022413
 31
0.0
  0
LINE
  5
58
100
AcDbEntity
  8
USP-GEO
100
AcDbLine
 10
0.6250000000000036
 20
15.3367660022413
 30
0.0
 11
0.0000000000000036
 21
15.3055160022413
 31
0.0
  0
LINE
  5
59
100
AcDbEntity
  8
USP-GEO
100
AcDbLine
 10
0.6250000000000036
 20
15.24301600224131
 30
0.0
 11
0.0000000000000036
 21
15.2117660022413
 31
0.0
  0
LINE
  5
5A
100
AcDbEntity
  8
USP-GEO
100
AcDbLine
 10
0.5625000000000036
 20
15.2867660022413
 30
0.0
 11
0.0625000000000036
 21
15.26176600224131
 31
0.0
  0
LINE
  5
5B
100
AcDbEntity
  8
USP-GEO
100
AcDbLine
 10
0.6250000000000036
 20
15.3367660022413
 30
0.0
 11
0.0000000000000036
 21
15.3055160022413
 31
0.0
  0
LINE
  5
5C
100
AcDbEntity
  8
USP-GEO
100
AcDbLine
 10
0.6250000000000036
 20
14.96176600224131
 30
0.0
 11
0.0000000000000036
 21
14.93051600224131
 31
0.0
  0
LINE
  5
5D
100
AcDbEntity
  8
USP-GEO
100
AcDbLine
 10
0.6250000000000036
 20
14.96176600224131
 30
0.0
 11
0.0000000000000036
 21
14.93051600224131
 31
0.0
  0
LINE
  5
5E
100
AcDbEntity
  8
USP-GEO
100
AcDbLine
 10
0.5625000000000036
 20
16.0367660022413
 30
0.0
 11
0.0625000000000036
 21
16.0117660022413
 31
0.0
  0
LINE
  5
5F
100
AcDbEntity
  8
USP-GEO
100
AcDbLine
 10
0.6250000000000036
 20
16.7430160022413
 30
0.0
 11
0.0000000000000036
 21
16.7117660022413
 31
0.0
  0
LINE
  5
60
100
AcDbEntity
  8
USP-GEO
100
AcDbLine
 10
0.6250000000000036
 20
16.83676600224131
 30
0.0
 11
0.0000000000000036
 21
16.80551600224131
 31
0.0
  0
LINE
  5
61
100
AcDbEntity
  8
USP-GEO
100
AcDbLine
 10
0.6250000000000036
 20
16.7430160022413
 30
0.0
 11
0.0000000000000036
 21
16.7117660022413
 31
0.0
  0
LINE
  5
62
100
AcDbEntity
  8
USP-GEO
100
AcDbLine
 10
0.5625000000000036
 20
16.7867660022413
 30
0.0
 11
0.0625000000000036
 21
16.7617660022413
 31
0.0
  0
LINE
  5
63
100
AcDbEntity
  8
USP-GEO
100
AcDbLine
 10
0.6250000000000036
 20
16.9305160022413
 30
0.0
 11
0.0000000000000036
 21
16.8992660022413
 31
0.0
  0
LINE
  5
64
100
AcDbEntity
  8
USP-GEO
100
AcDbLine
 10
0.6250000000000036
 20
16.83676600224131
 30
0.0
 11
0.0000000000000036
 21
16.80551600224131
 31
0.0
  0
LINE
  5
65
100
AcDbEntity
  8
USP-GEO
100
AcDbLine
 10
0.5625000000000036
 20
16.8805160022413
 30
0.0
 11
0.0625000000000036
 21
16.85551600224131
 31
0.0
  0
LINE
  5
66
100
AcDbEntity
  8
USP-GEO
100
AcDbLine
 10
0.6250000000000036
 20
16.9305160022413
 30
0.0
 11
0.0000000000000036
 21
16.8992660022413
 31
0.0
  0
LINE
  5
67
100
AcDbEntity
  8
USP-GEO
100
AcDbLine
 10
0.6250000000000036
 20
17.0242660022413
 30
0.0
 11
0.0000000000000036
 21
16.99301600224131
 31
0.0
  0
LINE
  5
68
100
AcDbEntity
  8
USP-GEO
100
AcDbLine
 10
0.6250000000000036
 20
17.0242660022413
 30
0.0
 11
0.0000000000000036
 21
16.99301600224131
 31
0.0
  0
LINE
  5
69
100
AcDbEntity
  8
USP-GEO
100
AcDbLine
 10
0.5625000000000036
 20
16.9742660022413
 30
0.0
 11
0.0625000000000036
 21
16.9492660022413
 31
0.0
  0
LINE
  5
6A
100
AcDbEntity
  8
USP-GEO
100
AcDbLine
 10
0.6250000000000036
 20
16.0867660022413
 30
0.0
 11
0.0000000000000036
 21
16.05551600224131
 31
0.0
  0
LINE
  5
6B
100
AcDbEntity
  8
USP-GEO
100
AcDbLine
 10
0.6250000000000036
 20
16.18051600224131
 30
0.0
 11
0.0000000000000036
 21
16.1492660022413
 31
0.0
  0
LINE
  5
6C
100
AcDbEntity
  8
USP-GEO
100
AcDbLine
 10
0.6250000000000036
 20
16.0867660022413
 30
0.0
 11
0.0000000000000036
 21
16.05551600224131
 31
0.0
  0
LINE
  5
6D
100
AcDbEntity
  8
USP-GEO
100
AcDbLine
 10
0.5625000000000036
 20
16.1305160022413
 30
0.0
 11
0.0625000000000036
 21
16.1055160022413
 31
0.0
  0
LINE
  5
6E
100
AcDbEntity
  8
USP-GEO
100
AcDbLine
 10
0.6250000000000036
 20
16.2742660022413
 30
0.0
 11
0.0000000000000036
 21
16.2430160022413
 31
0.0
  0
LINE
  5
6F
100
AcDbEntity
  8
USP-GEO
100
AcDbLine
 10
0.6250000000000036
 20
16.18051600224131
 30
0.0
 11
0.0000000000000036
 21
16.1492660022413
 31
0.0
  0
LINE
  5
70
100
AcDbEntity
  8
USP-GEO
100
AcDbLine
 10
0.5625000000000036
 20
16.2242660022413
 30
0.0
 11
0.0625000000000036
 21
16.19926600224131
 31
0.0
  0
LINE
  5
71
100
AcDbEntity
  8
USP-GEO
100
AcDbLine
 10
0.6250000000000036
 20
16.2742660022413
 30
0.0
 11
0.0000000000000036
 21
16.2430160022413
 31
0.0
  0
LINE
  5
72
100
AcDbEntity
  8
USP-GEO
100
AcDbLine
 10
0.6250000000000036
 20
16.36801600224131
 30
0.0
 11
0.0000000000000036
 21
16.33676600224131
 31
0.0
  0
LINE
  5
73
100
AcDbEntity
  8
USP-GEO
100
AcDbLine
 10
0.5625000000000036
 20
16.3180160022413
 30
0.0
 11
0.0625000000000036
 21
16.2930160022413
 31
0.0
  0
LINE
  5
74
100
AcDbEntity
  8
USP-GEO
100
AcDbLine
 10
0.6250000000000036
 20
16.4617660022413
 30
0.0
 11
0.0000000000000036
 21
16.4305160022413
 31
0.0
  0
LINE
  5
75
100
AcDbEntity
  8
USP-GEO
100
AcDbLine
 10
0.6250000000000036
 20
16.36801600224131
 30
0.0
 11
0.0000000000000036
 21
16.33676600224131
 31
0.0
  0
LINE
  5
76
100
AcDbEntity
  8
USP-GEO
100
AcDbLine
 10
0.5625000000000036
 20
16.4117660022413
 30
0.0
 11
0.0625000000000036
 21
16.38676600224131
 31
0.0
  0
LINE
  5
77
100
AcDbEntity
  8
USP-GEO
100
AcDbLine
 10
0.6250000000000036
 20
16.5555160022413
 30
0.0
 11
0.0000000000000036
 21
16.52426600224131
 31
0.0
  0
LINE
  5
78
100
AcDbEntity
  8
USP-GEO
100
AcDbLine
 10
0.6250000000000036
 20
16.4617660022413
 30
0.0
 11
0.0000000000000036
 21
16.4305160022413
 31
0.0
  0
LINE
  5
79
100
AcDbEntity
  8
USP-GEO
100
AcDbLine
 10
0.5625000000000036
 20
16.5055160022413
 30
0.0
 11
0.0625000000000036
 21
16.4805160022413
 31
0.0
  0
LINE
  5
7A
100
AcDbEntity
  8
USP-GEO
100
AcDbLine
 10
0.6250000000000036
 20
16.64926600224131
 30
0.0
 11
0.0000000000000036
 21
16.6180160022413
 31
0.0
  0
LINE
  5
7B
100
AcDbEntity
  8
USP-GEO
100
AcDbLine
 10
0.6250000000000036
 20
16.5555160022413
 30
0.0
 11
0.0000000000000036
 21
16.52426600224131
 31
0.0
  0
LINE
  5
7C
100
AcDbEntity
  8
USP-GEO
100
AcDbLine
 10
0.5625000000000036
 20
16.5992660022413
 30
0.0
 11
0.0625000000000036
 21
16.5742660022413
 31
0.0
  0
LINE
  5
7D
100
AcDbEntity
  8
USP-GEO
100
AcDbLine
 10
0.6250000000000036
 20
16.64926600224131
 30
0.0
 11
0.0000000000000036
 21
16.6180160022413
 31
0.0
  0
LINE
  5
7E
100
AcDbEntity
  8
USP-GEO
100
AcDbLine
 10
0.5625000000000036
 20
16.6930160022413
 30
0.0
 11
0.0625000000000036
 21
16.66801600224131
 31
0.0
  0
LINE
  5
7F
100
AcDbEntity
  8
USP-GEO
100
AcDbLine
 10
0.6250000000000036
 20
17.3992660022413
 30
0.0
 11
0.0000000000000036
 21
17.3680160022413
 31
0.0
  0
LINE
  5
80
100
AcDbEntity
  8
USP-GEO
100
AcDbLine
 10
0.6250000000000036
 20
17.3992660022413
 30
0.0
 11
0.0000000000000036
 21
17.3680160022413
 31
0.0
  0
LINE
  5
81
100
AcDbEntity
  8
USP-GEO
100
AcDbLine
 10
0.5625000000000036
 20
17.6305160022413
 30
0.0
 11
0.0625000000000036
 21
17.60551600224131
 31
0.0
  0
LINE
  5
82
100
AcDbEntity
  8
USP-GEO
100
AcDbLine
 10
0.6250000000000036
 20
17.58676600224131
 30
0.0
 11
0.0000000000000036
 21
17.5555160022413
 31
0.0
  0
LINE
  5
83
100
AcDbEntity
  8
USP-GEO
100
AcDbLine
 10
0.6250000000000036
 20
17.58676600224131
 30
0.0
 11
0.0000000000000036
 21
17.5555160022413
 31
0.0
  0
LINE
  5
84
100
AcDbEntity
  8
USP-GEO
100
AcDbLine
 10
0.5625000000000036
 20
17.5367660022413
 30
0.0
 11
0.0625000000000036
 21
17.5117660022413
 31
0.0
  0
LINE
  5
85
100
AcDbEntity
  8
USP-GEO
100
AcDbLine
 10
0.6250000000000036
 20
17.4930160022413
 30
0.0
 11
0.0000000000000036
 21
17.46176600224131
 31
0.0
  0
LINE
  5
86
100
AcDbEntity
  8
USP-GEO
100
AcDbLine
 10
0.6250000000000036
 20
17.4930160022413
 30
0.0
 11
0.0000000000000036
 21
17.46176600224131
 31
0.0
  0
LINE
  5
87
100
AcDbEntity
  8
USP-GEO
100
AcDbLine
 10
0.5625000000000036
 20
17.4430160022413
 30
0.0
 11
0.0625000000000036
 21
17.4180160022413
 31
0.0
  0
LINE
  5
88
100
AcDbEntity
  8
USP-GEO
100
AcDbLine
 10
0.4460604273899627
 20
17.8121940236108
 30
0.0
 11
0.0625000000000036
 21
17.79301600224131
 31
0.0
  0
LINE
  5
89
100
AcDbEntity
  8
USP-GEO
100
AcDbLine
 10
0.6250000000000036
 20
17.77426600224131
 30
0.0
 11
0.0000000000000036
 21
17.74301600224131
 31
0.0
  0
LINE
  5
8A
100
AcDbEntity
  8
USP-GEO
100
AcDbLine
 10
0.6250000000000036
 20
17.77426600224131
 30
0.0
 11
0.0000000000000036
 21
17.74301600224131
 31
0.0
  0
LINE
  5
8B
100
AcDbEntity
  8
USP-GEO
100
AcDbLine
 10
0.5625000000000036
 20
17.7242660022413
 30
0.0
 11
0.0625000000000036
 21
17.6992660022413
 31
0.0
  0
LINE
  5
8C
100
AcDbEntity
  8
USP-GEO
100
AcDbLine
 10
0.6250000000000036
 20
17.6805160022413
 30
0.0
 11
0.0000000000000036
 21
17.6492660022413
 31
0.0
  0
LINE
  5
8D
100
AcDbEntity
  8
USP-GEO
100
AcDbLine
 10
0.6250000000000036
 20
17.6805160022413
 30
0.0
 11
0.0000000000000036
 21
17.6492660022413
 31
0.0
  0
LINE
  5
8E
100
AcDbEntity
  8
USP-GEO
100
AcDbLine
 10
0.5708171123292907
 20
17.8121940236108
 30
0.0
 11
0.035102826615006
 21
17.8121940236108
 31
0.0
  0
LINE
  5
8F
100
AcDbEntity
  8
USP-GEO
100
AcDbLine
 10
0.5625000000000036
 20
17.3492660022413
 30
0.0
 11
0.0625000000000036
 21
17.32426600224131
 31
0.0
  0
LINE
  5
90
100
AcDbEntity
  8
USP-GEO
100
AcDbLine
 10
0.6250000000000036
 20
17.30551600224131
 30
0.0
 11
0.0000000000000036
 21
17.27426600224131
 31
0.0
  0
LINE
  5
91
100
AcDbEntity
  8
USP-GEO
100
AcDbLine
 10
0.6250000000000036
 20
17.11801600224131
 30
0.0
 11
0.0000000000000036
 21
17.0867660022413
 31
0.0
  0
LINE
  5
92
100
AcDbEntity
  8
USP-GEO
100
AcDbLine
 10
0.5625000000000036
 20
17.0680160022413
 30
0.0
 11
0.0625000000000036
 21
17.0430160022413
 31
0.0
  0
LINE
  5
93
100
AcDbEntity
  8
USP-GEO
100
AcDbLine
 10
0.6250000000000036
 20
17.2117660022413
 30
0.0
 11
0.0000000000000036
 21
17.1805160022413
 31
0.0
  0
LINE
  5
94
100
AcDbEntity
  8
USP-GEO
100
AcDbLine
 10
0.6250000000000036
 20
17.11801600224131
 30
0.0
 11
0.0000000000000036
 21
17.0867660022413
 31
0.0
  0
LINE
  5
95
100
AcDbEntity
  8
USP-GEO
100
AcDbLine
 10
0.5625000000000036
 20
17.1617660022413
 30
0.0
 11
0.0625000000000036
 21
17.13676600224131
 31
0.0
  0
LINE
  5
96
100
AcDbEntity
  8
USP-GEO
100
AcDbLine
 10
0.5625000000000036
 20
17.2555160022413
 30
0.0
 11
0.0625000000000036
 21
17.2305160022413
 31
0.0
  0
LINE
  5
97
100
AcDbEntity
  8
USP-GEO
100
AcDbLine
 10
0.6250000000000036
 20
17.2117660022413
 30
0.0
 11
0.0000000000000036
 21
17.1805160022413
 31
0.0
  0
LINE
  5
98
100
AcDbEntity
  8
USP-GEO
100
AcDbLine
 10
0.6250000000000036
 20
17.30551600224131
 30
0.0
 11
0.0000000000000036
 21
17.27426600224131
 31
0.0
  0
LINE
  5
99
100
AcDbEntity
  8
USP-GEO
100
AcDbLine
 10
0.5625000000000036
 20
14.9117660022413
 30
0.0
 11
0.0625000000000036
 21
14.8867660022413
 31
0.0
  0
LINE
  5
9A
100
AcDbEntity
  8
USP-GEO
100
AcDbLine
 10
0.6150000000000056
 20
12.7965690236108
 30
0.0
 11
0.0100000000000016
 21
12.7965690236108
 31
0.0
  0
LINE
  5
9B
100
AcDbEntity
  8
USP-GEO
100
AcDbLine
 10
0.6150000000000056
 20
12.8278190236108
 30
0.0
 11
0.0100000000000051
 21
12.8278190236108
 31
0.0
  0
LINE
  5
9C
100
AcDbEntity
  8
USP-GEO
100
AcDbLine
 10
0.6250000000000036
 20
14.77426600224131
 30
0.0
 11
0.0000000000000036
 21
14.7430160022413
 31
0.0
  0
LINE
  5
9D
100
AcDbEntity
  8
USP-GEO
100
AcDbLine
 10
0.5625000000000036
 20
14.7242660022413
 30
0.0
 11
0.0625000000000036
 21
14.6992660022413
 31
0.0
  0
LINE
  5
9E
100
AcDbEntity
  8
USP-GEO
100
AcDbLine
 10
0.6250000000000036
 20
14.8680160022413
 30
0.0
 11
0.0000000000000036
 21
14.8367660022413
 31
0.0
  0
LINE
  5
9F
100
AcDbEntity
  8
USP-GEO
100
AcDbLine
 10
0.6250000000000036
 20
14.77426600224131
 30
0.0
 11
0.0000000000000036
 21
14.7430160022413
 31
0.0
  0
LINE
  5
A0
100
AcDbEntity
  8
USP-GEO
100
AcDbLine
 10
0.5625000000000036
 20
14.8180160022413
 30
0.0
 11
0.0625000000000036
 21
14.79301600224131
 31
0.0
  0
LINE
  5
A1
100
AcDbEntity
  8
USP-GEO
100
AcDbLine
 10
0.6250000000000036
 20
14.8680160022413
 30
0.0
 11
0.0000000000000036
 21
14.8367660022413
 31
0.0
  0
LINE
  5
A2
100
AcDbEntity
  8
USP-GEO
100
AcDbLine
 10
0.6250000000000036
 20
14.1180160022413
 30
0.0
 11
0.0000000000000036
 21
14.0867660022413
 31
0.0
  0
LINE
  5
A3
100
AcDbEntity
  8
USP-GEO
100
AcDbLine
 10
0.6250000000000036
 20
14.2117660022413
 30
0.0
 11
0.0000000000000036
 21
14.1805160022413
 31
0.0
  0
LINE
  5
A4
100
AcDbEntity
  8
USP-GEO
100
AcDbLine
 10
0.6250000000000036
 20
14.1180160022413
 30
0.0
 11
0.0000000000000036
 21
14.0867660022413
 31
0.0
  0
LINE
  5
A5
100
AcDbEntity
  8
USP-GEO
100
AcDbLine
 10
0.5625000000000036
 20
14.1617660022413
 30
0.0
 11
0.0625000000000036
 21
14.1367660022413
 31
0.0
  0
LINE
  5
A6
100
AcDbEntity
  8
USP-GEO
100
AcDbLine
 10
0.6250000000000036
 20
14.2117660022413
 30
0.0
 11
0.0000000000000036
 21
14.1805160022413
 31
0.0
  0
LINE
  5
A7
100
AcDbEntity
  8
USP-GEO
100
AcDbLine
 10
0.5625000000000036
 20
14.2555160022413
 30
0.0
 11
0.0625000000000036
 21
14.2305160022413
 31
0.0
  0
LINE
  5
A8
100
AcDbEntity
  8
USP-GEO
100
AcDbLine
 10
0.0000000000000036
 20
14.0621940236108
 30
0.0
 11
0.6250000000000036
 21
14.0621940236108
 31
0.0
  0
LINE
  5
A9
100
AcDbEntity
  8
USP-GEO
100
AcDbLine
 10
0.6250000000000036
 20
14.3055160022413
 30
0.0
 11
0.0000000000000036
 21
14.2742660022413
 31
0.0
  0
LINE
  5
AA
100
AcDbEntity
  8
USP-GEO
100
AcDbLine
 10
0.6250000000000036
 20
14.3992660022413
 30
0.0
 11
0.0000000000000036
 21
14.3680160022413
 31
0.0
  0
LINE
  5
AB
100
AcDbEntity
  8
USP-GEO
100
AcDbLine
 10
0.0000000000000036
 20
14.0621940236108
 30
0.0
 11
0.0000000000000036
 21
12.8431940236108
 31
0.0
  0
TEXT
  5
AC
100
AcDbEntity
  8
USP-DIM
100
AcDbText
 10
-4.317033396473921
 20
12.07123416723252
 30
0.0
 40
0.2277
  1
Embedment Line
 72
     4
 11
-2.836983396473922
 21
12.18508416723252
 31
0.0
100
AcDbText
  0
LINE
  5
AE
100
AcDbEntity
  8
USP-DIM
100
AcDbLine
 10
-0.3099724910150208
 20
12.59903249684905
 30
0.0
 11
-0.8682678325366346
 21
12.11067621648558
 31
0.0
  0
LINE
  5
AF
100
AcDbEntity
  8
USP-DIM
100
AcDbLine
 10
-0.8682678325366346
 20
12.11067621648558
 30
0.0
 11
-1.209404047182754
 21
12.10647853647397
 31
0.0
  0
SOLID
  5
B0
100
AcDbEntity
  8
USP-DIM
100
AcDbTrace
 10
-0.3440642256377266
 20
12.64840610954263
 30
0.0
 11
-0.275880756392322
 21
12.54965888415547
 31
0.0
 12
-0.0137308148535631
 22
12.80358290458525
 32
0.0
 13
-0.0137308148535631
 23
12.80358290458525
 33
0.0
  0
LINE
  5
B1
100
AcDbEntity
  8
USP-GEO
100
AcDbLine
 10
0.0100000000000016
 20
12.7965690236108
 30
0.0
 11
0.0000000000000036
 21
12.7811940236108
 31
0.0
  0
LINE
  5
B2
100
AcDbEntity
  8
USP-GEO
100
AcDbLine
 10
0.0100000000000016
 20
12.8278190236108
 30
0.0
 11
0.0100000000000016
 21
12.7965690236108
 31
0.0
  0
LINE
  5
B3
100
AcDbEntity
  8
USP-GEO
100
AcDbLine
 10
0.0000000000000036
 20
12.8431940236108
 30
0.0
 11
0.0100000000000016
 21
12.8278190236108
 31
0.0
  0
LINE
  5
B4
100
AcDbEntity
  8
USP-GEO
100
AcDbLine
 10
0.0000000000000036
 20
17.1805160022413
 30
0.0
 11
0.0625000000000036
 21
17.13676600224131
 31
0.0
  0
LINE
  5
B5
100
AcDbEntity
  8
USP-GEO
100
AcDbLine
 10
0.0625000000000036
 20
15.5430160022413
 30
0.0
 11
0.0000000000000036
 21
15.4930160022413
 31
0.0
  0
LINE
  5
B6
100
AcDbEntity
  8
USP-GEO
100
AcDbLine
 10
0.0000000000000036
 20
14.7430160022413
 30
0.0
 11
0.0625000000000036
 21
14.6992660022413
 31
0.0
  0
LINE
  5
B7
100
AcDbEntity
  8
USP-GEO
100
AcDbLine
 10
0.0625000000000036
 20
14.32426600224131
 30
0.0
 11
0.0000000000000036
 21
14.2742660022413
 31
0.0
  0
LINE
  5
B8
100
AcDbEntity
  8
USP-GEO
100
AcDbLine
 10
0.0000000000000036
 20
14.1805160022413
 30
0.0
 11
0.0625000000000036
 21
14.1367660022413
 31
0.0
  0
LINE
  5
B9
100
AcDbEntity
  8
USP-GEO
100
AcDbLine
 10
0.0625000000000036
 20
14.1367660022413
 30
0.0
 11
0.0000000000000036
 21
14.0867660022413
 31
0.0
  0
LINE
  5
BA
100
AcDbEntity
  8
USP-GEO
100
AcDbLine
 10
0.0625000000000036
 20
14.2305160022413
 30
0.0
 11
0.0000000000000036
 21
14.1805160022413
 31
0.0
  0
LINE
  5
BB
100
AcDbEntity
  8
USP-GEO
100
AcDbLine
 10
0.0000000000000036
 20
14.2742660022413
 30
0.0
 11
0.0625000000000036
 21
14.2305160022413
 31
0.0
  0
LINE
  5
BC
100
AcDbEntity
  8
USP-GEO
100
AcDbLine
 10
0.0000000000000036
 20
14.0867660022413
 30
0.0
 11
0.035102826615006
 21
14.0621940236108
 31
0.0
  0
LINE
  5
BD
100
AcDbEntity
  8
USP-GEO
100
AcDbLine
 10
0.0000000000000036
 20
14.3680160022413
 30
0.0
 11
0.0625000000000036
 21
14.32426600224131
 31
0.0
  0
LINE
  5
BE
100
AcDbEntity
  8
USP-GEO
100
AcDbLine
 10
0.0625000000000036
 20
14.6992660022413
 30
0.0
 11
0.0000000000000036
 21
14.64926600224131
 31
0.0
  0
LINE
  5
BF
100
AcDbEntity
  8
USP-GEO
100
AcDbLine
 10
0.0000000000000036
 20
14.4617660022413
 30
0.0
 11
0.0625000000000036
 21
14.4180160022413
 31
0.0
  0
LINE
  5
C0
100
AcDbEntity
  8
USP-GEO
100
AcDbLine
 10
0.0625000000000036
 20
14.4180160022413
 30
0.0
 11
0.0000000000000036
 21
14.3680160022413
 31
0.0
  0
LINE
  5
C1
100
AcDbEntity
  8
USP-GEO
100
AcDbLine
 10
0.0000000000000036
 20
14.5555160022413
 30
0.0
 11
0.0625000000000036
 21
14.51176600224131
 31
0.0
  0
LINE
  5
C2
100
AcDbEntity
  8
USP-GEO
100
AcDbLine
 10
0.0625000000000036
 20
14.51176600224131
 30
0.0
 11
0.0000000000000036
 21
14.4617660022413
 31
0.0
  0
LINE
  5
C3
100
AcDbEntity
  8
USP-GEO
100
AcDbLine
 10
0.0000000000000036
 20
14.64926600224131
 30
0.0
 11
0.0625000000000036
 21
14.6055160022413
 31
0.0
  0
LINE
  5
C4
100
AcDbEntity
  8
USP-GEO
100
AcDbLine
 10
0.0625000000000036
 20
14.6055160022413
 30
0.0
 11
0.0000000000000036
 21
14.5555160022413
 31
0.0
  0
LINE
  5
C5
100
AcDbEntity
  8
USP-GEO
100
AcDbLine
 10
0.0000000000000036
 20
15.11801600224131
 30
0.0
 11
0.0625000000000036
 21
15.0742660022413
 31
0.0
  0
LINE
  5
C6
100
AcDbEntity
  8
USP-GEO
100
AcDbLine
 10
0.0000000000000036
 20
14.93051600224131
 30
0.0
 11
0.0625000000000036
 21
14.8867660022413
 31
0.0
  0
LINE
  5
C7
100
AcDbEntity
  8
USP-GEO
100
AcDbLine
 10
0.0000000000000036
 20
14.8367660022413
 30
0.0
 11
0.0625000000000036
 21
14.79301600224131
 31
0.0
  0
LINE
  5
C8
100
AcDbEntity
  8
USP-GEO
100
AcDbLine
 10
0.0625000000000036
 20
14.79301600224131
 30
0.0
 11
0.0000000000000036
 21
14.7430160022413
 31
0.0
  0
LINE
  5
C9
100
AcDbEntity
  8
USP-GEO
100
AcDbLine
 10
0.0625000000000036
 20
14.8867660022413
 30
0.0
 11
0.0000000000000036
 21
14.8367660022413
 31
0.0
  0
LINE
  5
CA
100
AcDbEntity
  8
USP-GEO
100
AcDbLine
 10
0.0000000000000036
 20
15.0242660022413
 30
0.0
 11
0.0625000000000036
 21
14.98051600224131
 31
0.0
  0
LINE
  5
CB
100
AcDbEntity
  8
USP-GEO
100
AcDbLine
 10
0.0625000000000036
 20
15.0742660022413
 30
0.0
 11
0.0000000000000036
 21
15.0242660022413
 31
0.0
  0
LINE
  5
CC
100
AcDbEntity
  8
USP-GEO
100
AcDbLine
 10
0.0625000000000036
 20
14.98051600224131
 30
0.0
 11
0.0000000000000036
 21
14.93051600224131
 31
0.0
  0
LINE
  5
CD
100
AcDbEntity
  8
USP-GEO
100
AcDbLine
 10
0.0625000000000036
 20
15.44926600224131
 30
0.0
 11
0.0000000000000036
 21
15.39926600224131
 31
0.0
  0
LINE
  5
CE
100
AcDbEntity
  8
USP-GEO
100
AcDbLine
 10
0.0000000000000036
 20
15.39926600224131
 30
0.0
 11
0.0625000000000036
 21
15.3555160022413
 31
0.0
  0
LINE
  5
CF
100
AcDbEntity
  8
USP-GEO
100
AcDbLine
 10
0.0000000000000036
 20
15.2117660022413
 30
0.0
 11
0.0625000000000036
 21
15.1680160022413
 31
0.0
  0
LINE
  5
D0
100
AcDbEntity
  8
USP-GEO
100
AcDbLine
 10
0.0625000000000036
 20
15.1680160022413
 30
0.0
 11
0.0000000000000036
 21
15.11801600224131
 31
0.0
  0
LINE
  5
D1
100
AcDbEntity
  8
USP-GEO
100
AcDbLine
 10
0.0625000000000036
 20
15.26176600224131
 30
0.0
 11
0.0000000000000036
 21
15.2117660022413
 31
0.0
  0
LINE
  5
D2
100
AcDbEntity
  8
USP-GEO
100
AcDbLine
 10
0.0625000000000036
 20
15.3555160022413
 30
0.0
 11
0.0000000000000036
 21
15.3055160022413
 31
0.0
  0
LINE
  5
D3
100
AcDbEntity
  8
USP-GEO
100
AcDbLine
 10
0.0000000000000036
 20
15.3055160022413
 30
0.0
 11
0.0625000000000036
 21
15.26176600224131
 31
0.0
  0
LINE
  5
D4
100
AcDbEntity
  8
USP-GEO
100
AcDbLine
 10
0.0000000000000036
 20
15.4930160022413
 30
0.0
 11
0.0625000000000036
 21
15.44926600224131
 31
0.0
  0
LINE
  5
D5
100
AcDbEntity
  8
USP-GEO
100
AcDbLine
 10
0.0625000000000036
 20
16.38676600224131
 30
0.0
 11
0.0000000000000036
 21
16.33676600224131
 31
0.0
  0
LINE
  5
D6
100
AcDbEntity
  8
USP-GEO
100
AcDbLine
 10
0.0000000000000036
 20
15.9617660022413
 30
0.0
 11
0.0625000000000036
 21
15.91801600224131
 31
0.0
  0
LINE
  5
D7
100
AcDbEntity
  8
USP-GEO
100
AcDbLine
 10
0.0625000000000036
 20
15.73051600224131
 30
0.0
 11
0.0000000000000036
 21
15.6805160022413
 31
0.0
  0
LINE
  5
D8
100
AcDbEntity
  8
USP-GEO
100
AcDbLine
 10
0.0000000000000036
 20
15.7742660022413
 30
0.0
 11
0.0625000000000036
 21
15.73051600224131
 31
0.0
  0
LINE
  5
D9
100
AcDbEntity
  8
USP-GEO
100
AcDbLine
 10
0.0000000000000036
 20
15.86801600224131
 30
0.0
 11
0.0625000000000036
 21
15.8242660022413
 31
0.0
  0
LINE
  5
DA
100
AcDbEntity
  8
USP-GEO
100
AcDbLine
 10
0.0625000000000036
 20
15.8242660022413
 30
0.0
 11
0.0000000000000036
 21
15.7742660022413
 31
0.0
  0
LINE
  5
DB
100
AcDbEntity
  8
USP-GEO
100
AcDbLine
 10
0.0625000000000036
 20
15.91801600224131
 30
0.0
 11
0.0000000000000036
 21
15.86801600224131
 31
0.0
  0
LINE
  5
DC
100
AcDbEntity
  8
USP-GEO
100
AcDbLine
 10
0.0000000000000036
 20
15.58676600224131
 30
0.0
 11
0.0625000000000036
 21
15.5430160022413
 31
0.0
  0
LINE
  5
DD
100
AcDbEntity
  8
USP-GEO
100
AcDbLine
 10
0.0000000000000036
 20
15.6805160022413
 30
0.0
 11
0.0625000000000036
 21
15.6367660022413
 31
0.0
  0
LINE
  5
DE
100
AcDbEntity
  8
USP-GEO
100
AcDbLine
 10
0.0625000000000036
 20
15.6367660022413
 30
0.0
 11
0.0000000000000036
 21
15.58676600224131
 31
0.0
  0
LINE
  5
DF
100
AcDbEntity
  8
USP-GEO
100
AcDbLine
 10
0.0625000000000036
 20
16.0117660022413
 30
0.0
 11
0.0000000000000036
 21
15.9617660022413
 31
0.0
  0
LINE
  5
E0
100
AcDbEntity
  8
USP-GEO
100
AcDbLine
 10
0.0000000000000036
 20
16.05551600224131
 30
0.0
 11
0.0625000000000036
 21
16.0117660022413
 31
0.0
  0
LINE
  5
E1
100
AcDbEntity
  8
USP-GEO
100
AcDbLine
 10
0.0000000000000036
 20
16.1492660022413
 30
0.0
 11
0.0625000000000036
 21
16.1055160022413
 31
0.0
  0
LINE
  5
E2
100
AcDbEntity
  8
USP-GEO
100
AcDbLine
 10
0.0625000000000036
 20
16.1055160022413
 30
0.0
 11
0.0000000000000036
 21
16.05551600224131
 31
0.0
  0
LINE
  5
E3
100
AcDbEntity
  8
USP-GEO
100
AcDbLine
 10
0.0000000000000036
 20
16.2430160022413
 30
0.0
 11
0.0625000000000036
 21
16.19926600224131
 31
0.0
  0
LINE
  5
E4
100
AcDbEntity
  8
USP-GEO
100
AcDbLine
 10
0.0625000000000036
 20
16.19926600224131
 30
0.0
 11
0.0000000000000036
 21
16.1492660022413
 31
0.0
  0
LINE
  5
E5
100
AcDbEntity
  8
USP-GEO
100
AcDbLine
 10
0.0000000000000036
 20
16.33676600224131
 30
0.0
 11
0.0625000000000036
 21
16.2930160022413
 31
0.0
  0
LINE
  5
E6
100
AcDbEntity
  8
USP-GEO
100
AcDbLine
 10
0.0625000000000036
 20
16.2930160022413
 30
0.0
 11
0.0000000000000036
 21
16.2430160022413
 31
0.0
  0
LINE
  5
E7
100
AcDbEntity
  8
USP-GEO
100
AcDbLine
 10
0.0625000000000036
 20
16.7617660022413
 30
0.0
 11
0.0000000000000036
 21
16.7117660022413
 31
0.0
  0
LINE
  5
E8
100
AcDbEntity
  8
USP-GEO
100
AcDbLine
 10
0.0000000000000036
 20
16.52426600224131
 30
0.0
 11
0.0625000000000036
 21
16.4805160022413
 31
0.0
  0
LINE
  5
E9
100
AcDbEntity
  8
USP-GEO
100
AcDbLine
 10
0.0000000000000036
 20
16.4305160022413
 30
0.0
 11
0.0625000000000036
 21
16.38676600224131
 31
0.0
  0
LINE
  5
EA
100
AcDbEntity
  8
USP-GEO
100
AcDbLine
 10
0.0625000000000036
 20
16.4805160022413
 30
0.0
 11
0.0000000000000036
 21
16.4305160022413
 31
0.0
  0
LINE
  5
EB
100
AcDbEntity
  8
USP-GEO
100
AcDbLine
 10
0.0000000000000036
 20
16.7117660022413
 30
0.0
 11
0.0625000000000036
 21
16.66801600224131
 31
0.0
  0
LINE
  5
EC
100
AcDbEntity
  8
USP-GEO
100
AcDbLine
 10
0.0000000000000036
 20
16.6180160022413
 30
0.0
 11
0.0625000000000036
 21
16.5742660022413
 31
0.0
  0
LINE
  5
ED
100
AcDbEntity
  8
USP-GEO
100
AcDbLine
 10
0.0625000000000036
 20
16.5742660022413
 30
0.0
 11
0.0000000000000036
 21
16.52426600224131
 31
0.0
  0
LINE
  5
EE
100
AcDbEntity
  8
USP-GEO
100
AcDbLine
 10
0.0625000000000036
 20
16.66801600224131
 30
0.0
 11
0.0000000000000036
 21
16.6180160022413
 31
0.0
  0
LINE
  5
EF
100
AcDbEntity
  8
USP-GEO
100
AcDbLine
 10
0.0625000000000036
 20
17.0430160022413
 30
0.0
 11
0.0000000000000036
 21
16.99301600224131
 31
0.0
  0
LINE
  5
F0
100
AcDbEntity
  8
USP-GEO
100
AcDbLine
 10
0.0000000000000036
 20
16.80551600224131
 30
0.0
 11
0.0625000000000036
 21
16.7617660022413
 31
0.0
  0
LINE
  5
F1
100
AcDbEntity
  8
USP-GEO
100
AcDbLine
 10
0.0000000000000036
 20
16.8992660022413
 30
0.0
 11
0.0625000000000036
 21
16.85551600224131
 31
0.0
  0
LINE
  5
F2
100
AcDbEntity
  8
USP-GEO
100
AcDbLine
 10
0.0625000000000036
 20
16.85551600224131
 30
0.0
 11
0.0000000000000036
 21
16.80551600224131
 31
0.0
  0
LINE
  5
F3
100
AcDbEntity
  8
USP-GEO
100
AcDbLine
 10
0.0625000000000036
 20
16.9492660022413
 30
0.0
 11
0.0000000000000036
 21
16.8992660022413
 31
0.0
  0
LINE
  5
F4
100
AcDbEntity
  8
USP-GEO
100
AcDbLine
 10
0.0000000000000036
 20
16.99301600224131
 30
0.0
 11
0.0625000000000036
 21
16.9492660022413
 31
0.0
  0
LINE
  5
F5
100
AcDbEntity
  8
USP-GEO
100
AcDbLine
 10
0.0000000000000036
 20
17.0867660022413
 30
0.0
 11
0.0625000000000036
 21
17.0430160022413
 31
0.0
  0
LINE
  5
F6
100
AcDbEntity
  8
USP-GEO
100
AcDbLine
 10
0.0625000000000036
 20
17.13676600224131
 30
0.0
 11
0.0000000000000036
 21
17.0867660022413
 31
0.0
  0
LINE
  5
F7
100
AcDbEntity
  8
USP-GEO
100
AcDbLine
 10
0.0625000000000036
 20
17.60551600224131
 30
0.0
 11
0.0000000000000036
 21
17.5555160022413
 31
0.0
  0
LINE
  5
F8
100
AcDbEntity
  8
USP-GEO
100
AcDbLine
 10
0.0625000000000036
 20
17.4180160022413
 30
0.0
 11
0.0000000000000036
 21
17.3680160022413
 31
0.0
  0
LINE
  5
F9
100
AcDbEntity
  8
USP-GEO
100
AcDbLine
 10
0.0625000000000036
 20
17.5117660022413
 30
0.0
 11
0.0000000000000036
 21
17.46176600224131
 31
0.0
  0
LINE
  5
FA
100
AcDbEntity
  8
USP-GEO
100
AcDbLine
 10
0.0000000000000036
 20
17.5555160022413
 30
0.0
 11
0.0625000000000036
 21
17.5117660022413
 31
0.0
  0
LINE
  5
FB
100
AcDbEntity
  8
USP-GEO
100
AcDbLine
 10
0.0000000000000036
 20
17.46176600224131
 30
0.0
 11
0.0625000000000036
 21
17.4180160022413
 31
0.0
  0
LINE
  5
FC
100
AcDbEntity
  8
USP-GEO
100
AcDbLine
 10
0.0625000000000036
 20
17.2305160022413
 30
0.0
 11
0.0000000000000036
 21
17.1805160022413
 31
0.0
  0
LINE
  5
FD
100
AcDbEntity
  8
USP-GEO
100
AcDbLine
 10
0.0000000000000036
 20
17.27426600224131
 30
0.0
 11
0.0625000000000036
 21
17.2305160022413
 31
0.0
  0
LINE
  5
FE
100
AcDbEntity
  8
USP-GEO
100
AcDbLine
 10
0.0000000000000036
 20
17.3680160022413
 30
0.0
 11
0.0625000000000036
 21
17.32426600224131
 31
0.0
  0
LINE
  5
FF
100
AcDbEntity
  8
USP-GEO
100
AcDbLine
 10
0.0625000000000036
 20
17.32426600224131
 30
0.0
 11
0.0000000000000036
 21
17.27426600224131
 31
0.0
  0
LINE
  5
100
100
AcDbEntity
  8
USP-GEO
100
AcDbLine
 10
0.0000000000000036
 20
17.74301600224131
 30
0.0
 11
0.0625000000000036
 21
17.6992660022413
 31
0.0
  0
LINE
  5
101
100
AcDbEntity
  8
USP-GEO
100
AcDbLine
 10
0.0625000000000036
 20
17.79301600224131
 30
0.0
 11
0.0000000000000036
 21
17.74301600224131
 31
0.0
  0
LINE
  5
102
100
AcDbEntity
  8
USP-GEO
100
AcDbLine
 10
0.035102826615006
 20
17.8121940236108
 30
0.0
 11
0.0625000000000036
 21
17.79301600224131
 31
0.0
  0
LINE
  5
103
100
AcDbEntity
  8
USP-GEO
100
AcDbLine
 10
0.0625000000000036
 20
17.6992660022413
 30
0.0
 11
0.0000000000000036
 21
17.6492660022413
 31
0.0
  0
LINE
  5
104
100
AcDbEntity
  8
USP-GEO
100
AcDbLine
 10
0.0000000000000036
 20
17.6492660022413
 30
0.0
 11
0.0625000000000036
 21
17.60551600224131
 31
0.0
  0
LINE
  5
105
100
AcDbEntity
  8
USP-GEO
100
AcDbLine
 10
0.6250000000000036
 20
14.0621940236108
 30
0.0
 11
0.6250000000000036
 21
12.8431940236108
 31
0.0
  0
LINE
  5
106
100
AcDbEntity
  8
USP-CEN
100
AcDbLine
 10
0.3125000000000035
 20
14.0621940236108
 30
0.0
 11
0.3125000000000035
 21
10.96780040642671
 31
0.0
  0
LINE
  5
107
100
AcDbEntity
  8
USP-GEO
100
AcDbLine
 10
0.6250000000000036
 20
12.8431940236108
 30
0.0
 11
0.6150000000000056
 21
12.8278190236108
 31
0.0
  0
LINE
  5
108
100
AcDbEntity
  8
USP-GEO
100
AcDbLine
 10
0.6150000000000056
 20
12.8278190236108
 30
0.0
 11
0.6150000000000056
 21
12.7965690236108
 31
0.0
  0
LINE
  5
109
100
AcDbEntity
  8
USP-GEO
100
AcDbLine
 10
0.6150000000000056
 20
12.7965690236108
 30
0.0
 11
0.6250000000000036
 21
12.7811940236108
 31
0.0
  0
LINE
  5
10A
100
AcDbEntity
  8
USP-GEO
100
AcDbLine
 10
0.5625000000000036
 20
17.1617660022413
 30
0.0
 11
0.6250000000000036
 21
17.11801600224131
 31
0.0
  0
LINE
  5
10B
100
AcDbEntity
  8
USP-GEO
100
AcDbLine
 10
0.6250000000000036
 20
15.5242660022413
 30
0.0
 11
0.5625000000000036
 21
15.4742660022413
 31
0.0
  0
LINE
  5
10C
100
AcDbEntity
  8
USP-GEO
100
AcDbLine
 10
0.5625000000000036
 20
14.7242660022413
 30
0.0
 11
0.6250000000000036
 21
14.6805160022413
 31
0.0
  0
LINE
  5
10D
100
AcDbEntity
  8
USP-GEO
100
AcDbLine
 10
0.5625000000000036
 20
14.0680160022413
 30
0.0
 11
0.446060427389984
 21
14.0621940236108
 31
0.0
  0
LINE
  5
10E
100
AcDbEntity
  8
USP-GEO
100
AcDbLine
 10
0.6250000000000036
 20
14.3055160022413
 30
0.0
 11
0.5625000000000036
 21
14.2555160022413
 31
0.0
  0
LINE
  5
10F
100
AcDbEntity
  8
USP-GEO
100
AcDbLine
 10
0.6250000000000036
 20
14.1180160022413
 30
0.0
 11
0.5625000000000036
 21
14.0680160022413
 31
0.0
  0
LINE
  5
110
100
AcDbEntity
  8
USP-GEO
100
AcDbLine
 10
0.6250000000000036
 20
14.2117660022413
 30
0.0
 11
0.5625000000000036
 21
14.1617660022413
 31
0.0
  0
LINE
  5
111
100
AcDbEntity
  8
USP-GEO
100
AcDbLine
 10
0.5625000000000036
 20
14.1617660022413
 30
0.0
 11
0.6250000000000036
 21
14.1180160022413
 31
0.0
  0
LINE
  5
112
100
AcDbEntity
  8
USP-GEO
100
AcDbLine
 10
0.5625000000000036
 20
14.2555160022413
 30
0.0
 11
0.6250000000000036
 21
14.2117660022413
 31
0.0
  0
LINE
  5
113
100
AcDbEntity
  8
USP-GEO
100
AcDbLine
 10
0.5625000000000036
 20
14.0680160022413
 30
0.0
 11
0.5708171123292907
 21
14.0621940236108
 31
0.0
  0
LINE
  5
114
100
AcDbEntity
  8
USP-GEO
100
AcDbLine
 10
0.6250000000000036
 20
14.3992660022413
 30
0.0
 11
0.5625000000000036
 21
14.3492660022413
 31
0.0
  0
LINE
  5
115
100
AcDbEntity
  8
USP-GEO
100
AcDbLine
 10
0.5625000000000036
 20
14.3492660022413
 30
0.0
 11
0.6250000000000036
 21
14.3055160022413
 31
0.0
  0
LINE
  5
116
100
AcDbEntity
  8
USP-GEO
100
AcDbLine
 10
0.6250000000000036
 20
14.4930160022413
 30
0.0
 11
0.5625000000000036
 21
14.4430160022413
 31
0.0
  0
LINE
  5
117
100
AcDbEntity
  8
USP-GEO
100
AcDbLine
 10
0.5625000000000036
 20
14.4430160022413
 30
0.0
 11
0.6250000000000036
 21
14.3992660022413
 31
0.0
  0
LINE
  5
118
100
AcDbEntity
  8
USP-GEO
100
AcDbLine
 10
0.6250000000000036
 20
14.5867660022413
 30
0.0
 11
0.5625000000000036
 21
14.5367660022413
 31
0.0
  0
LINE
  5
119
100
AcDbEntity
  8
USP-GEO
100
AcDbLine
 10
0.5625000000000036
 20
14.5367660022413
 30
0.0
 11
0.6250000000000036
 21
14.4930160022413
 31
0.0
  0
LINE
  5
11A
100
AcDbEntity
  8
USP-GEO
100
AcDbLine
 10
0.6250000000000036
 20
14.6805160022413
 30
0.0
 11
0.5625000000000036
 21
14.6305160022413
 31
0.0
  0
LINE
  5
11B
100
AcDbEntity
  8
USP-GEO
100
AcDbLine
 10
0.5625000000000036
 20
14.6305160022413
 30
0.0
 11
0.6250000000000036
 21
14.5867660022413
 31
0.0
  0
LINE
  5
11C
100
AcDbEntity
  8
USP-GEO
100
AcDbLine
 10
0.6250000000000036
 20
15.1492660022413
 30
0.0
 11
0.5625000000000036
 21
15.0992660022413
 31
0.0
  0
LINE
  5
11D
100
AcDbEntity
  8
USP-GEO
100
AcDbLine
 10
0.5625000000000036
 20
14.9117660022413
 30
0.0
 11
0.6250000000000036
 21
14.8680160022413
 31
0.0
  0
LINE
  5
11E
100
AcDbEntity
  8
USP-GEO
100
AcDbLine
 10
0.6250000000000036
 20
14.77426600224131
 30
0.0
 11
0.5625000000000036
 21
14.7242660022413
 31
0.0
  0
LINE
  5
11F
100
AcDbEntity
  8
USP-GEO
100
AcDbLine
 10
0.6250000000000036
 20
14.8680160022413
 30
0.0
 11
0.5625000000000036
 21
14.8180160022413
 31
0.0
  0
LINE
  5
120
100
AcDbEntity
  8
USP-GEO
100
AcDbLine
 10
0.5625000000000036
 20
14.8180160022413
 30
0.0
 11
0.6250000000000036
 21
14.77426600224131
 31
0.0
  0
LINE
  5
121
100
AcDbEntity
  8
USP-GEO
100
AcDbLine
 10
0.6250000000000036
 20
15.0555160022413
 30
0.0
 11
0.5625000000000036
 21
15.0055160022413
 31
0.0
  0
LINE
  5
122
100
AcDbEntity
  8
USP-GEO
100
AcDbLine
 10
0.5625000000000036
 20
15.0992660022413
 30
0.0
 11
0.6250000000000036
 21
15.0555160022413
 31
0.0
  0
LINE
  5
123
100
AcDbEntity
  8
USP-GEO
100
AcDbLine
 10
0.5625000000000036
 20
15.0055160022413
 30
0.0
 11
0.6250000000000036
 21
14.96176600224131
 31
0.0
  0
LINE
  5
124
100
AcDbEntity
  8
USP-GEO
100
AcDbLine
 10
0.6250000000000036
 20
14.96176600224131
 30
0.0
 11
0.5625000000000036
 21
14.9117660022413
 31
0.0
  0
LINE
  5
125
100
AcDbEntity
  8
USP-GEO
100
AcDbLine
 10
0.6250000000000036
 20
15.43051600224131
 30
0.0
 11
0.5625000000000036
 21
15.3805160022413
 31
0.0
  0
LINE
  5
126
100
AcDbEntity
  8
USP-GEO
100
AcDbLine
 10
0.5625000000000036
 20
15.3805160022413
 30
0.0
 11
0.6250000000000036
 21
15.3367660022413
 31
0.0
  0
LINE
  5
127
100
AcDbEntity
  8
USP-GEO
100
AcDbLine
 10
0.6250000000000036
 20
15.24301600224131
 30
0.0
 11
0.5625000000000036
 21
15.1930160022413
 31
0.0
  0
LINE
  5
128
100
AcDbEntity
  8
USP-GEO
100
AcDbLine
 10
0.5625000000000036
 20
15.1930160022413
 30
0.0
 11
0.6250000000000036
 21
15.1492660022413
 31
0.0
  0
LINE
  5
129
100
AcDbEntity
  8
USP-GEO
100
AcDbLine
 10
0.6250000000000036
 20
15.3367660022413
 30
0.0
 11
0.5625000000000036
 21
15.2867660022413
 31
0.0
  0
LINE
  5
12A
100
AcDbEntity
  8
USP-GEO
100
AcDbLine
 10
0.5625000000000036
 20
15.2867660022413
 30
0.0
 11
0.6250000000000036
 21
15.24301600224131
 31
0.0
  0
LINE
  5
12B
100
AcDbEntity
  8
USP-GEO
100
AcDbLine
 10
0.5625000000000036
 20
15.4742660022413
 30
0.0
 11
0.6250000000000036
 21
15.43051600224131
 31
0.0
  0
LINE
  5
12C
100
AcDbEntity
  8
USP-GEO
100
AcDbLine
 10
0.6250000000000036
 20
16.36801600224131
 30
0.0
 11
0.5625000000000036
 21
16.3180160022413
 31
0.0
  0
LINE
  5
12D
100
AcDbEntity
  8
USP-GEO
100
AcDbLine
 10
0.5625000000000036
 20
15.9430160022413
 30
0.0
 11
0.6250000000000036
 21
15.89926600224131
 31
0.0
  0
LINE
  5
12E
100
AcDbEntity
  8
USP-GEO
100
AcDbLine
 10
0.6250000000000036
 20
15.71176600224131
 30
0.0
 11
0.5625000000000036
 21
15.6617660022413
 31
0.0
  0
LINE
  5
12F
100
AcDbEntity
  8
USP-GEO
100
AcDbLine
 10
0.6250000000000036
 20
15.8055160022413
 30
0.0
 11
0.5625000000000036
 21
15.7555160022413
 31
0.0
  0
LINE
  5
130
100
AcDbEntity
  8
USP-GEO
100
AcDbLine
 10
0.5625000000000036
 20
15.7555160022413
 30
0.0
 11
0.6250000000000036
 21
15.71176600224131
 31
0.0
  0
LINE
  5
131
100
AcDbEntity
  8
USP-GEO
100
AcDbLine
 10
0.6250000000000036
 20
15.89926600224131
 30
0.0
 11
0.5625000000000036
 21
15.8492660022413
 31
0.0
  0
LINE
  5
132
100
AcDbEntity
  8
USP-GEO
100
AcDbLine
 10
0.5625000000000036
 20
15.8492660022413
 30
0.0
 11
0.6250000000000036
 21
15.8055160022413
 31
0.0
  0
LINE
  5
133
100
AcDbEntity
  8
USP-GEO
100
AcDbLine
 10
0.5625000000000036
 20
15.5680160022413
 30
0.0
 11
0.6250000000000036
 21
15.5242660022413
 31
0.0
  0
LINE
  5
134
100
AcDbEntity
  8
USP-GEO
100
AcDbLine
 10
0.5625000000000036
 20
15.6617660022413
 30
0.0
 11
0.6250000000000036
 21
15.6180160022413
 31
0.0
  0
LINE
  5
135
100
AcDbEntity
  8
USP-GEO
100
AcDbLine
 10
0.6250000000000036
 20
15.6180160022413
 30
0.0
 11
0.5625000000000036
 21
15.5680160022413
 31
0.0
  0
LINE
  5
136
100
AcDbEntity
  8
USP-GEO
100
AcDbLine
 10
0.6250000000000036
 20
15.9930160022413
 30
0.0
 11
0.5625000000000036
 21
15.9430160022413
 31
0.0
  0
LINE
  5
137
100
AcDbEntity
  8
USP-GEO
100
AcDbLine
 10
0.5625000000000036
 20
16.0367660022413
 30
0.0
 11
0.6250000000000036
 21
15.9930160022413
 31
0.0
  0
LINE
  5
138
100
AcDbEntity
  8
USP-GEO
100
AcDbLine
 10
0.6250000000000036
 20
16.0867660022413
 30
0.0
 11
0.5625000000000036
 21
16.0367660022413
 31
0.0
  0
LINE
  5
139
100
AcDbEntity
  8
USP-GEO
100
AcDbLine
 10
0.6250000000000036
 20
16.18051600224131
 30
0.0
 11
0.5625000000000036
 21
16.1305160022413
 31
0.0
  0
LINE
  5
13A
100
AcDbEntity
  8
USP-GEO
100
AcDbLine
 10
0.5625000000000036
 20
16.1305160022413
 30
0.0
 11
0.6250000000000036
 21
16.0867660022413
 31
0.0
  0
LINE
  5
13B
100
AcDbEntity
  8
USP-GEO
100
AcDbLine
 10
0.6250000000000036
 20
16.2742660022413
 30
0.0
 11
0.5625000000000036
 21
16.2242660022413
 31
0.0
  0
LINE
  5
13C
100
AcDbEntity
  8
USP-GEO
100
AcDbLine
 10
0.5625000000000036
 20
16.2242660022413
 30
0.0
 11
0.6250000000000036
 21
16.18051600224131
 31
0.0
  0
LINE
  5
13D
100
AcDbEntity
  8
USP-GEO
100
AcDbLine
 10
0.5625000000000036
 20
16.3180160022413
 30
0.0
 11
0.6250000000000036
 21
16.2742660022413
 31
0.0
  0
LINE
  5
13E
100
AcDbEntity
  8
USP-GEO
100
AcDbLine
 10
0.5625000000000036
 20
16.7867660022413
 30
0.0
 11
0.6250000000000036
 21
16.7430160022413
 31
0.0
  0
LINE
  5
13F
100
AcDbEntity
  8
USP-GEO
100
AcDbLine
 10
0.5625000000000036
 20
16.5055160022413
 30
0.0
 11
0.6250000000000036
 21
16.4617660022413
 31
0.0
  0
LINE
  5
140
100
AcDbEntity
  8
USP-GEO
100
AcDbLine
 10
0.5625000000000036
 20
16.4117660022413
 30
0.0
 11
0.6250000000000036
 21
16.36801600224131
 31
0.0
  0
LINE
  5
141
100
AcDbEntity
  8
USP-GEO
100
AcDbLine
 10
0.6250000000000036
 20
16.4617660022413
 30
0.0
 11
0.5625000000000036
 21
16.4117660022413
 31
0.0
  0
LINE
  5
142
100
AcDbEntity
  8
USP-GEO
100
AcDbLine
 10
0.6250000000000036
 20
16.7430160022413
 30
0.0
 11
0.5625000000000036
 21
16.6930160022413
 31
0.0
  0
LINE
  5
143
100
AcDbEntity
  8
USP-GEO
100
AcDbLine
 10
0.6250000000000036
 20
16.5555160022413
 30
0.0
 11
0.5625000000000036
 21
16.5055160022413
 31
0.0
  0
LINE
  5
144
100
AcDbEntity
  8
USP-GEO
100
AcDbLine
 10
0.5625000000000036
 20
16.5992660022413
 30
0.0
 11
0.6250000000000036
 21
16.5555160022413
 31
0.0
  0
LINE
  5
145
100
AcDbEntity
  8
USP-GEO
100
AcDbLine
 10
0.5625000000000036
 20
16.6930160022413
 30
0.0
 11
0.6250000000000036
 21
16.64926600224131
 31
0.0
  0
LINE
  5
146
100
AcDbEntity
  8
USP-GEO
100
AcDbLine
 10
0.6250000000000036
 20
16.64926600224131
 30
0.0
 11
0.5625000000000036
 21
16.5992660022413
 31
0.0
  0
LINE
  5
147
100
AcDbEntity
  8
USP-GEO
100
AcDbLine
 10
0.5625000000000036
 20
17.0680160022413
 30
0.0
 11
0.6250000000000036
 21
17.0242660022413
 31
0.0
  0
LINE
  5
148
100
AcDbEntity
  8
USP-GEO
100
AcDbLine
 10
0.6250000000000036
 20
16.83676600224131
 30
0.0
 11
0.5625000000000036
 21
16.7867660022413
 31
0.0
  0
LINE
  5
149
100
AcDbEntity
  8
USP-GEO
100
AcDbLine
 10
0.6250000000000036
 20
16.9305160022413
 30
0.0
 11
0.5625000000000036
 21
16.8805160022413
 31
0.0
  0
LINE
  5
14A
100
AcDbEntity
  8
USP-GEO
100
AcDbLine
 10
0.5625000000000036
 20
16.8805160022413
 30
0.0
 11
0.6250000000000036
 21
16.83676600224131
 31
0.0
  0
LINE
  5
14B
100
AcDbEntity
  8
USP-GEO
100
AcDbLine
 10
0.6250000000000036
 20
17.0242660022413
 30
0.0
 11
0.5625000000000036
 21
16.9742660022413
 31
0.0
  0
LINE
  5
14C
100
AcDbEntity
  8
USP-GEO
100
AcDbLine
 10
0.5625000000000036
 20
16.9742660022413
 30
0.0
 11
0.6250000000000036
 21
16.9305160022413
 31
0.0
  0
LINE
  5
14D
100
AcDbEntity
  8
USP-GEO
100
AcDbLine
 10
0.6250000000000036
 20
17.11801600224131
 30
0.0
 11
0.5625000000000036
 21
17.0680160022413
 31
0.0
  0
LINE
  5
14E
100
AcDbEntity
  8
USP-GEO
100
AcDbLine
 10
0.6250000000000036
 20
17.58676600224131
 30
0.0
 11
0.5625000000000036
 21
17.5367660022413
 31
0.0
  0
LINE
  5
14F
100
AcDbEntity
  8
USP-GEO
100
AcDbLine
 10
0.6250000000000036
 20
17.3992660022413
 30
0.0
 11
0.5625000000000036
 21
17.3492660022413
 31
0.0
  0
LINE
  5
150
100
AcDbEntity
  8
USP-GEO
100
AcDbLine
 10
0.5625000000000036
 20
17.5367660022413
 30
0.0
 11
0.6250000000000036
 21
17.4930160022413
 31
0.0
  0
LINE
  5
151
100
AcDbEntity
  8
USP-GEO
100
AcDbLine
 10
0.5625000000000036
 20
17.4430160022413
 30
0.0
 11
0.6250000000000036
 21
17.3992660022413
 31
0.0
  0
LINE
  5
152
100
AcDbEntity
  8
USP-GEO
100
AcDbLine
 10
0.6250000000000036
 20
17.4930160022413
 30
0.0
 11
0.5625000000000036
 21
17.4430160022413
 31
0.0
  0
LINE
  5
153
100
AcDbEntity
  8
USP-GEO
100
AcDbLine
 10
0.6250000000000036
 20
17.2117660022413
 30
0.0
 11
0.5625000000000036
 21
17.1617660022413
 31
0.0
  0
LINE
  5
154
100
AcDbEntity
  8
USP-GEO
100
AcDbLine
 10
0.5625000000000036
 20
17.2555160022413
 30
0.0
 11
0.6250000000000036
 21
17.2117660022413
 31
0.0
  0
LINE
  5
155
100
AcDbEntity
  8
USP-GEO
100
AcDbLine
 10
0.5625000000000036
 20
17.3492660022413
 30
0.0
 11
0.6250000000000036
 21
17.30551600224131
 31
0.0
  0
LINE
  5
156
100
AcDbEntity
  8
USP-GEO
100
AcDbLine
 10
0.6250000000000036
 20
17.30551600224131
 30
0.0
 11
0.5625000000000036
 21
17.2555160022413
 31
0.0
  0
LINE
  5
157
100
AcDbEntity
  8
USP-GEO
100
AcDbLine
 10
0.5625000000000036
 20
17.7242660022413
 30
0.0
 11
0.6250000000000036
 21
17.6805160022413
 31
0.0
  0
LINE
  5
158
100
AcDbEntity
  8
USP-GEO
100
AcDbLine
 10
0.5708171123292907
 20
17.8121940236108
 30
0.0
 11
0.6250000000000036
 21
17.77426600224131
 31
0.0
  0
LINE
  5
159
100
AcDbEntity
  8
USP-GEO
100
AcDbLine
 10
0.6250000000000036
 20
17.77426600224131
 30
0.0
 11
0.5625000000000036
 21
17.7242660022413
 31
0.0
  0
LINE
  5
15A
100
AcDbEntity
  8
USP-GEO
100
AcDbLine
 10
0.5625000000000036
 20
17.6305160022413
 30
0.0
 11
0.6250000000000036
 21
17.58676600224131
 31
0.0
  0
LINE
  5
15B
100
AcDbEntity
  8
USP-GEO
100
AcDbLine
 10
0.6250000000000036
 20
17.6805160022413
 30
0.0
 11
0.5625000000000036
 21
17.6305160022413
 31
0.0
  0
ENDBLK
  5
15D
100
AcDbEntity
  8
0
100
AcDbBlockEnd
  0
ENDSEC
  0
SECTION
  2
ENTITIES
  0
INSERT
  5
3
100
AcDbEntity
  8
USP
100
AcDbBlockReference
  2
STB16_T
 10
4.294021526676346
 20
19.92512316519018
 30
0.0
  0
INSERT
  5
1A
100
AcDbEntity
  8
USP
100
AcDbBlockReference
  2
STB16_S
 10
4.31739957947217
 20
0.7325269860349977
 30
0.0
  0
ENDSEC
  0
SECTION
  2
OBJECTS
  0
DICTIONARY
  5
176
102
{ACAD_XDICTIONARY
360
177
102
}
100
AcDbDictionary
  3
ACAD_GROUP
350
174
  3
ACAD_MLINESTYLE
350
175
  0
DICTIONARY
  5
15E
100
AcDbDictionary
280
     1
  3
ACAD_LAYOUTSELFREF
360
15F
  0
DICTIONARY
  5
163
100
AcDbDictionary
280
     1
  3
ACAD_LAYOUTSELFREF
360
164
  0
DICTIONARY
  5
177
100
AcDbDictionary
280
     1
  3
ACAD_XREC_ROUNDTRIP
360
178
  0
DICTIONARY
  5
174
102
{ACAD_REACTORS
330
176
102
}
100
AcDbDictionary
  0
DICTIONARY
  5
175
102
{ACAD_REACTORS
330
176
102
}
100
AcDbDictionary
  3
STANDARD
350
179
  0
XRECORD
  5
15F
102
{ACAD_REACTORS
330
15E
102
}
100
AcDbXrecord
340
2
  0
XRECORD
  5
164
102
{ACAD_REACTORS
330
163
102
}
100
AcDbXrecord
340
163
  0
XRECORD
  5
178
102
{ACAD_REACTORS
330
177
102
}
100
AcDbXrecord
102
EXTNAMES
  1
ACDBVARIABLEDICTIONARY
  2
AcDbVariableDictionary
  0
MLINESTYLE
  5
179
102
{ACAD_REACTORS
330
175
102
}
100
AcDbMlineStyle
  2
STANDARD
 70
     0
  3

 62
     0
 51
90.0
 52
90.0
 71
     2
 49
0.5
 62
   256
  6
BYLAYER
 49
-0.5
 62
   256
  6
BYLAYER
  0
ENDSEC
  0
EOF
