  0
SECTION
  2
HEADER
  9
$ACADVER
  1
AC1015
  9
$ACADMAINTVER
 70
    20
  9
$DWGCODEPAGE
  3
ANSI_1252
  9
$INSBASE
 10
0.0
 20
0.0
 30
0.0
  9
$EXTMIN
 10
-0.4780664592170321
 20
0.00048808983769
 30
0.0
  9
$EXTMAX
 10
8.896680364338804
 20
11.43058282825418
 30
0.0
  9
$LIMMIN
 10
0.0
 20
0.0
  9
$LIMMAX
 10
12.0
 20
9.0
  9
$ORTHOMODE
 70
     1
  9
$REGENMODE
 70
     1
  9
$FILLMODE
 70
     1
  9
$QTEXTMODE
 70
     0
  9
$MIRRTEXT
 70
     0
  9
$LTSCALE
 40
1.5
  9
$ATTMODE
 70
     1
  9
$TEXTSIZE
 40
0.25
  9
$TRACEWID
 40
0.05
  9
$TEXTSTYLE
  7
STANDARD
  9
$CLAYER
  8
USP
  9
$CELTYPE
  6
BYLAYER
  9
$CECOLOR
 62
   256
  9
$CELTSCALE
 40
1.0
  9
$DISPSILH
 70
     1
  9
$DIMSCALE
 40
3.0
  9
$DIMASZ
 40
0.125
  9
$DIMEXO
 40
0.0625
  9
$DIMDLI
 40
0.38
  9
$DIMRND
 40
0.0
  9
$DIMDLE
 40
0.0
  9
$DIMEXE
 40
0.09375
  9
$DIMTP
 40
0.0
  9
$DIMTM
 40
0.0
  9
$DIMTXT
 40
0.109375
  9
$DIMCEN
 40
0.0
  9
$DIMTSZ
 40
0.0
  9
$DIMTOL
 70
     0
  9
$DIMLIM
 70
     0
  9
$DIMTIH
 70
     1
  9
$DIMTOH
 70
     1
  9
$DIMSE1
 70
     0
  9
$DIMSE2
 70
     0
  9
$DIMTAD
 70
     0
  9
$DIMZIN
 70
     8
  9
$DIMBLK
  1

  9
$DIMASO
 70
     1
  9
$DIMSHO
 70
     1
  9
$DIMPOST
  1

  9
$DIMAPOST
  1

  9
$DIMALT
 70
     0
  9
$DIMALTD
 70
     2
  9
$DIMALTF
 40
25.4
  9
$DIMLFAC
 40
1.0
  9
$DIMTOFL
 70
     0
  9
$DIMTVP
 40
0.0
  9
$DIMTIX
 70
     0
  9
$DIMSOXD
 70
     0
  9
$DIMSAH
 70
     0
  9
$DIMBLK1
  1

  9
$DIMBLK2
  1

  9
$DIMSTYLE
  2
STANDARD
  9
$DIMCLRD
 70
   256
  9
$DIMCLRE
 70
   256
  9
$DIMCLRT
 70
   256
  9
$DIMTFAC
 40
1.0
  9
$DIMGAP
 40
0.09
  9
$DIMJUST
 70
     0
  9
$DIMSD1
 70
     0
  9
$DIMSD2
 70
     0
  9
$DIMTOLJ
 70
     1
  9
$DIMTZIN
 70
     0
  9
$DIMALTZ
 70
     0
  9
$DIMALTTZ
 70
     0
  9
$DIMUPT
 70
     1
  9
$DIMDEC
 70
     4
  9
$DIMTDEC
 70
     4
  9
$DIMALTU
 70
     2
  9
$DIMALTTD
 70
     2
  9
$DIMTXSTY
  7
STANDARD
  9
$DIMAUNIT
 70
     0
  9
$DIMADEC
 70
     0
  9
$DIMALTRND
 40
0.0
  9
$DIMAZIN
 70
     0
  9
$DIMDSEP
 70
    46
  9
$DIMATFIT
 70
     3
  9
$DIMFRAC
 70
     2
  9
$DIMLDRBLK
  1

  9
$DIMLUNIT
 70
     5
  9
$DIMLWD
 70
    -2
  9
$DIMLWE
 70
    -2
  9
$DIMTMOVE
 70
     0
  9
$LUNITS
 70
     5
  9
$LUPREC
 70
     6
  9
$SKETCHINC
 40
0.1
  9
$FILLETRAD
 40
0.0
  9
$AUNITS
 70
     0
  9
$AUPREC
 70
     1
  9
$MENU
  1
CUSTOM
  9
$ELEVATION
 40
0.0
  9
$PELEVATION
 40
0.0
  9
$THICKNESS
 40
0.0
  9
$LIMCHECK
 70
     0
  9
$CHAMFERA
 40
0.0
  9
$CHAMFERB
 40
0.0
  9
$CHAMFERC
 40
0.0
  9
$CHAMFERD
 40
0.0
  9
$SKPOLY
 70
     0
  9
$TDCREATE
 40
2451263.621564699
  9
$TDUCREATE
 40
2451263.829898032
  9
$TDUPDATE
 40
2455846.458739537
  9
$TDUUPDATE
 40
2455846.667072870
  9
$TDINDWG
 40
0.9854165625
  9
$TDUSRTIMER
 40
0.9854165625
  9
$USRTIMER
 70
     1
  9
$ANGBASE
 50
0.0
  9
$ANGDIR
 70
     0
  9
$PDMODE
 70
     0
  9
$PDSIZE
 40
0.0
  9
$PLINEWID
 40
0.0
  9
$SPLFRAME
 70
     0
  9
$SPLINETYPE
 70
     6
  9
$SPLINESEGS
 70
     8
  9
$HANDSEED
  5
D0
  9
$SURFTAB1
 70
     6
  9
$SURFTAB2
 70
     6
  9
$SURFTYPE
 70
     6
  9
$SURFU
 70
     6
  9
$SURFV
 70
     6
  9
$UCSBASE
  2

  9
$UCSNAME
  2

  9
$UCSORG
 10
0.0
 20
0.0
 30
0.0
  9
$UCSXDIR
 10
1.0
 20
0.0
 30
0.0
  9
$UCSYDIR
 10
0.0
 20
1.0
 30
0.0
  9
$UCSORTHOREF
  2

  9
$UCSORTHOVIEW
 70
     0
  9
$UCSORGTOP
 10
0.0
 20
0.0
 30
0.0
  9
$UCSORGBOTTOM
 10
0.0
 20
0.0
 30
0.0
  9
$UCSORGLEFT
 10
0.0
 20
0.0
 30
0.0
  9
$UCSORGRIGHT
 10
0.0
 20
0.0
 30
0.0
  9
$UCSORGFRONT
 10
0.0
 20
0.0
 30
0.0
  9
$UCSORGBACK
 10
0.0
 20
0.0
 30
0.0
  9
$PUCSBASE
  2

  9
$PUCSNAME
  2

  9
$PUCSORG
 10
0.0
 20
0.0
 30
0.0
  9
$PUCSXDIR
 10
1.0
 20
0.0
 30
0.0
  9
$PUCSYDIR
 10
0.0
 20
1.0
 30
0.0
  9
$PUCSORTHOREF
  2

  9
$PUCSORTHOVIEW
 70
     0
  9
$PUCSORGTOP
 10
0.0
 20
0.0
 30
0.0
  9
$PUCSORGBOTTOM
 10
0.0
 20
0.0
 30
0.0
  9
$PUCSORGLEFT
 10
0.0
 20
0.0
 30
0.0
  9
$PUCSORGRIGHT
 10
0.0
 20
0.0
 30
0.0
  9
$PUCSORGFRONT
 10
0.0
 20
0.0
 30
0.0
  9
$PUCSORGBACK
 10
0.0
 20
0.0
 30
0.0
  9
$USERI1
 70
     0
  9
$USERI2
 70
     0
  9
$USERI3
 70
     0
  9
$USERI4
 70
     0
  9
$USERI5
 70
     0
  9
$USERR1
 40
0.0
  9
$USERR2
 40
0.0
  9
$USERR3
 40
0.0
  9
$USERR4
 40
0.0
  9
$USERR5
 40
0.0
  9
$WORLDVIEW
 70
     1
  9
$SHADEDGE
 70
     3
  9
$SHADEDIF
 70
    70
  9
$TILEMODE
 70
     1
  9
$MAXACTVP
 70
    16
  9
$PINSBASE
 10
0.0
 20
0.0
 30
0.0
  9
$PLIMCHECK
 70
     0
  9
$PEXTMIN
 10
1.000000000000000E+20
 20
1.000000000000000E+20
 30
1.000000000000000E+20
  9
$PEXTMAX
 10
-1.000000000000000E+20
 20
-1.000000000000000E+20
 30
-1.000000000000000E+20
  9
$PLIMMIN
 10
0.0
 20
0.0
  9
$PLIMMAX
 10
12.0
 20
9.0
  9
$UNITMODE
 70
     0
  9
$VISRETAIN
 70
     0
  9
$PLINEGEN
 70
     0
  9
$PSLTSCALE
 70
     0
  9
$TREEDEPTH
 70
  3020
  9
$CMLSTYLE
  2
STANDARD
  9
$CMLJUST
 70
     0
  9
$CMLSCALE
 40
1.0
  9
$PROXYGRAPHICS
 70
     1
  9
$MEASUREMENT
 70
     0
  9
$CELWEIGHT
370
    -1
  9
$ENDCAPS
280
     0
  9
$JOINSTYLE
280
     0
  9
$LWDISPLAY
290
     0
  9
$INSUNITS
 70
     0
  9
$HYPERLINKBASE
  1

  9
$STYLESHEET
  1

  9
$XEDIT
290
     1
  9
$CEPSNTYPE
380
     0
  9
$PSTYLEMODE
290
     1
  9
$FINGERPRINTGUID
  2
{96570D36-B1CD-475B-B6CF-593E6A3A820A}
  9
$VERSIONGUID
  2
{470EB259-70C7-4563-803F-7D9FBB1D891E}
  9
$EXTNAMES
290
     1
  9
$PSVPSCALE
 40
0.0
  9
$OLESTARTUP
290
     0
  0
ENDSEC
  0
SECTION
  2
CLASSES
  0
CLASS
  1
ACDBDICTIONARYWDFLT
  2
AcDbDictionaryWithDefault
  3
ObjectDBX Classes
 90
        0
280
     0
281
     0
  0
CLASS
  1
ACDBPLACEHOLDER
  2
AcDbPlaceHolder
  3
ObjectDBX Classes
 90
        0
280
     0
281
     0
  0
CLASS
  1
LAYOUT
  2
AcDbLayout
  3
ObjectDBX Classes
 90
        0
280
     0
281
     0
  0
CLASS
  1
DICTIONARYVAR
  2
AcDbDictionaryVar
  3
ObjectDBX Classes
 90
        0
280
     0
281
     0
  0
CLASS
  1
SORTENTSTABLE
  2
AcDbSortentsTable
  3
ObjectDBX Classes
 90
    32768
280
     0
281
     0
  0
ENDSEC
  0
SECTION
  2
TABLES
  0
TABLE
  2
VPORT
  5
AB
330
0
100
AcDbSymbolTable
 70
     2
  0
VPORT
  5
C8
330
AB
100
AcDbSymbolTableRecord
100
AcDbViewportTableRecord
  2
*Active
 70
     0
 10
0.0
 20
0.0
 11
1.0
 21
1.0
 12
4.743735618662897
 22
6.085680319444536
 13
0.0
 23
0.0
 14
1.0
 24
1.0
 15
0.0
 25
0.0
 16
0.0
 26
0.0
 36
1.0
 17
4.618011500940205
 27
0.5336041590331498
 37
-9.065068113814938
 40
13.30771735254849
 41
2.092592592592592
 42
50.0
 43
0.0
 44
0.0
 50
0.0
 51
0.0
 71
     0
 72
   100
 73
     1
 74
     1
 75
     0
 76
     0
 77
     0
 78
     0
281
     0
 65
     1
110
0.0
120
0.0
130
0.0
111
1.0
121
0.0
131
0.0
112
0.0
122
1.0
132
0.0
 79
     0
146
0.0
  0
ENDTAB
  0
TABLE
  2
LTYPE
  5
A6
330
0
100
AcDbSymbolTable
 70
     1
  0
LTYPE
  5
A7
330
A6
100
AcDbSymbolTableRecord
100
AcDbLinetypeTableRecord
  2
BYBLOCK
 70
     0
  3

 72
    65
 73
     0
 40
0.0
  0
LTYPE
  5
A8
330
A6
100
AcDbSymbolTableRecord
100
AcDbLinetypeTableRecord
  2
BYLAYER
 70
     0
  3

 72
    65
 73
     0
 40
0.0
  0
LTYPE
  5
5
330
A6
100
AcDbSymbolTableRecord
100
AcDbLinetypeTableRecord
  2
CONTINUOUS
 70
     0
  3
Solid line
 72
    65
 73
     0
 40
0.0
  0
ENDTAB
  0
TABLE
  2
LAYER
  5
A4
330
0
100
AcDbSymbolTable
 70
     5
  0
LAYER
  5
43
330
A4
100
AcDbSymbolTableRecord
100
AcDbLayerTableRecord
  2
0
 70
     0
 62
     7
  6
CONTINUOUS
370
    -3
390
BC
  0
LAYER
  5
23
330
A4
100
AcDbSymbolTableRecord
100
AcDbLayerTableRecord
  2
USP-Geo
 70
     0
 62
     7
  6
CONTINUOUS
370
    -3
390
BC
  0
LAYER
  5
3E
330
A4
100
AcDbSymbolTableRecord
100
AcDbLayerTableRecord
  2
USP-Txt
 70
     0
 62
     7
  6
CONTINUOUS
370
    -3
390
BC
  0
LAYER
  5
8
330
A4
100
AcDbSymbolTableRecord
100
AcDbLayerTableRecord
  2
USP-Hid
 70
     0
 62
     7
  6
CONTINUOUS
370
    -3
390
BC
  0
LAYER
  5
4
330
A4
100
AcDbSymbolTableRecord
100
AcDbLayerTableRecord
  2
USP
 70
     0
 62
     7
  6
CONTINUOUS
370
    -3
390
BC
  0
ENDTAB
  0
TABLE
  2
STYLE
  5
A5
330
0
100
AcDbSymbolTable
 70
     1
  0
STYLE
  5
41
330
A5
100
AcDbSymbolTableRecord
100
AcDbTextStyleTableRecord
  2
STANDARD
 70
     0
 40
0.0
 41
1.0
 50
0.0
 71
     0
 42
0.25
  3
txt
  4

  0
ENDTAB
  0
TABLE
  2
VIEW
  5
A9
330
0
100
AcDbSymbolTable
 70
     0
  0
ENDTAB
  0
TABLE
  2
UCS
  5
AA
330
0
100
AcDbSymbolTable
 70
     0
  0
ENDTAB
  0
TABLE
  2
APPID
  5
AD
330
0
100
AcDbSymbolTable
 70
     1
  0
APPID
  5
AE
330
AD
100
AcDbSymbolTableRecord
100
AcDbRegAppTableRecord
  2
ACAD
 70
     0
  0
ENDTAB
  0
TABLE
  2
DIMSTYLE
  5
AF
330
0
100
AcDbSymbolTable
 70
     1
100
AcDbDimStyleTable
 71
     0
  0
DIMSTYLE
105
B7
330
AF
100
AcDbSymbolTableRecord
100
AcDbDimStyleTableRecord
  2
STANDARD
 70
     0
 41
0.125
 44
0.09375
 78
     8
140
0.109375
141
0.0
276
     2
277
     5
340
41
  0
ENDTAB
  0
TABLE
  2
BLOCK_RECORD
  5
1
330
0
100
AcDbSymbolTable
 70
     3
  0
BLOCK_RECORD
  5
2
102
{ACAD_XDICTIONARY
360
9B
102
}
330
1
100
AcDbSymbolTableRecord
100
AcDbBlockTableRecord
  2
*MODEL_SPACE
340
C1
  0
BLOCK_RECORD
  5
9F
102
{ACAD_XDICTIONARY
360
A0
102
}
330
1
100
AcDbSymbolTableRecord
100
AcDbBlockTableRecord
  2
*PAPER_SPACE
340
C2
  0
BLOCK_RECORD
  5
6
330
1
100
AcDbSymbolTableRecord
100
AcDbBlockTableRecord
  2
RT7APR_T
340
0
102
{BLKREFS
331
3
102
}
  0
BLOCK_RECORD
  5
46
330
1
100
AcDbSymbolTableRecord
100
AcDbBlockTableRecord
  2
RT7APR_F
340
0
102
{BLKREFS
331
45
102
}
  0
BLOCK_RECORD
  5
71
330
1
100
AcDbSymbolTableRecord
100
AcDbBlockTableRecord
  2
RT7APR_S
340
0
102
{BLKREFS
331
70
102
}
  0
ENDTAB
  0
ENDSEC
  0
SECTION
  2
BLOCKS
  0
BLOCK
  5
9D
330
2
100
AcDbEntity
  8
0
100
AcDbBlockBegin
  2
*MODEL_SPACE
 70
     0
 10
0.0
 20
0.0
 30
0.0
  3
*MODEL_SPACE
  1

  0
ENDBLK
  5
9E
330
2
100
AcDbEntity
  8
0
100
AcDbBlockEnd
  0
BLOCK
  5
A2
330
9F
100
AcDbEntity
 67
     1
  8
0
100
AcDbBlockBegin
  2
*PAPER_SPACE
 70
     0
 10
0.0
 20
0.0
 30
0.0
  3
*PAPER_SPACE
  1

  0
ENDBLK
  5
A3
330
9F
100
AcDbEntity
 67
     1
  8
0
100
AcDbBlockEnd
  0
BLOCK
  5
42
330
6
100
AcDbEntity
  8
0
100
AcDbBlockBegin
  2
RT7APR_T
 70
     0
 10
0.0
 20
0.0
 30
0.0
  3
RT7APR_T
  1

  0
LWPOLYLINE
  5
7
330
6
100
AcDbEntity
  8
USP-Hid
100
AcDbPolyline
 90
        2
 70
   128
 43
0.0
 10
1.140793647148981
 20
1.642811231134123
 10
1.140793647148981
 20
1.597225071407891
  0
LWPOLYLINE
  5
B
330
6
100
AcDbEntity
  8
USP-Hid
100
AcDbPolyline
 90
        2
 70
   128
 43
0.0
 10
1.642241404137545
 20
0.1253619392471421
 10
1.596655244411312
 20
0.1253619392471421
  0
LWPOLYLINE
  5
C
330
6
100
AcDbEntity
  8
USP-Hid
100
AcDbPolyline
 90
        2
 70
   128
 43
0.0
 10
1.642241404137545
 20
1.380690812708284
 10
1.596655244411312
 20
1.380690812708284
  0
LWPOLYLINE
  5
D
330
6
100
AcDbEntity
  8
USP-Hid
100
AcDbPolyline
 90
        2
 70
   128
 43
0.0
 10
1.642241404137545
 20
1.506052751955424
 10
1.596655244411312
 20
1.506052751955424
  0
LWPOLYLINE
  5
E
330
6
100
AcDbEntity
  8
USP-Hid
100
AcDbPolyline
 90
        2
 70
   128
 43
0.0
 10
1.642241404137545
 20
1.083810947491191
 10
1.596655244411312
 20
1.083810947491191
  0
LWPOLYLINE
  5
F
330
6
100
AcDbEntity
  8
USP-Hid
100
AcDbPolyline
 90
        2
 70
   128
 43
0.0
 10
1.642241404137545
 20
1.243362506533006
 10
1.596655244411312
 20
1.243362506533006
  0
LWPOLYLINE
  5
10
330
6
100
AcDbEntity
  8
USP-Hid
100
AcDbPolyline
 90
        2
 70
   128
 43
0.0
 10
1.642241404137545
 20
1.15219018708054
 10
1.596655244411312
 20
1.15219018708054
  0
LWPOLYLINE
  5
11
330
6
100
AcDbEntity
  8
USP-Hid
100
AcDbPolyline
 90
        2
 70
   128
 43
0.0
 10
1.642241404137545
 20
1.300345206190797
 10
1.596655244411312
 20
1.300345206190797
  0
LWPOLYLINE
  5
12
330
6
100
AcDbEntity
  8
USP-Hid
100
AcDbPolyline
 90
        2
 70
   128
 43
0.0
 10
1.642241404137545
 20
0.1715179259699529
 10
1.596655244411312
 20
0.1715179259699529
  0
LWPOLYLINE
  5
13
330
6
100
AcDbEntity
  8
USP-Hid
100
AcDbPolyline
 90
        2
 70
   128
 43
0.0
 10
1.642241404137545
 20
0.3310694850117688
 10
1.596655244411312
 20
0.3310694850117688
  0
LWPOLYLINE
  5
14
330
6
100
AcDbEntity
  8
USP-Hid
100
AcDbPolyline
 90
        2
 70
   128
 43
0.0
 10
1.642241404137545
 20
0.2740867853539761
 10
1.596655244411312
 20
0.2740867853539761
  0
LWPOLYLINE
  5
15
330
6
100
AcDbEntity
  8
USP-Hid
100
AcDbPolyline
 90
        2
 70
   128
 43
0.0
 10
1.642241404137545
 20
0.4222418044642336
 10
1.596655244411312
 20
0.4222418044642336
  0
LWPOLYLINE
  5
16
330
6
100
AcDbEntity
  8
USP-Hid
100
AcDbPolyline
 90
        2
 70
   128
 43
0.0
 10
1.642241404137545
 20
0.6615691430269575
 10
1.596655244411312
 20
0.6615691430269575
  0
LWPOLYLINE
  5
17
330
6
100
AcDbEntity
  8
USP-Hid
100
AcDbPolyline
 90
        2
 70
   128
 43
0.0
 10
1.642241404137545
 20
0.8216905290653517
 10
1.596655244411312
 20
0.8216905290653517
  0
LWPOLYLINE
  5
18
330
6
100
AcDbEntity
  8
USP-Hid
100
AcDbPolyline
 90
        2
 70
   128
 43
0.0
 10
1.243362506533006
 20
1.642811231134123
 10
1.243362506533006
 20
1.597225071407891
  0
LWPOLYLINE
  5
19
330
6
100
AcDbEntity
  8
USP-Hid
100
AcDbPolyline
 90
        2
 70
   128
 43
0.0
 10
1.083810947491191
 20
1.642811231134123
 10
1.083810947491191
 20
1.597225071407891
  0
LWPOLYLINE
  5
1A
330
6
100
AcDbEntity
  8
USP-Hid
100
AcDbPolyline
 90
        2
 70
   128
 43
0.0
 10
0.4222418044642336
 20
1.642811231134123
 10
0.4222418044642336
 20
1.597225071407891
  0
LWPOLYLINE
  5
1B
330
6
100
AcDbEntity
  8
USP-Hid
100
AcDbPolyline
 90
        2
 70
   128
 43
0.0
 10
0.2626902454224176
 20
1.642811231134123
 10
0.2626902454224176
 20
1.597225071407891
  0
LWPOLYLINE
  5
1C
330
6
100
AcDbEntity
  8
USP-Hid
100
AcDbPolyline
 90
        2
 70
   128
 43
0.0
 10
1.300345206190797
 20
1.642811231134123
 10
1.300345206190797
 20
1.597225071407891
  0
LWPOLYLINE
  5
1D
330
6
100
AcDbEntity
  8
USP-Hid
100
AcDbPolyline
 90
        2
 70
   128
 43
0.0
 10
1.140793647148981
 20
1.642811231134123
 10
1.140793647148981
 20
1.597225071407891
  0
LWPOLYLINE
  5
1E
330
6
100
AcDbEntity
  8
USP-Hid
100
AcDbPolyline
 90
        2
 70
   128
 43
0.0
 10
0.3310694850117679
 20
1.642811231134123
 10
0.3310694850117679
 20
1.597225071407891
  0
LWPOLYLINE
  5
1F
330
6
100
AcDbEntity
  8
USP-Hid
100
AcDbPolyline
 90
        2
 70
   128
 43
0.0
 10
0.171517925969952
 20
1.642811231134123
 10
0.171517925969952
 20
1.597225071407891
  0
LWPOLYLINE
  5
20
330
6
100
AcDbEntity
  8
USP-Hid
100
AcDbPolyline
 90
        2
 70
   128
 43
0.0
 10
0.8211207020687725
 20
1.642811231134123
 10
0.8211207020687725
 20
1.597225071407891
  0
LWPOLYLINE
  5
21
330
6
100
AcDbEntity
  8
USP-Hid
100
AcDbPolyline
 90
        2
 70
   128
 43
0.0
 10
0.6615691430269575
 20
1.642811231134123
 10
0.6615691430269575
 20
1.597225071407891
  0
LWPOLYLINE
  5
22
330
6
100
AcDbEntity
  8
USP-Geo
100
AcDbPolyline
 90
        2
 70
   128
 43
0.0
 10
0.0
 20
1.597225071407891
 10
0.1259317662437187
 20
1.597225071407891
  0
LWPOLYLINE
  5
26
330
6
100
AcDbEntity
  8
USP-Geo
100
AcDbPolyline
 90
        2
 70
   128
 43
0.0
 10
0.0
 20
1.642811231134123
 10
0.0
 20
1.597225071407891
  0
LWPOLYLINE
  5
27
330
6
100
AcDbEntity
  8
USP-Geo
100
AcDbPolyline
 90
        2
 70
   128
 43
0.0
 10
0.1259317662437187
 20
1.597225071407891
 10
1.368724445780147
 20
1.597225071407891
  0
LWPOLYLINE
  5
28
330
6
100
AcDbEntity
  8
USP-Geo
100
AcDbPolyline
 90
        2
 70
   128
 43
0.0
 10
0.1259317662437187
 20
1.642811231134123
 10
0.1259317662437187
 20
1.597225071407891
  0
LWPOLYLINE
  5
29
330
6
100
AcDbEntity
  8
USP-Geo
100
AcDbPolyline
 90
        2
 70
   128
 43
0.0
 10
1.494086385027288
 20
1.597225071407891
 10
1.368724445780147
 20
1.597225071407891
  0
LWPOLYLINE
  5
2A
330
6
100
AcDbEntity
  8
USP-Geo
100
AcDbPolyline
 90
        2
 70
   128
 43
0.0
 10
1.368724445780147
 20
1.642811231134123
 10
1.368724445780147
 20
1.597225071407891
  0
LWPOLYLINE
  5
2B
330
6
100
AcDbEntity
  8
USP-Geo
100
AcDbPolyline
 90
        2
 70
   128
 43
0.0
 10
1.494086385027288
 20
1.642811231134123
 10
1.494086385027288
 20
1.597225071407891
  0
LWPOLYLINE
  5
2C
330
6
100
AcDbEntity
  8
USP-Geo
100
AcDbPolyline
 90
        2
 70
   128
 43
0.0
 10
1.596655244411312
 20
1.597225071407891
 10
1.494086385027288
 20
1.597225071407891
  0
LWPOLYLINE
  5
2D
330
6
100
AcDbEntity
  8
USP-Geo
100
AcDbPolyline
 90
        2
 70
   128
 43
0.0
 10
1.596655244411312
 20
1.642811231134123
 10
1.596655244411312
 20
1.597225071407891
  0
LWPOLYLINE
  5
2E
330
6
100
AcDbEntity
  8
USP-Geo
100
AcDbPolyline
 90
        2
 70
   128
 43
0.0
 10
1.642241404137545
 20
1.642811231134123
 10
1.642241404137545
 20
1.597225071407891
  0
LWPOLYLINE
  5
2F
330
6
100
AcDbEntity
  8
USP-Geo
100
AcDbPolyline
 90
        2
 70
   128
 43
0.0
 10
1.596655244411312
 20
1.642811231134123
 10
1.642241404137545
 20
1.642811231134123
  0
LWPOLYLINE
  5
30
330
6
100
AcDbEntity
  8
USP-Geo
100
AcDbPolyline
 90
        2
 70
   128
 43
0.0
 10
1.494086385027288
 20
1.642811231134123
 10
1.596655244411312
 20
1.642811231134123
  0
LWPOLYLINE
  5
31
330
6
100
AcDbEntity
  8
USP-Geo
100
AcDbPolyline
 90
        2
 70
   128
 43
0.0
 10
1.368724445780147
 20
1.642811231134123
 10
1.494086385027288
 20
1.642811231134123
  0
LWPOLYLINE
  5
32
330
6
100
AcDbEntity
  8
USP-Geo
100
AcDbPolyline
 90
        2
 70
   128
 43
0.0
 10
0.1259317662437187
 20
1.642811231134123
 10
1.368724445780147
 20
1.642811231134123
  0
LWPOLYLINE
  5
33
330
6
100
AcDbEntity
  8
USP-Geo
100
AcDbPolyline
 90
        2
 70
   128
 43
0.0
 10
0.0
 20
1.642811231134123
 10
0.1259317662437187
 20
1.642811231134123
  0
LWPOLYLINE
  5
34
330
6
100
AcDbEntity
  8
USP-Geo
100
AcDbPolyline
 90
        2
 70
   128
 43
0.0
 10
1.642241404137545
 20
1.597225071407891
 10
1.596655244411312
 20
1.597225071407891
  0
LWPOLYLINE
  5
35
330
6
100
AcDbEntity
  8
USP-Geo
100
AcDbPolyline
 90
        2
 70
   128
 43
0.0
 10
1.642241404137545
 20
1.597225071407891
 10
1.642241404137545
 20
1.437673512366075
  0
LWPOLYLINE
  5
36
330
6
100
AcDbEntity
  8
USP-Geo
100
AcDbPolyline
 90
        2
 70
   128
 43
0.0
 10
1.642241404137545
 20
1.437673512366075
 10
1.642241404137545
 20
1.140793647148983
  0
LWPOLYLINE
  5
37
330
6
100
AcDbEntity
  8
USP-Geo
100
AcDbPolyline
 90
        2
 70
   128
 43
0.0
 10
1.642241404137545
 20
1.140793647148983
 10
1.596655244411312
 20
1.140793647148983
  0
LWPOLYLINE
  5
38
330
6
100
AcDbEntity
  8
USP-Geo
100
AcDbPolyline
 90
        2
 70
   128
 43
0.0
 10
1.642241404137545
 20
1.140793647148983
 10
1.642241404137545
 20
0.0
  0
LWPOLYLINE
  5
39
330
6
100
AcDbEntity
  8
USP-Geo
100
AcDbPolyline
 90
        2
 70
   128
 43
0.0
 10
1.642241404137545
 20
0.0
 10
1.596655244411312
 20
0.0
  0
LWPOLYLINE
  5
3A
330
6
100
AcDbEntity
  8
USP-Geo
100
AcDbPolyline
 90
        2
 70
   128
 43
0.0
 10
1.596655244411312
 20
1.437673512366075
 10
1.596655244411312
 20
1.597225071407891
  0
LWPOLYLINE
  5
3B
330
6
100
AcDbEntity
  8
USP-Geo
100
AcDbPolyline
 90
        2
 70
   128
 43
0.0
 10
1.596655244411312
 20
1.140793647148983
 10
1.596655244411312
 20
1.437673512366075
  0
LWPOLYLINE
  5
3C
330
6
100
AcDbEntity
  8
USP-Geo
100
AcDbPolyline
 90
        2
 70
   128
 43
0.0
 10
1.596655244411312
 20
1.140793647148983
 10
1.596655244411312
 20
0.0
  0
TEXT
  5
3D
330
6
100
AcDbEntity
  8
USP-Txt
100
AcDbText
 10
-1.053879297931227
 20
-1.044573190499622
 30
0.0
 40
0.25
  1
RT7A - TOP VIEW
 72
     1
 11
0.821120702068773
 21
-1.044573190499622
 31
0.0
100
AcDbText
  0
ENDBLK
  5
44
330
6
100
AcDbEntity
  8
0
100
AcDbBlockEnd
  0
BLOCK
  5
6E
330
46
100
AcDbEntity
  8
0
100
AcDbBlockBegin
  2
RT7APR_F
 70
     0
 10
0.0
 20
0.0
 30
0.0
  3
RT7APR_F
  1

  0
LWPOLYLINE
  5
47
330
46
100
AcDbEntity
  8
USP-Hid
100
AcDbPolyline
 90
        2
 70
   128
 43
0.0
 10
1.642241404137545
 20
2.429742313408222
 10
1.596655244411312
 20
2.429742313408222
  0
LWPOLYLINE
  5
48
330
46
100
AcDbEntity
  8
USP-Hid
100
AcDbPolyline
 90
        2
 70
   128
 43
0.0
 10
1.642241404137545
 20
0.262120418425841
 10
1.596655244411312
 20
0.262120418425841
  0
LWPOLYLINE
  5
49
330
46
100
AcDbEntity
  8
USP-Hid
100
AcDbPolyline
 90
        2
 70
   128
 43
0.0
 10
1.642241404137545
 20
0.4222418044642336
 10
1.596655244411312
 20
0.4222418044642336
  0
LWPOLYLINE
  5
4A
330
46
100
AcDbEntity
  8
USP-Hid
100
AcDbPolyline
 90
        2
 70
   128
 43
0.0
 10
1.642241404137545
 20
1.608621611339449
 10
1.596655244411312
 20
1.608621611339449
  0
LWPOLYLINE
  5
4B
330
46
100
AcDbEntity
  8
USP-Hid
100
AcDbPolyline
 90
        2
 70
   128
 43
0.0
 10
1.642241404137545
 20
1.756776630449706
 10
1.596655244411312
 20
1.756776630449706
  0
LWPOLYLINE
  5
4C
330
46
100
AcDbEntity
  8
USP-Hid
100
AcDbPolyline
 90
        2
 70
   128
 43
0.0
 10
1.642241404137545
 20
0.1367584791787006
 10
1.596655244411312
 20
0.1367584791787006
  0
LWPOLYLINE
  5
4D
330
46
100
AcDbEntity
  8
USP-Hid
100
AcDbPolyline
 90
        2
 70
   128
 43
0.0
 10
1.642241404137545
 20
0.2963100382205148
 10
1.596655244411312
 20
0.2963100382205148
  0
LWPOLYLINE
  5
4E
330
46
100
AcDbEntity
  8
USP-Hid
100
AcDbPolyline
 90
        2
 70
   128
 43
0.0
 10
1.642241404137545
 20
1.471293305164172
 10
1.596655244411312
 20
1.471293305164172
  0
LWPOLYLINE
  5
4F
330
46
100
AcDbEntity
  8
USP-Hid
100
AcDbPolyline
 90
        2
 70
   128
 43
0.0
 10
1.642241404137545
 20
1.631414691202566
 10
1.596655244411312
 20
1.631414691202566
  0
LWPOLYLINE
  5
50
330
46
100
AcDbEntity
  8
USP-Hid
100
AcDbPolyline
 90
        2
 70
   128
 43
0.0
 10
1.642241404137545
 20
0.5248106638482586
 10
1.596655244411312
 20
0.5248106638482586
  0
LWPOLYLINE
  5
51
330
46
100
AcDbEntity
  8
USP-Hid
100
AcDbPolyline
 90
        2
 70
   128
 43
0.0
 10
1.642241404137545
 20
0.6843622228900746
 10
1.596655244411312
 20
0.6843622228900746
  0
LWPOLYLINE
  5
52
330
46
100
AcDbEntity
  8
USP-Geo
100
AcDbPolyline
 90
        2
 70
   128
 43
0.0
 10
1.140793647148981
 20
2.486725013066013
 10
1.437103685369496
 20
2.486725013066013
  0
LWPOLYLINE
  5
53
330
46
100
AcDbEntity
  8
USP-Geo
100
AcDbPolyline
 90
        2
 70
   128
 43
0.0
 10
1.140793647148981
 20
2.486725013066013
 10
0.0
 20
4.939260406337352
  0
LWPOLYLINE
  5
54
330
46
100
AcDbEntity
  8
USP-Geo
100
AcDbPolyline
 90
        2
 70
   128
 43
0.0
 10
0.0
 20
4.939260406337352
 10
0.0
 20
6.330777931980615
  0
LWPOLYLINE
  5
55
330
46
100
AcDbEntity
  8
USP-Geo
100
AcDbPolyline
 90
        2
 70
   128
 43
0.0
 10
0.0
 20
6.330777931980615
 10
0.1259317662437187
 20
6.456709698224335
  0
LWPOLYLINE
  5
56
330
46
100
AcDbEntity
  8
USP-Geo
100
AcDbPolyline
 90
        2
 70
   128
 43
0.0
 10
0.1259317662437187
 20
6.456709698224335
 10
1.368724445780147
 20
6.456709698224335
  0
LWPOLYLINE
  5
57
330
46
100
AcDbEntity
  8
USP-Geo
100
AcDbPolyline
 90
        2
 70
   128
 43
0.0
 10
1.494086385027288
 20
6.330777931980615
 10
1.368724445780147
 20
6.456709698224335
  0
LWPOLYLINE
  5
58
330
46
100
AcDbEntity
  8
USP-Geo
100
AcDbPolyline
 90
        2
 70
   128
 43
0.0
 10
1.494086385027288
 20
4.220708563652603
 10
1.494086385027288
 20
6.330777931980615
  0
ARC
  5
59
330
46
100
AcDbEntity
  8
USP-Geo
100
AcDbCircle
 10
1.750165358346811
 20
4.218777051676257
 30
0.0
 40
0.25
100
AcDbArc
 50
179.5678466518238
 51
231.328831496142
  0
ARC
  5
5A
330
46
100
AcDbEntity
  8
USP-Geo
100
AcDbCircle
 10
1.437465358346813
 20
2.238776435445062
 30
0.0
 40
0.25
100
AcDbArc
 50
50.18528378976177
 51
90.08357507296931
  0
CIRCLE
  5
5B
330
46
100
AcDbEntity
  8
USP-Geo
100
AcDbCircle
 10
0.7411153583468489
 20
5.852636399182037
 30
0.0
 40
0.078
  0
CIRCLE
  5
5C
330
46
100
AcDbEntity
  8
USP-Geo
100
AcDbCircle
 10
0.2494653583468471
 20
6.239036399182033
 30
0.0
 40
0.078
  0
CIRCLE
  5
5D
330
46
100
AcDbEntity
  8
USP-Geo
100
AcDbCircle
 10
1.222865358346847
 20
4.771086399182037
 30
0.0
 40
0.078
  0
CIRCLE
  5
5E
330
46
100
AcDbEntity
  8
USP-Geo
100
AcDbCircle
 10
0.3471653583468441
 20
4.901086399182034
 30
0.0
 40
0.078
  0
CIRCLE
  5
5F
330
46
100
AcDbEntity
  8
USP-Geo
100
AcDbCircle
 10
1.163865358346847
 20
6.111736399182031
 30
0.0
 40
0.078
  0
LWPOLYLINE
  5
60
330
46
100
AcDbEntity
  8
USP-Geo
100
AcDbPolyline
 90
        2
 70
   128
 43
0.0
 10
1.642241404137545
 20
4.026967384816113
 10
1.596655244411312
 20
4.026967384816113
  0
LWPOLYLINE
  5
61
330
46
100
AcDbEntity
  8
USP-Geo
100
AcDbPolyline
 90
        2
 70
   128
 43
0.0
 10
1.642241404137545
 20
4.026967384816113
 10
1.642241404137545
 20
3.969984685158321
  0
LWPOLYLINE
  5
62
330
46
100
AcDbEntity
  8
USP-Geo
100
AcDbPolyline
 90
        2
 70
   128
 43
0.0
 10
1.642241404137545
 20
3.969984685158321
 10
1.596655244411312
 20
3.969984685158321
  0
LWPOLYLINE
  5
63
330
46
100
AcDbEntity
  8
USP-Geo
100
AcDbPolyline
 90
        2
 70
   128
 43
0.0
 10
1.642241404137545
 20
3.969984685158321
 10
1.642241404137545
 20
1.516879464890404
  0
LWPOLYLINE
  5
64
330
46
100
AcDbEntity
  8
USP-Geo
100
AcDbPolyline
 90
        2
 70
   128
 43
0.0
 10
1.642241404137545
 20
1.516879464890404
 10
1.596655244411312
 20
1.516879464890404
  0
LWPOLYLINE
  5
65
330
46
100
AcDbEntity
  8
USP-Geo
100
AcDbPolyline
 90
        2
 70
   128
 43
0.0
 10
1.642241404137545
 20
1.516879464890404
 10
1.642241404137545
 20
0.1253619392471421
  0
LWPOLYLINE
  5
66
330
46
100
AcDbEntity
  8
USP-Geo
100
AcDbPolyline
 90
        2
 70
   128
 43
0.0
 10
1.642241404137545
 20
0.1253619392471421
 10
1.596655244411312
 20
0.1253619392471421
  0
LWPOLYLINE
  5
67
330
46
100
AcDbEntity
  8
USP-Geo
100
AcDbPolyline
 90
        2
 70
   128
 43
0.0
 10
1.642241404137545
 20
0.1253619392471421
 10
1.642241404137545
 20
0.0
  0
LWPOLYLINE
  5
68
330
46
100
AcDbEntity
  8
USP-Geo
100
AcDbPolyline
 90
        2
 70
   128
 43
0.0
 10
1.642241404137545
 20
0.0
 10
1.596655244411312
 20
0.0
  0
LWPOLYLINE
  5
69
330
46
100
AcDbEntity
  8
USP-Geo
100
AcDbPolyline
 90
        2
 70
   128
 43
0.0
 10
1.596655244411312
 20
3.969984685158321
 10
1.596655244411312
 20
4.026967384816113
  0
LWPOLYLINE
  5
6A
330
46
100
AcDbEntity
  8
USP-Geo
100
AcDbPolyline
 90
        2
 70
   128
 43
0.0
 10
1.596655244411312
 20
3.969984685158321
 10
1.596655244411312
 20
1.516879464890404
  0
LWPOLYLINE
  5
6B
330
46
100
AcDbEntity
  8
USP-Geo
100
AcDbPolyline
 90
        2
 70
   128
 43
0.0
 10
1.596655244411312
 20
1.516879464890404
 10
1.596655244411312
 20
0.1253619392471421
  0
LWPOLYLINE
  5
6C
330
46
100
AcDbEntity
  8
USP-Geo
100
AcDbPolyline
 90
        2
 70
   128
 43
0.0
 10
1.596655244411312
 20
0.0
 10
1.596655244411312
 20
0.1253619392471421
  0
TEXT
  5
6D
330
46
100
AcDbEntity
  8
USP-Txt
100
AcDbText
 10
-1.303879297931227
 20
-1.140728661209113
 30
0.0
 40
0.25
  1
RT7A - FRONT VIEW
 72
     1
 11
0.821120702068773
 21
-1.140728661209113
 31
0.0
100
AcDbText
  0
ENDBLK
  5
6F
330
46
100
AcDbEntity
  8
0
100
AcDbBlockEnd
  0
BLOCK
  5
99
330
71
100
AcDbEntity
  8
0
100
AcDbBlockBegin
  2
RT7APR_S
 70
     0
 10
0.0
 20
0.0
 30
0.0
  3
RT7APR_S
  1

  0
LWPOLYLINE
  5
72
330
71
100
AcDbEntity
  8
USP-Hid
100
AcDbPolyline
 90
        2
 70
   128
 43
0.0
 10
1.642241404137545
 20
4.939260406337352
 10
1.596655244411312
 20
4.939260406337352
  0
LWPOLYLINE
  5
73
330
71
100
AcDbEntity
  8
USP-Hid
100
AcDbPolyline
 90
        2
 70
   128
 43
0.0
 10
1.642241404137545
 20
2.486725013066013
 10
1.596655244411312
 20
2.486725013066013
  0
LWPOLYLINE
  5
74
330
71
100
AcDbEntity
  8
USP-Hid
100
AcDbPolyline
 90
        2
 70
   128
 43
0.0
 10
1.596655244411312
 20
4.026967384816113
 10
1.596655244411312
 20
2.429742313408222
  0
LWPOLYLINE
  5
75
330
71
100
AcDbEntity
  8
USP-Hid
100
AcDbPolyline
 90
        2
 70
   128
 43
0.0
 10
1.642241404137545
 20
6.0344678937601
 10
1.596655244411312
 20
6.0344678937601
  0
LWPOLYLINE
  5
76
330
71
100
AcDbEntity
  8
USP-Hid
100
AcDbPolyline
 90
        2
 70
   128
 43
0.0
 10
1.642241404137545
 20
6.194019452801916
 10
1.596655244411312
 20
6.194019452801916
  0
LWPOLYLINE
  5
77
330
71
100
AcDbEntity
  8
USP-Hid
100
AcDbPolyline
 90
        2
 70
   128
 43
0.0
 10
1.642241404137545
 20
4.825295007021769
 10
1.596655244411312
 20
4.825295007021769
  0
LWPOLYLINE
  5
78
330
71
100
AcDbEntity
  8
USP-Hid
100
AcDbPolyline
 90
        2
 70
   128
 43
0.0
 10
1.642241404137545
 20
4.984846566063584
 10
1.596655244411312
 20
4.984846566063584
  0
LWPOLYLINE
  5
79
330
71
100
AcDbEntity
  8
USP-Hid
100
AcDbPolyline
 90
        2
 70
   128
 43
0.0
 10
1.642241404137545
 20
4.688536527843069
 10
1.596655244411312
 20
4.688536527843069
  0
LWPOLYLINE
  5
7A
330
71
100
AcDbEntity
  8
USP-Hid
100
AcDbPolyline
 90
        2
 70
   128
 43
0.0
 10
1.642241404137545
 20
4.848088086884885
 10
1.596655244411312
 20
4.848088086884885
  0
LWPOLYLINE
  5
7B
330
71
100
AcDbEntity
  8
USP-Hid
100
AcDbPolyline
 90
        2
 70
   128
 43
0.0
 10
1.642241404137545
 20
6.159829833007242
 10
1.596655244411312
 20
6.159829833007242
  0
LWPOLYLINE
  5
7C
330
71
100
AcDbEntity
  8
USP-Hid
100
AcDbPolyline
 90
        2
 70
   128
 43
0.0
 10
1.642241404137545
 20
6.319381392049057
 10
1.596655244411312
 20
6.319381392049057
  0
LWPOLYLINE
  5
7D
330
71
100
AcDbEntity
  8
USP-Hid
100
AcDbPolyline
 90
        2
 70
   128
 43
0.0
 10
1.642241404137545
 20
5.771777648337683
 10
1.596655244411312
 20
5.771777648337683
  0
LWPOLYLINE
  5
7E
330
71
100
AcDbEntity
  8
USP-Hid
100
AcDbPolyline
 90
        2
 70
   128
 43
0.0
 10
1.642241404137545
 20
5.931899034376076
 10
1.596655244411312
 20
5.931899034376076
  0
LWPOLYLINE
  5
7F
330
71
100
AcDbEntity
  8
USP-Geo
100
AcDbPolyline
 90
        2
 70
   128
 43
0.0
 10
1.596655244411312
 20
6.330777931980615
 10
1.596655244411312
 20
6.456709698224335
  0
LWPOLYLINE
  5
80
330
71
100
AcDbEntity
  8
USP-Geo
100
AcDbPolyline
 90
        2
 70
   128
 43
0.0
 10
1.642241404137545
 20
6.456709698224335
 10
1.596655244411312
 20
6.456709698224335
  0
LWPOLYLINE
  5
81
330
71
100
AcDbEntity
  8
USP-Geo
100
AcDbPolyline
 90
        2
 70
   128
 43
0.0
 10
1.596655244411312
 20
4.220708563652603
 10
1.596655244411312
 20
6.330777931980615
  0
LWPOLYLINE
  5
82
330
71
100
AcDbEntity
  8
USP-Geo
100
AcDbPolyline
 90
        2
 70
   128
 43
0.0
 10
1.642241404137545
 20
6.330777931980615
 10
1.596655244411312
 20
6.330777931980615
  0
LWPOLYLINE
  5
83
330
71
100
AcDbEntity
  8
USP-Geo
100
AcDbPolyline
 90
        2
 70
   128
 43
0.0
 10
1.596655244411312
 20
4.026967384816113
 10
1.596655244411312
 20
4.220708563652603
  0
LWPOLYLINE
  5
84
330
71
100
AcDbEntity
  8
USP-Geo
100
AcDbPolyline
 90
        2
 70
   128
 43
0.0
 10
1.642241404137545
 20
4.026967384816113
 10
1.596655244411312
 20
4.026967384816113
  0
LWPOLYLINE
  5
85
330
71
100
AcDbEntity
  8
USP-Geo
100
AcDbPolyline
 90
        2
 70
   128
 43
0.0
 10
1.642241404137545
 20
2.429742313408222
 10
1.596655244411312
 20
2.429742313408222
  0
LWPOLYLINE
  5
86
330
71
100
AcDbEntity
  8
USP-Geo
100
AcDbPolyline
 90
        2
 70
   128
 43
0.0
 10
1.642241404137545
 20
4.026967384816113
 10
1.642241404137545
 20
2.429742313408222
  0
LWPOLYLINE
  5
87
330
71
100
AcDbEntity
  8
USP-Geo
100
AcDbPolyline
 90
        2
 70
   128
 43
0.0
 10
1.642241404137545
 20
4.220708563652603
 10
1.642241404137545
 20
4.026967384816113
  0
LWPOLYLINE
  5
88
330
71
100
AcDbEntity
  8
USP-Geo
100
AcDbPolyline
 90
        2
 70
   128
 43
0.0
 10
1.642241404137545
 20
6.330777931980615
 10
1.642241404137545
 20
4.220708563652603
  0
LWPOLYLINE
  5
89
330
71
100
AcDbEntity
  8
USP-Geo
100
AcDbPolyline
 90
        2
 70
   128
 43
0.0
 10
1.642241404137545
 20
6.456709698224335
 10
1.642241404137545
 20
6.330777931980615
  0
ARC
  5
8A
330
71
100
AcDbEntity
  8
USP-Geo
100
AcDbCircle
 10
1.750590450492635
 20
2.238776435445064
 30
0.0
 40
0.25
100
AcDbArc
 50
128.8718530630531
 51
180.6487203183421
  0
ARC
  5
8B
330
71
100
AcDbEntity
  8
USP-Geo
100
AcDbCircle
 10
1.437890450492641
 20
4.218777051676262
 30
0.0
 40
0.25
100
AcDbArc
 50
269.8188120825833
 51
309.6152547382001
  0
LWPOLYLINE
  5
8C
330
71
100
AcDbEntity
  8
USP-Geo
100
AcDbPolyline
 90
        2
 70
   128
 43
0.0
 10
1.437103685369496
 20
3.969984685158321
 10
1.140223820152403
 20
3.969984685158321
  0
LWPOLYLINE
  5
8D
330
71
100
AcDbEntity
  8
USP-Geo
100
AcDbPolyline
 90
        2
 70
   128
 43
0.0
 10
1.140223820152403
 20
3.969984685158321
 10
0.0
 20
1.516879464890404
  0
LWPOLYLINE
  5
8E
330
71
100
AcDbEntity
  8
USP-Geo
100
AcDbPolyline
 90
        2
 70
   128
 43
0.0
 10
0.0
 20
1.516879464890404
 10
0.0
 20
0.1253619392471421
  0
LWPOLYLINE
  5
8F
330
71
100
AcDbEntity
  8
USP-Geo
100
AcDbPolyline
 90
        2
 70
   128
 43
0.0
 10
0.0
 20
0.1253619392471421
 10
0.1253619392471403
 20
0.0
  0
LWPOLYLINE
  5
90
330
71
100
AcDbEntity
  8
USP-Geo
100
AcDbPolyline
 90
        2
 70
   128
 43
0.0
 10
0.1253619392471403
 20
0.0
 10
1.380120985711705
 20
0.0
  0
LWPOLYLINE
  5
91
330
71
100
AcDbEntity
  8
USP-Geo
100
AcDbPolyline
 90
        2
 70
   128
 43
0.0
 10
1.380120985711705
 20
0.0
 10
1.505482924958846
 20
0.1253619392471421
  0
LWPOLYLINE
  5
92
330
71
100
AcDbEntity
  8
USP-Geo
100
AcDbPolyline
 90
        2
 70
   128
 43
0.0
 10
1.505482924958846
 20
0.1253619392471421
 10
1.505482924958846
 20
2.236001134571731
  0
CIRCLE
  5
93
330
71
100
AcDbEntity
  8
USP-Geo
100
AcDbCircle
 10
0.7415404504926704
 20
0.6049170879392865
 30
0.0
 40
0.078
  0
CIRCLE
  5
94
330
71
100
AcDbEntity
  8
USP-Geo
100
AcDbCircle
 10
0.3475904504926728
 20
1.556467087939278
 30
0.0
 40
0.078
  0
CIRCLE
  5
95
330
71
100
AcDbEntity
  8
USP-Geo
100
AcDbCircle
 10
0.249890450492674
 20
0.2185170879392766
 30
0.0
 40
0.078
  0
CIRCLE
  5
96
330
71
100
AcDbEntity
  8
USP-Geo
100
AcDbCircle
 10
1.223290450492666
 20
1.686467087939279
 30
0.0
 40
0.078
  0
CIRCLE
  5
97
330
71
100
AcDbEntity
  8
USP-Geo
100
AcDbCircle
 10
1.164290450492674
 20
0.3458170879392828
 30
0.0
 40
0.078
  0
TEXT
  5
98
330
71
100
AcDbEntity
  8
USP-Txt
100
AcDbText
 10
-1.137212631264561
 20
-1.140728661209113
 30
0.0
 40
0.25
  1
RT7A - SIDE VIEW
 72
     1
 11
0.8211207020687725
 21
-1.140728661209113
 31
0.0
100
AcDbText
  0
ENDBLK
  5
9A
330
71
100
AcDbEntity
  8
0
100
AcDbBlockEnd
  0
ENDSEC
  0
SECTION
  2
ENTITIES
  0
INSERT
  5
3
330
2
100
AcDbEntity
  8
USP
100
AcDbBlockReference
  2
RT7APR_T
 10
0.8258128387141949
 20
9.787771597120057
 30
0.0
  0
INSERT
  5
45
330
2
100
AcDbEntity
  8
USP
100
AcDbBlockReference
  2
RT7APR_F
 10
0.8258128387141949
 20
1.141216751046803
 30
0.0
  0
INSERT
  5
70
330
2
100
AcDbEntity
  8
USP
100
AcDbBlockReference
  2
RT7APR_S
 10
6.117226328936697
 20
1.141216751046803
 30
0.0
  0
ENDSEC
  0
SECTION
  2
OBJECTS
  0
DICTIONARY
  5
B3
330
0
100
AcDbDictionary
281
     1
  3
ACAD_COLOR
350
BE
  3
ACAD_GROUP
350
B1
  3
ACAD_LAYOUT
350
BF
  3
ACAD_MATERIAL
350
BD
  3
ACAD_MLINESTYLE
350
B2
  3
ACAD_PLOTSETTINGS
350
C0
  3
ACAD_PLOTSTYLENAME
350
BB
  3
ACDBHEADERROUNDTRIPXREC
350
C9
  3
AcDbVariableDictionary
350
C5
  0
DICTIONARY
  5
9B
330
2
100
AcDbDictionary
280
     1
281
     1
  3
ACAD_LAYOUTSELFREF
360
9C
  0
DICTIONARY
  5
A0
330
9F
100
AcDbDictionary
280
     1
281
     1
  3
ACAD_LAYOUTSELFREF
360
A1
  0
DICTIONARY
  5
BE
102
{ACAD_REACTORS
330
B3
102
}
330
B3
100
AcDbDictionary
281
     1
  0
DICTIONARY
  5
B1
102
{ACAD_REACTORS
330
B3
102
}
330
B3
100
AcDbDictionary
281
     1
  0
DICTIONARY
  5
BF
102
{ACAD_REACTORS
330
B3
102
}
330
B3
100
AcDbDictionary
281
     1
  3
Layout1
350
C2
  3
Model
350
C1
  0
DICTIONARY
  5
BD
102
{ACAD_REACTORS
330
B3
102
}
330
B3
100
AcDbDictionary
281
     1
  0
DICTIONARY
  5
B2
102
{ACAD_REACTORS
330
B3
102
}
330
B3
100
AcDbDictionary
281
     1
  3
STANDARD
350
B6
  0
DICTIONARY
  5
C0
102
{ACAD_REACTORS
330
B3
102
}
330
B3
100
AcDbDictionary
281
     1
  0
ACDBDICTIONARYWDFLT
  5
BB
102
{ACAD_REACTORS
330
B3
102
}
330
B3
100
AcDbDictionary
281
     1
  3
Normal
350
BC
100
AcDbDictionaryWithDefault
340
BC
  0
DICTIONARY
  5
C9
102
{ACAD_REACTORS
330
B3
102
}
330
B3
100
AcDbDictionary
281
     1
  3
COLORDICT
350
CB
  3
MATERIALDICT
350
CA
  0
DICTIONARY
  5
C5
102
{ACAD_REACTORS
330
B3
102
}
330
B3
100
AcDbDictionary
281
     1
  3
DIMASSOC
350
C6
  3
PROJECTNAME
350
C7
  0
XRECORD
  5
9C
102
{ACAD_REACTORS
330
9B
102
}
330
9B
100
AcDbXrecord
280
     1
340
2
  0
XRECORD
  5
A1
102
{ACAD_REACTORS
330
A0
102
}
330
A0
100
AcDbXrecord
280
     1
340
9F
  0
LAYOUT
  5
C2
102
{ACAD_XDICTIONARY
360
CE
102
}
102
{ACAD_REACTORS
330
BF
102
}
330
BF
100
AcDbPlotSettings
  1

  2
\\mitk-us-mtg-n28\Office Canon IR C2550
  4

  6

 40
0.0
 41
0.0
 42
0.0
 43
0.0
 44
0.0
 45
0.0
 46
0.0
 47
0.0
 48
0.0
 49
0.0
140
0.0
141
0.0
142
1.0
143
1.0
 70
   688
 72
     0
 73
     0
 74
     5
  7

 75
    16
147
1.0
148
0.0
149
0.0
100
AcDbLayout
  1
Layout1
 70
     0
 71
     1
 10
0.0
 20
0.0
 11
12.0
 21
9.0
 12
0.0
 22
0.0
 32
0.0
 14
1.000000000000000E+20
 24
1.000000000000000E+20
 34
1.000000000000000E+20
 15
-1.000000000000000E+20
 25
-1.000000000000000E+20
 35
-1.000000000000000E+20
146
0.0
 13
0.0
 23
0.0
 33
0.0
 16
1.0
 26
0.0
 36
0.0
 17
0.0
 27
1.0
 37
0.0
 76
     0
330
9F
  0
LAYOUT
  5
C1
102
{ACAD_XDICTIONARY
360
CC
102
}
102
{ACAD_REACTORS
330
BF
102
}
330
BF
100
AcDbPlotSettings
  1

  2
\\mitk-us-mtg-n28\Office Canon IR C2550
  4

  6

 40
0.0
 41
0.0
 42
0.0
 43
0.0
 44
0.0
 45
0.0
 46
0.0
 47
0.0
 48
0.0
 49
0.0
140
0.0
141
0.0
142
1.0
143
1.0
 70
  1712
 72
     0
 73
     0
 74
     0
  7

 75
     0
147
1.0
148
0.0
149
0.0
100
AcDbLayout
  1
Model
 70
     1
 71
     0
 10
0.0
 20
0.0
 11
12.0
 21
9.0
 12
0.0
 22
0.0
 32
0.0
 14
0.0
 24
0.0
 34
0.0
 15
0.0
 25
0.0
 35
0.0
146
0.0
 13
0.0
 23
0.0
 33
0.0
 16
1.0
 26
0.0
 36
0.0
 17
0.0
 27
1.0
 37
0.0
 76
     0
330
2
  0
MLINESTYLE
  5
B6
102
{ACAD_REACTORS
330
B2
102
}
330
B2
100
AcDbMlineStyle
  2
STANDARD
 70
     0
  3

 62
     0
 51
90.0
 52
90.0
 71
     2
 49
0.5
 62
   256
  6
BYLAYER
 49
-0.5
 62
   256
  6
BYLAYER
  0
ACDBPLACEHOLDER
  5
BC
102
{ACAD_REACTORS
330
BB
102
}
330
BB
  0
XRECORD
  5
CB
102
{ACAD_REACTORS
330
C9
102
}
330
C9
100
AcDbXrecord
280
     1
340
BE
  0
XRECORD
  5
CA
102
{ACAD_REACTORS
330
C9
102
}
330
C9
100
AcDbXrecord
280
     1
340
BD
  0
DICTIONARYVAR
  5
C6
102
{ACAD_REACTORS
330
C5
102
}
330
C5
100
DictionaryVariables
280
     0
  1
1
  0
DICTIONARYVAR
  5
C7
102
{ACAD_REACTORS
330
C5
102
}
330
C5
100
DictionaryVariables
280
     0
  1

  0
DICTIONARY
  5
CE
330
C2
100
AcDbDictionary
280
     1
281
     1
  3
ACAD_XREC_ROUNDTRIP
360
CF
  0
DICTIONARY
  5
CC
330
C1
100
AcDbDictionary
280
     1
281
     1
  3
ACAD_XREC_ROUNDTRIP
360
CD
  0
XRECORD
  5
CF
102
{ACAD_REACTORS
330
CE
102
}
330
CE
100
AcDbXrecord
280
     1
102
SHADEPLOT
 70
     0
102
SHADEPLOTRESLEVEL
 70
     2
102
SHADEPLOTCUSTOMDPI
 70
   300
  0
XRECORD
  5
CD
102
{ACAD_REACTORS
330
CC
102
}
330
CC
100
AcDbXrecord
280
     1
102
SHADEPLOT
 70
     0
102
SHADEPLOTRESLEVEL
 70
     2
102
SHADEPLOTCUSTOMDPI
 70
   300
  0
ENDSEC
  0
EOF
