  0
SECTION
  2
HEADER
  9
$ACADVER
  1
AC1015
  9
$ACADMAINTVER
 70
    20
  9
$DWGCODEPAGE
  3
ANSI_1252
  9
$INSBASE
 10
0.0
 20
0.0
 30
0.0
  9
$EXTMIN
 10
0.0003661829982491
 20
0.0003966032906426
 30
0.0000000000000005
  9
$EXTMAX
 10
9.828624012457577
 20
12.99712778345471
 30
0.0000000000000008
  9
$LIMMIN
 10
0.0
 20
0.0
  9
$LIMMAX
 10
12.0
 20
9.0
  9
$ORTHOMODE
 70
     0
  9
$REGENMODE
 70
     1
  9
$FILLMODE
 70
     1
  9
$QTEXTMODE
 70
     0
  9
$MIRRTEXT
 70
     1
  9
$LTSCALE
 40
0.5
  9
$ATTMODE
 70
     1
  9
$TEXTSIZE
 40
0.25
  9
$TRACEWID
 40
0.05
  9
$TEXTSTYLE
  7
STANDARD
  9
$CLAYER
  8
0
  9
$CELTYPE
  6
BYLAYER
  9
$CECOLOR
 62
   256
  9
$CELTSCALE
 40
1.0
  9
$DISPSILH
 70
     1
  9
$DIMSCALE
 40
1.0
  9
$DIMASZ
 40
0.18
  9
$DIMEXO
 40
0.0625
  9
$DIMDLI
 40
0.38
  9
$DIMRND
 40
0.0
  9
$DIMDLE
 40
0.0
  9
$DIMEXE
 40
0.18
  9
$DIMTP
 40
0.0
  9
$DIMTM
 40
0.0
  9
$DIMTXT
 40
0.18
  9
$DIMCEN
 40
0.09
  9
$DIMTSZ
 40
0.0
  9
$DIMTOL
 70
     0
  9
$DIMLIM
 70
     0
  9
$DIMTIH
 70
     1
  9
$DIMTOH
 70
     1
  9
$DIMSE1
 70
     0
  9
$DIMSE2
 70
     0
  9
$DIMTAD
 70
     0
  9
$DIMZIN
 70
     0
  9
$DIMBLK
  1

  9
$DIMASO
 70
     1
  9
$DIMSHO
 70
     0
  9
$DIMPOST
  1

  9
$DIMAPOST
  1

  9
$DIMALT
 70
     0
  9
$DIMALTD
 70
     2
  9
$DIMALTF
 40
25.4
  9
$DIMLFAC
 40
1.0
  9
$DIMTOFL
 70
     0
  9
$DIMTVP
 40
0.0
  9
$DIMTIX
 70
     0
  9
$DIMSOXD
 70
     0
  9
$DIMSAH
 70
     0
  9
$DIMBLK1
  1

  9
$DIMBLK2
  1

  9
$DIMSTYLE
  2
STANDARD
  9
$DIMCLRD
 70
     0
  9
$DIMCLRE
 70
     0
  9
$DIMCLRT
 70
     0
  9
$DIMTFAC
 40
1.0
  9
$DIMGAP
 40
0.09375
  9
$DIMJUST
 70
     0
  9
$DIMSD1
 70
     0
  9
$DIMSD2
 70
     0
  9
$DIMTOLJ
 70
     1
  9
$DIMTZIN
 70
     0
  9
$DIMALTZ
 70
     0
  9
$DIMALTTZ
 70
     0
  9
$DIMUPT
 70
     0
  9
$DIMDEC
 70
     4
  9
$DIMTDEC
 70
     4
  9
$DIMALTU
 70
     2
  9
$DIMALTTD
 70
     2
  9
$DIMTXSTY
  7
STANDARD
  9
$DIMAUNIT
 70
     0
  9
$DIMADEC
 70
     0
  9
$DIMALTRND
 40
0.0
  9
$DIMAZIN
 70
     0
  9
$DIMDSEP
 70
    46
  9
$DIMATFIT
 70
     3
  9
$DIMFRAC
 70
     2
  9
$DIMLDRBLK
  1

  9
$DIMLUNIT
 70
     5
  9
$DIMLWD
 70
    -2
  9
$DIMLWE
 70
    -2
  9
$DIMTMOVE
 70
     0
  9
$LUNITS
 70
     5
  9
$LUPREC
 70
     6
  9
$SKETCHINC
 40
0.1
  9
$FILLETRAD
 40
0.0
  9
$AUNITS
 70
     0
  9
$AUPREC
 70
     1
  9
$MENU
  1
CUSTOM
  9
$ELEVATION
 40
0.0
  9
$PELEVATION
 40
0.0
  9
$THICKNESS
 40
0.0
  9
$LIMCHECK
 70
     0
  9
$CHAMFERA
 40
0.0
  9
$CHAMFERB
 40
0.0
  9
$CHAMFERC
 40
0.0
  9
$CHAMFERD
 40
0.0
  9
$SKPOLY
 70
     0
  9
$TDCREATE
 40
2451704.387316898
  9
$TDUCREATE
 40
2451704.595650232
  9
$TDUPDATE
 40
2455846.458626690
  9
$TDUUPDATE
 40
2455846.666960024
  9
$TDINDWG
 40
0.0230151157
  9
$TDUSRTIMER
 40
0.0230144213
  9
$USRTIMER
 70
     1
  9
$ANGBASE
 50
0.0
  9
$ANGDIR
 70
     0
  9
$PDMODE
 70
     0
  9
$PDSIZE
 40
0.0
  9
$PLINEWID
 40
0.0
  9
$SPLFRAME
 70
     0
  9
$SPLINETYPE
 70
     6
  9
$SPLINESEGS
 70
     8
  9
$HANDSEED
  5
D8
  9
$SURFTAB1
 70
     6
  9
$SURFTAB2
 70
     6
  9
$SURFTYPE
 70
     6
  9
$SURFU
 70
     6
  9
$SURFV
 70
     6
  9
$UCSBASE
  2

  9
$UCSNAME
  2

  9
$UCSORG
 10
0.0
 20
0.0
 30
0.0
  9
$UCSXDIR
 10
1.0
 20
0.0
 30
0.0
  9
$UCSYDIR
 10
0.0
 20
1.0
 30
0.0
  9
$UCSORTHOREF
  2

  9
$UCSORTHOVIEW
 70
     0
  9
$UCSORGTOP
 10
0.0
 20
0.0
 30
0.0
  9
$UCSORGBOTTOM
 10
0.0
 20
0.0
 30
0.0
  9
$UCSORGLEFT
 10
0.0
 20
0.0
 30
0.0
  9
$UCSORGRIGHT
 10
0.0
 20
0.0
 30
0.0
  9
$UCSORGFRONT
 10
0.0
 20
0.0
 30
0.0
  9
$UCSORGBACK
 10
0.0
 20
0.0
 30
0.0
  9
$PUCSBASE
  2

  9
$PUCSNAME
  2

  9
$PUCSORG
 10
0.0
 20
0.0
 30
0.0
  9
$PUCSXDIR
 10
1.0
 20
0.0
 30
0.0
  9
$PUCSYDIR
 10
0.0
 20
1.0
 30
0.0
  9
$PUCSORTHOREF
  2

  9
$PUCSORTHOVIEW
 70
     0
  9
$PUCSORGTOP
 10
0.0
 20
0.0
 30
0.0
  9
$PUCSORGBOTTOM
 10
0.0
 20
0.0
 30
0.0
  9
$PUCSORGLEFT
 10
0.0
 20
0.0
 30
0.0
  9
$PUCSORGRIGHT
 10
0.0
 20
0.0
 30
0.0
  9
$PUCSORGFRONT
 10
0.0
 20
0.0
 30
0.0
  9
$PUCSORGBACK
 10
0.0
 20
0.0
 30
0.0
  9
$USERI1
 70
     0
  9
$USERI2
 70
     0
  9
$USERI3
 70
     0
  9
$USERI4
 70
     0
  9
$USERI5
 70
     0
  9
$USERR1
 40
0.0
  9
$USERR2
 40
0.0
  9
$USERR3
 40
0.0
  9
$USERR4
 40
0.0
  9
$USERR5
 40
0.0
  9
$WORLDVIEW
 70
     1
  9
$SHADEDGE
 70
     3
  9
$SHADEDIF
 70
    70
  9
$TILEMODE
 70
     1
  9
$MAXACTVP
 70
    16
  9
$PINSBASE
 10
0.0
 20
0.0
 30
0.0
  9
$PLIMCHECK
 70
     0
  9
$PEXTMIN
 10
1.000000000000000E+20
 20
1.000000000000000E+20
 30
1.000000000000000E+20
  9
$PEXTMAX
 10
-1.000000000000000E+20
 20
-1.000000000000000E+20
 30
-1.000000000000000E+20
  9
$PLIMMIN
 10
0.0
 20
0.0
  9
$PLIMMAX
 10
12.0
 20
9.0
  9
$UNITMODE
 70
     0
  9
$VISRETAIN
 70
     0
  9
$PLINEGEN
 70
     0
  9
$PSLTSCALE
 70
     0
  9
$TREEDEPTH
 70
  3020
  9
$CMLSTYLE
  2
STANDARD
  9
$CMLJUST
 70
     0
  9
$CMLSCALE
 40
1.0
  9
$PROXYGRAPHICS
 70
     1
  9
$MEASUREMENT
 70
     0
  9
$CELWEIGHT
370
    -1
  9
$ENDCAPS
280
     0
  9
$JOINSTYLE
280
     0
  9
$LWDISPLAY
290
     0
  9
$INSUNITS
 70
     0
  9
$HYPERLINKBASE
  1

  9
$STYLESHEET
  1

  9
$XEDIT
290
     1
  9
$CEPSNTYPE
380
     0
  9
$PSTYLEMODE
290
     1
  9
$FINGERPRINTGUID
  2
{2AE0E645-5084-4618-8CDF-FBF5C3979062}
  9
$VERSIONGUID
  2
{E0F995B9-7E53-4309-ABEB-73BD6D1E7EA3}
  9
$EXTNAMES
290
     1
  9
$PSVPSCALE
 40
0.0
  9
$OLESTARTUP
290
     0
  0
ENDSEC
  0
SECTION
  2
CLASSES
  0
CLASS
  1
ACDBDICTIONARYWDFLT
  2
AcDbDictionaryWithDefault
  3
ObjectDBX Classes
 90
        0
280
     1
281
     0
  0
CLASS
  1
ACDBPLACEHOLDER
  2
AcDbPlaceHolder
  3
ObjectDBX Classes
 90
        0
280
     0
281
     0
  0
CLASS
  1
LAYOUT
  2
AcDbLayout
  3
ObjectDBX Classes
 90
        0
280
     0
281
     0
  0
CLASS
  1
DICTIONARYVAR
  2
AcDbDictionaryVar
  3
ObjectDBX Classes
 90
        0
280
     0
281
     0
  0
ENDSEC
  0
SECTION
  2
TABLES
  0
TABLE
  2
VPORT
  5
A7
330
0
100
AcDbSymbolTable
 70
     2
  0
VPORT
  5
D0
330
A7
100
AcDbSymbolTableRecord
100
AcDbViewportTableRecord
  2
*Active
 70
     0
 10
0.0
 20
0.0
 11
1.0
 21
1.0
 12
3.073047236591534
 22
7.534626873838099
 13
0.0
 23
0.0
 14
1.0
 24
1.0
 15
0.0
 25
0.0
 16
0.0
 26
0.0
 36
1.0
 17
9.677084859618208
 27
-0.8754956574043397
 37
6.261715494292793
 40
13.41320341788338
 41
2.625984251968504
 42
50.0
 43
-19.50571077124767
 44
-19.50571077124767
 50
0.0
 51
0.0
 71
     0
 72
   100
 73
     1
 74
     1
 75
     0
 76
     0
 77
     0
 78
     0
281
     0
 65
     1
110
0.0
120
0.0
130
0.0
111
1.0
121
0.0
131
0.0
112
0.0
122
1.0
132
0.0
 79
     0
146
0.0
  0
ENDTAB
  0
TABLE
  2
LTYPE
  5
A2
330
0
100
AcDbSymbolTable
 70
     1
  0
LTYPE
  5
A3
330
A2
100
AcDbSymbolTableRecord
100
AcDbLinetypeTableRecord
  2
BYBLOCK
 70
     0
  3

 72
    65
 73
     0
 40
0.0
  0
LTYPE
  5
A4
330
A2
100
AcDbSymbolTableRecord
100
AcDbLinetypeTableRecord
  2
BYLAYER
 70
     0
  3

 72
    65
 73
     0
 40
0.0
  0
LTYPE
  5
5
330
A2
100
AcDbSymbolTableRecord
100
AcDbLinetypeTableRecord
  2
CONTINUOUS
 70
     0
  3
Solid line
 72
    65
 73
     0
 40
0.0
  0
ENDTAB
  0
TABLE
  2
LAYER
  5
A0
330
0
100
AcDbSymbolTable
 70
     4
  0
LAYER
  5
2A
330
A0
100
AcDbSymbolTableRecord
100
AcDbLayerTableRecord
  2
0
 70
     0
 62
     7
  6
CONTINUOUS
370
    -3
390
C4
  0
LAYER
  5
8
330
A0
100
AcDbSymbolTableRecord
100
AcDbLayerTableRecord
  2
USP-GEO
 70
     0
 62
     7
  6
CONTINUOUS
370
    -3
390
C4
  0
LAYER
  5
21
330
A0
100
AcDbSymbolTableRecord
100
AcDbLayerTableRecord
  2
USP-TXT
 70
     0
 62
     7
  6
CONTINUOUS
370
    -3
390
C4
  0
LAYER
  5
4
330
A0
100
AcDbSymbolTableRecord
100
AcDbLayerTableRecord
  2
USP
 70
     0
 62
     7
  6
CONTINUOUS
370
    -3
390
C4
  0
ENDTAB
  0
TABLE
  2
STYLE
  5
A1
330
0
100
AcDbSymbolTable
 70
     1
  0
STYLE
  5
22
330
A1
100
AcDbSymbolTableRecord
100
AcDbTextStyleTableRecord
  2
STANDARD
 70
     0
 40
0.0
 41
1.0
 50
0.0
 71
     0
 42
0.25
  3
txt
  4

  0
ENDTAB
  0
TABLE
  2
VIEW
  5
A5
330
0
100
AcDbSymbolTable
 70
     0
  0
ENDTAB
  0
TABLE
  2
UCS
  5
A6
330
0
100
AcDbSymbolTable
 70
     0
  0
ENDTAB
  0
TABLE
  2
APPID
  5
A9
330
0
100
AcDbSymbolTable
 70
     1
  0
APPID
  5
AA
330
A9
100
AcDbSymbolTableRecord
100
AcDbRegAppTableRecord
  2
ACAD
 70
     0
  0
ENDTAB
  0
TABLE
  2
DIMSTYLE
  5
AB
330
0
100
AcDbSymbolTable
 70
     1
100
AcDbDimStyleTable
 71
     0
  0
DIMSTYLE
105
B3
330
AB
100
AcDbSymbolTableRecord
100
AcDbDimStyleTableRecord
  2
STANDARD
 70
     0
340
22
  0
ENDTAB
  0
TABLE
  2
BLOCK_RECORD
  5
1
330
0
100
AcDbSymbolTable
 70
     4
  0
BLOCK_RECORD
  5
2
102
{ACAD_XDICTIONARY
360
97
102
}
330
1
100
AcDbSymbolTableRecord
100
AcDbBlockTableRecord
  2
*MODEL_SPACE
340
C9
  0
BLOCK_RECORD
  5
9B
102
{ACAD_XDICTIONARY
360
9C
102
}
330
1
100
AcDbSymbolTableRecord
100
AcDbBlockTableRecord
  2
*PAPER_SPACE
340
CA
  0
BLOCK_RECORD
  5
6
330
1
100
AcDbSymbolTableRecord
100
AcDbBlockTableRecord
  2
RT7_F-L
340
0
102
{BLKREFS
331
3
102
}
  0
BLOCK_RECORD
  5
2D
330
1
100
AcDbSymbolTableRecord
100
AcDbBlockTableRecord
  2
RT7_S-L
340
0
102
{BLKREFS
331
2C
102
}
  0
BLOCK_RECORD
  5
51
330
1
100
AcDbSymbolTableRecord
100
AcDbBlockTableRecord
  2
RT7_F-R
340
0
102
{BLKREFS
331
50
102
}
  0
BLOCK_RECORD
  5
74
330
1
100
AcDbSymbolTableRecord
100
AcDbBlockTableRecord
  2
RT7_S-R
340
0
102
{BLKREFS
331
73
102
}
  0
ENDTAB
  0
ENDSEC
  0
SECTION
  2
BLOCKS
  0
BLOCK
  5
99
330
2
100
AcDbEntity
  8
0
100
AcDbBlockBegin
  2
*MODEL_SPACE
 70
     0
 10
0.0
 20
0.0
 30
0.0
  3
*MODEL_SPACE
  1

  0
ENDBLK
  5
9A
330
2
100
AcDbEntity
  8
0
100
AcDbBlockEnd
  0
BLOCK
  5
9E
330
9B
100
AcDbEntity
 67
     1
  8
0
100
AcDbBlockBegin
  2
*PAPER_SPACE
 70
     0
 10
0.0
 20
0.0
 30
0.0
  3
*PAPER_SPACE
  1

  0
ENDBLK
  5
9F
330
9B
100
AcDbEntity
 67
     1
  8
0
100
AcDbBlockEnd
  0
BLOCK
  5
29
330
6
100
AcDbEntity
  8
0
100
AcDbBlockBegin
  2
RT7_F-L
 70
     0
 10
0.0
 20
0.0
 30
0.0
  3
RT7_F-L
  1

  0
LINE
  5
7
330
6
100
AcDbEntity
  8
USP-GEO
100
AcDbLine
 10
1.187559620534576
 20
2.886000616230817
 30
0.0000000000000002
 11
0.4974239991120069
 21
1.405999999999964
 31
0.0000000000000001
210
-0.0000000000000001
220
-1.0
230
0.0
  0
LINE
  5
9
330
6
100
AcDbEntity
  8
USP-GEO
100
AcDbLine
 10
0.0478000000000085
 20
5.249999999999983
 30
0.0
 11
1.610136570479697
 21
5.249999999999983
 31
0.0000000000000003
210
-0.0000000000000001
220
-1.0
230
0.0
  0
LINE
  5
A
330
6
100
AcDbEntity
  8
USP-GEO
100
AcDbLine
 10
0.1728000000000023
 20
3.136000616230707
 30
0.0
 11
0.1728000000000023
 21
3.822200000000006
 31
0.0
210
-0.0000000000000001
220
-1.0
230
0.0
  0
LINE
  5
B
330
6
100
AcDbEntity
  8
USP-GEO
100
AcDbLine
 10
0.0478000000000023
 20
0.4699999999999714
 30
0.0
 11
0.0478000000000023
 21
1.40599999999985
 31
0.0
210
-0.0000000000000001
220
-1.0
230
0.0
  0
LINE
  5
C
330
6
100
AcDbEntity
  8
USP-GEO
100
AcDbLine
 10
0.0
 20
1.40599999999985
 30
0.0
 11
0.0
 21
0.4699999999999714
 31
0.0
210
-0.0000000000000001
220
-1.0
230
0.0
  0
LINE
  5
D
330
6
100
AcDbEntity
  8
USP-GEO
100
AcDbLine
 10
0.0478000000000023
 20
0.0
 30
0.0
 11
0.0478000000000023
 21
0.4699999999998577
 31
0.0
210
-0.0000000000000001
220
-1.0
230
0.0
  0
LINE
  5
E
330
6
100
AcDbEntity
  8
USP-GEO
100
AcDbLine
 10
0.0
 20
0.4699999999998577
 30
0.0
 11
0.0
 21
0.0
 31
0.0
210
-0.0000000000000001
220
-1.0
230
0.0
  0
LINE
  5
F
330
6
100
AcDbEntity
  8
USP-GEO
100
AcDbLine
 10
0.0478000000000023
 20
0.0
 30
0.0
 11
0.0
 21
0.0
 31
0.0
210
-0.0000000000000001
220
-1.0
230
0.0
  0
LINE
  5
10
330
6
100
AcDbEntity
  8
USP-GEO
100
AcDbLine
 10
0.0478000000000023
 20
0.4699999999998577
 30
0.0
 11
0.0
 21
0.4699999999998577
 31
0.0
210
-0.0000000000000001
220
-1.0
230
0.0
  0
ARC
  5
11
330
6
100
AcDbEntity
  8
USP-GEO
100
AcDbCircle
 10
0.1728000000000023
 20
1.155999999999967
 30
0.0
 40
0.2499999999999996
100
AcDbArc
 50
89.99999999999998
 51
120.0000000000004
  0
ARC
  5
12
330
6
100
AcDbEntity
  8
USP-GEO
100
AcDbCircle
 10
-0.0771999999999968
 20
3.136000616230707
 30
0.0
 40
0.2499999999999997
100
AcDbArc
 50
300.0000000000002
 51
0.0
  0
LINE
  5
13
330
6
100
AcDbEntity
  8
USP-GEO
100
AcDbLine
 10
0.0478000000000023
 20
1.40599999999985
 30
0.0
 11
0.0478000000000023
 21
2.886000616230703
 31
0.0
210
-0.0000000000000001
220
-1.0
230
0.0
  0
LINE
  5
14
330
6
100
AcDbEntity
  8
USP-GEO
100
AcDbLine
 10
0.0
 20
2.886000616230703
 30
0.0
 11
0.0
 21
1.40599999999985
 31
0.0
210
-0.0000000000000001
220
-1.0
230
0.0
  0
LINE
  5
15
330
6
100
AcDbEntity
  8
USP-GEO
100
AcDbLine
 10
0.0478000000000023
 20
1.40599999999985
 30
0.0
 11
0.0
 21
1.40599999999985
 31
0.0
210
-0.0000000000000001
220
-1.0
230
0.0
  0
LINE
  5
16
330
6
100
AcDbEntity
  8
USP-GEO
100
AcDbLine
 10
0.0478000000000023
 20
2.886000616230703
 30
0.0
 11
0.0478000000000023
 21
2.919494265284595
 31
0.0
210
-0.0000000000000001
220
-1.0
230
0.0
  0
LINE
  5
17
330
6
100
AcDbEntity
  8
USP-GEO
100
AcDbLine
 10
0.0
 20
2.919494265284595
 30
0.0
 11
0.0
 21
2.886000616230703
 31
0.0
210
-0.0000000000000001
220
-1.0
230
0.0
  0
LINE
  5
18
330
6
100
AcDbEntity
  8
USP-GEO
100
AcDbLine
 10
0.0478000000000023
 20
2.886000616230703
 30
0.0
 11
0.0
 21
2.886000616230703
 31
0.0
210
-0.0000000000000001
220
-1.0
230
0.0
  0
LINE
  5
19
330
6
100
AcDbEntity
  8
USP-GEO
100
AcDbLine
 10
0.0
 20
2.919494265284595
 30
0.0
 11
0.0478000000000023
 21
2.919494265284595
 31
0.0
210
-0.0000000000000001
220
-1.0
230
0.0
  0
LINE
  5
1A
330
6
100
AcDbEntity
  8
USP-GEO
100
AcDbLine
 10
0.4974239991120069
 20
1.405999999999964
 30
0.0000000000000001
 11
0.1728000000000023
 21
1.405999999999964
 31
0.0
210
-0.0000000000000001
220
-1.0
230
0.0
  0
LINE
  5
1B
330
6
100
AcDbEntity
  8
USP-GEO
100
AcDbLine
 10
0.1728000000000023
 20
3.822200000000006
 30
0.0
 11
0.0478000000000094
 21
3.822199999999978
 31
0.0
210
-0.0000000000000001
220
-1.0
230
0.0
  0
LINE
  5
1C
330
6
100
AcDbEntity
  8
USP-GEO
100
AcDbLine
 10
0.0478000000000094
 20
3.822199999999978
 30
0.0
 11
0.0478000000000085
 21
5.249999999999983
 31
0.0
210
-0.0000000000000001
220
-1.0
230
0.0
  0
CIRCLE
  5
1D
330
6
100
AcDbEntity
  8
USP-GEO
100
AcDbCircle
 10
0.4501365704796987
 20
3.938249999999979
 30
0.0000000000000001
 40
0.078
  0
CIRCLE
  5
1E
330
6
100
AcDbEntity
  8
USP-GEO
100
AcDbCircle
 10
0.5091365704797033
 20
4.935249999999979
 30
0.0000000000000001
 40
0.078
  0
LINE
  5
1F
330
6
100
AcDbEntity
  8
USP-GEO
100
AcDbLine
 10
1.572664575138633
 20
3.822250000000107
 30
0.0000000000000003
 11
1.136084317544126
 21
2.886000616230817
 31
0.0000000000000002
210
-0.0000000000000001
220
-1.0
230
0.0
  0
TEXT
  5
20
330
6
100
AcDbEntity
  8
USP-TXT
100
AcDbText
 10
-1.587698381426812
 20
-0.7499999999999997
 30
0.0000000000000002
 40
0.25
  1
RT7 (L) - FRONT VIEW
 50
180.0
 71
     6
 72
     1
 11
0.8289682852398527
 21
-0.75
 31
0.0000000000000002
100
AcDbText
  0
LINE
  5
23
330
6
100
AcDbEntity
  8
USP-GEO
100
AcDbLine
 10
1.136084317544129
 20
2.886000616230817
 30
0.0000000000000002
 11
1.187559620534576
 21
2.886000616230817
 31
0.0000000000000002
210
-0.0000000000000001
220
-1.0
230
0.0
  0
CIRCLE
  5
24
330
6
100
AcDbEntity
  8
USP-GEO
100
AcDbCircle
 10
1.2631365704797
 20
3.818249999999975
 30
0.0000000000000002
 40
0.078
  0
CIRCLE
  5
25
330
6
100
AcDbEntity
  8
USP-GEO
100
AcDbCircle
 10
0.900465621591123
 20
4.676123111472603
 30
0.0000000000000002
 40
0.078
  0
LINE
  5
26
330
6
100
AcDbEntity
  8
USP-GEO
100
AcDbLine
 10
1.610136570479697
 20
5.249999999999983
 30
0.0000000000000003
 11
1.61013657047969
 21
3.822250000000107
 31
0.0000000000000003
210
-0.0000000000000001
220
-1.0
230
0.0
  0
LINE
  5
27
330
6
100
AcDbEntity
  8
USP-GEO
100
AcDbLine
 10
1.61013657047969
 20
3.822250000000107
 30
0.0000000000000003
 11
1.572664575138633
 21
3.822250000000107
 31
0.0000000000000003
210
-0.0000000000000001
220
-1.0
230
0.0
  0
CIRCLE
  5
28
330
6
100
AcDbEntity
  8
USP-GEO
100
AcDbCircle
 10
1.360799999999937
 20
4.999999999999997
 30
0.0000000000000002
 40
0.078
  0
ENDBLK
  5
2B
330
6
100
AcDbEntity
  8
0
100
AcDbBlockEnd
  0
BLOCK
  5
4E
330
2D
100
AcDbEntity
  8
0
100
AcDbBlockBegin
  2
RT7_S-L
 70
     0
 10
0.0
 20
0.0
 30
0.0
  3
RT7_S-L
  1

  0
TEXT
  5
2E
330
2D
100
AcDbEntity
  8
USP-TXT
100
AcDbText
 10
-1.469000000000002
 20
-0.750000000000015
 30
0.0000000000000001
 40
0.25
  1
RT7 (L) - SIDE VIEW
 50
180.0
 71
     6
 72
     1
 11
0.7809999999999988
 21
-0.7500000000000151
 31
0.0000000000000001
100
AcDbText
  0
LINE
  5
2F
330
2D
100
AcDbEntity
  8
USP-GEO
100
AcDbLine
 10
0.4492874286322888
 20
1.40599999999985
 30
0.0000000000000001
 11
1.139423050054858
 21
2.8860006162307
 31
0.0000000000000001
210
-0.0000000000000001
220
-1.0
230
0.0
  0
CIRCLE
  5
30
330
2D
100
AcDbEntity
  8
USP-GEO
100
AcDbCircle
 10
0.8890000000000028
 20
0.2619999999999996
 30
0.0000000000000001
 40
0.078
  0
LINE
  5
31
330
2D
100
AcDbEntity
  8
USP-GEO
100
AcDbLine
 10
1.561999999999997
 20
-0.0000000000000302
 30
0.0000000000000002
 11
0.0
 21
0.0
 31
0.0
210
-0.0000000000000001
220
-1.0
230
0.0
  0
CIRCLE
  5
32
330
2D
100
AcDbEntity
  8
USP-GEO
100
AcDbCircle
 10
0.8890000000000384
 20
1.02088764793605
 30
0.0000000000000001
 40
0.078
  0
CIRCLE
  5
33
330
2D
100
AcDbEntity
  8
USP-GEO
100
AcDbCircle
 10
0.5749999999999958
 20
0.7809999999999926
 30
0.0000000000000001
 40
0.078
  0
LINE
  5
34
330
2D
100
AcDbEntity
  8
USP-GEO
100
AcDbLine
 10
0.0369999999999919
 20
0.4699999999999714
 30
0.0
 11
0.4734639680330162
 21
1.40599999999985
 31
0.0000000000000001
210
-0.0000000000000001
220
-1.0
230
0.0
  0
CIRCLE
  5
35
330
2D
100
AcDbEntity
  8
USP-GEO
100
AcDbCircle
 10
0.2340000000000018
 20
0.4349999999999748
 30
0.0
 40
0.078
  0
LINE
  5
36
330
2D
100
AcDbEntity
  8
USP-GEO
100
AcDbLine
 10
0.0
 20
0.0
 30
0.0
 11
0.0
 21
0.4699999999998577
 31
0.0
210
-0.0000000000000001
220
-1.0
230
0.0
  0
LINE
  5
37
330
2D
100
AcDbEntity
  8
USP-GEO
100
AcDbLine
 10
0.0
 20
0.4699999999998577
 30
0.0
 11
0.0369999999999919
 21
0.4699999999999714
 31
0.0
210
-0.0000000000000001
220
-1.0
230
0.0
  0
LINE
  5
38
330
2D
100
AcDbEntity
  8
USP-GEO
100
AcDbLine
 10
0.4734639680330162
 20
1.40599999999985
 30
0.0000000000000001
 11
0.4492874286322888
 21
1.40599999999985
 31
0.0000000000000001
210
-0.0000000000000001
220
-1.0
230
0.0
  0
LINE
  5
39
330
2D
100
AcDbEntity
  8
USP-GEO
100
AcDbLine
 10
1.139423050054858
 20
2.8860006162307
 30
0.0000000000000001
 11
1.437000000000033
 21
2.8860006162307
 31
0.0000000000000002
210
-0.0000000000000001
220
-1.0
230
0.0
  0
CIRCLE
  5
3A
330
2D
100
AcDbEntity
  8
USP-GEO
100
AcDbCircle
 10
1.124336570479734
 20
2.006500000000001
 30
0.0000000000000001
 40
0.094
  0
LINE
  5
3B
330
2D
100
AcDbEntity
  8
USP-GEO
100
AcDbLine
 10
1.609800000000031
 20
2.886000616230814
 30
0.0000000000000002
 11
1.609800000000031
 21
3.822250000000102
 31
0.0000000000000002
210
-0.0000000000000001
220
-1.0
230
0.0
  0
LINE
  5
3C
330
2D
100
AcDbEntity
  8
USP-GEO
100
AcDbLine
 10
1.562000000000033
 20
3.822250000000102
 30
0.0000000000000002
 11
1.562000000000033
 21
2.886000616230814
 31
0.0000000000000002
210
-0.0000000000000001
220
-1.0
230
0.0
  0
LINE
  5
3D
330
2D
100
AcDbEntity
  8
USP-GEO
100
AcDbLine
 10
1.437000000000033
 20
1.15599999999996
 30
0.0000000000000002
 11
1.437000000000033
 21
0.4699999999999962
 31
0.0000000000000002
210
-0.0000000000000001
220
-1.0
230
0.0
  0
CIRCLE
  5
3E
330
2D
100
AcDbEntity
  8
USP-GEO
100
AcDbCircle
 10
1.239999999999994
 20
0.607999999999989
 30
0.0000000000000002
 40
0.078
  0
LINE
  5
3F
330
2D
100
AcDbEntity
  8
USP-GEO
100
AcDbLine
 10
1.562000000000004
 20
0.4699999999999678
 30
0.0000000000000002
 11
1.561999999999997
 21
-0.0000000000000302
 31
0.0000000000000002
210
-0.0000000000000001
220
-1.0
230
0.0
  0
LINE
  5
40
330
2D
100
AcDbEntity
  8
USP-GEO
100
AcDbLine
 10
1.437000000000033
 20
0.4699999999999962
 30
0.0000000000000002
 11
1.562000000000004
 21
0.4699999999999678
 31
0.0000000000000002
210
-0.0000000000000001
220
-1.0
230
0.0
  0
LINE
  5
41
330
2D
100
AcDbEntity
  8
USP-GEO
100
AcDbLine
 10
1.609800000000031
 20
1.40599999999996
 30
0.0000000000000002
 11
1.609800000000031
 21
2.886000616230814
 31
0.0000000000000002
210
-0.0000000000000001
220
-1.0
230
0.0
  0
LINE
  5
42
330
2D
100
AcDbEntity
  8
USP-GEO
100
AcDbLine
 10
1.562000000000033
 20
2.886000616230814
 30
0.0000000000000002
 11
1.562000000000033
 21
1.40599999999996
 31
0.0000000000000002
210
-0.0000000000000001
220
-1.0
230
0.0
  0
ARC
  5
43
330
2D
100
AcDbEntity
  8
USP-GEO
100
AcDbCircle
 10
1.687000000000033
 20
1.155999999999962
 30
0.0000000000000002
 40
0.2499999999999991
100
AcDbArc
 50
120.0000000000004
 51
180.0
  0
LINE
  5
44
330
2D
100
AcDbEntity
  8
USP-GEO
100
AcDbLine
 10
1.609800000000031
 20
1.372506350946072
 30
0.0000000000000002
 11
1.609800000000031
 21
1.405999999999964
 31
0.0000000000000002
210
-0.0000000000000001
220
-1.0
230
0.0
  0
LINE
  5
45
330
2D
100
AcDbEntity
  8
USP-GEO
100
AcDbLine
 10
1.562000000000033
 20
1.405999999999964
 30
0.0000000000000002
 11
1.562000000000033
 21
1.372506350946072
 31
0.0000000000000002
210
-0.0000000000000001
220
-1.0
230
0.0
  0
LINE
  5
46
330
2D
100
AcDbEntity
  8
USP-GEO
100
AcDbLine
 10
1.562000000000033
 20
1.372506350946069
 30
0.0000000000000002
 11
1.609800000000031
 21
1.372506350946069
 31
0.0000000000000002
210
-0.0000000000000001
220
-1.0
230
0.0
  0
LINE
  5
47
330
2D
100
AcDbEntity
  8
USP-GEO
100
AcDbLine
 10
1.562000000000033
 20
1.40599999999996
 30
0.0000000000000002
 11
1.609800000000031
 21
1.40599999999996
 31
0.0000000000000002
210
-0.0000000000000001
220
-1.0
230
0.0
  0
LINE
  5
48
330
2D
100
AcDbEntity
  8
USP-GEO
100
AcDbLine
 10
1.562000000000033
 20
2.886000616230814
 30
0.0000000000000002
 11
1.609800000000031
 21
2.886000616230814
 31
0.0000000000000002
210
-0.0000000000000001
220
-1.0
230
0.0
  0
ARC
  5
49
330
2D
100
AcDbEntity
  8
USP-GEO
100
AcDbCircle
 10
1.437000000000029
 20
3.136000616230703
 30
0.0000000000000002
 40
0.2500000000000009
100
AcDbArc
 50
270.0000000000008
 51
300.0000000000008
  0
LINE
  5
4A
330
2D
100
AcDbEntity
  8
USP-GEO
100
AcDbLine
 10
1.609800000000031
 20
3.822250000000102
 30
0.0000000000000002
 11
1.609800000000033
 21
5.249999999999977
 31
0.0000000000000002
210
-0.0000000000000001
220
-1.0
230
0.0
  0
LINE
  5
4B
330
2D
100
AcDbEntity
  8
USP-GEO
100
AcDbLine
 10
1.562000000000034
 20
5.249999999999977
 30
0.0000000000000002
 11
1.562000000000033
 21
3.822250000000102
 31
0.0000000000000002
210
-0.0000000000000001
220
-1.0
230
0.0
  0
LINE
  5
4C
330
2D
100
AcDbEntity
  8
USP-GEO
100
AcDbLine
 10
1.562000000000033
 20
3.822250000000102
 30
0.0000000000000002
 11
1.609800000000031
 21
3.822250000000102
 31
0.0000000000000002
210
-0.0000000000000001
220
-1.0
230
0.0
  0
LINE
  5
4D
330
2D
100
AcDbEntity
  8
USP-GEO
100
AcDbLine
 10
1.562000000000034
 20
5.249999999999977
 30
0.0000000000000002
 11
1.609800000000033
 21
5.249999999999977
 31
0.0000000000000002
210
-0.0000000000000001
220
-1.0
230
0.0
  0
ENDBLK
  5
4F
330
2D
100
AcDbEntity
  8
0
100
AcDbBlockEnd
  0
BLOCK
  5
71
330
51
100
AcDbEntity
  8
0
100
AcDbBlockBegin
  2
RT7_F-R
 70
     0
 10
0.0
 20
0.0
 30
0.0
  3
RT7_F-R
  1

  0
TEXT
  5
52
330
51
100
AcDbEntity
  8
USP-TXT
100
AcDbText
 10
-1.587698381426812
 20
-0.75
 30
0.0000000000000001
 40
0.25
  1
RT7 (R) - FRONT VIEW
 72
     1
 11
0.8289682852398527
 21
-0.75
 31
0.0000000000000001
100
AcDbText
  0
LINE
  5
53
330
51
100
AcDbEntity
  8
USP-GEO
100
AcDbLine
 10
1.187559620534576
 20
2.363999383769165
 30
0.0000000000000002
 11
0.4974239991120069
 21
3.844000000000018
 31
0.0000000000000001
210
0.0000000000000002
220
1.0
230
0.0
  0
LINE
  5
54
330
51
100
AcDbEntity
  8
USP-GEO
100
AcDbLine
 10
0.0478000000000076
 20
0.0
 30
0.0
 11
1.610136570479697
 21
0.0
 31
0.0000000000000003
210
0.0000000000000002
220
1.0
230
0.0
  0
LINE
  5
55
330
51
100
AcDbEntity
  8
USP-GEO
100
AcDbLine
 10
0.0478000000000023
 20
5.249999999999982
 30
0.0
 11
0.0478000000000023
 21
4.780000000000125
 31
0.0
210
0.0000000000000002
220
1.0
230
0.0
  0
LINE
  5
56
330
51
100
AcDbEntity
  8
USP-GEO
100
AcDbLine
 10
0.0
 20
4.780000000000125
 30
0.0
 11
0.0
 21
5.249999999999982
 31
0.0
210
0.0000000000000002
220
1.0
230
0.0
  0
LINE
  5
57
330
51
100
AcDbEntity
  8
USP-GEO
100
AcDbLine
 10
0.0478000000000023
 20
3.844000000000132
 30
0.0
 11
0.0478000000000023
 21
2.363999383769279
 31
0.0
210
0.0000000000000002
220
1.0
230
0.0
  0
LINE
  5
58
330
51
100
AcDbEntity
  8
USP-GEO
100
AcDbLine
 10
0.0
 20
2.363999383769279
 30
0.0
 11
0.0
 21
3.844000000000132
 31
0.0
210
0.0000000000000002
220
1.0
230
0.0
  0
LINE
  5
59
330
51
100
AcDbEntity
  8
USP-GEO
100
AcDbLine
 10
0.1728000000000023
 20
1.427799999999976
 30
0.0
 11
0.0478000000000094
 21
1.427800000000004
 31
0.0
210
0.0000000000000002
220
1.0
230
0.0
  0
ARC
  5
5A
330
51
100
AcDbEntity
  8
USP-GEO
100
AcDbCircle
 10
-0.0771999999999977
 20
2.113999383769275
 30
0.0
 40
0.2499999999999997
100
AcDbArc
 50
0.0
 51
59.99999999999976
  0
LINE
  5
5B
330
51
100
AcDbEntity
  8
USP-GEO
100
AcDbLine
 10
0.0478000000000094
 20
1.427800000000004
 30
0.0
 11
0.0478000000000076
 21
0.0
 31
0.0
210
0.0000000000000002
220
1.0
230
0.0
  0
LINE
  5
5C
330
51
100
AcDbEntity
  8
USP-GEO
100
AcDbLine
 10
0.0478000000000023
 20
2.363999383769279
 30
0.0
 11
0.0478000000000023
 21
2.330505734715387
 31
0.0
210
0.0000000000000002
220
1.0
230
0.0
  0
LINE
  5
5D
330
51
100
AcDbEntity
  8
USP-GEO
100
AcDbLine
 10
0.0
 20
2.330505734715387
 30
0.0
 11
0.0
 21
2.363999383769279
 31
0.0
210
0.0000000000000002
220
1.0
230
0.0
  0
LINE
  5
5E
330
51
100
AcDbEntity
  8
USP-GEO
100
AcDbLine
 10
0.0478000000000023
 20
2.363999383769279
 30
0.0
 11
0.0
 21
2.363999383769279
 31
0.0
210
0.0000000000000002
220
1.0
230
0.0
  0
LINE
  5
5F
330
51
100
AcDbEntity
  8
USP-GEO
100
AcDbLine
 10
0.0
 20
2.330505734715387
 30
0.0
 11
0.0478000000000023
 21
2.330505734715387
 31
0.0
210
0.0000000000000002
220
1.0
230
0.0
  0
CIRCLE
  5
60
330
51
100
AcDbEntity
  8
USP-GEO
100
AcDbCircle
 10
0.5091365704797024
 20
0.3147500000000036
 30
0.0000000000000001
 40
0.078
  0
LINE
  5
61
330
51
100
AcDbEntity
  8
USP-GEO
100
AcDbLine
 10
0.1728000000000023
 20
2.113999383769275
 30
0.0
 11
0.1728000000000023
 21
1.427799999999976
 31
0.0
210
0.0000000000000002
220
1.0
230
0.0
  0
CIRCLE
  5
62
330
51
100
AcDbEntity
  8
USP-GEO
100
AcDbCircle
 10
0.4501365704796978
 20
1.311750000000003
 30
0.0000000000000001
 40
0.078
  0
ARC
  5
63
330
51
100
AcDbEntity
  8
USP-GEO
100
AcDbCircle
 10
0.1728000000000023
 20
4.094000000000015
 30
0.0
 40
0.2499999999999996
100
AcDbArc
 50
239.9999999999995
 51
270.0
  0
LINE
  5
64
330
51
100
AcDbEntity
  8
USP-GEO
100
AcDbLine
 10
0.0478000000000023
 20
4.780000000000011
 30
0.0
 11
0.0478000000000023
 21
3.844000000000132
 31
0.0
210
0.0000000000000002
220
1.0
230
0.0
  0
LINE
  5
65
330
51
100
AcDbEntity
  8
USP-GEO
100
AcDbLine
 10
0.0
 20
3.844000000000132
 30
0.0
 11
0.0
 21
4.780000000000011
 31
0.0
210
0.0000000000000002
220
1.0
230
0.0
  0
LINE
  5
66
330
51
100
AcDbEntity
  8
USP-GEO
100
AcDbLine
 10
0.0478000000000023
 20
3.844000000000132
 30
0.0
 11
0.0
 21
3.844000000000132
 31
0.0
210
0.0000000000000002
220
1.0
230
0.0
  0
LINE
  5
67
330
51
100
AcDbEntity
  8
USP-GEO
100
AcDbLine
 10
0.0478000000000023
 20
4.780000000000125
 30
0.0
 11
0.0
 21
4.780000000000125
 31
0.0
210
0.0000000000000002
220
1.0
230
0.0
  0
LINE
  5
68
330
51
100
AcDbEntity
  8
USP-GEO
100
AcDbLine
 10
0.4974239991120069
 20
3.844000000000018
 30
0.0000000000000001
 11
0.1728000000000023
 21
3.844000000000018
 31
0.0
210
0.0000000000000002
220
1.0
230
0.0
  0
LINE
  5
69
330
51
100
AcDbEntity
  8
USP-GEO
100
AcDbLine
 10
0.0478000000000023
 20
5.249999999999982
 30
0.0
 11
0.0
 21
5.249999999999982
 31
0.0
210
0.0000000000000002
220
1.0
230
0.0
  0
CIRCLE
  5
6A
330
51
100
AcDbEntity
  8
USP-GEO
100
AcDbCircle
 10
1.2631365704797
 20
1.431750000000008
 30
0.0000000000000002
 40
0.078
  0
LINE
  5
6B
330
51
100
AcDbEntity
  8
USP-GEO
100
AcDbLine
 10
1.572664575138633
 20
1.427749999999875
 30
0.0000000000000003
 11
1.136084317544126
 21
2.363999383769165
 31
0.0000000000000002
210
0.0000000000000002
220
1.0
230
0.0
  0
CIRCLE
  5
6C
330
51
100
AcDbEntity
  8
USP-GEO
100
AcDbCircle
 10
0.9004656215911222
 20
0.57387688852738
 30
0.0000000000000002
 40
0.078
  0
LINE
  5
6D
330
51
100
AcDbEntity
  8
USP-GEO
100
AcDbLine
 10
1.136084317544129
 20
2.363999383769165
 30
0.0000000000000002
 11
1.187559620534576
 21
2.363999383769165
 31
0.0000000000000002
210
0.0000000000000002
220
1.0
230
0.0
  0
LINE
  5
6E
330
51
100
AcDbEntity
  8
USP-GEO
100
AcDbLine
 10
1.610136570479697
 20
0.0
 30
0.0000000000000003
 11
1.61013657047969
 21
1.427749999999875
 31
0.0000000000000003
210
0.0000000000000002
220
1.0
230
0.0
  0
CIRCLE
  5
6F
330
51
100
AcDbEntity
  8
USP-GEO
100
AcDbCircle
 10
1.360799999999935
 20
0.2499999999999858
 30
0.0000000000000002
 40
0.078
  0
LINE
  5
70
330
51
100
AcDbEntity
  8
USP-GEO
100
AcDbLine
 10
1.61013657047969
 20
1.427749999999875
 30
0.0000000000000003
 11
1.572664575138633
 21
1.427749999999875
 31
0.0000000000000003
210
0.0000000000000002
220
1.0
230
0.0
  0
ENDBLK
  5
72
330
51
100
AcDbEntity
  8
0
100
AcDbBlockEnd
  0
BLOCK
  5
95
330
74
100
AcDbEntity
  8
0
100
AcDbBlockBegin
  2
RT7_S-R
 70
     0
 10
0.0
 20
0.0
 30
0.0
  3
RT7_S-R
  1

  0
TEXT
  5
75
330
74
100
AcDbEntity
  8
USP-TXT
100
AcDbText
 10
-1.469000000000002
 20
-0.75
 30
-0.0000000000000001
 40
0.25
  1
RT7 (R) - SIDE VIEW
 72
     1
 11
0.7809999999999988
 21
-0.75
 31
-0.0000000000000001
100
AcDbText
  0
LINE
  5
76
330
74
100
AcDbEntity
  8
USP-GEO
100
AcDbLine
 10
0.4492874286322888
 20
3.844000000000128
 30
-0.0000000000000001
 11
1.139423050054858
 21
2.363999383769275
 31
-0.0000000000000001
210
0.0000000000000002
220
1.0
230
0.0
  0
CIRCLE
  5
77
330
74
100
AcDbEntity
  8
USP-GEO
100
AcDbCircle
 10
0.8890000000000046
 20
4.987999999999977
 30
-0.0000000000000001
 40
0.078
  0
LINE
  5
78
330
74
100
AcDbEntity
  8
USP-GEO
100
AcDbLine
 10
1.561999999999997
 20
5.250000000000006
 30
0.0
 11
0.0
 21
5.249999999999977
 31
-0.0000000000000002
210
0.0000000000000002
220
1.0
230
0.0
  0
CIRCLE
  5
79
330
74
100
AcDbEntity
  8
USP-GEO
100
AcDbCircle
 10
0.8890000000000402
 20
4.229112352063927
 30
-0.0000000000000001
 40
0.078
  0
LINE
  5
7A
330
74
100
AcDbEntity
  8
USP-GEO
100
AcDbLine
 10
0.0
 20
5.249999999999977
 30
-0.0000000000000002
 11
0.0
 21
4.780000000000121
 31
-0.0000000000000002
210
0.0000000000000002
220
1.0
230
0.0
  0
CIRCLE
  5
7B
330
74
100
AcDbEntity
  8
USP-GEO
100
AcDbCircle
 10
0.2340000000000035
 20
4.815000000000003
 30
-0.0000000000000002
 40
0.078
  0
LINE
  5
7C
330
74
100
AcDbEntity
  8
USP-GEO
100
AcDbLine
 10
0.0369999999999919
 20
4.780000000000007
 30
-0.0000000000000002
 11
0.4734639680330162
 21
3.844000000000128
 31
-0.0000000000000001
210
0.0000000000000002
220
1.0
230
0.0
  0
LINE
  5
7D
330
74
100
AcDbEntity
  8
USP-GEO
100
AcDbLine
 10
0.0
 20
4.780000000000121
 30
-0.0000000000000002
 11
0.0369999999999919
 21
4.780000000000007
 31
-0.0000000000000002
210
0.0000000000000002
220
1.0
230
0.0
  0
CIRCLE
  5
7E
330
74
100
AcDbEntity
  8
USP-GEO
100
AcDbCircle
 10
0.5749999999999976
 20
4.468999999999986
 30
-0.0000000000000001
 40
0.078
  0
LINE
  5
7F
330
74
100
AcDbEntity
  8
USP-GEO
100
AcDbLine
 10
0.4734639680330162
 20
3.844000000000128
 30
-0.0000000000000001
 11
0.4492874286322888
 21
3.844000000000128
 31
-0.0000000000000001
210
0.0000000000000002
220
1.0
230
0.0
  0
LINE
  5
80
330
74
100
AcDbEntity
  8
USP-GEO
100
AcDbLine
 10
1.139423050054858
 20
2.363999383769275
 30
-0.0000000000000001
 11
1.437000000000033
 21
2.363999383769275
 31
0.0
210
0.0000000000000002
220
1.0
230
0.0
  0
CIRCLE
  5
81
330
74
100
AcDbEntity
  8
USP-GEO
100
AcDbCircle
 10
1.124336570479735
 20
3.243499999999975
 30
-0.0000000000000001
 40
0.094
  0
LINE
  5
82
330
74
100
AcDbEntity
  8
USP-GEO
100
AcDbLine
 10
1.562000000000004
 20
4.780000000000007
 30
0.0
 11
1.561999999999997
 21
5.250000000000006
 31
0.0
210
0.0000000000000002
220
1.0
230
0.0
  0
LINE
  5
83
330
74
100
AcDbEntity
  8
USP-GEO
100
AcDbLine
 10
1.609800000000031
 20
3.844000000000014
 30
0.0
 11
1.609800000000031
 21
2.363999383769161
 31
0.0
210
0.0000000000000002
220
1.0
230
0.0
  0
LINE
  5
84
330
74
100
AcDbEntity
  8
USP-GEO
100
AcDbLine
 10
1.562000000000033
 20
2.363999383769161
 30
0.0
 11
1.562000000000033
 21
3.844000000000014
 31
0.0
210
0.0000000000000002
220
1.0
230
0.0
  0
LINE
  5
85
330
74
100
AcDbEntity
  8
USP-GEO
100
AcDbLine
 10
1.609800000000031
 20
1.427749999999875
 30
0.0
 11
1.609800000000031
 21
0.0
 31
0.0
210
0.0000000000000002
220
1.0
230
0.0
  0
LINE
  5
86
330
74
100
AcDbEntity
  8
USP-GEO
100
AcDbLine
 10
1.562000000000033
 20
0.0
 30
0.0
 11
1.562000000000033
 21
1.427749999999875
 31
0.0
210
0.0000000000000002
220
1.0
230
0.0
  0
LINE
  5
87
330
74
100
AcDbEntity
  8
USP-GEO
100
AcDbLine
 10
1.562000000000033
 20
0.0
 30
0.0
 11
1.609800000000031
 21
0.0
 31
0.0
210
0.0000000000000002
220
1.0
230
0.0
  0
LINE
  5
88
330
74
100
AcDbEntity
  8
USP-GEO
100
AcDbLine
 10
1.609800000000031
 20
2.363999383769161
 30
0.0
 11
1.609800000000031
 21
1.427749999999875
 31
0.0
210
0.0000000000000002
220
1.0
230
0.0
  0
LINE
  5
89
330
74
100
AcDbEntity
  8
USP-GEO
100
AcDbLine
 10
1.562000000000033
 20
1.427749999999875
 30
0.0
 11
1.562000000000033
 21
2.363999383769161
 31
0.0
210
0.0000000000000002
220
1.0
230
0.0
  0
LINE
  5
8A
330
74
100
AcDbEntity
  8
USP-GEO
100
AcDbLine
 10
1.562000000000033
 20
1.427749999999875
 30
0.0
 11
1.609800000000031
 21
1.427749999999875
 31
0.0
210
0.0000000000000002
220
1.0
230
0.0
  0
LINE
  5
8B
330
74
100
AcDbEntity
  8
USP-GEO
100
AcDbLine
 10
1.562000000000033
 20
2.363999383769161
 30
0.0
 11
1.609800000000031
 21
2.363999383769161
 31
0.0
210
0.0000000000000002
220
1.0
230
0.0
  0
ARC
  5
8C
330
74
100
AcDbEntity
  8
USP-GEO
100
AcDbCircle
 10
1.437000000000029
 20
2.113999383769275
 30
0.0
 40
0.2500000000000009
100
AcDbArc
 50
59.99999999999912
 51
89.9999999999992
  0
ARC
  5
8D
330
74
100
AcDbEntity
  8
USP-GEO
100
AcDbCircle
 10
1.687000000000034
 20
4.094000000000014
 30
0.0
 40
0.2499999999999991
100
AcDbArc
 50
180.0
 51
239.9999999999995
  0
CIRCLE
  5
8E
330
74
100
AcDbEntity
  8
USP-GEO
100
AcDbCircle
 10
1.239999999999996
 20
4.641999999999987
 30
0.0
 40
0.078
  0
LINE
  5
8F
330
74
100
AcDbEntity
  8
USP-GEO
100
AcDbLine
 10
1.437000000000033
 20
4.094000000000014
 30
0.0
 11
1.437000000000033
 21
4.779999999999978
 31
0.0
210
0.0000000000000002
220
1.0
230
0.0
  0
LINE
  5
90
330
74
100
AcDbEntity
  8
USP-GEO
100
AcDbLine
 10
1.562000000000033
 20
3.877493649053906
 30
0.0
 11
1.609800000000031
 21
3.877493649053906
 31
0.0
210
0.0000000000000002
220
1.0
230
0.0
  0
LINE
  5
91
330
74
100
AcDbEntity
  8
USP-GEO
100
AcDbLine
 10
1.562000000000033
 20
3.844000000000014
 30
0.0
 11
1.609800000000031
 21
3.844000000000014
 31
0.0
210
0.0000000000000002
220
1.0
230
0.0
  0
LINE
  5
92
330
74
100
AcDbEntity
  8
USP-GEO
100
AcDbLine
 10
1.562000000000033
 20
3.84400000000001
 30
0.0
 11
1.562000000000033
 21
3.877493649053902
 31
0.0
210
0.0000000000000002
220
1.0
230
0.0
  0
LINE
  5
93
330
74
100
AcDbEntity
  8
USP-GEO
100
AcDbLine
 10
1.609800000000031
 20
3.877493649053902
 30
0.0
 11
1.609800000000031
 21
3.84400000000001
 31
0.0
210
0.0000000000000002
220
1.0
230
0.0
  0
LINE
  5
94
330
74
100
AcDbEntity
  8
USP-GEO
100
AcDbLine
 10
1.437000000000033
 20
4.779999999999978
 30
0.0
 11
1.562000000000004
 21
4.780000000000007
 31
0.0
210
0.0000000000000002
220
1.0
230
0.0
  0
ENDBLK
  5
96
330
74
100
AcDbEntity
  8
0
100
AcDbBlockEnd
  0
ENDSEC
  0
SECTION
  2
ENTITIES
  0
INSERT
  5
3
330
2
100
AcDbEntity
  8
USP
100
AcDbBlockReference
  2
RT7_F-L
 10
1.588064564425061
 20
7.747127783454724
 30
0.0000000000000005
  0
INSERT
  5
2C
330
2
100
AcDbEntity
  8
USP
100
AcDbBlockReference
  2
RT7_S-L
 10
6.797624012457577
 20
7.747127783454724
 30
0.0000000000000005
  0
INSERT
  5
50
330
2
100
AcDbEntity
  8
USP
100
AcDbBlockReference
  2
RT7_F-R
 10
1.58806456442507
 20
0.7503966032906586
 30
0.0000000000000005
  0
INSERT
  5
73
330
2
100
AcDbEntity
  8
USP
100
AcDbBlockReference
  2
RT7_S-R
 10
6.79762401245755
 20
0.7503966032906427
 30
0.0000000000000007
  0
ENDSEC
  0
SECTION
  2
OBJECTS
  0
DICTIONARY
  5
AF
330
0
100
AcDbDictionary
281
     1
  3
ACAD_COLOR
350
C6
  3
ACAD_GROUP
350
AD
  3
ACAD_LAYOUT
350
C7
  3
ACAD_MATERIAL
350
C5
  3
ACAD_MLINESTYLE
350
AE
  3
ACAD_PLOTSETTINGS
350
C8
  3
ACAD_PLOTSTYLENAME
350
C3
  3
ACDBHEADERROUNDTRIPXREC
350
D1
  3
AcDbVariableDictionary
350
CD
  0
DICTIONARY
  5
97
330
2
100
AcDbDictionary
280
     1
281
     1
  3
ACAD_LAYOUTSELFREF
360
98
  0
DICTIONARY
  5
9C
330
9B
100
AcDbDictionary
280
     1
281
     1
  3
ACAD_LAYOUTSELFREF
360
9D
  0
DICTIONARY
  5
C6
102
{ACAD_REACTORS
330
AF
102
}
330
AF
100
AcDbDictionary
281
     1
  0
DICTIONARY
  5
AD
102
{ACAD_REACTORS
330
AF
102
}
330
AF
100
AcDbDictionary
281
     1
  0
DICTIONARY
  5
C7
102
{ACAD_REACTORS
330
AF
102
}
330
AF
100
AcDbDictionary
281
     1
  3
Layout1
350
CA
  3
Model
350
C9
  0
DICTIONARY
  5
C5
102
{ACAD_REACTORS
330
AF
102
}
330
AF
100
AcDbDictionary
281
     1
  0
DICTIONARY
  5
AE
102
{ACAD_REACTORS
330
AF
102
}
330
AF
100
AcDbDictionary
281
     1
  3
STANDARD
350
B2
  0
DICTIONARY
  5
C8
102
{ACAD_REACTORS
330
AF
102
}
330
AF
100
AcDbDictionary
281
     1
  0
ACDBDICTIONARYWDFLT
  5
C3
102
{ACAD_REACTORS
330
AF
102
}
330
AF
100
AcDbDictionary
281
     1
  3
Normal
350
C4
100
AcDbDictionaryWithDefault
340
C4
  0
DICTIONARY
  5
D1
102
{ACAD_REACTORS
330
AF
102
}
330
AF
100
AcDbDictionary
281
     1
  3
COLORDICT
350
D3
  3
MATERIALDICT
350
D2
  0
DICTIONARY
  5
CD
102
{ACAD_REACTORS
330
AF
102
}
330
AF
100
AcDbDictionary
281
     1
  3
DIMASSOC
350
CE
  3
PROJECTNAME
350
CF
  0
XRECORD
  5
98
102
{ACAD_REACTORS
330
97
102
}
330
97
100
AcDbXrecord
280
     1
340
2
  0
XRECORD
  5
9D
102
{ACAD_REACTORS
330
9C
102
}
330
9C
100
AcDbXrecord
280
     1
340
9C
  0
LAYOUT
  5
CA
102
{ACAD_XDICTIONARY
360
D6
102
}
102
{ACAD_REACTORS
330
C7
102
}
330
C7
100
AcDbPlotSettings
  1

  2
\\mitk-us-mtg-n28\Office Canon IR C2550
  4

  6

 40
0.0
 41
0.0
 42
0.0
 43
0.0
 44
0.0
 45
0.0
 46
0.0
 47
0.0
 48
0.0
 49
0.0
140
0.0
141
0.0
142
1.0
143
1.0
 70
   688
 72
     0
 73
     0
 74
     5
  7

 75
    16
147
1.0
148
0.0
149
0.0
100
AcDbLayout
  1
Layout1
 70
     0
 71
     1
 10
0.0
 20
0.0
 11
12.0
 21
9.0
 12
0.0
 22
0.0
 32
0.0
 14
1.000000000000000E+20
 24
1.000000000000000E+20
 34
1.000000000000000E+20
 15
-1.000000000000000E+20
 25
-1.000000000000000E+20
 35
-1.000000000000000E+20
146
0.0
 13
0.0
 23
0.0
 33
0.0
 16
1.0
 26
0.0
 36
0.0
 17
0.0
 27
1.0
 37
0.0
 76
     0
330
9B
  0
LAYOUT
  5
C9
102
{ACAD_XDICTIONARY
360
D4
102
}
102
{ACAD_REACTORS
330
C7
102
}
330
C7
100
AcDbPlotSettings
  1

  2
\\mitk-us-mtg-n28\Office Canon IR C2550
  4

  6

 40
0.0
 41
0.0
 42
0.0
 43
0.0
 44
0.0
 45
0.0
 46
0.0
 47
0.0
 48
0.0
 49
0.0
140
0.0
141
0.0
142
1.0
143
1.0
 70
  1712
 72
     0
 73
     0
 74
     0
  7

 75
     0
147
1.0
148
0.0
149
0.0
100
AcDbLayout
  1
Model
 70
     1
 71
     0
 10
0.0
 20
0.0
 11
12.0
 21
9.0
 12
0.0
 22
0.0
 32
0.0
 14
0.0
 24
0.0
 34
0.0
 15
0.0
 25
0.0
 35
0.0
146
0.0
 13
0.0
 23
0.0
 33
0.0
 16
1.0
 26
0.0
 36
0.0
 17
0.0
 27
1.0
 37
0.0
 76
     0
330
2
  0
MLINESTYLE
  5
B2
102
{ACAD_REACTORS
330
AE
102
}
330
AE
100
AcDbMlineStyle
  2
STANDARD
 70
     0
  3

 62
     0
 51
90.0
 52
90.0
 71
     2
 49
0.5
 62
   256
  6
BYLAYER
 49
-0.5
 62
   256
  6
BYLAYER
  0
ACDBPLACEHOLDER
  5
C4
102
{ACAD_REACTORS
330
C3
102
}
330
C3
  0
XRECORD
  5
D3
102
{ACAD_REACTORS
330
D1
102
}
330
D1
100
AcDbXrecord
280
     1
340
C6
  0
XRECORD
  5
D2
102
{ACAD_REACTORS
330
D1
102
}
330
D1
100
AcDbXrecord
280
     1
340
C5
  0
DICTIONARYVAR
  5
CE
102
{ACAD_REACTORS
330
CD
102
}
330
CD
100
DictionaryVariables
280
     0
  1
1
  0
DICTIONARYVAR
  5
CF
102
{ACAD_REACTORS
330
CD
102
}
330
CD
100
DictionaryVariables
280
     0
  1

  0
DICTIONARY
  5
D6
330
CA
100
AcDbDictionary
280
     1
281
     1
  3
ACAD_XREC_ROUNDTRIP
360
D7
  0
DICTIONARY
  5
D4
330
C9
100
AcDbDictionary
280
     1
281
     1
  3
ACAD_XREC_ROUNDTRIP
360
D5
  0
XRECORD
  5
D7
102
{ACAD_REACTORS
330
D6
102
}
330
D6
100
AcDbXrecord
280
     1
102
SHADEPLOT
 70
     0
102
SHADEPLOTRESLEVEL
 70
     2
102
SHADEPLOTCUSTOMDPI
 70
   300
  0
XRECORD
  5
D5
102
{ACAD_REACTORS
330
D4
102
}
330
D4
100
AcDbXrecord
280
     1
102
SHADEPLOT
 70
     0
102
SHADEPLOTRESLEVEL
 70
     2
102
SHADEPLOTCUSTOMDPI
 70
   300
  0
ENDSEC
  0
EOF
