  0
SECTION
  2
HEADER
  9
$ACADVER
  1
AC1014
  9
$ACADMAINTVER
 70
     8
  9
$DWGCODEPAGE
  3
ANSI_1252
  9
$INSBASE
 10
0.0
 20
0.0
 30
0.0
  9
$EXTMIN
 10
0.0001100317665937
 20
0.0004743811691057
 30
0.0
  9
$EXTMAX
 10
10.54844020266482
 20
11.35396252721196
 30
0.0
  9
$LIMMIN
 10
0.0
 20
0.0
  9
$LIMMAX
 10
12.0
 20
9.0
  9
$ORTHOMODE
 70
     1
  9
$REGENMODE
 70
     1
  9
$FILLMODE
 70
     1
  9
$QTEXTMODE
 70
     0
  9
$MIRRTEXT
 70
     0
  9
$DRAGMODE
 70
     2
  9
$LTSCALE
 40
1.5
  9
$OSMODE
 70
     0
  9
$ATTMODE
 70
     1
  9
$TEXTSIZE
 40
0.25
  9
$TRACEWID
 40
0.05
  9
$TEXTSTYLE
  7
STANDARD
  9
$CLAYER
  8
USP
  9
$CELTYPE
  6
BYLAYER
  9
$CECOLOR
 62
   256
  9
$CELTSCALE
 40
1.0
  9
$DELOBJ
 70
     1
  9
$DISPSILH
 70
     1
  9
$DIMSCALE
 40
5.0
  9
$DIMASZ
 40
0.125
  9
$DIMEXO
 40
0.0625
  9
$DIMDLI
 40
0.38
  9
$DIMRND
 40
0.0
  9
$DIMDLE
 40
0.0
  9
$DIMEXE
 40
0.09375
  9
$DIMTP
 40
0.0
  9
$DIMTM
 40
0.0
  9
$DIMTXT
 40
0.109375
  9
$DIMCEN
 40
0.0
  9
$DIMTSZ
 40
0.0
  9
$DIMTOL
 70
     0
  9
$DIMLIM
 70
     0
  9
$DIMTIH
 70
     1
  9
$DIMTOH
 70
     1
  9
$DIMSE1
 70
     0
  9
$DIMSE2
 70
     0
  9
$DIMTAD
 70
     0
  9
$DIMZIN
 70
     8
  9
$DIMBLK
  1

  9
$DIMASO
 70
     1
  9
$DIMSHO
 70
     1
  9
$DIMPOST
  1

  9
$DIMAPOST
  1

  9
$DIMALT
 70
     0
  9
$DIMALTD
 70
     2
  9
$DIMALTF
 40
25.4
  9
$DIMLFAC
 40
1.0
  9
$DIMTOFL
 70
     0
  9
$DIMTVP
 40
0.0
  9
$DIMTIX
 70
     0
  9
$DIMSOXD
 70
     0
  9
$DIMSAH
 70
     0
  9
$DIMBLK1
  1

  9
$DIMBLK2
  1

  9
$DIMSTYLE
  2
STANDARD
  9
$DIMCLRD
 70
   256
  9
$DIMCLRE
 70
   256
  9
$DIMCLRT
 70
   256
  9
$DIMTFAC
 40
1.0
  9
$DIMGAP
 40
0.09
  9
$DIMJUST
 70
     0
  9
$DIMSD1
 70
     0
  9
$DIMSD2
 70
     0
  9
$DIMTOLJ
 70
     1
  9
$DIMTZIN
 70
     0
  9
$DIMALTZ
 70
     0
  9
$DIMALTTZ
 70
     0
  9
$DIMFIT
 70
     3
  9
$DIMUPT
 70
     1
  9
$DIMUNIT
 70
     7
  9
$DIMDEC
 70
     4
  9
$DIMTDEC
 70
     4
  9
$DIMALTU
 70
     2
  9
$DIMALTTD
 70
     2
  9
$DIMTXSTY
  7
STANDARD
  9
$DIMAUNIT
 70
     0
  9
$LUNITS
 70
     5
  9
$LUPREC
 70
     6
  9
$SKETCHINC
 40
0.1
  9
$FILLETRAD
 40
0.0
  9
$AUNITS
 70
     0
  9
$AUPREC
 70
     1
  9
$MENU
  1
CUSTOM
  9
$ELEVATION
 40
0.0
  9
$PELEVATION
 40
0.0
  9
$THICKNESS
 40
0.0
  9
$LIMCHECK
 70
     0
  9
$BLIPMODE
 70
     0
  9
$CHAMFERA
 40
0.0
  9
$CHAMFERB
 40
0.0
  9
$CHAMFERC
 40
0.0
  9
$CHAMFERD
 40
0.0
  9
$SKPOLY
 70
     0
  9
$TDCREATE
 40
2451263.621564698
  9
$TDUPDATE
 40
2453354.906971747
  9
$TDINDWG
 40
1.3048445718
  9
$TDUSRTIMER
 40
1.3048445718
  9
$USRTIMER
 70
     1
  9
$ANGBASE
 50
0.0
  9
$ANGDIR
 70
     0
  9
$PDMODE
 70
     0
  9
$PDSIZE
 40
0.0
  9
$PLINEWID
 40
0.0
  9
$COORDS
 70
     0
  9
$SPLFRAME
 70
     0
  9
$SPLINETYPE
 70
     6
  9
$SPLINESEGS
 70
     8
  9
$ATTDIA
 70
     0
  9
$ATTREQ
 70
     1
  9
$HANDLING
 70
     1
  9
$HANDSEED
  5
137
  9
$SURFTAB1
 70
     6
  9
$SURFTAB2
 70
     6
  9
$SURFTYPE
 70
     6
  9
$SURFU
 70
     6
  9
$SURFV
 70
     6
  9
$UCSNAME
  2

  9
$UCSORG
 10
0.0
 20
0.0
 30
0.0
  9
$UCSXDIR
 10
1.0
 20
0.0
 30
0.0
  9
$UCSYDIR
 10
0.0
 20
1.0
 30
0.0
  9
$PUCSNAME
  2

  9
$PUCSORG
 10
0.0
 20
0.0
 30
0.0
  9
$PUCSXDIR
 10
1.0
 20
0.0
 30
0.0
  9
$PUCSYDIR
 10
0.0
 20
1.0
 30
0.0
  9
$USERI1
 70
     0
  9
$USERI2
 70
     0
  9
$USERI3
 70
     0
  9
$USERI4
 70
     0
  9
$USERI5
 70
     0
  9
$USERR1
 40
0.0
  9
$USERR2
 40
0.0
  9
$USERR3
 40
0.0
  9
$USERR4
 40
0.0
  9
$USERR5
 40
0.0
  9
$WORLDVIEW
 70
     1
  9
$SHADEDGE
 70
     3
  9
$SHADEDIF
 70
    70
  9
$TILEMODE
 70
     1
  9
$MAXACTVP
 70
    16
  9
$PINSBASE
 10
0.0
 20
0.0
 30
0.0
  9
$PLIMCHECK
 70
     0
  9
$PEXTMIN
 10
1.000000000000000E+20
 20
1.000000000000000E+20
 30
1.000000000000000E+20
  9
$PEXTMAX
 10
-1.000000000000000E+20
 20
-1.000000000000000E+20
 30
-1.000000000000000E+20
  9
$PLIMMIN
 10
0.0
 20
0.0
  9
$PLIMMAX
 10
12.0
 20
9.0
  9
$UNITMODE
 70
     0
  9
$VISRETAIN
 70
     0
  9
$PLINEGEN
 70
     0
  9
$PSLTSCALE
 70
     0
  9
$TREEDEPTH
 70
  3020
  9
$PICKSTYLE
 70
     1
  9
$CMLSTYLE
  2
STANDARD
  9
$CMLJUST
 70
     0
  9
$CMLSCALE
 40
1.0
  9
$PROXYGRAPHICS
 70
     1
  9
$MEASUREMENT
 70
     0
  0
ENDSEC
  0
SECTION
  2
CLASSES
  0
CLASS
  1
ACDBDICTIONARYWDFLT
  2
AcDbDictionaryWithDefault
  3
ObjectDBX Classes
 90
        0
280
     0
281
     0
  0
CLASS
  1
ACDBPLACEHOLDER
  2
AcDbPlaceHolder
  3
ObjectDBX Classes
 90
        0
280
     0
281
     0
  0
CLASS
  1
LAYOUT
  2
AcDbLayout
  3
ObjectDBX Classes
 90
        0
280
     0
281
     0
  0
CLASS
  1
DICTIONARYVAR
  2
AcDbDictionaryVar
  3
"AutoCAD"
 90
        0
280
     0
281
     0
  0
CLASS
  1
SORTENTSTABLE
  2
AcDbSortentsTable
  3
"AutoCAD"
 90
        0
280
     0
281
     0
  0
CLASS
  1
XRECORD
  2
AcDbXrecord
  3
"<Built In>"
 90
        0
280
     0
281
     0
  0
ENDSEC
  0
SECTION
  2
TABLES
  0
TABLE
  2
VPORT
  5
125
100
AcDbSymbolTable
 70
     1
  0
VPORT
  5
126
100
AcDbSymbolTableRecord
100
AcDbViewportTableRecord
  2
*ACTIVE
 70
     0
 10
0.0
 20
0.0
 11
1.0
 21
1.0
 12
-17.09621380871637
 22
15.94708545515474
 13
0.0
 23
0.0
 14
1.0
 24
1.0
 15
0.0
 25
0.0
 16
0.0
 26
0.0
 36
1.0
 17
23.09603071721725
 27
-10.27010416511325
 37
-10.44050274849355
 40
11.43683637829297
 41
1.379227053140096
 42
50.0
 43
0.0
 44
0.0
 50
0.0
 51
0.0
 71
     0
 72
   100
 73
     1
 74
     1
 75
     0
 76
     0
 77
     0
 78
     0
  0
ENDTAB
  0
TABLE
  2
LTYPE
  5
120
100
AcDbSymbolTable
 70
     1
  0
LTYPE
  5
121
100
AcDbSymbolTableRecord
100
AcDbLinetypeTableRecord
  2
BYBLOCK
 70
     0
  3

 72
    65
 73
     0
 40
0.0
  0
LTYPE
  5
122
100
AcDbSymbolTableRecord
100
AcDbLinetypeTableRecord
  2
BYLAYER
 70
     0
  3

 72
    65
 73
     0
 40
0.0
  0
LTYPE
  5
5
100
AcDbSymbolTableRecord
100
AcDbLinetypeTableRecord
  2
CONTINUOUS
 70
     0
  3
Solid line
 72
    65
 73
     0
 40
0.0
  0
ENDTAB
  0
TABLE
  2
LAYER
  5
11E
100
AcDbSymbolTable
 70
     5
  0
LAYER
  5
63
100
AcDbSymbolTableRecord
100
AcDbLayerTableRecord
  2
0
 70
     0
 62
     7
  6
CONTINUOUS
  0
LAYER
  5
D
102
{ACAD_XDICTIONARY
360
E
102
}
100
AcDbSymbolTableRecord
100
AcDbLayerTableRecord
  2
USP-GEO
 70
     0
 62
     7
  6
CONTINUOUS
  0
LAYER
  5
8
102
{ACAD_XDICTIONARY
360
9
102
}
100
AcDbSymbolTableRecord
100
AcDbLayerTableRecord
  2
USP-TXT
 70
     0
 62
     7
  6
CONTINUOUS
  0
LAYER
  5
35
102
{ACAD_XDICTIONARY
360
36
102
}
100
AcDbSymbolTableRecord
100
AcDbLayerTableRecord
  2
USP-HID
 70
     0
 62
     7
  6
CONTINUOUS
  0
LAYER
  5
4
100
AcDbSymbolTableRecord
100
AcDbLayerTableRecord
  2
USP
 70
     0
 62
     7
  6
CONTINUOUS
  0
ENDTAB
  0
TABLE
  2
STYLE
  5
11F
100
AcDbSymbolTable
 70
     1
  0
STYLE
  5
B
100
AcDbSymbolTableRecord
100
AcDbTextStyleTableRecord
  2
STANDARD
 70
     0
 40
0.0
 41
1.0
 50
0.0
 71
     0
 42
0.25
  3
txt
  4

  0
ENDTAB
  0
TABLE
  2
VIEW
  5
123
100
AcDbSymbolTable
 70
     0
  0
ENDTAB
  0
TABLE
  2
UCS
  5
124
100
AcDbSymbolTable
 70
     0
  0
ENDTAB
  0
TABLE
  2
APPID
  5
127
100
AcDbSymbolTable
 70
     1
  0
APPID
  5
128
100
AcDbSymbolTableRecord
100
AcDbRegAppTableRecord
  2
ACAD
 70
     0
  0
ENDTAB
  0
TABLE
  2
DIMSTYLE
  5
129
100
AcDbSymbolTable
 70
     1
  0
DIMSTYLE
105
131
102
{ACAD_XDICTIONARY
360
132
102
}
100
AcDbSymbolTableRecord
100
AcDbDimStyleTableRecord
  2
STANDARD
 70
     0
  3

  4

  5

  6

  7

 40
1.0
 41
0.125
 42
0.0625
 43
0.38
 44
0.09375
 45
0.0
 46
0.0
 47
0.0
 48
0.0
140
0.109375
141
0.0
142
0.0
143
25.4
144
1.0
145
0.0
146
1.0
147
0.09
 71
     0
 72
     0
 73
     1
 74
     1
 75
     0
 76
     0
 77
     0
 78
     8
170
     0
171
     2
172
     0
173
     0
174
     0
175
     0
176
     0
177
     0
178
     0
270
     7
271
     4
272
     4
273
     2
274
     2
340
B
275
     0
280
     0
281
     0
282
     0
283
     1
284
     0
285
     0
286
     0
287
     3
288
     0
  0
ENDTAB
  0
TABLE
  2
BLOCK_RECORD
  5
1
100
AcDbSymbolTable
 70
     3
  0
BLOCK_RECORD
  5
2
102
{ACAD_XDICTIONARY
360
115
102
}
100
AcDbSymbolTableRecord
100
AcDbBlockTableRecord
  2
*MODEL_SPACE
  0
BLOCK_RECORD
  5
119
102
{ACAD_XDICTIONARY
360
11A
102
}
100
AcDbSymbolTableRecord
100
AcDbBlockTableRecord
  2
*PAPER_SPACE
  0
BLOCK_RECORD
  5
6
100
AcDbSymbolTableRecord
100
AcDbBlockTableRecord
  2
RT16A_T
  0
BLOCK_RECORD
  5
66
100
AcDbSymbolTableRecord
100
AcDbBlockTableRecord
  2
RT16A_F
  0
BLOCK_RECORD
  5
D1
100
AcDbSymbolTableRecord
100
AcDbBlockTableRecord
  2
RT16A_S
  0
ENDTAB
  0
ENDSEC
  0
SECTION
  2
BLOCKS
  0
BLOCK
  5
117
100
AcDbEntity
  8
0
100
AcDbBlockBegin
  2
*MODEL_SPACE
 70
     0
 10
0.0
 20
0.0
 30
0.0
  3
*MODEL_SPACE
  1

  0
ENDBLK
  5
118
100
AcDbEntity
  8
0
100
AcDbBlockEnd
  0
BLOCK
  5
11C
100
AcDbEntity
 67
     1
  8
0
100
AcDbBlockBegin
  2
*PAPER_SPACE
 70
     0
 10
0.0
 20
0.0
 30
0.0
  3
*PAPER_SPACE
  1

  0
ENDBLK
  5
11D
100
AcDbEntity
 67
     1
  8
0
100
AcDbBlockEnd
  0
BLOCK
  5
62
100
AcDbEntity
  8
0
100
AcDbBlockBegin
  2
RT16A_T
 70
     0
 10
0.0
 20
0.0
 30
0.0
  3
RT16A_T
  1

  0
TEXT
  5
7
100
AcDbEntity
  8
USP-TXT
100
AcDbText
 10
0.5407024826207281
 20
-1.04943875078483
 30
0.0
 40
0.25
  1
RT16A - TOP VIEW
 72
     1
 11
2.499035815954061
 21
-1.04943875078483
 31
0.0
100
AcDbText
  0
LINE
  5
C
100
AcDbEntity
  8
USP-GEO
100
AcDbLine
 10
0.1514946907175041
 20
0.8434999999999774
 30
0.0
 11
0.1514946907175041
 21
0.8174999999999741
 31
0.0
  0
LINE
  5
10
100
AcDbEntity
  8
USP-GEO
100
AcDbLine
 10
1.645141289218285
 20
0.8434999999999774
 30
0.0
 11
1.645141289218285
 21
0.8174999999999741
 31
0.0
  0
LINE
  5
11
100
AcDbEntity
  8
USP-GEO
100
AcDbLine
 10
0.1514946907175041
 20
0.8174999999999741
 30
0.0
 11
0.2064121692450263
 21
0.8174999999999741
 31
0.0
  0
LINE
  5
12
100
AcDbEntity
  8
USP-GEO
100
AcDbLine
 10
1.325058767745821
 20
0.8174999999999741
 30
0.0
 11
1.645141289218281
 21
0.8174999999999741
 31
0.0
  0
LINE
  5
13
100
AcDbEntity
  8
USP-GEO
100
AcDbLine
 10
0.206412169245029
 20
0.8174999999999741
 30
0.0
 11
1.325058767745823
 21
0.8174999999999741
 31
0.0
  0
LINE
  5
14
100
AcDbEntity
  8
USP-GEO
100
AcDbLine
 10
3.290535815954052
 20
0.2499999999999645
 30
0.0
 11
3.290535815954052
 21
-0.0000000000000639
 31
0.0
  0
LINE
  5
15
100
AcDbEntity
  8
USP-GEO
100
AcDbLine
 10
3.342535815954052
 20
-0.0000000000000639
 30
0.0
 11
3.290535815954052
 21
-0.0000000000000639
 31
0.0
  0
LINE
  5
16
100
AcDbEntity
  8
USP-GEO
100
AcDbLine
 10
3.342535815954059
 20
0.2499999999999716
 30
0.0
 11
3.342535815954059
 21
-0.0000000000000586
 31
0.0
  0
LINE
  5
17
100
AcDbEntity
  8
USP-GEO
100
AcDbLine
 10
3.342535815954059
 20
0.2499999999999716
 30
0.0
 11
3.290535815954052
 21
0.2499999999999716
 31
0.0
  0
LINE
  5
18
100
AcDbEntity
  8
USP-GEO
100
AcDbLine
 10
3.342535815954056
 20
0.2499999999999716
 30
0.0
 11
3.342535815954056
 21
0.843499999999981
 31
0.0
  0
LINE
  5
19
100
AcDbEntity
  8
USP-GEO
100
AcDbLine
 10
3.342535815954056
 20
0.8434999999999774
 30
0.0
 11
4.498071631908233
 21
0.8434999999999774
 31
0.0
  0
LINE
  5
1A
100
AcDbEntity
  8
USP-GEO
100
AcDbLine
 10
4.498071631908233
 20
0.8434999999999774
 30
0.0
 11
4.498071631908233
 21
0.895499999999977
 31
0.0
  0
LINE
  5
1B
100
AcDbEntity
  8
USP-GEO
100
AcDbLine
 10
4.498071631908233
 20
0.8954999999999788
 30
0.0
 11
3.290535815954052
 21
0.8954999999999788
 31
0.0
  0
LINE
  5
1C
100
AcDbEntity
  8
USP-GEO
100
AcDbLine
 10
3.290535815954052
 20
0.2499999999999645
 30
0.0
 11
3.290535815954052
 21
0.895499999999977
 31
0.0
  0
LINE
  5
1D
100
AcDbEntity
  8
USP-GEO
100
AcDbLine
 10
3.290535815954052
 20
0.8434999999999703
 30
0.0
 11
1.707535815954068
 21
0.8434999999999703
 31
0.0
  0
LINE
  5
1E
100
AcDbEntity
  8
USP-GEO
100
AcDbLine
 10
0.4999999999998314
 20
0.8434999999999774
 30
0.0
 11
1.655535815954069
 21
0.8434999999999774
 31
0.0
  0
LINE
  5
1F
100
AcDbEntity
  8
USP-GEO
100
AcDbLine
 10
0.4999999999998314
 20
0.8434999999999774
 30
0.0
 11
0.0
 21
0.8434999999999774
 31
0.0
  0
LINE
  5
20
100
AcDbEntity
  8
USP-GEO
100
AcDbLine
 10
4.498071631908226
 20
0.8434999999999774
 30
0.0
 11
4.998071631908205
 21
0.8434999999999774
 31
0.0
  0
LINE
  5
21
100
AcDbEntity
  8
USP-GEO
100
AcDbLine
 10
4.343935815954045
 20
1.022151788597176
 30
0.0
 11
4.343935815954045
 21
0.8954999999999753
 31
0.0
  0
LINE
  5
22
100
AcDbEntity
  8
USP-GEO
100
AcDbLine
 10
4.543935815954062
 20
1.022151788597179
 30
0.0
 11
4.343935815954042
 21
1.022151788597179
 31
0.0
  0
LINE
  5
23
100
AcDbEntity
  8
USP-GEO
100
AcDbLine
 10
4.543935815954062
 20
0.8954999999999895
 30
0.0
 11
4.543935815954062
 21
1.022151788597177
 31
0.0
  0
LINE
  5
24
100
AcDbEntity
  8
USP-GEO
100
AcDbLine
 10
0.4538858159540721
 20
1.022151788597176
 30
0.0
 11
0.4538858159540721
 21
0.8954999999999788
 31
0.0
  0
LINE
  5
25
100
AcDbEntity
  8
USP-GEO
100
AcDbLine
 10
0.6538858159540855
 20
1.022151788597179
 30
0.0
 11
0.4538858159540685
 21
1.022151788597179
 31
0.0
  0
LINE
  5
26
100
AcDbEntity
  8
USP-GEO
100
AcDbLine
 10
0.6538858159540891
 20
0.8954999999999753
 30
0.0
 11
0.6538858159540891
 21
1.022151788597177
 31
0.0
  0
LINE
  5
27
100
AcDbEntity
  8
USP-GEO
100
AcDbLine
 10
0.4999999999998314
 20
0.8954999999999788
 30
0.0
 11
0.0
 21
0.8954999999999788
 31
0.0
  0
LINE
  5
28
100
AcDbEntity
  8
USP-GEO
100
AcDbLine
 10
0.0000000000000018
 20
0.8434999999999774
 30
0.0
 11
0.0000000000000018
 21
0.895499999999977
 31
0.0
  0
LINE
  5
29
100
AcDbEntity
  8
USP-GEO
100
AcDbLine
 10
0.4999999999998314
 20
0.8434999999999774
 30
0.0
 11
0.4999999999998314
 21
0.8954999999999806
 31
0.0
  0
LINE
  5
2A
100
AcDbEntity
  8
USP-GEO
100
AcDbLine
 10
4.998071631908205
 20
0.8434999999999774
 30
0.0
 11
4.998071631908205
 21
0.895499999999977
 31
0.0
  0
LINE
  5
2B
100
AcDbEntity
  8
USP-GEO
100
AcDbLine
 10
4.998071631908206
 20
0.8954999999999788
 30
0.0
 11
4.498071631908227
 21
0.8954999999999788
 31
0.0
  0
LINE
  5
2C
100
AcDbEntity
  8
USP-GEO
100
AcDbLine
 10
3.290535815954054
 20
0.8954999999999788
 30
0.0
 11
1.707535815954068
 21
0.8954999999999788
 31
0.0
  0
LINE
  5
2D
100
AcDbEntity
  8
USP-GEO
100
AcDbLine
 10
1.707535815954068
 20
0.2500000000000302
 30
0.0
 11
1.707535815954068
 21
0.8954999999999788
 31
0.0
  0
LINE
  5
2E
100
AcDbEntity
  8
USP-GEO
100
AcDbLine
 10
1.707535815954072
 20
-0.0000000000000018
 30
0.0
 11
1.707535815954072
 21
0.2500000000000284
 31
0.0
  0
LINE
  5
2F
100
AcDbEntity
  8
USP-GEO
100
AcDbLine
 10
1.655535815954072
 20
0.0
 30
0.0
 11
1.707535815954072
 21
0.0
 31
0.0
  0
LINE
  5
30
100
AcDbEntity
  8
USP-GEO
100
AcDbLine
 10
1.655535815954069
 20
0.2500000000000284
 30
0.0
 11
1.707535815954072
 21
0.2500000000000284
 31
0.0
  0
LINE
  5
31
100
AcDbEntity
  8
USP-GEO
100
AcDbLine
 10
1.655535815954069
 20
0.2500000000000284
 30
0.0
 11
1.655535815954069
 21
0.0
 31
0.0
  0
LINE
  5
32
100
AcDbEntity
  8
USP-GEO
100
AcDbLine
 10
1.655535815954069
 20
0.8434999999999792
 30
0.0
 11
1.655535815954069
 21
0.2500000000000302
 31
0.0
  0
LINE
  5
33
100
AcDbEntity
  8
USP-GEO
100
AcDbLine
 10
0.4999999999998314
 20
0.8954999999999788
 30
0.0
 11
1.707535815954068
 21
0.8954999999999788
 31
0.0
  0
LINE
  5
34
100
AcDbEntity
  8
USP-HID
100
AcDbLine
 10
0.5050480813107559
 20
0.8434999999999703
 30
0.0
 11
0.5050480813107559
 21
0.8174999999999741
 31
0.0
  0
LINE
  5
38
100
AcDbEntity
  8
USP-HID
100
AcDbLine
 10
1.64514128921826
 20
0.8694999999999737
 30
0.0
 11
1.64514128921826
 21
0.895499999999977
 31
0.0
  0
LINE
  5
39
100
AcDbEntity
  8
USP-HID
100
AcDbLine
 10
3.342535815954052
 20
0.264199999999974
 30
0.0
 11
3.29053581595406
 21
0.264199999999974
 31
0.0
  0
LINE
  5
3A
100
AcDbEntity
  8
USP-HID
100
AcDbLine
 10
3.342535815954052
 20
0.4281999999999755
 30
0.0
 11
3.290535815954056
 21
0.4281999999999755
 31
0.0
  0
LINE
  5
3B
100
AcDbEntity
  8
USP-HID
100
AcDbLine
 10
4.846576941190678
 20
0.8434999999999774
 30
0.0
 11
4.846576941190678
 21
0.895499999999977
 31
0.0
  0
LINE
  5
3C
100
AcDbEntity
  8
USP-HID
100
AcDbLine
 10
3.352930342689896
 20
0.8434999999999774
 30
0.0
 11
3.352930342689896
 21
0.895499999999977
 31
0.0
  0
LINE
  5
3D
100
AcDbEntity
  8
USP-HID
100
AcDbLine
 10
3.041071631908184
 20
0.8434999999999774
 30
0.0
 11
3.041071631908184
 21
0.8954999999999788
 31
0.0
  0
LINE
  5
3E
100
AcDbEntity
  8
USP-HID
100
AcDbLine
 10
3.205071631908183
 20
0.8434999999999774
 30
0.0
 11
3.205071631908183
 21
0.895499999999977
 31
0.0
  0
LINE
  5
3F
100
AcDbEntity
  8
USP-HID
100
AcDbLine
 10
4.291071631908123
 20
0.8434999999999703
 30
0.0
 11
4.291071631908123
 21
0.8954999999999753
 31
0.0
  0
LINE
  5
40
100
AcDbEntity
  8
USP-HID
100
AcDbLine
 10
4.455071631908123
 20
0.8434999999999703
 30
0.0
 11
4.455071631908123
 21
0.895499999999977
 31
0.0
  0
LINE
  5
41
100
AcDbEntity
  8
USP-HID
100
AcDbLine
 10
1.792999999999834
 20
0.8434999999999703
 30
0.0
 11
1.792999999999834
 21
0.8954999999999717
 31
0.0
  0
LINE
  5
42
100
AcDbEntity
  8
USP-HID
100
AcDbLine
 10
1.956999999999834
 20
0.8434999999999703
 30
0.0
 11
1.956999999999834
 21
0.895499999999977
 31
0.0
  0
LINE
  5
43
100
AcDbEntity
  8
USP-HID
100
AcDbLine
 10
2.34278581595405
 20
0.8434999999999774
 30
0.0
 11
2.34278581595405
 21
0.8954999999999753
 31
0.0
  0
LINE
  5
44
100
AcDbEntity
  8
USP-HID
100
AcDbLine
 10
2.65528581595405
 20
0.8434999999999774
 30
0.0
 11
2.65528581595405
 21
0.895499999999977
 31
0.0
  0
LINE
  5
45
100
AcDbEntity
  8
USP-HID
100
AcDbLine
 10
4.493023550597404
 20
0.8434999999999774
 30
0.0
 11
4.493023550597404
 21
0.895499999999977
 31
0.0
  0
LINE
  5
46
100
AcDbEntity
  8
USP-HID
100
AcDbLine
 10
0.5429999999998634
 20
0.8434999999999703
 30
0.0
 11
0.5429999999998634
 21
0.8954999999999788
 31
0.0
  0
LINE
  5
47
100
AcDbEntity
  8
USP-HID
100
AcDbLine
 10
0.7069999999998633
 20
0.8434999999999703
 30
0.0
 11
0.7069999999998633
 21
0.895499999999977
 31
0.0
  0
LINE
  5
48
100
AcDbEntity
  8
USP-HID
100
AcDbLine
 10
0.1514946907174757
 20
0.8694999999999737
 30
0.0
 11
0.1514946907174757
 21
0.895499999999977
 31
0.0
  0
LINE
  5
49
100
AcDbEntity
  8
USP-HID
100
AcDbLine
 10
0.5050480813107523
 20
0.8694999999999737
 30
0.0
 11
0.5050480813107523
 21
0.895499999999977
 31
0.0
  0
LINE
  5
4A
100
AcDbEntity
  8
USP-HID
100
AcDbLine
 10
3.436535815954078
 20
0.8434999999999703
 30
0.0
 11
3.436535815954078
 21
0.895499999999977
 31
0.0
  0
LINE
  5
4B
100
AcDbEntity
  8
USP-HID
100
AcDbLine
 10
1.561535815954075
 20
0.8434999999999703
 30
0.0
 11
1.561535815954075
 21
0.895499999999977
 31
0.0
  0
LINE
  5
4C
100
AcDbEntity
  8
USP-HID
100
AcDbLine
 10
1.655535815954072
 20
0.4282000000000395
 30
0.0
 11
1.707535815954072
 21
0.4282000000000395
 31
0.0
  0
LINE
  5
4D
100
AcDbEntity
  8
USP-HID
100
AcDbLine
 10
1.655535815954076
 20
0.264200000000038
 30
0.0
 11
1.707535815954072
 21
0.264200000000038
 31
0.0
  0
LINE
  5
4E
100
AcDbEntity
  8
USP-HID
100
AcDbLine
 10
1.325058767745795
 20
0.8694999999999755
 30
0.0
 11
0.2064121692449757
 21
0.8694999999999755
 31
0.0
  0
LINE
  5
4F
100
AcDbEntity
  8
USP-HID
100
AcDbLine
 10
1.645141289218257
 20
0.8694999999999755
 30
0.0
 11
1.325058767745797
 21
0.8694999999999755
 31
0.0
  0
LINE
  5
50
100
AcDbEntity
  8
USP-HID
100
AcDbLine
 10
0.2064121692450014
 20
0.8694999999999755
 30
0.0
 11
0.1514946907174792
 21
0.8694999999999755
 31
0.0
  0
LINE
  5
51
100
AcDbEntity
  8
USP-HID
100
AcDbLine
 10
1.707535815954068
 20
0.8434999999999703
 30
0.0
 11
1.655535815954069
 21
0.8434999999999703
 31
0.0
  0
LINE
  5
52
100
AcDbEntity
  8
USP-HID
100
AcDbLine
 10
3.342535815954054
 20
0.8434999999999703
 30
0.0
 11
3.290535815954052
 21
0.8434999999999703
 31
0.0
  0
LINE
  5
53
100
AcDbEntity
  8
USP-HID
100
AcDbLine
 10
4.543935815954062
 20
0.9630129473708048
 30
0.0
 11
4.343935815954042
 21
0.9630129473708048
 31
0.0
  0
LINE
  5
54
100
AcDbEntity
  8
USP-HID
100
AcDbLine
 10
0.6538858159540891
 20
0.9630129473708084
 30
0.0
 11
0.4538858159540721
 21
0.9630129473708084
 31
0.0
  0
LINE
  5
55
100
AcDbEntity
  8
USP-HID
100
AcDbLine
 10
0.6538858159540891
 20
0.8434999999999774
 30
0.0
 11
0.6538858159540891
 21
0.895499999999977
 31
0.0
  0
LINE
  5
56
100
AcDbEntity
  8
USP-HID
100
AcDbLine
 10
0.4538858159540721
 20
0.8434999999999703
 30
0.0
 11
0.4538858159540721
 21
0.895499999999977
 31
0.0
  0
LINE
  5
57
100
AcDbEntity
  8
USP-HID
100
AcDbLine
 10
4.554244473819187
 20
0.8434999999999774
 30
0.0
 11
4.554244473819187
 21
0.895499999999977
 31
0.0
  0
LINE
  5
58
100
AcDbEntity
  8
USP-HID
100
AcDbLine
 10
4.443935815954064
 20
0.8434999999999774
 30
0.0
 11
4.443935815954064
 21
0.895499999999977
 31
0.0
  0
LINE
  5
59
100
AcDbEntity
  8
USP-HID
100
AcDbLine
 10
4.333627158088981
 20
0.8434999999999774
 30
0.0
 11
4.333627158088981
 21
0.895499999999977
 31
0.0
  0
LINE
  5
5A
100
AcDbEntity
  8
USP-HID
100
AcDbLine
 10
4.543935815954087
 20
0.8434999999999774
 30
0.0
 11
4.543935815954087
 21
0.895499999999977
 31
0.0
  0
LINE
  5
5B
100
AcDbEntity
  8
USP-HID
100
AcDbLine
 10
4.343935815954045
 20
0.8434999999999774
 30
0.0
 11
4.343935815954045
 21
0.895499999999977
 31
0.0
  0
LINE
  5
5C
100
AcDbEntity
  8
USP-HID
100
AcDbLine
 10
0.4438271580889702
 20
0.8434999999999774
 30
0.0
 11
0.4438271580889702
 21
0.895499999999977
 31
0.0
  0
LINE
  5
5D
100
AcDbEntity
  8
USP-HID
100
AcDbLine
 10
0.6644444738191507
 20
0.8434999999999774
 30
0.0
 11
0.6644444738191507
 21
0.895499999999977
 31
0.0
  0
LINE
  5
5E
100
AcDbEntity
  8
USP-HID
100
AcDbLine
 10
0.5541358159540604
 20
0.8434999999999774
 30
0.0
 11
0.5541358159540604
 21
0.895499999999977
 31
0.0
  0
LINE
  5
5F
100
AcDbEntity
  8
USP-HID
100
AcDbLine
 10
2.249035815954021
 20
0.8434999999999774
 30
0.0
 11
2.249035815954021
 21
0.895499999999977
 31
0.0
  0
LINE
  5
60
100
AcDbEntity
  8
USP-HID
100
AcDbLine
 10
2.499035815954021
 20
0.8434999999999774
 30
0.0
 11
2.499035815954021
 21
0.895499999999977
 31
0.0
  0
LINE
  5
61
100
AcDbEntity
  8
USP-HID
100
AcDbLine
 10
2.749035815954249
 20
0.8434999999999774
 30
0.0
 11
2.749035815954249
 21
0.8954999999999735
 31
0.0
  0
ENDBLK
  5
64
100
AcDbEntity
  8
0
100
AcDbBlockEnd
  0
BLOCK
  5
CE
100
AcDbEntity
  8
0
100
AcDbBlockBegin
  2
RT16A_F
 70
     0
 10
0.0
 20
0.0
 30
0.0
  3
RT16A_F
  1

  0
TEXT
  5
67
100
AcDbEntity
  8
USP-TXT
100
AcDbText
 10
0.2907024826208411
 20
-1.091419411165432
 30
0.0
 40
0.25
  1
RT16A - FRONT VIEW
 72
     1
 11
2.499035815954174
 21
-1.091419411165432
 31
0.0
100
AcDbText
  0
LINE
  5
68
100
AcDbEntity
  8
USP-GEO
100
AcDbLine
 10
1.590223810690903
 20
4.103862019549211
 30
0.0
 11
0.8251306027833631
 21
3.338768811641685
 31
0.0
  0
ARC
  5
69
100
AcDbEntity
  8
USP-GEO
100
AcDbCircle
 10
1.457641289218403
 20
4.236444541021711
 30
0.0
 40
0.1874999999999965
100
AcDbArc
 50
315.0000008537736
 51
135.0000008537697
  0
LINE
  5
6A
100
AcDbEntity
  8
USP-GEO
100
AcDbLine
 10
0.5599655598384188
 20
3.603933854586645
 30
0.0
 11
1.325058767745934
 21
4.369027062494198
 31
0.0
  0
ARC
  5
6B
100
AcDbEntity
  8
USP-GEO
100
AcDbCircle
 10
0.6925480813108878
 20
3.471351333114171
 30
0.0
 40
0.1874999999999965
100
AcDbArc
 50
135.0000008537724
 51
315.0000008537714
  0
ARC
  5
6C
100
AcDbEntity
  8
USP-GEO
100
AcDbCircle
 10
0.3389946907176395
 20
4.392538342688233
 30
0.0
 40
0.1874999999999965
100
AcDbArc
 50
135.0000008537732
 51
315.0000008537714
  0
LINE
  5
6D
100
AcDbEntity
  8
USP-GEO
100
AcDbLine
 10
1.590223810690928
 20
5.378602419716536
 30
0.0
 11
0.4715772121901112
 21
4.259955821215746
 31
0.0
  0
ARC
  5
6E
100
AcDbEntity
  8
USP-GEO
100
AcDbCircle
 10
1.457641289218424
 20
5.511184941189036
 30
0.0
 40
0.1874999999999965
100
AcDbArc
 50
315.0000008537747
 51
135.0000008537686
  0
LINE
  5
6F
100
AcDbEntity
  8
USP-GEO
100
AcDbLine
 10
0.2064121692451679
 20
4.525120864160705
 30
0.0
 11
1.325058767745962
 21
5.643767462661521
 31
0.0
  0
LINE
  5
70
100
AcDbEntity
  8
USP-GEO
100
AcDbLine
 10
3.290535815954191
 20
6.500000000000028
 30
0.0
 11
3.290535815954191
 21
6.25
 31
0.0
  0
LINE
  5
71
100
AcDbEntity
  8
USP-GEO
100
AcDbLine
 10
3.342535815954191
 20
6.250000000000007
 30
0.0
 11
3.290535815954191
 21
6.250000000000007
 31
0.0
  0
LINE
  5
72
100
AcDbEntity
  8
USP-GEO
100
AcDbLine
 10
3.342535815954198
 20
6.500000000000028
 30
0.0
 11
3.342535815954198
 21
6.25
 31
0.0
  0
LINE
  5
73
100
AcDbEntity
  8
USP-GEO
100
AcDbLine
 10
3.342535815954198
 20
6.500000000000028
 30
0.0
 11
3.290535815954191
 21
6.500000000000028
 31
0.0
  0
LINE
  5
74
100
AcDbEntity
  8
USP-GEO
100
AcDbLine
 10
3.290535815954191
 20
6.25
 30
0.0
 11
3.290535815954191
 21
3.124999999999998
 31
0.0
  0
LINE
  5
75
100
AcDbEntity
  8
USP-GEO
100
AcDbLine
 10
3.342535815954195
 20
3.125
 30
0.0
 11
3.290535815954195
 21
3.125
 31
0.0
  0
LINE
  5
76
100
AcDbEntity
  8
USP-GEO
100
AcDbLine
 10
3.342535815954191
 20
6.250000000000007
 30
0.0
 11
3.342535815954191
 21
3.125000000000003
 31
0.0
  0
LINE
  5
77
100
AcDbEntity
  8
USP-GEO
100
AcDbLine
 10
3.342535815954195
 20
6.500000000000014
 30
0.0
 11
4.498071631908372
 21
6.500000000000014
 31
0.0
  0
LINE
  5
78
100
AcDbEntity
  8
USP-GEO
100
AcDbLine
 10
0.453885815954211
 20
2.999377279596277
 30
0.0
 11
0.453885815954211
 21
3.199377279596266
 31
0.0
  0
LINE
  5
79
100
AcDbEntity
  8
USP-GEO
100
AcDbLine
 10
0.453885815954211
 20
3.199377279596266
 30
0.0
 11
0.6538858159542281
 21
3.199377279596294
 31
0.0
  0
LINE
  5
7A
100
AcDbEntity
  8
USP-GEO
100
AcDbLine
 10
0.6538858159542245
 20
3.199377279596294
 30
0.0
 11
0.6538858159542245
 21
2.999377279596279
 31
0.0
  0
LINE
  5
7B
100
AcDbEntity
  8
USP-GEO
100
AcDbLine
 10
0.6538858159542245
 20
2.999377279596281
 30
0.0
 11
0.453885815954211
 21
2.999377279596281
 31
0.0
  0
LINE
  5
7C
100
AcDbEntity
  8
USP-GEO
100
AcDbLine
 10
4.443935815954208
 20
5.389691342134931
 30
0.0
 11
4.333627158089118
 21
5.500000000000035
 31
0.0
  0
LINE
  5
7D
100
AcDbEntity
  8
USP-GEO
100
AcDbLine
 10
4.333627158089118
 20
5.500000000000037
 30
0.0
 11
4.443935815954203
 21
5.610308657865136
 31
0.0
  0
LINE
  5
7E
100
AcDbEntity
  8
USP-GEO
100
AcDbLine
 10
4.443935815954204
 20
5.610308657865133
 30
0.0
 11
4.554244473819323
 21
5.500000000000028
 31
0.0
  0
LINE
  5
7F
100
AcDbEntity
  8
USP-GEO
100
AcDbLine
 10
4.554244473819324
 20
5.500000000000031
 30
0.0
 11
4.443935815954205
 21
5.389691342134926
 31
0.0
  0
LINE
  5
80
100
AcDbEntity
  8
USP-GEO
100
AcDbLine
 10
4.554244473819325
 20
4.000000000000031
 30
0.0
 11
4.443935815954206
 21
3.889691342134925
 31
0.0
  0
LINE
  5
81
100
AcDbEntity
  8
USP-GEO
100
AcDbLine
 10
4.443935815954207
 20
3.889691342134927
 30
0.0
 11
4.333627158089115
 21
4.000000000000032
 31
0.0
  0
LINE
  5
82
100
AcDbEntity
  8
USP-GEO
100
AcDbLine
 10
4.333627158089115
 20
4.000000000000035
 30
0.0
 11
4.443935815954206
 21
4.11030865786514
 31
0.0
  0
LINE
  5
83
100
AcDbEntity
  8
USP-GEO
100
AcDbLine
 10
4.443935815954205
 20
4.110308657865138
 30
0.0
 11
4.554244473819324
 21
4.000000000000032
 31
0.0
  0
LINE
  5
84
100
AcDbEntity
  8
USP-GEO
100
AcDbLine
 10
3.673012864162478
 20
5.64376746266152
 30
0.0
 11
4.791659462663295
 21
4.525120864160731
 31
0.0
  0
ARC
  5
85
100
AcDbEntity
  8
USP-GEO
100
AcDbCircle
 10
4.65907694119082
 20
4.392538342688254
 30
0.0
 40
0.1874999999999965
100
AcDbArc
 50
225.0000008537766
 51
45.00000085377364
  0
LINE
  5
86
100
AcDbEntity
  8
USP-GEO
100
AcDbLine
 10
4.526494419718374
 20
4.259955821215794
 30
0.0
 11
3.407847821217557
 21
5.378602419716583
 31
0.0
  0
ARC
  5
87
100
AcDbEntity
  8
USP-GEO
100
AcDbCircle
 10
3.540430342690032
 20
5.511184941189064
 30
0.0
 40
0.1874999999999965
100
AcDbArc
 50
45.00000085377632
 51
225.0000008537739
  0
LINE
  5
88
100
AcDbEntity
  8
USP-GEO
100
AcDbLine
 10
4.343935815954184
 20
3.199377279596298
 30
0.0
 11
4.543935815954226
 21
3.199377279596298
 31
0.0
  0
LINE
  5
89
100
AcDbEntity
  8
USP-GEO
100
AcDbLine
 10
4.543935815954226
 20
3.199377279596296
 30
0.0
 11
4.543935815954226
 21
2.999377279596281
 31
0.0
  0
LINE
  5
8A
100
AcDbEntity
  8
USP-GEO
100
AcDbLine
 10
4.543935815954226
 20
2.999377279596274
 30
0.0
 11
4.343935815954212
 21
2.999377279596274
 31
0.0
  0
LINE
  5
8B
100
AcDbEntity
  8
USP-GEO
100
AcDbLine
 10
4.343935815954211
 20
2.999377279596277
 30
0.0
 11
4.343935815954183
 21
3.199377279596296
 31
0.0
  0
CIRCLE
  5
8C
100
AcDbEntity
  8
USP-GEO
100
AcDbCircle
 10
3.123071631908322
 20
1.875
 30
0.0
 40
0.082
  0
CIRCLE
  5
8D
100
AcDbEntity
  8
USP-GEO
100
AcDbCircle
 10
4.373071631908262
 20
2.250000000000007
 30
0.0
 40
0.082
  0
CIRCLE
  5
8E
100
AcDbEntity
  8
USP-GEO
100
AcDbCircle
 10
1.874999999999973
 20
2.25
 30
0.0
 40
0.082
  0
CIRCLE
  5
8F
100
AcDbEntity
  8
USP-GEO
100
AcDbCircle
 10
2.499035815954189
 20
1.500000000000014
 30
0.0
 40
0.15625
  0
CIRCLE
  5
90
100
AcDbEntity
  8
USP-GEO
100
AcDbCircle
 10
3.123071631908319
 20
0.3750000000000002
 30
0.0
 40
0.082
  0
CIRCLE
  5
91
100
AcDbEntity
  8
USP-GEO
100
AcDbCircle
 10
4.373071631908318
 20
0.7500000000000002
 30
0.0
 40
0.082
  0
CIRCLE
  5
92
100
AcDbEntity
  8
USP-GEO
100
AcDbCircle
 10
1.875000000000002
 20
0.7500000000000002
 30
0.0
 40
0.082
  0
LINE
  5
93
100
AcDbEntity
  8
USP-GEO
100
AcDbLine
 10
3.67301286416248
 20
4.369027062494174
 30
0.0
 11
4.43810607207002
 21
3.603933854586648
 31
0.0
  0
ARC
  5
94
100
AcDbEntity
  8
USP-GEO
100
AcDbCircle
 10
4.305523550597547
 20
3.471351333114171
 30
0.0
 40
0.1874999999999965
100
AcDbArc
 50
225.0000008537755
 51
45.0000008537744
  0
LINE
  5
95
100
AcDbEntity
  8
USP-GEO
100
AcDbLine
 10
4.172941029125095
 20
3.338768811641711
 30
0.0
 11
3.407847821217554
 21
4.103862019549238
 31
0.0
  0
ARC
  5
96
100
AcDbEntity
  8
USP-GEO
100
AcDbCircle
 10
3.540430342690032
 20
4.236444541021718
 30
0.0
 40
0.1874999999999965
100
AcDbArc
 50
45.00000085377594
 51
225.0000008537736
  0
CIRCLE
  5
97
100
AcDbEntity
  8
USP-GEO
100
AcDbCircle
 10
0.6250000000000023
 20
1.875
 30
0.0
 40
0.082
  0
CIRCLE
  5
98
100
AcDbEntity
  8
USP-GEO
100
AcDbCircle
 10
0.6250000000000307
 20
0.3750000000000002
 30
0.0
 40
0.082
  0
LINE
  5
99
100
AcDbEntity
  8
USP-GEO
100
AcDbLine
 10
0.5541358159541972
 20
5.610308657865134
 30
0.0
 11
0.6644444738192883
 21
5.500000000000029
 31
0.0
  0
LINE
  5
9A
100
AcDbEntity
  8
USP-GEO
100
AcDbLine
 10
0.6644444738192876
 20
5.500000000000035
 30
0.0
 11
0.5541358159541982
 21
5.389691342134931
 31
0.0
  0
LINE
  5
9B
100
AcDbEntity
  8
USP-GEO
100
AcDbLine
 10
0.554135815954199
 20
5.389691342134927
 30
0.0
 11
0.4438271580891087
 21
5.500000000000031
 31
0.0
  0
LINE
  5
9C
100
AcDbEntity
  8
USP-GEO
100
AcDbLine
 10
0.443827158089107
 20
5.500000000000035
 30
0.0
 11
0.5541358159541974
 21
5.610308657865139
 31
0.0
  0
LINE
  5
9D
100
AcDbEntity
  8
USP-GEO
100
AcDbLine
 10
0.4438271580891082
 20
4.000000000000034
 30
0.0
 11
0.5541358159541993
 21
4.110308657865139
 31
0.0
  0
LINE
  5
9E
100
AcDbEntity
  8
USP-GEO
100
AcDbLine
 10
0.5541358159541988
 20
4.110308657865138
 30
0.0
 11
0.6644444738192891
 21
4.000000000000033
 31
0.0
  0
LINE
  5
9F
100
AcDbEntity
  8
USP-GEO
100
AcDbLine
 10
0.6644444738192905
 20
4.000000000000029
 30
0.0
 11
0.5541358159542002
 21
3.889691342134924
 31
0.0
  0
LINE
  5
A0
100
AcDbEntity
  8
USP-GEO
100
AcDbLine
 10
0.5541358159541962
 20
3.889691342134928
 30
0.0
 11
0.4438271580891067
 21
4.000000000000031
 31
0.0
  0
LINE
  5
A1
100
AcDbEntity
  8
USP-GEO
100
AcDbLine
 10
3.374035815954217
 20
3.125000000000014
 30
0.0
 11
3.342535815954191
 21
3.125000000000014
 31
0.0
  0
ARC
  5
A2
100
AcDbEntity
  8
USP-GEO
100
AcDbCircle
 10
3.374035815954217
 20
3.062500000000007
 30
0.0
 40
0.0625
100
AcDbArc
 50
270.0
 51
90.0
  0
LINE
  5
A3
100
AcDbEntity
  8
USP-GEO
100
AcDbLine
 10
3.374035815954217
 20
3.000000000000007
 30
0.0
 11
1.624035815954217
 21
3.000000000000007
 31
0.0
  0
ARC
  5
A4
100
AcDbEntity
  8
USP-GEO
100
AcDbCircle
 10
1.624035815954214
 20
3.0625
 30
0.0
 40
0.0625
100
AcDbArc
 50
89.99999999999674
 51
270.0000000000032
  0
LINE
  5
A5
100
AcDbEntity
  8
USP-GEO
100
AcDbLine
 10
1.655535815954208
 20
3.124999999999999
 30
0.0
 11
1.624035815954217
 21
3.124999999999998
 31
0.0
  0
LINE
  5
A6
100
AcDbEntity
  8
USP-GEO
100
AcDbLine
 10
0.4999999999999703
 20
6.500000000000035
 30
0.0
 11
1.655535815954208
 21
6.500000000000035
 31
0.0
  0
LINE
  5
A7
100
AcDbEntity
  8
USP-GEO
100
AcDbLine
 10
0.4999999999999703
 20
6.500000000000035
 30
0.0
 11
0.0000000000001389
 21
6.000000000000204
 31
0.0
  0
LINE
  5
A8
100
AcDbEntity
  8
USP-GEO
100
AcDbLine
 10
0.0000000000001407
 20
6.000000000000198
 30
0.0
 11
0.0
 21
0.5000000000000002
 31
0.0
  0
LINE
  5
A9
100
AcDbEntity
  8
USP-GEO
100
AcDbLine
 10
0.5000000000000156
 20
-0.0000000000000131
 30
0.0
 11
0.0000000000000012
 21
0.5000000000000011
 31
0.0
  0
LINE
  5
AA
100
AcDbEntity
  8
USP-GEO
100
AcDbLine
 10
2.24903581595416
 20
0.0000000000000002
 30
0.0
 11
0.5000000000000307
 21
0.0
 31
0.0
  0
LINE
  5
AB
100
AcDbEntity
  8
USP-GEO
100
AcDbLine
 10
2.24903581595416
 20
0.0000000000002134
 30
0.0
 11
2.499035815954174
 21
0.2500000000002267
 31
0.0
  0
LINE
  5
AC
100
AcDbEntity
  8
USP-GEO
100
AcDbLine
 10
2.749035815954394
 20
0.0000000000000082
 30
0.0
 11
2.49903581595416
 21
0.2500000000002418
 31
0.0
  0
LINE
  5
AD
100
AcDbEntity
  8
USP-GEO
100
AcDbLine
 10
4.498071631908375
 20
0.0000000000000144
 30
0.0
 11
2.749035815954388
 21
0.0
 31
0.0
  0
LINE
  5
AE
100
AcDbEntity
  8
USP-GEO
100
AcDbLine
 10
4.498071631908375
 20
0.0000000000000002
 30
0.0
 11
4.99807163190834
 21
0.499999999999965
 31
0.0
  0
LINE
  5
AF
100
AcDbEntity
  8
USP-GEO
100
AcDbLine
 10
4.998071631908375
 20
6.000000000000028
 30
0.0
 11
4.998071631908348
 21
0.4999999999999567
 31
0.0
  0
LINE
  5
B0
100
AcDbEntity
  8
USP-GEO
100
AcDbLine
 10
4.498071631908365
 20
6.500000000000007
 30
0.0
 11
4.998071631908343
 21
6.000000000000028
 31
0.0
  0
LINE
  5
B1
100
AcDbEntity
  8
USP-GEO
100
AcDbLine
 10
4.543935815954201
 20
3.086169506011628
 30
0.0
 11
4.343935815954184
 21
3.086169506011628
 31
0.0
  0
LINE
  5
B2
100
AcDbEntity
  8
USP-GEO
100
AcDbLine
 10
4.543935815954201
 20
3.000000000000028
 30
0.0
 11
4.34393581595418
 21
3.000000000000028
 31
0.0
  0
LINE
  5
B3
100
AcDbEntity
  8
USP-GEO
100
AcDbLine
 10
0.6538858159542281
 20
3.0861695060116
 30
0.0
 11
0.453885815954211
 21
3.0861695060116
 31
0.0
  0
LINE
  5
B4
100
AcDbEntity
  8
USP-GEO
100
AcDbLine
 10
0.6538858159542281
 20
3.0
 30
0.0
 11
0.453885815954211
 21
3.0
 31
0.0
  0
LINE
  5
B5
100
AcDbEntity
  8
USP-GEO
100
AcDbLine
 10
1.655535815954211
 20
3.125
 30
0.0
 11
1.707535815954211
 21
3.125
 31
0.0
  0
LINE
  5
B6
100
AcDbEntity
  8
USP-GEO
100
AcDbLine
 10
1.707535815954211
 20
6.250000000000005
 30
0.0
 11
1.707535815954211
 21
6.500000000000035
 31
0.0
  0
LINE
  5
B7
100
AcDbEntity
  8
USP-GEO
100
AcDbLine
 10
1.707535815954211
 20
3.125
 30
0.0
 11
1.70753581595421
 21
6.250000000000001
 31
0.0
  0
LINE
  5
B8
100
AcDbEntity
  8
USP-GEO
100
AcDbLine
 10
1.655535815954211
 20
6.250000000000007
 30
0.0
 11
1.707535815954211
 21
6.250000000000007
 31
0.0
  0
LINE
  5
B9
100
AcDbEntity
  8
USP-GEO
100
AcDbLine
 10
1.655535815954211
 20
3.125
 30
0.0
 11
1.65553581595421
 21
6.250000000000001
 31
0.0
  0
LINE
  5
BA
100
AcDbEntity
  8
USP-GEO
100
AcDbLine
 10
1.655535815954208
 20
6.500000000000028
 30
0.0
 11
1.707535815954211
 21
6.500000000000028
 31
0.0
  0
LINE
  5
BB
100
AcDbEntity
  8
USP-GEO
100
AcDbLine
 10
1.655535815954208
 20
6.500000000000028
 30
0.0
 11
1.655535815954208
 21
6.250000000000001
 31
0.0
  0
LINE
  5
BC
100
AcDbEntity
  8
USP-HID
100
AcDbLine
 10
3.342535815954195
 20
3.793000000000014
 30
0.0
 11
3.290535815954195
 21
3.793000000000014
 31
0.0
  0
LINE
  5
BD
100
AcDbEntity
  8
USP-HID
100
AcDbLine
 10
3.342535815954195
 20
3.957000000000014
 30
0.0
 11
3.290535815954195
 21
3.957000000000014
 31
0.0
  0
LINE
  5
BE
100
AcDbEntity
  8
USP-HID
100
AcDbLine
 10
3.342535815954195
 20
4.543000000000014
 30
0.0
 11
3.290535815954195
 21
4.543000000000014
 31
0.0
  0
LINE
  5
BF
100
AcDbEntity
  8
USP-HID
100
AcDbLine
 10
3.342535815954195
 20
4.707000000000014
 30
0.0
 11
3.290535815954195
 21
4.707000000000014
 31
0.0
  0
LINE
  5
C0
100
AcDbEntity
  8
USP-HID
100
AcDbLine
 10
3.342535815954195
 20
5.293000000000021
 30
0.0
 11
3.290535815954195
 21
5.293000000000021
 31
0.0
  0
LINE
  5
C1
100
AcDbEntity
  8
USP-HID
100
AcDbLine
 10
3.342535815954195
 20
5.457000000000021
 30
0.0
 11
3.290535815954195
 21
5.457000000000021
 31
0.0
  0
LINE
  5
C2
100
AcDbEntity
  8
USP-HID
100
AcDbLine
 10
3.342535815954191
 20
6.043000000000014
 30
0.0
 11
3.290535815954195
 21
6.043000000000014
 31
0.0
  0
LINE
  5
C3
100
AcDbEntity
  8
USP-HID
100
AcDbLine
 10
3.342535815954191
 20
6.207000000000014
 30
0.0
 11
3.290535815954195
 21
6.207000000000014
 31
0.0
  0
LINE
  5
C4
100
AcDbEntity
  8
USP-HID
100
AcDbLine
 10
1.655535815954211
 20
3.582000000000014
 30
0.0
 11
1.707535815954211
 21
3.582000000000014
 31
0.0
  0
LINE
  5
C5
100
AcDbEntity
  8
USP-HID
100
AcDbLine
 10
1.655535815954211
 20
3.418000000000014
 30
0.0
 11
1.707535815954211
 21
3.418000000000014
 31
0.0
  0
LINE
  5
C6
100
AcDbEntity
  8
USP-HID
100
AcDbLine
 10
1.655535815954211
 20
4.332000000000014
 30
0.0
 11
1.707535815954214
 21
4.332000000000014
 31
0.0
  0
LINE
  5
C7
100
AcDbEntity
  8
USP-HID
100
AcDbLine
 10
1.655535815954211
 20
4.168000000000014
 30
0.0
 11
1.707535815954214
 21
4.168000000000014
 31
0.0
  0
LINE
  5
C8
100
AcDbEntity
  8
USP-HID
100
AcDbLine
 10
1.655535815954211
 20
5.082000000000014
 30
0.0
 11
1.707535815954211
 21
5.082000000000014
 31
0.0
  0
LINE
  5
C9
100
AcDbEntity
  8
USP-HID
100
AcDbLine
 10
1.655535815954211
 20
4.918000000000014
 30
0.0
 11
1.707535815954211
 21
4.918000000000014
 31
0.0
  0
LINE
  5
CA
100
AcDbEntity
  8
USP-HID
100
AcDbLine
 10
1.655535815954211
 20
5.832000000000014
 30
0.0
 11
1.707535815954211
 21
5.832000000000014
 31
0.0
  0
LINE
  5
CB
100
AcDbEntity
  8
USP-HID
100
AcDbLine
 10
1.655535815954211
 20
5.668000000000014
 30
0.0
 11
1.707535815954211
 21
5.668000000000014
 31
0.0
  0
LINE
  5
CC
100
AcDbEntity
  8
USP-HID
100
AcDbLine
 10
4.543935815954201
 20
3.043243227036896
 30
0.0
 11
4.34393581595418
 21
3.043243227036896
 31
0.0
  0
LINE
  5
CD
100
AcDbEntity
  8
USP-HID
100
AcDbLine
 10
0.6538858159542245
 20
3.043243227036867
 30
0.0
 11
0.4538858159542074
 21
3.043243227036867
 31
0.0
  0
ENDBLK
  5
CF
100
AcDbEntity
  8
0
100
AcDbBlockEnd
  0
BLOCK
  5
113
100
AcDbEntity
  8
0
100
AcDbBlockBegin
  2
RT16A_S
 70
     0
 10
0.0
 20
0.0
 30
0.0
  3
RT16A_S
  1

  0
TEXT
  5
D2
100
AcDbEntity
  8
USP-TXT
100
AcDbText
 10
-1.619916666666662
 20
-1.091419411165432
 30
0.0
 40
0.25
  1
RT16A - SIDE VIEW
 72
     1
 11
0.4217500000000048
 21
-1.091419411165432
 31
0.0
100
AcDbText
  0
CIRCLE
  5
D3
100
AcDbEntity
  8
USP-GEO
100
AcDbCircle
 10
0.3462000000000085
 20
3.875000000000014
 30
0.0
 40
0.082
  0
CIRCLE
  5
D4
100
AcDbEntity
  8
USP-GEO
100
AcDbCircle
 10
0.3462000000000085
 20
4.625000000000014
 30
0.0
 40
0.082
  0
CIRCLE
  5
D5
100
AcDbEntity
  8
USP-GEO
100
AcDbCircle
 10
0.3462000000000085
 20
5.375000000000021
 30
0.0
 40
0.082
  0
CIRCLE
  5
D6
100
AcDbEntity
  8
USP-GEO
100
AcDbCircle
 10
0.346200000000012
 20
6.125000000000014
 30
0.0
 40
0.082
  0
LINE
  5
D7
100
AcDbEntity
  8
USP-GEO
100
AcDbLine
 10
0.2500000000000018
 20
6.500000000000028
 30
0.0
 11
-0.0000000000000266
 21
6.25
 31
0.0
  0
LINE
  5
D8
100
AcDbEntity
  8
USP-GEO
100
AcDbLine
 10
-0.0000000000000266
 20
6.250000000000007
 30
0.0
 11
0.0
 21
3.125000000000003
 31
0.0
  0
LINE
  5
D9
100
AcDbEntity
  8
USP-GEO
100
AcDbLine
 10
0.2500000000000018
 20
6.5
 30
0.0
 11
0.8435000000000112
 21
6.500000000000014
 31
0.0
  0
LINE
  5
DA
100
AcDbEntity
  8
USP-GEO
100
AcDbLine
 10
0.8435000000000076
 20
3.125000000000013
 30
0.0
 11
0.0000000000000018
 21
3.125
 31
0.0
  0
LINE
  5
DB
100
AcDbEntity
  8
USP-GEO
100
AcDbLine
 10
0.8435000000000112
 20
6.500000000000014
 30
0.0
 11
0.8955000000000108
 21
6.500000000000014
 31
0.0
  0
LINE
  5
DC
100
AcDbEntity
  8
USP-GEO
100
AcDbLine
 10
0.8435000000000112
 20
0.0
 30
0.0
 11
0.8435000000000112
 21
0.4999999999999647
 31
0.0
  0
LINE
  5
DD
100
AcDbEntity
  8
USP-GEO
100
AcDbLine
 10
0.8435000000000112
 20
6.000000000000028
 30
0.0
 11
0.8435000000000094
 21
0.4999999999999565
 31
0.0
  0
LINE
  5
DE
100
AcDbEntity
  8
USP-GEO
100
AcDbLine
 10
0.8435000000000112
 20
6.500000000000007
 30
0.0
 11
0.8435000000000112
 21
6.000000000000028
 31
0.0
  0
LINE
  5
DF
100
AcDbEntity
  8
USP-GEO
100
AcDbLine
 10
0.8955000000000072
 20
3.086169506011628
 30
0.0
 11
0.9630129473708386
 21
3.000000000000026
 31
0.0
  0
LINE
  5
E0
100
AcDbEntity
  8
USP-GEO
100
AcDbLine
 10
0.9630129473708404
 20
3.000000000000028
 30
0.0
 11
1.022151788597211
 21
3.043243227036896
 31
0.0
  0
LINE
  5
E1
100
AcDbEntity
  8
USP-GEO
100
AcDbLine
 10
0.895500000000025
 20
3.199377279596302
 30
0.0
 11
1.022151788597211
 21
3.043243227036896
 31
0.0
  0
LINE
  5
E2
100
AcDbEntity
  8
USP-GEO
100
AcDbLine
 10
0.8435000000000112
 20
0.0
 30
0.0
 11
0.8955000000000072
 21
0.0
 31
0.0
  0
LINE
  5
E3
100
AcDbEntity
  8
USP-GEO
100
AcDbLine
 10
0.8955000000000072
 20
0.0
 30
0.0
 11
0.8955000000000072
 21
0.4999999999999638
 31
0.0
  0
LINE
  5
E4
100
AcDbEntity
  8
USP-GEO
100
AcDbLine
 10
0.8435000000000112
 20
0.4999999999999574
 30
0.0
 11
0.8955000000000072
 21
0.4999999999999574
 31
0.0
  0
LINE
  5
E5
100
AcDbEntity
  8
USP-GEO
100
AcDbLine
 10
0.895500000000009
 20
0.4999999999999565
 30
0.0
 11
0.8955000000000108
 21
6.000000000000028
 31
0.0
  0
LINE
  5
E6
100
AcDbEntity
  8
USP-GEO
100
AcDbLine
 10
0.8435000000000112
 20
6.000000000000028
 30
0.0
 11
0.8955000000000108
 21
6.000000000000028
 31
0.0
  0
LINE
  5
E7
100
AcDbEntity
  8
USP-GEO
100
AcDbLine
 10
0.8955000000000108
 20
6.000000000000034
 30
0.0
 11
0.8955000000000108
 21
6.500000000000013
 31
0.0
  0
LINE
  5
E8
100
AcDbEntity
  8
USP-HID
100
AcDbLine
 10
0.8435000000000112
 20
4.423944541021707
 30
0.0
 11
0.8175000000000078
 21
4.423944541021707
 31
0.0
  0
LINE
  5
E9
100
AcDbEntity
  8
USP-HID
100
AcDbLine
 10
0.8435000000000041
 20
3.283851333114174
 30
0.0
 11
0.8175000000000078
 21
3.283851333114174
 31
0.0
  0
LINE
  5
EA
100
AcDbEntity
  8
USP-HID
100
AcDbLine
 10
0.8435000000000112
 20
4.205038342688236
 30
0.0
 11
0.8175000000000078
 21
4.205038342688236
 31
0.0
  0
LINE
  5
EB
100
AcDbEntity
  8
USP-HID
100
AcDbLine
 10
0.8435000000000112
 20
5.698684941189032
 30
0.0
 11
0.8175000000000078
 21
5.698684941189032
 31
0.0
  0
LINE
  5
EC
100
AcDbEntity
  8
USP-HID
100
AcDbLine
 10
0.8435000000000076
 20
4.205038342688258
 30
0.0
 11
0.8955000000000072
 21
4.205038342688258
 31
0.0
  0
LINE
  5
ED
100
AcDbEntity
  8
USP-HID
100
AcDbLine
 10
0.8435000000000112
 20
5.69868494118906
 30
0.0
 11
0.8955000000000108
 21
5.69868494118906
 31
0.0
  0
LINE
  5
EE
100
AcDbEntity
  8
USP-HID
100
AcDbLine
 10
0.8435000000000076
 20
1.956999999999999
 30
0.0
 11
0.8955000000000108
 21
1.956999999999999
 31
0.0
  0
LINE
  5
EF
100
AcDbEntity
  8
USP-HID
100
AcDbLine
 10
0.8435000000000076
 20
1.793
 30
0.0
 11
0.8955000000000108
 21
1.793
 31
0.0
  0
LINE
  5
F0
100
AcDbEntity
  8
USP-HID
100
AcDbLine
 10
0.8435000000000076
 20
2.332000000000006
 30
0.0
 11
0.8955000000000072
 21
2.332000000000006
 31
0.0
  0
LINE
  5
F1
100
AcDbEntity
  8
USP-HID
100
AcDbLine
 10
0.8435000000000076
 20
2.168000000000007
 30
0.0
 11
0.8955000000000072
 21
2.168000000000007
 31
0.0
  0
LINE
  5
F2
100
AcDbEntity
  8
USP-HID
100
AcDbLine
 10
0.8435000000000112
 20
1.656250000000014
 30
0.0
 11
0.8955000000000108
 21
1.656250000000014
 31
0.0
  0
LINE
  5
F3
100
AcDbEntity
  8
USP-HID
100
AcDbLine
 10
0.8435000000000112
 20
1.343750000000014
 30
0.0
 11
0.8955000000000108
 21
1.343750000000014
 31
0.0
  0
LINE
  5
F4
100
AcDbEntity
  8
USP-HID
100
AcDbLine
 10
0.8435000000000112
 20
0.4570000000000001
 30
0.0
 11
0.8955000000000072
 21
0.4570000000000001
 31
0.0
  0
LINE
  5
F5
100
AcDbEntity
  8
USP-HID
100
AcDbLine
 10
0.8435000000000112
 20
0.2929999999999999
 30
0.0
 11
0.8955000000000072
 21
0.2929999999999999
 31
0.0
  0
LINE
  5
F6
100
AcDbEntity
  8
USP-HID
100
AcDbLine
 10
0.8435000000000112
 20
0.832
 30
0.0
 11
0.8955000000000072
 21
0.832
 31
0.0
  0
LINE
  5
F7
100
AcDbEntity
  8
USP-HID
100
AcDbLine
 10
0.8435000000000112
 20
0.668
 30
0.0
 11
0.8955000000000072
 21
0.668
 31
0.0
  0
LINE
  5
F8
100
AcDbEntity
  8
USP-HID
100
AcDbLine
 10
0.8435000000000076
 20
3.283851333114174
 30
0.0
 11
0.8955000000000108
 21
3.283851333114174
 31
0.0
  0
LINE
  5
F9
100
AcDbEntity
  8
USP-HID
100
AcDbLine
 10
0.8435000000000076
 20
4.423944541021715
 30
0.0
 11
0.8955000000000072
 21
4.423944541021715
 31
0.0
  0
LINE
  5
FA
100
AcDbEntity
  8
USP-HID
100
AcDbLine
 10
0.8175000000000078
 20
4.103862019549211
 30
0.0
 11
0.8175000000000078
 21
3.338768811641685
 31
0.0
  0
LINE
  5
FB
100
AcDbEntity
  8
USP-HID
100
AcDbLine
 10
0.8175000000000078
 20
4.423944541021707
 30
0.0
 11
0.8175000000000078
 21
4.103862019549236
 31
0.0
  0
LINE
  5
FC
100
AcDbEntity
  8
USP-HID
100
AcDbLine
 10
0.8175000000000078
 20
3.338768811641692
 30
0.0
 11
0.8175000000000078
 21
3.283851333114174
 31
0.0
  0
LINE
  5
FD
100
AcDbEntity
  8
USP-HID
100
AcDbLine
 10
0.8695000000000074
 20
3.283851333114174
 30
0.0
 11
0.8695000000000074
 21
3.33876881164169
 31
0.0
  0
LINE
  5
FE
100
AcDbEntity
  8
USP-HID
100
AcDbLine
 10
0.8695000000000074
 20
4.103862019549236
 30
0.0
 11
0.8695000000000074
 21
4.423944541021707
 31
0.0
  0
LINE
  5
FF
100
AcDbEntity
  8
USP-HID
100
AcDbLine
 10
0.8695000000000074
 20
3.338768811641687
 30
0.0
 11
0.8695000000000074
 21
4.103862019549213
 31
0.0
  0
LINE
  5
100
100
AcDbEntity
  8
USP-HID
100
AcDbLine
 10
0.8175000000000078
 20
5.378602419716537
 30
0.0
 11
0.8175000000000078
 21
4.423944541021707
 31
0.0
  0
LINE
  5
101
100
AcDbEntity
  8
USP-HID
100
AcDbLine
 10
0.8175000000000078
 20
5.698684941189032
 30
0.0
 11
0.8175000000000078
 21
5.378602419716564
 31
0.0
  0
LINE
  5
102
100
AcDbEntity
  8
USP-HID
100
AcDbLine
 10
0.8695000000000074
 20
5.378602419716584
 30
0.0
 11
0.8695000000000074
 21
5.698684941189053
 31
0.0
  0
LINE
  5
103
100
AcDbEntity
  8
USP-HID
100
AcDbLine
 10
0.8695000000000074
 20
4.423944541021707
 30
0.0
 11
0.8695000000000074
 21
5.378602419716561
 31
0.0
  0
LINE
  5
104
100
AcDbEntity
  8
USP-HID
100
AcDbLine
 10
0.8435000000000112
 20
5.500000000000035
 30
0.0
 11
0.8955000000000108
 21
5.500000000000035
 31
0.0
  0
LINE
  5
105
100
AcDbEntity
  8
USP-HID
100
AcDbLine
 10
0.8435000000000076
 20
5.610308657865132
 30
0.0
 11
0.8955000000000072
 21
5.610308657865132
 31
0.0
  0
LINE
  5
106
100
AcDbEntity
  8
USP-HID
100
AcDbLine
 10
0.8435000000000076
 20
5.389691342134923
 30
0.0
 11
0.8955000000000072
 21
5.389691342134923
 31
0.0
  0
LINE
  5
107
100
AcDbEntity
  8
USP-HID
100
AcDbLine
 10
0.8435000000000112
 20
4.110308657865139
 30
0.0
 11
0.8955000000000108
 21
4.110308657865139
 31
0.0
  0
LINE
  5
108
100
AcDbEntity
  8
USP-HID
100
AcDbLine
 10
0.8435000000000076
 20
3.889691342134923
 30
0.0
 11
0.8955000000000108
 21
3.889691342134923
 31
0.0
  0
LINE
  5
109
100
AcDbEntity
  8
USP-HID
100
AcDbLine
 10
0.8435000000000112
 20
4.000000000000035
 30
0.0
 11
0.8955000000000108
 21
4.000000000000035
 31
0.0
  0
LINE
  5
10A
100
AcDbEntity
  8
USP-HID
100
AcDbLine
 10
0.8435000000000076
 20
2.999377279596281
 30
0.0
 11
0.8955000000000072
 21
2.999377279596281
 31
0.0
  0
LINE
  5
10B
100
AcDbEntity
  8
USP-HID
100
AcDbLine
 10
0.8435000000000076
 20
3.199377279596291
 30
0.0
 11
0.8955000000000108
 21
3.199377279596291
 31
0.0
  0
LINE
  5
10C
100
AcDbEntity
  8
USP-HID
100
AcDbLine
 10
0.8435000000000076
 20
0.2500000000002416
 30
0.0
 11
0.8955000000000072
 21
0.2500000000002416
 31
0.0
  0
LINE
  5
10D
100
AcDbEntity
  8
USP-HID
100
AcDbLine
 10
0.8435000000000076
 20
3.125000000000007
 30
0.0
 11
0.8955000000000108
 21
3.125000000000007
 31
0.0
  0
LINE
  5
10E
100
AcDbEntity
  8
USP-HID
100
AcDbLine
 10
0.8435000000000076
 20
3.000000000000007
 30
0.0
 11
0.8955000000000108
 21
3.000000000000007
 31
0.0
  0
CIRCLE
  5
10F
100
AcDbEntity
  8
USP-HID
100
AcDbCircle
 10
0.3462000000000724
 20
5.750000000000014
 30
0.0
 40
0.082
  0
CIRCLE
  5
110
100
AcDbEntity
  8
USP-HID
100
AcDbCircle
 10
0.3462000000000724
 20
5.000000000000014
 30
0.0
 40
0.082
  0
CIRCLE
  5
111
100
AcDbEntity
  8
USP-HID
100
AcDbCircle
 10
0.3462000000000724
 20
4.250000000000014
 30
0.0
 40
0.082
  0
CIRCLE
  5
112
100
AcDbEntity
  8
USP-HID
100
AcDbCircle
 10
0.3462000000000724
 20
3.500000000000014
 30
0.0
 40
0.082
  0
ENDBLK
  5
114
100
AcDbEntity
  8
0
100
AcDbBlockEnd
  0
ENDSEC
  0
SECTION
  2
ENTITIES
  0
INSERT
  5
3
100
AcDbEntity
  8
USP
100
AcDbBlockReference
  2
RT16A_T
 10
0.0001100317667326
 20
10.33181073861478
 30
0.0
  0
INSERT
  5
65
100
AcDbEntity
  8
USP
100
AcDbBlockReference
  2
RT16A_F
 10
0.0001100317665937
 20
1.091893792334537
 30
0.0
  0
INSERT
  5
D0
100
AcDbEntity
  8
USP
100
AcDbBlockReference
  2
RT16A_S
 10
8.085023535998145
 20
1.091893792334538
 30
0.0
  0
ENDSEC
  0
SECTION
  2
OBJECTS
  0
DICTIONARY
  5
12D
102
{ACAD_XDICTIONARY
360
12E
102
}
100
AcDbDictionary
  3
ACAD_GROUP
350
12B
  3
ACAD_MLINESTYLE
350
12C
  0
DICTIONARY
  5
E
100
AcDbDictionary
280
     1
  3
ACAD_XREC_ROUNDTRIP
360
F
  0
DICTIONARY
  5
9
100
AcDbDictionary
280
     1
  3
ACAD_XREC_ROUNDTRIP
360
A
  0
DICTIONARY
  5
36
100
AcDbDictionary
280
     1
  3
ACAD_XREC_ROUNDTRIP
360
37
  0
DICTIONARY
  5
132
100
AcDbDictionary
280
     1
  3
ACAD_XREC_ROUNDTRIP
360
133
  0
DICTIONARY
  5
115
100
AcDbDictionary
280
     1
  3
ACAD_LAYOUTSELFREF
360
116
  0
DICTIONARY
  5
11A
100
AcDbDictionary
280
     1
  3
ACAD_LAYOUTSELFREF
360
11B
  0
DICTIONARY
  5
12E
100
AcDbDictionary
280
     1
  3
ACAD_XREC_ROUNDTRIP
360
12F
  0
DICTIONARY
  5
12B
102
{ACAD_REACTORS
330
12D
102
}
100
AcDbDictionary
  0
DICTIONARY
  5
12C
102
{ACAD_REACTORS
330
12D
102
}
100
AcDbDictionary
  3
STANDARD
350
130
  0
XRECORD
  5
F
102
{ACAD_REACTORS
330
E
102
}
100
AcDbXrecord
102
EXTNAMES
  1
USP-GEO
  2
USP-Geo
  0
XRECORD
  5
A
102
{ACAD_REACTORS
330
9
102
}
100
AcDbXrecord
102
EXTNAMES
  1
USP-TXT
  2
USP-Txt
  0
XRECORD
  5
37
102
{ACAD_REACTORS
330
36
102
}
100
AcDbXrecord
102
EXTNAMES
  1
USP-HID
  2
USP-Hid
  0
XRECORD
  5
133
102
{ACAD_REACTORS
330
132
102
}
100
AcDbXrecord
102
ACADR14ROUNDTRIP
1000
DSTYLE
1002
{
1070
   276
 70
     2
1070
   277
 70
     5
1002
}
  0
XRECORD
  5
116
102
{ACAD_REACTORS
330
115
102
}
100
AcDbXrecord
340
18
  0
XRECORD
  5
11B
102
{ACAD_REACTORS
330
11A
102
}
100
AcDbXrecord
340
15
  0
XRECORD
  5
12F
102
{ACAD_REACTORS
330
12E
102
}
100
AcDbXrecord
102
EXTNAMES
  1
ACADDIM
  2
AcadDim
  1
ACDBVARIABLEDICTIONARY
  2
AcDbVariableDictionary
  1
AUXHDRRNDTRIPDATA
  2
AuxHdrRndTripData
  0
MLINESTYLE
  5
130
102
{ACAD_REACTORS
330
12C
102
}
100
AcDbMlineStyle
  2
STANDARD
 70
     0
  3

 62
     0
 51
90.0
 52
90.0
 71
     2
 49
0.5
 62
   256
  6
BYLAYER
 49
-0.5
 62
   256
  6
BYLAYER
  0
ENDSEC
  0
EOF
