  0
SECTION
  2
HEADER
  9
$ACADVER
  1
AC1014
  9
$ACADMAINTVER
 70
     8
  9
$DWGCODEPAGE
  3
ANSI_1252
  9
$INSBASE
 10
0.0
 20
0.0
 30
0.0
  9
$EXTMIN
 10
-0.2345992387328503
 20
0.0004752130170047
 30
0.0
  9
$EXTMAX
 10
16.34135789390396
 20
15.61216881586812
 30
0.0
  9
$LIMMIN
 10
0.0
 20
0.0
  9
$LIMMAX
 10
12.0
 20
9.0
  9
$ORTHOMODE
 70
     1
  9
$REGENMODE
 70
     1
  9
$FILLMODE
 70
     1
  9
$QTEXTMODE
 70
     0
  9
$MIRRTEXT
 70
     0
  9
$DRAGMODE
 70
     2
  9
$LTSCALE
 40
1.5
  9
$OSMODE
 70
     0
  9
$ATTMODE
 70
     1
  9
$TEXTSIZE
 40
0.5
  9
$TRACEWID
 40
0.05
  9
$TEXTSTYLE
  7
STANDARD
  9
$CLAYER
  8
USP
  9
$CELTYPE
  6
BYLAYER
  9
$CECOLOR
 62
   256
  9
$CELTSCALE
 40
1.0
  9
$DELOBJ
 70
     1
  9
$DISPSILH
 70
     1
  9
$DIMSCALE
 40
6.0
  9
$DIMASZ
 40
0.125
  9
$DIMEXO
 40
0.0625
  9
$DIMDLI
 40
0.37890625
  9
$DIMRND
 40
0.0
  9
$DIMDLE
 40
0.0
  9
$DIMEXE
 40
0.09375
  9
$DIMTP
 40
0.0
  9
$DIMTM
 40
0.0
  9
$DIMTXT
 40
0.109375
  9
$DIMCEN
 40
0.0
  9
$DIMTSZ
 40
0.0
  9
$DIMTOL
 70
     0
  9
$DIMLIM
 70
     0
  9
$DIMTIH
 70
     1
  9
$DIMTOH
 70
     1
  9
$DIMSE1
 70
     0
  9
$DIMSE2
 70
     0
  9
$DIMTAD
 70
     0
  9
$DIMZIN
 70
     8
  9
$DIMBLK
  1

  9
$DIMASO
 70
     1
  9
$DIMSHO
 70
     1
  9
$DIMPOST
  1

  9
$DIMAPOST
  1

  9
$DIMALT
 70
     0
  9
$DIMALTD
 70
     2
  9
$DIMALTF
 40
25.4
  9
$DIMLFAC
 40
1.0
  9
$DIMTOFL
 70
     0
  9
$DIMTVP
 40
0.0
  9
$DIMTIX
 70
     0
  9
$DIMSOXD
 70
     0
  9
$DIMSAH
 70
     0
  9
$DIMBLK1
  1

  9
$DIMBLK2
  1

  9
$DIMSTYLE
  2
STANDARD
  9
$DIMCLRD
 70
     0
  9
$DIMCLRE
 70
     0
  9
$DIMCLRT
 70
   256
  9
$DIMTFAC
 40
1.0
  9
$DIMGAP
 40
0.08984375
  9
$DIMJUST
 70
     0
  9
$DIMSD1
 70
     0
  9
$DIMSD2
 70
     0
  9
$DIMTOLJ
 70
     1
  9
$DIMTZIN
 70
     0
  9
$DIMALTZ
 70
     0
  9
$DIMALTTZ
 70
     0
  9
$DIMFIT
 70
     3
  9
$DIMUPT
 70
     1
  9
$DIMUNIT
 70
     7
  9
$DIMDEC
 70
     4
  9
$DIMTDEC
 70
     4
  9
$DIMALTU
 70
     2
  9
$DIMALTTD
 70
     2
  9
$DIMTXSTY
  7
STANDARD
  9
$DIMAUNIT
 70
     0
  9
$LUNITS
 70
     5
  9
$LUPREC
 70
     6
  9
$SKETCHINC
 40
0.1
  9
$FILLETRAD
 40
0.0
  9
$AUNITS
 70
     0
  9
$AUPREC
 70
     1
  9
$MENU
  1
CUSTOM
  9
$ELEVATION
 40
0.0
  9
$PELEVATION
 40
0.0
  9
$THICKNESS
 40
0.0
  9
$LIMCHECK
 70
     0
  9
$BLIPMODE
 70
     0
  9
$CHAMFERA
 40
0.0
  9
$CHAMFERB
 40
0.0
  9
$CHAMFERC
 40
0.0
  9
$CHAMFERD
 40
0.0
  9
$SKPOLY
 70
     0
  9
$TDCREATE
 40
2451263.663231366
  9
$TDUPDATE
 40
2453354.906964154
  9
$TDINDWG
 40
0.1296878819
  9
$TDUSRTIMER
 40
0.1296878819
  9
$USRTIMER
 70
     1
  9
$ANGBASE
 50
0.0
  9
$ANGDIR
 70
     0
  9
$PDMODE
 70
     0
  9
$PDSIZE
 40
0.0
  9
$PLINEWID
 40
0.0
  9
$COORDS
 70
     0
  9
$SPLFRAME
 70
     0
  9
$SPLINETYPE
 70
     6
  9
$SPLINESEGS
 70
     8
  9
$ATTDIA
 70
     0
  9
$ATTREQ
 70
     1
  9
$HANDLING
 70
     1
  9
$HANDSEED
  5
17C
  9
$SURFTAB1
 70
     6
  9
$SURFTAB2
 70
     6
  9
$SURFTYPE
 70
     6
  9
$SURFU
 70
     6
  9
$SURFV
 70
     6
  9
$UCSNAME
  2

  9
$UCSORG
 10
0.0
 20
0.0
 30
0.0
  9
$UCSXDIR
 10
1.0
 20
0.0
 30
0.0
  9
$UCSYDIR
 10
0.0
 20
1.0
 30
0.0
  9
$PUCSNAME
  2

  9
$PUCSORG
 10
0.0
 20
0.0
 30
0.0
  9
$PUCSXDIR
 10
1.0
 20
0.0
 30
0.0
  9
$PUCSYDIR
 10
0.0
 20
1.0
 30
0.0
  9
$USERI1
 70
     0
  9
$USERI2
 70
     0
  9
$USERI3
 70
     0
  9
$USERI4
 70
     0
  9
$USERI5
 70
     0
  9
$USERR1
 40
0.0
  9
$USERR2
 40
0.0
  9
$USERR3
 40
0.0
  9
$USERR4
 40
0.0
  9
$USERR5
 40
0.0
  9
$WORLDVIEW
 70
     1
  9
$SHADEDGE
 70
     3
  9
$SHADEDIF
 70
    70
  9
$TILEMODE
 70
     1
  9
$MAXACTVP
 70
    16
  9
$PINSBASE
 10
0.0
 20
0.0
 30
0.0
  9
$PLIMCHECK
 70
     0
  9
$PEXTMIN
 10
1.052083323321005
 20
0.7937500251559762
 30
0.0
  9
$PEXTMAX
 10
9.468749909889039
 20
7.143750226403783
 30
0.0
  9
$PLIMMIN
 10
-0.2145830289585384
 20
-0.2812499887361301
  9
$PLIMMAX
 10
10.78541673074557
 20
8.218749770967978
  9
$UNITMODE
 70
     0
  9
$VISRETAIN
 70
     0
  9
$PLINEGEN
 70
     0
  9
$PSLTSCALE
 70
     0
  9
$TREEDEPTH
 70
  3020
  9
$PICKSTYLE
 70
     1
  9
$CMLSTYLE
  2
STANDARD
  9
$CMLJUST
 70
     0
  9
$CMLSCALE
 40
1.0
  9
$PROXYGRAPHICS
 70
     1
  9
$MEASUREMENT
 70
     0
  0
ENDSEC
  0
SECTION
  2
CLASSES
  0
CLASS
  1
ACDBDICTIONARYWDFLT
  2
AcDbDictionaryWithDefault
  3
ObjectDBX Classes
 90
        0
280
     0
281
     0
  0
CLASS
  1
ACDBPLACEHOLDER
  2
AcDbPlaceHolder
  3
ObjectDBX Classes
 90
        0
280
     0
281
     0
  0
CLASS
  1
LAYOUT
  2
AcDbLayout
  3
ObjectDBX Classes
 90
        0
280
     0
281
     0
  0
CLASS
  1
DICTIONARYVAR
  2
AcDbDictionaryVar
  3
"AutoCAD"
 90
        0
280
     0
281
     0
  0
CLASS
  1
LONG_TRANSACTION
  2
AcDbLongTransaction
  3
ObjectDBX Classes
 90
        0
280
     0
281
     0
  0
CLASS
  1
LWPOLYLINE
  2
AcDbPolyline
  3
"AutoCAD"
 90
        0
280
     0
281
     1
  0
CLASS
  1
HATCH
  2
AcDbHatch
  3
"ACAD_SEDONA"
 90
        0
280
     0
281
     1
  0
CLASS
  1
XRECORD
  2
AcDbXrecord
  3
"<Built In>"
 90
        0
280
     0
281
     0
  0
CLASS
  1
LONG_TRANSACTION
  2
AcDbLongTransaction
  3
ObjectDBX Classes
 90
        0
280
     0
281
     0
  0
CLASS
  1
LWPOLYLINE
  2
AcDbPolyline
  3
"AutoCAD"
 90
        0
280
     0
281
     1
  0
CLASS
  1
HATCH
  2
AcDbHatch
  3
"ACAD_SEDONA"
 90
        0
280
     0
281
     1
  0
CLASS
  1
XRECORD
  2
AcDbXrecord
  3
"<Built In>"
 90
        0
280
     0
281
     0
  0
ENDSEC
  0
SECTION
  2
TABLES
  0
TABLE
  2
VPORT
  5
16C
100
AcDbSymbolTable
 70
     1
  0
VPORT
  5
16D
100
AcDbSymbolTableRecord
100
AcDbViewportTableRecord
  2
*ACTIVE
 70
     0
 10
0.0
 20
0.0
 11
1.0
 21
1.0
 12
-15.04265135103778
 22
18.07618860939723
 13
0.0
 23
0.0
 14
1.0
 24
1.0
 15
0.0
 25
0.0
 16
0.0
 26
0.0
 36
1.0
 17
23.09603071721725
 27
-10.27010416511325
 37
-10.44050274849355
 40
15.72612379417609
 41
1.379227053140096
 42
50.0
 43
10.55307667737539
 44
10.55307667737539
 50
0.0
 51
0.0
 71
     0
 72
   100
 73
     1
 74
     1
 75
     0
 76
     0
 77
     0
 78
     0
  0
ENDTAB
  0
TABLE
  2
LTYPE
  5
167
100
AcDbSymbolTable
 70
     1
  0
LTYPE
  5
168
100
AcDbSymbolTableRecord
100
AcDbLinetypeTableRecord
  2
BYBLOCK
 70
     0
  3

 72
    65
 73
     0
 40
0.0
  0
LTYPE
  5
169
100
AcDbSymbolTableRecord
100
AcDbLinetypeTableRecord
  2
BYLAYER
 70
     0
  3

 72
    65
 73
     0
 40
0.0
  0
LTYPE
  5
5
100
AcDbSymbolTableRecord
100
AcDbLinetypeTableRecord
  2
CONTINUOUS
 70
     0
  3
Solid line
 72
    65
 73
     0
 40
0.0
  0
ENDTAB
  0
TABLE
  2
LAYER
  5
165
100
AcDbSymbolTable
 70
     5
  0
LAYER
  5
8A
100
AcDbSymbolTableRecord
100
AcDbLayerTableRecord
  2
0
 70
     0
 62
     7
  6
CONTINUOUS
  0
LAYER
  5
8
100
AcDbSymbolTableRecord
100
AcDbLayerTableRecord
  2
USP-GEO
 70
     0
 62
     7
  6
CONTINUOUS
  0
LAYER
  5
85
102
{ACAD_XDICTIONARY
360
86
102
}
100
AcDbSymbolTableRecord
100
AcDbLayerTableRecord
  2
USP-TXT
 70
     0
 62
     7
  6
CONTINUOUS
  0
LAYER
  5
39
102
{ACAD_XDICTIONARY
360
3A
102
}
100
AcDbSymbolTableRecord
100
AcDbLayerTableRecord
  2
USP-HID
 70
     0
 62
     7
  6
CONTINUOUS
  0
LAYER
  5
4
100
AcDbSymbolTableRecord
100
AcDbLayerTableRecord
  2
USP
 70
     0
 62
     7
  6
CONTINUOUS
  0
ENDTAB
  0
TABLE
  2
STYLE
  5
166
100
AcDbSymbolTable
 70
     1
  0
STYLE
  5
88
100
AcDbSymbolTableRecord
100
AcDbTextStyleTableRecord
  2
STANDARD
 70
     0
 40
0.0
 41
1.0
 50
0.0
 71
     0
 42
0.5
  3
txt
  4

  0
ENDTAB
  0
TABLE
  2
VIEW
  5
16A
100
AcDbSymbolTable
 70
     0
  0
ENDTAB
  0
TABLE
  2
UCS
  5
16B
100
AcDbSymbolTable
 70
     0
  0
ENDTAB
  0
TABLE
  2
APPID
  5
16E
100
AcDbSymbolTable
 70
     1
  0
APPID
  5
160
100
AcDbSymbolTableRecord
100
AcDbRegAppTableRecord
  2
ACAD
 70
     0
  0
ENDTAB
  0
TABLE
  2
DIMSTYLE
  5
16F
100
AcDbSymbolTable
 70
     1
  0
DIMSTYLE
105
177
100
AcDbSymbolTableRecord
100
AcDbDimStyleTableRecord
  2
STANDARD
 70
     0
  3

  4

  5

  6

  7

 40
1.0
 41
0.18
 42
0.0625
 43
0.38
 44
0.18
 45
0.0
 46
0.0
 47
0.0
 48
0.0
140
0.18
141
0.09
142
0.0
143
25.4
144
1.0
145
0.0
146
1.0
147
0.09
 71
     0
 72
     0
 73
     1
 74
     1
 75
     0
 76
     0
 77
     0
 78
     0
170
     0
171
     2
172
     0
173
     0
174
     0
175
     0
176
     0
177
     0
178
     0
270
     2
271
     4
272
     4
273
     2
274
     2
340
88
275
     0
280
     0
281
     0
282
     0
283
     1
284
     0
285
     0
286
     0
287
     3
288
     0
  0
ENDTAB
  0
TABLE
  2
BLOCK_RECORD
  5
1
100
AcDbSymbolTable
 70
     3
  0
BLOCK_RECORD
  5
2
102
{ACAD_XDICTIONARY
360
157
102
}
100
AcDbSymbolTableRecord
100
AcDbBlockTableRecord
  2
*MODEL_SPACE
  0
BLOCK_RECORD
  5
15B
102
{ACAD_XDICTIONARY
360
161
102
}
100
AcDbSymbolTableRecord
100
AcDbBlockTableRecord
  2
*PAPER_SPACE
  0
BLOCK_RECORD
  5
6
100
AcDbSymbolTableRecord
100
AcDbBlockTableRecord
  2
RT162_T
  0
BLOCK_RECORD
  5
8D
100
AcDbSymbolTableRecord
100
AcDbBlockTableRecord
  2
RT162_F
  0
BLOCK_RECORD
  5
10A
100
AcDbSymbolTableRecord
100
AcDbBlockTableRecord
  2
RT162_S
  0
ENDTAB
  0
ENDSEC
  0
SECTION
  2
BLOCKS
  0
BLOCK
  5
159
100
AcDbEntity
  8
0
100
AcDbBlockBegin
  2
*MODEL_SPACE
 70
     0
 10
0.0
 20
0.0
 30
0.0
  3
*MODEL_SPACE
  1

  0
ENDBLK
  5
15A
100
AcDbEntity
  8
0
100
AcDbBlockEnd
  0
BLOCK
  5
163
100
AcDbEntity
 67
     1
  8
0
100
AcDbBlockBegin
  2
*PAPER_SPACE
 70
     0
 10
0.0
 20
0.0
 30
0.0
  3
*PAPER_SPACE
  1

  0
ENDBLK
  5
164
100
AcDbEntity
 67
     1
  8
0
100
AcDbBlockEnd
  0
BLOCK
  5
89
100
AcDbEntity
  8
0
100
AcDbBlockBegin
  2
RT162_T
 70
     0
 10
0.0
 20
0.0
 30
0.0
  3
RT162_T
  1

  0
LINE
  5
7
100
AcDbEntity
  8
USP-GEO
100
AcDbLine
 10
6.377776941190658
 20
1.562300000000117
 30
0.0
 11
6.377776941190658
 21
1.562234203251788
 31
0.0
  0
ARC
  5
9
100
AcDbEntity
  8
USP-GEO
100
AcDbCircle
 10
6.190276941190649
 20
1.81223420325179
 30
0.0
 40
0.3125000000000035
100
AcDbArc
 50
270.0000000000019
 51
306.8698976458442
  0
ARC
  5
A
100
AcDbEntity
  8
USP-GEO
100
AcDbCircle
 10
5.071630342689854
 20
1.812300000000064
 30
0.0
 40
0.3125000000000061
100
AcDbArc
 50
233.1301023541599
 51
270.0000000000019
  0
LINE
  5
B
100
AcDbEntity
  8
USP-GEO
100
AcDbLine
 10
6.190276941190723
 20
1.49980000000011
 30
0.0
 11
5.071630342689862
 21
1.499800000000078
 31
0.0
  0
LINE
  5
C
100
AcDbEntity
  8
USP-GEO
100
AcDbLine
 10
0.151494690717495
 20
1.562234203251657
 30
0.0
 11
0.151494690717495
 21
1.562299999999982
 31
0.0
  0
ARC
  5
D
100
AcDbEntity
  8
USP-GEO
100
AcDbCircle
 10
0.338994690717488
 20
1.812234203251662
 30
0.0
 40
0.3125000000000035
100
AcDbArc
 50
233.1301023541578
 51
270.0000000000004
  0
ARC
  5
E
100
AcDbEntity
  8
USP-GEO
100
AcDbCircle
 10
1.45764128921829
 20
1.812299999999986
 30
0.0
 40
0.3125000000000061
100
AcDbArc
 50
269.999999999999
 51
306.8698976458449
  0
LINE
  5
F
100
AcDbEntity
  8
USP-GEO
100
AcDbLine
 10
1.45764128921829
 20
1.499800000000002
 30
0.0
 11
0.3389946907174347
 21
1.499799999999986
 31
0.0
  0
LINE
  5
10
100
AcDbEntity
  8
USP-GEO
100
AcDbLine
 10
6.075135815954055
 20
1.74095178859731
 30
0.0
 11
5.875135815954036
 21
1.740951788597309
 31
0.0
  0
LINE
  5
11
100
AcDbEntity
  8
USP-GEO
100
AcDbLine
 10
5.875135815954038
 20
1.740951788597309
 30
0.0
 11
5.875135815954044
 21
1.614300000000131
 31
0.0
  0
LINE
  5
12
100
AcDbEntity
  8
USP-GEO
100
AcDbLine
 10
6.075135815954055
 20
1.74095178859731
 30
0.0
 11
6.075135815954061
 21
1.614300000000133
 31
0.0
  0
LINE
  5
13
100
AcDbEntity
  8
USP-GEO
100
AcDbLine
 10
1.702335815954068
 20
1.614300000000019
 30
0.0
 11
4.826935815954058
 21
1.614300000000087
 31
0.0
  0
LINE
  5
14
100
AcDbEntity
  8
USP-GEO
100
AcDbLine
 10
6.029271631908233
 20
1.614300000000103
 30
0.0
 11
4.826935815954054
 21
1.614300000000078
 31
0.0
  0
LINE
  5
15
100
AcDbEntity
  8
USP-GEO
100
AcDbLine
 10
6.529271631908204
 20
1.614300000000111
 30
0.0
 11
6.029271631908233
 21
1.614300000000099
 31
0.0
  0
LINE
  5
16
100
AcDbEntity
  8
USP-GEO
100
AcDbLine
 10
0.4999999999998265
 20
1.614299999999978
 30
0.0
 11
-0.0000000000000022
 21
1.614299999999969
 31
0.0
  0
LINE
  5
17
100
AcDbEntity
  8
USP-GEO
100
AcDbLine
 10
0.4999999999998285
 20
1.614299999999978
 30
0.0
 11
1.702335815954068
 21
1.614300000000005
 31
0.0
  0
LINE
  5
18
100
AcDbEntity
  8
USP-GEO
100
AcDbLine
 10
6.322859462663124
 20
1.562234203251783
 30
0.0
 11
6.322859462663124
 21
1.562300000000112
 31
0.0
  0
LINE
  5
19
100
AcDbEntity
  8
USP-GEO
100
AcDbLine
 10
6.377776941190652
 20
1.562234203251788
 30
0.0
 11
6.322859462663125
 21
1.562234203251781
 31
0.0
  0
ELLIPSE
  5
1A
100
AcDbEntity
  8
USP-GEO
100
AcDbEllipse
 10
6.190276941190713
 20
1.812300000000096
 30
0.0
 11
0.0000000000000077
 21
-0.3124999999999861
 31
0.0
210
0.0
220
0.0
230
1.0
 40
0.707106781186532
 41
0.0000000000000134
 42
0.6435011087931665
  0
ELLIPSE
  5
1B
100
AcDbEntity
  8
USP-GEO
100
AcDbEllipse
 10
6.190276941190649
 20
1.81223420325179
 30
0.0
 11
0.000000000000008
 21
-0.3124999999999861
 31
0.0
210
0.0
220
0.0
230
1.0
 40
0.707106781186532
 41
6.262664245632187
 42
6.926686415972846
  0
LINE
  5
1C
100
AcDbEntity
  8
USP-GEO
100
AcDbLine
 10
0.1514946907174958
 20
1.562234203251657
 30
0.0
 11
0.2064121692450241
 21
1.562234203251652
 31
0.0
  0
LINE
  5
1D
100
AcDbEntity
  8
USP-GEO
100
AcDbLine
 10
0.2064121692450306
 20
1.562234203251652
 30
0.0
 11
0.2064121692450306
 21
1.562299999999982
 31
0.0
  0
ELLIPSE
  5
1E
100
AcDbEntity
  8
USP-GEO
100
AcDbEllipse
 10
0.3389946907174312
 20
1.812299999999972
 30
0.0
 11
0.0000000000000058
 21
-0.3124999999999861
 31
0.0
210
0.0
220
0.0
230
1.0
 40
0.7071067811865334
 41
5.639684198386517
 42
6.283185307179576
  0
ELLIPSE
  5
1F
100
AcDbEntity
  8
USP-GEO
100
AcDbEllipse
 10
0.338994690717488
 20
1.812234203251662
 30
0.0
 11
0.0000000000000054
 21
-0.3124999999999861
 31
0.0
210
0.0
220
0.0
230
1.0
 40
0.7071067811865336
 41
5.639684198386317
 42
6.303706368727536
  0
LINE
  5
20
100
AcDbEntity
  8
USP-GEO
100
AcDbLine
 10
0.4999999999998259
 20
1.562299999999979
 30
0.0
 11
1.650335815954067
 21
1.562300000000005
 31
0.0
  0
LINE
  5
21
100
AcDbEntity
  8
USP-GEO
100
AcDbLine
 10
0.4999999999998259
 20
1.562299999999979
 30
0.0
 11
0.0
 21
1.56229999999997
 31
0.0
  0
LINE
  5
22
100
AcDbEntity
  8
USP-GEO
100
AcDbLine
 10
6.02927163190823
 20
1.562300000000099
 30
0.0
 11
6.529271631908201
 21
1.562300000000112
 31
0.0
  0
LINE
  5
23
100
AcDbEntity
  8
USP-GEO
100
AcDbLine
 10
4.878935815954058
 20
1.562300000000076
 30
0.0
 11
6.029271631908232
 21
1.562300000000099
 31
0.0
  0
LINE
  5
24
100
AcDbEntity
  8
USP-GEO
100
AcDbLine
 10
4.826935815954056
 20
1.562300000000091
 30
0.0
 11
1.702335815954069
 21
1.562300000000023
 31
0.0
  0
LINE
  5
25
100
AcDbEntity
  8
USP-GEO
100
AcDbLine
 10
6.529271631908205
 20
1.56230000000011
 30
0.0
 11
6.529271631908204
 21
1.61430000000011
 31
0.0
  0
LINE
  5
26
100
AcDbEntity
  8
USP-GEO
100
AcDbLine
 10
6.02927163190823
 20
1.562300000000099
 30
0.0
 11
6.029271631908229
 21
1.614300000000097
 31
0.0
  0
LINE
  5
27
100
AcDbEntity
  8
USP-GEO
100
AcDbLine
 10
0.0000000000000034
 20
1.562299999999972
 30
0.0
 11
0.0000000000000023
 21
1.614299999999971
 31
0.0
  0
LINE
  5
28
100
AcDbEntity
  8
USP-GEO
100
AcDbLine
 10
0.4999999999998259
 20
1.562299999999979
 30
0.0
 11
0.4999999999998247
 21
1.614299999999976
 31
0.0
  0
LINE
  5
29
100
AcDbEntity
  8
USP-GEO
100
AcDbLine
 10
1.702335815954097
 20
0.2500000000000924
 30
0.0
 11
1.702335815954068
 21
1.614300000000007
 31
0.0
  0
LINE
  5
2A
100
AcDbEntity
  8
USP-GEO
100
AcDbLine
 10
1.702335815954107
 20
-0.0000000000000018
 30
0.0
 11
1.702335815954103
 21
0.2500000000000906
 31
0.0
  0
LINE
  5
2B
100
AcDbEntity
  8
USP-GEO
100
AcDbLine
 10
1.650335815954111
 20
0.0
 30
0.0
 11
1.702335815954109
 21
0.0000000000000018
 31
0.0
  0
LINE
  5
2C
100
AcDbEntity
  8
USP-GEO
100
AcDbLine
 10
1.650335815954104
 20
0.2500000000000924
 30
0.0
 11
1.702335815954099
 21
0.2500000000000941
 31
0.0
  0
LINE
  5
2D
100
AcDbEntity
  8
USP-GEO
100
AcDbLine
 10
1.650335815954104
 20
0.2500000000000924
 30
0.0
 11
1.650335815954108
 21
0.0
 31
0.0
  0
LINE
  5
2E
100
AcDbEntity
  8
USP-GEO
100
AcDbLine
 10
1.650335815954069
 20
1.562300000000005
 30
0.0
 11
1.650335815954098
 21
0.2500000000000906
 31
0.0
  0
LINE
  5
2F
100
AcDbEntity
  8
USP-GEO
100
AcDbLine
 10
4.826935815954053
 20
1.614300000000071
 30
0.0
 11
4.82693581595409
 21
0.2500000000002274
 31
0.0
  0
LINE
  5
30
100
AcDbEntity
  8
USP-GEO
100
AcDbLine
 10
4.878935815954076
 20
0.2500000000002274
 30
0.0
 11
4.826935815954079
 21
0.2500000000002256
 31
0.0
  0
LINE
  5
31
100
AcDbEntity
  8
USP-GEO
100
AcDbLine
 10
4.87893581595409
 20
0.2500000000002291
 30
0.0
 11
4.878935815954053
 21
1.562300000000075
 31
0.0
  0
LINE
  5
32
100
AcDbEntity
  8
USP-GEO
100
AcDbLine
 10
4.826935815954076
 20
0.2500000000002274
 30
0.0
 11
4.826935815954084
 21
0.0000000000001208
 31
0.0
  0
LINE
  5
33
100
AcDbEntity
  8
USP-GEO
100
AcDbLine
 10
4.878935815954083
 20
0.0000000000000924
 30
0.0
 11
4.826935815954084
 21
0.0000000000000906
 31
0.0
  0
LINE
  5
34
100
AcDbEntity
  8
USP-GEO
100
AcDbLine
 10
4.878935815954076
 20
0.2500000000002274
 30
0.0
 11
4.878935815954084
 21
0.0000000000001172
 31
0.0
  0
LINE
  5
35
100
AcDbEntity
  8
USP-GEO
100
AcDbLine
 10
0.6538858159540872
 20
1.740951788597193
 30
0.0
 11
0.4538858159540669
 21
1.740951788597191
 31
0.0
  0
LINE
  5
36
100
AcDbEntity
  8
USP-GEO
100
AcDbLine
 10
0.453885815954063
 20
1.74095178859719
 30
0.0
 11
0.4538858159540684
 21
1.614299999999994
 31
0.0
  0
LINE
  5
37
100
AcDbEntity
  8
USP-GEO
100
AcDbLine
 10
0.6538858159540872
 20
1.740951788597193
 30
0.0
 11
0.6538858159540926
 21
1.614299999999998
 31
0.0
  0
LINE
  5
38
100
AcDbEntity
  8
USP-HID
100
AcDbLine
 10
1.561535815954076
 20
1.562300000000034
 30
0.0
 11
1.561535815954075
 21
1.614300000000044
 31
0.0
  0
LINE
  5
3C
100
AcDbEntity
  8
USP-HID
100
AcDbLine
 10
4.967735815954082
 20
1.56230000000008
 30
0.0
 11
4.967735815954081
 21
1.614300000000087
 31
0.0
  0
ARC
  5
3D
100
AcDbEntity
  8
USP-HID
100
AcDbCircle
 10
5.836723550597401
 20
1.812300000000096
 30
0.0
 40
0.2605000000000019
100
AcDbArc
 50
270.0000000000004
 51
310.5290332916165
  0
ARC
  5
3E
100
AcDbEntity
  8
USP-HID
100
AcDbCircle
 10
5.836723550597401
 20
1.812300000000096
 30
0.0
 40
0.3125000000000035
100
AcDbArc
 50
270.0000000000006
 51
306.8698976458465
  0
ARC
  5
3F
100
AcDbEntity
  8
USP-HID
100
AcDbCircle
 10
6.190276941190649
 20
1.81223420325179
 30
0.0
 40
0.2605000000000019
100
AcDbArc
 50
270.0000000000015
 51
310.5290332916165
  0
ARC
  5
40
100
AcDbEntity
  8
USP-HID
100
AcDbCircle
 10
5.071630342689854
 20
1.812300000000067
 30
0.0
 40
0.2605000000000061
100
AcDbArc
 50
229.4709667083858
 51
270.0000000000004
  0
LINE
  5
41
100
AcDbEntity
  8
USP-HID
100
AcDbLine
 10
6.190276941190721
 20
1.551800000000113
 30
0.0
 11
5.071630342689861
 21
1.551800000000081
 31
0.0
  0
LINE
  5
42
100
AcDbEntity
  8
USP-HID
100
AcDbLine
 10
6.377776941190677
 20
1.614234203251799
 30
0.0
 11
6.377776941190677
 21
1.614300000000117
 31
0.0
  0
ARC
  5
43
100
AcDbEntity
  8
USP-HID
100
AcDbCircle
 10
0.338994690717488
 20
1.812234203251662
 30
0.0
 40
0.2605000000000019
100
AcDbArc
 50
229.4709667083865
 51
270.0000000000009
  0
ARC
  5
44
100
AcDbEntity
  8
USP-HID
100
AcDbCircle
 10
1.45764128921829
 20
1.812299999999986
 30
0.0
 40
0.2605000000000061
100
AcDbArc
 50
269.9999999999989
 51
310.5290332916171
  0
LINE
  5
45
100
AcDbEntity
  8
USP-HID
100
AcDbLine
 10
1.45764128921829
 20
1.551800000000001
 30
0.0
 11
0.338994690717434
 21
1.551799999999985
 31
0.0
  0
LINE
  5
46
100
AcDbEntity
  8
USP-HID
100
AcDbLine
 10
0.151494690717504
 20
1.614234203251664
 30
0.0
 11
0.151494690717504
 21
1.614299999999975
 31
0.0
  0
ARC
  5
47
100
AcDbEntity
  8
USP-HID
100
AcDbCircle
 10
0.6925480813107434
 20
1.812299999999986
 30
0.0
 40
0.2605000000000019
100
AcDbArc
 50
229.4709667083858
 51
270.0000000000027
  0
ARC
  5
48
100
AcDbEntity
  8
USP-HID
100
AcDbCircle
 10
0.6925480813107434
 20
1.812299999999986
 30
0.0
 40
0.3125000000000035
100
AcDbArc
 50
233.1301023541562
 51
270.0000000000023
  0
LINE
  5
49
100
AcDbEntity
  8
USP-HID
100
AcDbLine
 10
0.5429999999998613
 20
1.562300000000005
 30
0.0
 11
0.5429999999998602
 21
1.614300000000005
 31
0.0
  0
LINE
  5
4A
100
AcDbEntity
  8
USP-HID
100
AcDbLine
 10
0.7069999999998614
 20
1.562300000000007
 30
0.0
 11
0.7069999999998604
 21
1.614300000000007
 31
0.0
  0
LINE
  5
4B
100
AcDbEntity
  8
USP-HID
100
AcDbLine
 10
2.167999999999833
 20
1.562300000000034
 30
0.0
 11
2.167999999999831
 21
1.614300000000037
 31
0.0
  0
LINE
  5
4C
100
AcDbEntity
  8
USP-HID
100
AcDbLine
 10
2.331999999999832
 20
1.562300000000039
 30
0.0
 11
2.331999999999831
 21
1.614300000000039
 31
0.0
  0
LINE
  5
4D
100
AcDbEntity
  8
USP-HID
100
AcDbLine
 10
4.197271631908184
 20
1.562300000000083
 30
0.0
 11
4.197271631908183
 21
1.614300000000083
 31
0.0
  0
LINE
  5
4E
100
AcDbEntity
  8
USP-HID
100
AcDbLine
 10
4.361271631908183
 20
1.562300000000085
 30
0.0
 11
4.361271631908183
 21
1.614300000000085
 31
0.0
  0
LINE
  5
4F
100
AcDbEntity
  8
USP-HID
100
AcDbLine
 10
3.108385815954054
 20
1.56230000000006
 30
0.0
 11
3.108385815954053
 21
1.61430000000006
 31
0.0
  0
LINE
  5
50
100
AcDbEntity
  8
USP-HID
100
AcDbLine
 10
3.420885815954054
 20
1.562300000000071
 30
0.0
 11
3.420885815954053
 21
1.614300000000071
 31
0.0
  0
LINE
  5
51
100
AcDbEntity
  8
USP-HID
100
AcDbLine
 10
5.822271631908127
 20
1.562300000000115
 30
0.0
 11
5.822271631908126
 21
1.614300000000115
 31
0.0
  0
LINE
  5
52
100
AcDbEntity
  8
USP-HID
100
AcDbLine
 10
5.986271631908127
 20
1.562300000000121
 30
0.0
 11
5.986271631908126
 21
1.61430000000012
 31
0.0
  0
LINE
  5
53
100
AcDbEntity
  8
USP-HID
100
AcDbLine
 10
1.650335815954095
 20
0.4688804150959811
 30
0.0
 11
1.702335815954094
 21
0.4688804150959829
 31
0.0
  0
LINE
  5
54
100
AcDbEntity
  8
USP-HID
100
AcDbLine
 10
1.650335815954097
 20
0.3048804150959796
 30
0.0
 11
1.702335815954096
 21
0.3048804150959814
 31
0.0
  0
LINE
  5
55
100
AcDbEntity
  8
USP-HID
100
AcDbLine
 10
1.65033581595408
 20
1.06880000000007
 30
0.0
 11
1.70233581595408
 21
1.068800000000072
 31
0.0
  0
LINE
  5
56
100
AcDbEntity
  8
USP-HID
100
AcDbLine
 10
1.650335815954083
 20
0.9048000000000691
 30
0.0
 11
1.702335815954082
 21
0.9048000000000708
 31
0.0
  0
LINE
  5
57
100
AcDbEntity
  8
USP-HID
100
AcDbLine
 10
4.87893581595407
 20
0.9048000000000726
 30
0.0
 11
4.826935815954067
 21
0.9048000000000708
 31
0.0
  0
LINE
  5
58
100
AcDbEntity
  8
USP-HID
100
AcDbLine
 10
4.878935815954061
 20
1.068800000000074
 30
0.0
 11
4.826935815954062
 21
1.068800000000072
 31
0.0
  0
LINE
  5
59
100
AcDbEntity
  8
USP-HID
100
AcDbLine
 10
4.878935815954084
 20
0.3013262073681773
 30
0.0
 11
4.826935815954081
 21
0.3013262073681755
 31
0.0
  0
LINE
  5
5A
100
AcDbEntity
  8
USP-HID
100
AcDbLine
 10
4.878935815954079
 20
0.4653262073681788
 30
0.0
 11
4.82693581595408
 21
0.465326207368177
 31
0.0
  0
LINE
  5
5B
100
AcDbEntity
  8
USP-HID
100
AcDbLine
 10
6.075135815954052
 20
1.681812947370946
 30
0.0
 11
5.875135815954032
 21
1.681812947370945
 31
0.0
  0
LINE
  5
5C
100
AcDbEntity
  8
USP-HID
100
AcDbLine
 10
6.057694419718181
 20
1.562234203251799
 30
0.0
 11
6.322859462663126
 21
1.562234203251797
 31
0.0
  0
LINE
  5
5D
100
AcDbEntity
  8
USP-HID
100
AcDbLine
 10
6.057694419718185
 20
1.562234203251804
 30
0.0
 11
6.057694419718185
 21
1.562300000000112
 31
0.0
  0
ELLIPSE
  5
5E
100
AcDbEntity
  8
USP-HID
100
AcDbEllipse
 10
6.190276941190713
 20
1.812300000000096
 30
0.0
 11
0.0000000000000077
 21
-0.3124999999999861
 31
0.0
210
0.0
220
0.0
230
1.0
 40
0.707106781186532
 41
5.639684198386142
 42
6.283185307179599
  0
ELLIPSE
  5
5F
100
AcDbEntity
  8
USP-HID
100
AcDbEllipse
 10
6.190276941190649
 20
1.81223420325179
 30
0.0
 11
0.000000000000008
 21
-0.3124999999999861
 31
0.0
210
0.0
220
0.0
230
1.0
 40
0.707106781186532
 41
5.639684198386275
 42
6.262664245632187
  0
LINE
  5
60
100
AcDbEntity
  8
USP-HID
100
AcDbLine
 10
6.309977087389391
 20
1.614234203251783
 30
0.0
 11
6.322859462663136
 21
1.614234203251783
 31
0.0
  0
LINE
  5
61
100
AcDbEntity
  8
USP-HID
100
AcDbLine
 10
6.377776941190674
 20
1.614234203251804
 30
0.0
 11
6.322859462663154
 21
1.614234203251795
 31
0.0
  0
LINE
  5
62
100
AcDbEntity
  8
USP-HID
100
AcDbLine
 10
6.057694419718177
 20
1.6142342032518
 30
0.0
 11
6.070576794991922
 21
1.6142342032518
 31
0.0
  0
LINE
  5
63
100
AcDbEntity
  8
USP-HID
100
AcDbLine
 10
6.070576794991926
 20
1.614234203251799
 30
0.0
 11
6.309977087389389
 21
1.614234203251797
 31
0.0
  0
ELLIPSE
  5
64
100
AcDbEntity
  8
USP-HID
100
AcDbEllipse
 10
6.190276941190642
 20
1.81223420325179
 30
0.0
 11
0.0000000000000056
 21
-0.2605000000000019
 31
0.0
210
0.0
220
0.0
230
1.0
 40
0.7071067811865392
 41
5.575820233590493
 42
6.99055038076867
  0
LINE
  5
65
100
AcDbEntity
  8
USP-HID
100
AcDbLine
 10
6.057694419718212
 20
1.614234203251799
 30
0.0
 11
6.057694419718212
 21
1.61430000000011
 31
0.0
  0
ELLIPSE
  5
66
100
AcDbEntity
  8
USP-HID
100
AcDbEllipse
 10
6.190276941190713
 20
1.812300000000099
 30
0.0
 11
0.0000000000000064
 21
-0.2604999999999861
 31
0.0
210
0.0
220
0.0
230
1.0
 40
0.707106781186532
 41
5.575820233590219
 42
6.990550380768679
  0
LINE
  5
67
100
AcDbEntity
  8
USP-HID
100
AcDbLine
 10
6.322859462663156
 20
1.614234203251783
 30
0.0
 11
6.322859462663156
 21
1.614300000000115
 31
0.0
  0
LINE
  5
68
100
AcDbEntity
  8
USP-HID
100
AcDbLine
 10
0.4715772121899739
 20
1.562234203251684
 30
0.0
 11
0.4715772121899739
 21
1.562299999999989
 31
0.0
  0
LINE
  5
69
100
AcDbEntity
  8
USP-HID
100
AcDbLine
 10
0.4715772121899723
 20
1.56223420325168
 30
0.0
 11
0.2064121692450241
 21
1.562234203251668
 31
0.0
  0
ELLIPSE
  5
6A
100
AcDbEntity
  8
USP-HID
100
AcDbEllipse
 10
0.3389946907174312
 20
1.812299999999972
 30
0.0
 11
0.0000000000000058
 21
-0.3124999999999861
 31
0.0
210
0.0
220
0.0
230
1.0
 40
0.7071067811865334
 41
-0.0000000000000102
 42
0.6435011087935334
  0
ELLIPSE
  5
6B
100
AcDbEntity
  8
USP-HID
100
AcDbEllipse
 10
0.338994690717488
 20
1.812234203251662
 30
0.0
 11
0.0000000000000054
 21
-0.3124999999999861
 31
0.0
210
0.0
220
0.0
230
1.0
 40
0.7071067811865336
 41
0.0205210615479505
 42
0.6435011087933244
  0
LINE
  5
6C
100
AcDbEntity
  8
USP-HID
100
AcDbLine
 10
0.2192945445187616
 20
1.614234203251649
 30
0.0
 11
0.2064121692450178
 21
1.614234203251648
 31
0.0
  0
LINE
  5
6D
100
AcDbEntity
  8
USP-HID
100
AcDbLine
 10
0.4586948369162274
 20
1.614234203251676
 30
0.0
 11
0.2192945445187642
 21
1.614234203251664
 31
0.0
  0
LINE
  5
6E
100
AcDbEntity
  8
USP-HID
100
AcDbLine
 10
0.4715772121899766
 20
1.614234203251678
 30
0.0
 11
0.4586948369162306
 21
1.614234203251676
 31
0.0
  0
LINE
  5
6F
100
AcDbEntity
  8
USP-HID
100
AcDbLine
 10
0.2064121692450243
 20
1.61423420325166
 30
0.0
 11
0.1514946907175057
 21
1.614234203251669
 31
0.0
  0
ELLIPSE
  5
70
100
AcDbEntity
  8
USP-HID
100
AcDbEllipse
 10
0.3389946907174951
 20
1.812234203251662
 30
0.0
 11
0.0000000000000056
 21
-0.2605000000000019
 31
0.0
210
0.0
220
0.0
230
1.0
 40
0.7071067811865405
 41
5.575820233590501
 42
6.990550380768682
  0
LINE
  5
71
100
AcDbEntity
  8
USP-HID
100
AcDbLine
 10
0.2064121692450289
 20
1.614234203251648
 30
0.0
 11
0.2064121692450289
 21
1.61429999999998
 31
0.0
  0
ELLIPSE
  5
72
100
AcDbEntity
  8
USP-HID
100
AcDbEllipse
 10
0.3389946907174312
 20
1.812299999999972
 30
0.0
 11
0.0000000000000048
 21
-0.2604999999999861
 31
0.0
210
0.0
220
0.0
230
1.0
 40
0.7071067811865336
 41
5.57582023359049
 42
6.990550380768959
  0
LINE
  5
73
100
AcDbEntity
  8
USP-HID
100
AcDbLine
 10
0.4715772121899722
 20
1.614234203251678
 30
0.0
 11
0.4715772121899722
 21
1.614299999999985
 31
0.0
  0
LINE
  5
74
100
AcDbEntity
  8
USP-HID
100
AcDbLine
 10
1.702335815954069
 20
1.562300000000023
 30
0.0
 11
1.650335815954068
 21
1.562300000000021
 31
0.0
  0
LINE
  5
75
100
AcDbEntity
  8
USP-HID
100
AcDbLine
 10
4.878935815954054
 20
1.562300000000092
 30
0.0
 11
4.826935815954056
 21
1.562300000000091
 31
0.0
  0
LINE
  5
76
100
AcDbEntity
  8
USP-HID
100
AcDbLine
 10
0.6538858159540872
 20
1.5623
 30
0.0
 11
0.6538858159540859
 21
1.614299999999998
 31
0.0
  0
LINE
  5
77
100
AcDbEntity
  8
USP-HID
100
AcDbLine
 10
0.4538858159540701
 20
1.562299999999993
 30
0.0
 11
0.4538858159540688
 21
1.614299999999996
 31
0.0
  0
LINE
  5
78
100
AcDbEntity
  8
USP-HID
100
AcDbLine
 10
0.4438271580889683
 20
1.562299999999982
 30
0.0
 11
0.4438271580889671
 21
1.614299999999982
 31
0.0
  0
LINE
  5
79
100
AcDbEntity
  8
USP-HID
100
AcDbLine
 10
0.6644444738191488
 20
1.562299999999989
 30
0.0
 11
0.6644444738191476
 21
1.614299999999989
 31
0.0
  0
LINE
  5
7A
100
AcDbEntity
  8
USP-HID
100
AcDbLine
 10
0.5541358159540585
 20
1.562299999999986
 30
0.0
 11
0.5541358159540574
 21
1.614299999999989
 31
0.0
  0
LINE
  5
7B
100
AcDbEntity
  8
USP-HID
100
AcDbLine
 10
5.975135815954065
 20
1.562300000000099
 30
0.0
 11
5.975135815954064
 21
1.614300000000099
 31
0.0
  0
LINE
  5
7C
100
AcDbEntity
  8
USP-HID
100
AcDbLine
 10
5.864827158088978
 20
1.562300000000099
 30
0.0
 11
5.864827158088977
 21
1.614300000000099
 31
0.0
  0
LINE
  5
7D
100
AcDbEntity
  8
USP-HID
100
AcDbLine
 10
6.085444473819183
 20
1.562300000000103
 30
0.0
 11
6.085444473819182
 21
1.614300000000103
 31
0.0
  0
LINE
  5
7E
100
AcDbEntity
  8
USP-HID
100
AcDbLine
 10
6.075135815954087
 20
1.562300000000114
 30
0.0
 11
6.075135815954086
 21
1.614300000000115
 31
0.0
  0
LINE
  5
7F
100
AcDbEntity
  8
USP-HID
100
AcDbLine
 10
5.875135815954045
 20
1.56230000000011
 30
0.0
 11
5.875135815954044
 21
1.614300000000111
 31
0.0
  0
LINE
  5
80
100
AcDbEntity
  8
USP-HID
100
AcDbLine
 10
3.014635815954026
 20
1.562300000000067
 30
0.0
 11
3.014635815954024
 21
1.614300000000067
 31
0.0
  0
LINE
  5
81
100
AcDbEntity
  8
USP-HID
100
AcDbLine
 10
3.264635815954026
 20
1.562300000000071
 30
0.0
 11
3.264635815954024
 21
1.614300000000072
 31
0.0
  0
LINE
  5
82
100
AcDbEntity
  8
USP-HID
100
AcDbLine
 10
3.514635815954253
 20
1.562300000000078
 30
0.0
 11
3.514635815954252
 21
1.614300000000078
 31
0.0
  0
LINE
  5
83
100
AcDbEntity
  8
USP-HID
100
AcDbLine
 10
0.6538858159540872
 20
1.681812947370829
 30
0.0
 11
0.4538858159540684
 21
1.681812947370827
 31
0.0
  0
TEXT
  5
84
100
AcDbEntity
  8
USP-TXT
100
AcDbText
 10
0.1396358159540627
 20
-1.734677027897438
 30
0.0
 40
0.375
  1
RT16-2 - TOP VIEW
 72
     1
 11
3.264635815954062
 21
-1.734677027897438
 31
0.0
100
AcDbText
  0
ENDBLK
  5
8B
100
AcDbEntity
  8
0
100
AcDbBlockEnd
  0
BLOCK
  5
107
100
AcDbEntity
  8
0
100
AcDbBlockBegin
  2
RT162_F
 70
     0
 10
0.0
 20
0.0
 30
0.0
  3
RT162_F
  1

  0
LINE
  5
8E
100
AcDbEntity
  8
USP-GEO
100
AcDbLine
 10
6.075135815954181
 20
3.000000000000095
 30
0.0
 11
5.875135815954162
 21
3.0000000000001
 31
0.0
  0
LINE
  5
8F
100
AcDbEntity
  8
USP-GEO
100
AcDbLine
 10
6.075135815954189
 20
3.086169506011695
 30
0.0
 11
5.875135815954169
 21
3.0861695060117
 31
0.0
  0
ARC
  5
90
100
AcDbEntity
  8
USP-GEO
100
AcDbCircle
 10
1.624035815954206
 20
3.062500000000048
 30
0.0
 40
0.0625
100
AcDbArc
 50
89.99999999999998
 51
270.0000000000008
  0
ARC
  5
91
100
AcDbEntity
  8
USP-GEO
100
AcDbCircle
 10
4.905235815954211
 20
3.062499999999974
 30
0.0
 40
0.0625
100
AcDbArc
 50
269.9999999999997
 51
89.99999999999976
  0
ARC
  5
92
100
AcDbEntity
  8
USP-GEO
100
AcDbCircle
 10
5.071630342690019
 20
4.236444541021721
 30
0.0
 40
0.1874999999999965
100
AcDbArc
 50
45.00000085377626
 51
225.0000008537739
  0
ARC
  5
93
100
AcDbEntity
  8
USP-GEO
100
AcDbCircle
 10
5.836723550597538
 20
3.471351333114177
 30
0.0
 40
0.1874999999999965
100
AcDbArc
 50
225.0000008537751
 51
45.00000085377435
  0
LINE
  5
94
100
AcDbEntity
  8
USP-GEO
100
AcDbLine
 10
5.704141029125067
 20
3.338768811641696
 30
0.0
 11
4.939047821217547
 21
4.103862019549245
 31
0.0
  0
LINE
  5
95
100
AcDbEntity
  8
USP-GEO
100
AcDbLine
 10
5.204212864162466
 20
4.369027062494176
 30
0.0
 11
5.969306072070012
 21
3.603933854586652
 31
0.0
  0
ARC
  5
96
100
AcDbEntity
  8
USP-GEO
100
AcDbCircle
 10
6.190276941190782
 20
4.392538342688228
 30
0.0
 40
0.1874999999999993
100
AcDbArc
 50
225.0000000000024
 51
45.00000000000208
  0
LINE
  5
97
100
AcDbEntity
  8
USP-GEO
100
AcDbLine
 10
6.057694419718313
 20
4.259955821215751
 30
0.0
 11
6.322859462663251
 21
4.525120864160702
 31
0.0
  0
ARC
  5
98
100
AcDbEntity
  8
USP-GEO
100
AcDbCircle
 10
5.071630342690019
 20
5.511184941189067
 30
0.0
 40
0.1874999999999965
100
AcDbArc
 50
45.00000085377666
 51
225.0000008537743
  0
LINE
  5
99
100
AcDbEntity
  8
USP-GEO
100
AcDbLine
 10
6.057694419718344
 20
4.259955821215781
 30
0.0
 11
4.939047821217547
 21
5.37860241971659
 31
0.0
  0
LINE
  5
9A
100
AcDbEntity
  8
USP-GEO
100
AcDbLine
 10
5.204212864162465
 20
5.643767462661523
 30
0.0
 11
6.322859462663288
 21
4.525120864160738
 31
0.0
  0
ARC
  5
9B
100
AcDbEntity
  8
USP-GEO
100
AcDbCircle
 10
0.3389946907176251
 20
4.392538342688221
 30
0.0
 40
0.1874999999999993
100
AcDbArc
 50
134.9999999999973
 51
314.9999999999989
  0
LINE
  5
9C
100
AcDbEntity
  8
USP-GEO
100
AcDbLine
 10
0.4715772121900947
 20
4.259955821215741
 30
0.0
 11
0.2064121692451549
 21
4.525120864160691
 31
0.0
  0
ARC
  5
9D
100
AcDbEntity
  8
USP-GEO
100
AcDbCircle
 10
1.457641289218413
 20
5.511184941189031
 30
0.0
 40
0.1874999999999965
100
AcDbArc
 50
315.0000008537763
 51
135.0000008537675
  0
LINE
  5
9E
100
AcDbEntity
  8
USP-GEO
100
AcDbLine
 10
0.2064121692451553
 20
4.525120864160705
 30
0.0
 11
1.325058767745949
 21
5.643767462661524
 31
0.0
  0
LINE
  5
9F
100
AcDbEntity
  8
USP-GEO
100
AcDbLine
 10
1.59022381069092
 20
5.37860241971654
 30
0.0
 11
0.4715772121901021
 21
4.259955821215747
 31
0.0
  0
ARC
  5
A0
100
AcDbEntity
  8
USP-GEO
100
AcDbCircle
 10
1.457641289218392
 20
4.236444541021714
 30
0.0
 40
0.1874999999999965
100
AcDbArc
 50
315.0000008537729
 51
135.0000008537697
  0
ARC
  5
A1
100
AcDbEntity
  8
USP-GEO
100
AcDbCircle
 10
0.6925480813108804
 20
3.471351333114177
 30
0.0
 40
0.1874999999999965
100
AcDbArc
 50
135.0000008537736
 51
315.0000008537708
  0
LINE
  5
A2
100
AcDbEntity
  8
USP-GEO
100
AcDbLine
 10
0.5599655598384056
 20
3.603933854586647
 30
0.0
 11
1.325058767745921
 21
4.369027062494201
 31
0.0
  0
LINE
  5
A3
100
AcDbEntity
  8
USP-GEO
100
AcDbLine
 10
1.590223810690886
 20
4.103862019549215
 30
0.0
 11
0.8251306027833498
 21
3.338768811641691
 31
0.0
  0
LINE
  5
A4
100
AcDbEntity
  8
USP-GEO
100
AcDbLine
 10
1.624035815954206
 20
3.125000000000013
 30
0.0
 11
1.650335815954201
 21
3.125000000000013
 31
0.0
  0
LINE
  5
A5
100
AcDbEntity
  8
USP-GEO
100
AcDbLine
 10
0.4999999999999558
 20
6.500000000000031
 30
0.0
 11
1.650335815954196
 21
6.500000000000031
 31
0.0
  0
LINE
  5
A6
100
AcDbEntity
  8
USP-GEO
100
AcDbLine
 10
0.4999999999999558
 20
6.500000000000031
 30
0.0
 11
0.00000000000013
 21
6.0000000000002
 31
0.0
  0
LINE
  5
A7
100
AcDbEntity
  8
USP-GEO
100
AcDbLine
 10
0.0000000000001334
 20
6.000000000000201
 30
0.0
 11
0.0
 21
0.4999999999999956
 31
0.0
  0
LINE
  5
A8
100
AcDbEntity
  8
USP-GEO
100
AcDbLine
 10
0.5000000000000198
 20
-0.0000000000000009
 30
0.0
 11
-0.0000000000000083
 21
0.4999999999999978
 31
0.0
  0
LINE
  5
A9
100
AcDbEntity
  8
USP-GEO
100
AcDbLine
 10
3.014635815954155
 20
0.0000000000002158
 30
0.0
 11
0.5000000000000238
 21
0.0
 31
0.0
  0
LINE
  5
AA
100
AcDbEntity
  8
USP-GEO
100
AcDbLine
 10
3.014635815954155
 20
0.0000000000002158
 30
0.0
 11
3.264635815954153
 21
0.2500000000002407
 31
0.0
  0
LINE
  5
AB
100
AcDbEntity
  8
USP-GEO
100
AcDbLine
 10
3.514635815954383
 20
0.0000000000000062
 30
0.0
 11
3.264635815954157
 21
0.2500000000002442
 31
0.0
  0
LINE
  5
AC
100
AcDbEntity
  8
USP-GEO
100
AcDbLine
 10
6.02927163190837
 20
0.0000000000000027
 30
0.0
 11
3.514635815954383
 21
0.0000000000000009
 31
0.0
  0
LINE
  5
AD
100
AcDbEntity
  8
USP-GEO
100
AcDbLine
 10
6.02927163190837
 20
0.0000000000000027
 30
0.0
 11
6.529271631908343
 21
0.4999999999999618
 31
0.0
  0
LINE
  5
AE
100
AcDbEntity
  8
USP-GEO
100
AcDbLine
 10
6.529271631908335
 20
6.000000000000038
 30
0.0
 11
6.529271631908343
 21
0.4999999999999601
 31
0.0
  0
LINE
  5
AF
100
AcDbEntity
  8
USP-GEO
100
AcDbLine
 10
6.029271631908359
 20
6.500000000000023
 30
0.0
 11
6.529271631908331
 21
6.000000000000039
 31
0.0
  0
LINE
  5
B0
100
AcDbEntity
  8
USP-GEO
100
AcDbLine
 10
4.878935815954188
 20
6.500000000000023
 30
0.0
 11
6.029271631908362
 21
6.500000000000025
 31
0.0
  0
LINE
  5
B1
100
AcDbEntity
  8
USP-GEO
100
AcDbLine
 10
4.878935815954184
 20
3.12499999999999
 30
0.0
 11
4.90523581595421
 21
3.124999999999989
 31
0.0
  0
LINE
  5
B2
100
AcDbEntity
  8
USP-GEO
100
AcDbLine
 10
4.905235815954208
 20
2.999999999999976
 30
0.0
 11
1.624035815954205
 21
3.000000000000054
 31
0.0
  0
LINE
  5
B3
100
AcDbEntity
  8
USP-GEO
100
AcDbLine
 10
6.075135815954217
 20
3.199377279596297
 30
0.0
 11
6.075135815954217
 21
2.999377279596285
 31
0.0
  0
LINE
  5
B4
100
AcDbEntity
  8
USP-GEO
100
AcDbLine
 10
6.075135815954217
 20
2.999377279596281
 30
0.0
 11
5.875135815954205
 21
2.999377279596279
 31
0.0
  0
LINE
  5
B5
100
AcDbEntity
  8
USP-GEO
100
AcDbLine
 10
5.875135815954205
 20
2.999377279596279
 30
0.0
 11
5.875135815954176
 21
3.199377279596296
 31
0.0
  0
LINE
  5
B6
100
AcDbEntity
  8
USP-GEO
100
AcDbLine
 10
5.875135815954175
 20
3.199377279596305
 30
0.0
 11
6.075135815954217
 21
3.199377279596304
 31
0.0
  0
LINE
  5
B7
100
AcDbEntity
  8
USP-GEO
100
AcDbLine
 10
5.86482715808911
 20
5.500000000000039
 30
0.0
 11
5.975135815954194
 21
5.61030865786514
 31
0.0
  0
LINE
  5
B8
100
AcDbEntity
  8
USP-GEO
100
AcDbLine
 10
5.975135815954193
 20
5.61030865786514
 30
0.0
 11
6.085444473819316
 21
5.500000000000037
 31
0.0
  0
LINE
  5
B9
100
AcDbEntity
  8
USP-GEO
100
AcDbLine
 10
6.085444473819313
 20
5.500000000000039
 30
0.0
 11
5.975135815954194
 21
5.389691342134933
 31
0.0
  0
LINE
  5
BA
100
AcDbEntity
  8
USP-GEO
100
AcDbLine
 10
5.975135815954198
 20
5.389691342134932
 30
0.0
 11
5.864827158089111
 21
5.50000000000004
 31
0.0
  0
CIRCLE
  5
BB
100
AcDbEntity
  8
USP-GEO
100
AcDbCircle
 10
5.904271631908256
 20
2.250000000000009
 30
0.0
 40
0.082
  0
LINE
  5
BC
100
AcDbEntity
  8
USP-GEO
100
AcDbLine
 10
0.5541358159541857
 20
4.110308657865139
 30
0.0
 11
0.664444473819276
 21
4.000000000000034
 31
0.0
  0
LINE
  5
BD
100
AcDbEntity
  8
USP-GEO
100
AcDbLine
 10
0.6644444738192812
 20
4.000000000000031
 30
0.0
 11
0.5541358159541917
 21
3.889691342134927
 31
0.0
  0
LINE
  5
BE
100
AcDbEntity
  8
USP-GEO
100
AcDbLine
 10
0.5541358159541908
 20
3.88969134213493
 30
0.0
 11
0.4438271580890993
 21
4.000000000000033
 31
0.0
  0
LINE
  5
BF
100
AcDbEntity
  8
USP-GEO
100
AcDbLine
 10
0.4438271580890991
 20
4.000000000000034
 30
0.0
 11
0.5541358159541879
 21
4.110308657865139
 31
0.0
  0
CIRCLE
  5
C0
100
AcDbEntity
  8
USP-GEO
100
AcDbCircle
 10
0.6250000000000269
 20
0.3750000000000027
 30
0.0
 40
0.082
  0
CIRCLE
  5
C1
100
AcDbEntity
  8
USP-GEO
100
AcDbCircle
 10
2.249999999999991
 20
0.7500000000000027
 30
0.0
 40
0.082
  0
CIRCLE
  5
C2
100
AcDbEntity
  8
USP-GEO
100
AcDbCircle
 10
3.264635815954177
 20
1.500000000000016
 30
0.0
 40
0.15625
  0
CIRCLE
  5
C3
100
AcDbEntity
  8
USP-GEO
100
AcDbCircle
 10
4.279271631908313
 20
1.875000000000006
 30
0.0
 40
0.082
  0
CIRCLE
  5
C4
100
AcDbEntity
  8
USP-GEO
100
AcDbCircle
 10
4.279271631908313
 20
0.3750000000000027
 30
0.0
 40
0.082
  0
CIRCLE
  5
C5
100
AcDbEntity
  8
USP-GEO
100
AcDbCircle
 10
2.249999999999962
 20
2.250000000000002
 30
0.0
 40
0.082
  0
CIRCLE
  5
C6
100
AcDbEntity
  8
USP-GEO
100
AcDbCircle
 10
0.6249999999999913
 20
1.875000000000002
 30
0.0
 40
0.082
  0
LINE
  5
C7
100
AcDbEntity
  8
USP-GEO
100
AcDbLine
 10
0.5541358159541917
 20
5.389691342134929
 30
0.0
 11
0.4438271580891018
 21
5.500000000000032
 31
0.0
  0
LINE
  5
C8
100
AcDbEntity
  8
USP-GEO
100
AcDbLine
 10
0.4438271580890997
 20
5.500000000000032
 30
0.0
 11
0.5541358159541894
 21
5.610308657865136
 31
0.0
  0
LINE
  5
C9
100
AcDbEntity
  8
USP-GEO
100
AcDbLine
 10
0.5541358159541901
 20
5.610308657865139
 30
0.0
 11
0.6644444738192787
 21
5.500000000000034
 31
0.0
  0
LINE
  5
CA
100
AcDbEntity
  8
USP-GEO
100
AcDbLine
 10
0.6644444738192784
 20
5.500000000000031
 30
0.0
 11
0.5541358159541909
 21
5.389691342134931
 31
0.0
  0
LINE
  5
CB
100
AcDbEntity
  8
USP-GEO
100
AcDbLine
 10
0.6538858159542187
 20
3.199377279596295
 30
0.0
 11
0.6538858159542153
 21
2.999377279596281
 31
0.0
  0
LINE
  5
CC
100
AcDbEntity
  8
USP-GEO
100
AcDbLine
 10
0.6538858159542168
 20
2.999377279596279
 30
0.0
 11
0.4538858159542047
 21
2.999377279596276
 31
0.0
  0
LINE
  5
CD
100
AcDbEntity
  8
USP-GEO
100
AcDbLine
 10
0.4538858159542003
 20
2.999377279596276
 30
0.0
 11
0.4538858159542001
 21
3.199377279596265
 31
0.0
  0
LINE
  5
CE
100
AcDbEntity
  8
USP-GEO
100
AcDbLine
 10
0.4538858159542042
 20
3.199377279596263
 30
0.0
 11
0.6538858159542212
 21
3.199377279596292
 31
0.0
  0
CIRCLE
  5
CF
100
AcDbEntity
  8
USP-GEO
100
AcDbCircle
 10
5.90427163190831
 20
0.7500000000000027
 30
0.0
 40
0.082
  0
LINE
  5
D0
100
AcDbEntity
  8
USP-GEO
100
AcDbLine
 10
6.085444473819315
 20
4.000000000000037
 30
0.0
 11
5.975135815954197
 21
3.889691342134931
 31
0.0
  0
LINE
  5
D1
100
AcDbEntity
  8
USP-GEO
100
AcDbLine
 10
5.975135815954196
 20
3.889691342134929
 30
0.0
 11
5.864827158089108
 21
4.000000000000033
 31
0.0
  0
LINE
  5
D2
100
AcDbEntity
  8
USP-GEO
100
AcDbLine
 10
5.864827158089106
 20
4.000000000000038
 30
0.0
 11
5.975135815954196
 21
4.110308657865144
 31
0.0
  0
LINE
  5
D3
100
AcDbEntity
  8
USP-GEO
100
AcDbLine
 10
5.975135815954197
 20
4.110308657865139
 30
0.0
 11
6.085444473819314
 21
4.000000000000035
 31
0.0
  0
LINE
  5
D4
100
AcDbEntity
  8
USP-GEO
100
AcDbLine
 10
1.650335815954241
 20
3.125000000000002
 30
0.0
 11
1.70233581595424
 21
3.125000000000002
 31
0.0
  0
LINE
  5
D5
100
AcDbEntity
  8
USP-GEO
100
AcDbLine
 10
1.702335815954238
 20
6.249999999999929
 30
0.0
 11
1.702335815954233
 21
6.500000000000029
 31
0.0
  0
LINE
  5
D6
100
AcDbEntity
  8
USP-GEO
100
AcDbLine
 10
1.702335815954239
 20
3.125000000000001
 30
0.0
 11
1.702335815954233
 21
6.249999999999928
 31
0.0
  0
LINE
  5
D7
100
AcDbEntity
  8
USP-GEO
100
AcDbLine
 10
1.650335815954241
 20
6.249999999999931
 30
0.0
 11
1.702335815954239
 21
6.249999999999931
 31
0.0
  0
LINE
  5
D8
100
AcDbEntity
  8
USP-GEO
100
AcDbLine
 10
1.650335815954241
 20
6.249999999999931
 30
0.0
 11
1.650335815954246
 21
3.125000000000001
 31
0.0
  0
LINE
  5
D9
100
AcDbEntity
  8
USP-GEO
100
AcDbLine
 10
1.650335815954234
 20
6.500000000000031
 30
0.0
 11
1.702335815954229
 21
6.500000000000031
 31
0.0
  0
LINE
  5
DA
100
AcDbEntity
  8
USP-GEO
100
AcDbLine
 10
1.650335815954234
 20
6.500000000000031
 30
0.0
 11
1.650335815954238
 21
6.249999999999932
 31
0.0
  0
LINE
  5
DB
100
AcDbEntity
  8
USP-GEO
100
AcDbLine
 10
4.878935815954205
 20
6.500000000000055
 30
0.0
 11
4.826935815954208
 21
6.500000000000055
 31
0.0
  0
LINE
  5
DC
100
AcDbEntity
  8
USP-GEO
100
AcDbLine
 10
4.826935815954216
 20
6.24999999999993
 30
0.0
 11
4.82693581595422
 21
3.124999999999989
 31
0.0
  0
LINE
  5
DD
100
AcDbEntity
  8
USP-GEO
100
AcDbLine
 10
4.826935815954206
 20
6.500000000000055
 30
0.0
 11
4.826935815954214
 21
6.249999999999905
 31
0.0
  0
LINE
  5
DE
100
AcDbEntity
  8
USP-GEO
100
AcDbLine
 10
4.878935815954212
 20
6.249999999999931
 30
0.0
 11
4.826935815954214
 21
6.249999999999931
 31
0.0
  0
LINE
  5
DF
100
AcDbEntity
  8
USP-GEO
100
AcDbLine
 10
4.878935815954205
 20
6.500000000000055
 30
0.0
 11
4.878935815954213
 21
6.249999999999903
 31
0.0
  0
LINE
  5
E0
100
AcDbEntity
  8
USP-GEO
100
AcDbLine
 10
4.878935815954223
 20
3.124999999999988
 30
0.0
 11
4.826935815954221
 21
3.124999999999988
 31
0.0
  0
LINE
  5
E1
100
AcDbEntity
  8
USP-GEO
100
AcDbLine
 10
4.878935815954216
 20
3.124999999999988
 30
0.0
 11
4.878935815954212
 21
6.249999999999931
 31
0.0
  0
LINE
  5
E2
100
AcDbEntity
  8
USP-GEO
100
AcDbLine
 10
0.6538858159542171
 20
3.000000000000063
 30
0.0
 11
0.4538858159541983
 21
3.000000000000068
 31
0.0
  0
LINE
  5
E3
100
AcDbEntity
  8
USP-GEO
100
AcDbLine
 10
0.6538858159542171
 20
3.086169506011663
 30
0.0
 11
0.4538858159541983
 21
3.086169506011668
 31
0.0
  0
LINE
  5
E4
100
AcDbEntity
  8
USP-HID
100
AcDbLine
 10
1.650335815954226
 20
3.582000000000009
 30
0.0
 11
1.702335815954233
 21
3.582000000000009
 31
0.0
  0
LINE
  5
E5
100
AcDbEntity
  8
USP-HID
100
AcDbLine
 10
1.650335815954227
 20
3.418000000000009
 30
0.0
 11
1.702335815954234
 21
3.418000000000009
 31
0.0
  0
LINE
  5
E6
100
AcDbEntity
  8
USP-HID
100
AcDbLine
 10
1.650335815954226
 20
5.082000000000013
 30
0.0
 11
1.702335815954226
 21
5.082000000000013
 31
0.0
  0
LINE
  5
E7
100
AcDbEntity
  8
USP-HID
100
AcDbLine
 10
1.650335815954227
 20
4.918000000000013
 30
0.0
 11
1.702335815954227
 21
4.918000000000013
 31
0.0
  0
LINE
  5
E8
100
AcDbEntity
  8
USP-HID
100
AcDbLine
 10
1.650335815954212
 20
5.832000000000016
 30
0.0
 11
1.702335815954212
 21
5.832000000000016
 31
0.0
  0
LINE
  5
E9
100
AcDbEntity
  8
USP-HID
100
AcDbLine
 10
1.650335815954213
 20
5.668000000000017
 30
0.0
 11
1.702335815954212
 21
5.668000000000017
 31
0.0
  0
LINE
  5
EA
100
AcDbEntity
  8
USP-HID
100
AcDbLine
 10
1.650335815954212
 20
4.332000000000013
 30
0.0
 11
1.702335815954212
 21
4.332000000000013
 31
0.0
  0
LINE
  5
EB
100
AcDbEntity
  8
USP-HID
100
AcDbLine
 10
1.650335815954213
 20
4.168000000000013
 30
0.0
 11
1.702335815954212
 21
4.168000000000013
 31
0.0
  0
LINE
  5
EC
100
AcDbEntity
  8
USP-HID
100
AcDbLine
 10
4.878935815954198
 20
6.043000000000017
 30
0.0
 11
4.826935815954195
 21
6.043000000000017
 31
0.0
  0
LINE
  5
ED
100
AcDbEntity
  8
USP-HID
100
AcDbLine
 10
4.878935815954198
 20
6.207000000000016
 30
0.0
 11
4.826935815954195
 21
6.207000000000016
 31
0.0
  0
LINE
  5
EE
100
AcDbEntity
  8
USP-HID
100
AcDbLine
 10
4.878935815954212
 20
5.293000000000017
 30
0.0
 11
4.826935815954209
 21
5.293000000000017
 31
0.0
  0
LINE
  5
EF
100
AcDbEntity
  8
USP-HID
100
AcDbLine
 10
4.878935815954212
 20
5.457000000000016
 30
0.0
 11
4.826935815954209
 21
5.457000000000016
 31
0.0
  0
LINE
  5
F0
100
AcDbEntity
  8
USP-HID
100
AcDbLine
 10
4.878935815954198
 20
4.543000000000024
 30
0.0
 11
4.826935815954199
 21
4.543000000000024
 31
0.0
  0
LINE
  5
F1
100
AcDbEntity
  8
USP-HID
100
AcDbLine
 10
4.878935815954198
 20
4.707000000000023
 30
0.0
 11
4.826935815954199
 21
4.707000000000023
 31
0.0
  0
LINE
  5
F2
100
AcDbEntity
  8
USP-HID
100
AcDbLine
 10
4.878935815954212
 20
3.793000000000017
 30
0.0
 11
4.826935815954213
 21
3.793000000000017
 31
0.0
  0
LINE
  5
F3
100
AcDbEntity
  8
USP-HID
100
AcDbLine
 10
4.878935815954212
 20
3.957000000000016
 30
0.0
 11
4.826935815954213
 21
3.957000000000016
 31
0.0
  0
LINE
  5
F4
100
AcDbEntity
  8
USP-HID
100
AcDbLine
 10
6.075135815954185
 20
3.043243227036909
 30
0.0
 11
5.875135815954165
 21
3.043243227036914
 31
0.0
  0
LINE
  5
F5
100
AcDbEntity
  8
USP-HID
100
AcDbLine
 10
6.309977087389578
 20
4.512238488887034
 30
0.0
 11
5.191330488888722
 21
5.630885087387778
 31
0.0
  0
ARC
  5
F6
100
AcDbEntity
  8
USP-HID
100
AcDbCircle
 10
5.07163034268999
 20
5.511184941189045
 30
0.0
 40
0.1692815701722953
100
AcDbArc
 50
44.99999999999852
 51
225.000000000004
  0
LINE
  5
F7
100
AcDbEntity
  8
USP-HID
100
AcDbLine
 10
6.070576794992051
 20
4.272838196489497
 30
0.0
 11
4.95193019649126
 21
5.391484794990303
 31
0.0
  0
LINE
  5
F8
100
AcDbEntity
  8
USP-HID
100
AcDbLine
 10
0.4586948369163564
 20
4.27283819648949
 30
0.0
 11
1.577341435417147
 21
5.3914847949903
 31
0.0
  0
ARC
  5
F9
100
AcDbEntity
  8
USP-HID
100
AcDbCircle
 10
1.45764128921842
 20
5.511184941189045
 30
0.0
 40
0.1692815701722953
100
AcDbArc
 50
314.9999999999964
 51
135.0000000000008
  0
LINE
  5
FA
100
AcDbEntity
  8
USP-HID
100
AcDbLine
 10
0.2192945445188299
 20
4.512238488887024
 30
0.0
 11
1.337941143019686
 21
5.630885087387771
 31
0.0
  0
ARC
  5
FB
100
AcDbEntity
  8
USP-HID
100
AcDbCircle
 10
1.457641289218399
 20
4.236444541021724
 30
0.0
 40
0.1692815701722931
100
AcDbArc
 50
314.9999999999975
 51
134.9999999999999
  0
LINE
  5
FC
100
AcDbEntity
  8
USP-HID
100
AcDbLine
 10
0.5728479351121491
 20
3.591051479312908
 30
0.0
 11
1.337941143019719
 21
4.356144687220404
 31
0.0
  0
ARC
  5
FD
100
AcDbEntity
  8
USP-HID
100
AcDbCircle
 10
0.6925480813108733
 20
3.471351333114177
 30
0.0
 40
0.1692815701722945
100
AcDbArc
 50
134.9999999999979
 51
315.0000000000005
  0
LINE
  5
FE
100
AcDbEntity
  8
USP-HID
100
AcDbLine
 10
0.8122482275095476
 20
3.351651186915506
 30
0.0
 11
1.577341435417071
 21
4.116744394823043
 31
0.0
  0
ARC
  5
FF
100
AcDbEntity
  8
USP-HID
100
AcDbCircle
 10
5.071630342690012
 20
4.236444541021728
 30
0.0
 40
0.1692815701722931
100
AcDbArc
 50
45.00000000000127
 51
225.0000000000025
  0
LINE
  5
100
100
AcDbEntity
  8
USP-HID
100
AcDbLine
 10
5.717023404398863
 20
3.35165118691551
 30
0.0
 11
4.951930196491338
 21
4.116744394823045
 31
0.0
  0
ARC
  5
101
100
AcDbEntity
  8
USP-HID
100
AcDbCircle
 10
5.836723550597538
 20
3.471351333114184
 30
0.0
 40
0.1692815701722945
100
AcDbArc
 50
225.0000000000008
 51
45.00000000000214
  0
LINE
  5
102
100
AcDbEntity
  8
USP-HID
100
AcDbLine
 10
5.956423696796262
 20
3.591051479312919
 30
0.0
 11
5.191330488888691
 21
4.356144687220412
 31
0.0
  0
ARC
  5
103
100
AcDbEntity
  8
USP-HID
100
AcDbCircle
 10
6.190276941190786
 20
4.392538342688236
 30
0.0
 40
0.1692815701722945
100
AcDbArc
 50
225.000000000002
 51
45.00000000000214
  0
ARC
  5
104
100
AcDbEntity
  8
USP-HID
100
AcDbCircle
 10
0.3389946907176251
 20
4.392538342688228
 30
0.0
 40
0.1692815701722945
100
AcDbArc
 50
134.9999999999976
 51
314.9999999999985
  0
LINE
  5
105
100
AcDbEntity
  8
USP-HID
100
AcDbLine
 10
0.6538858159542171
 20
3.043243227036874
 30
0.0
 11
0.4538858159541969
 21
3.043243227036879
 31
0.0
  0
TEXT
  5
106
100
AcDbEntity
  8
USP-TXT
100
AcDbText
 10
-0.2353641840458462
 20
-1.510468630259956
 30
0.0
 40
0.375
  1
RT16-2 - FRONT VIEW
 72
     1
 11
3.264635815954153
 21
-1.510468630259956
 31
0.0
100
AcDbText
  0
ENDBLK
  5
108
100
AcDbEntity
  8
0
100
AcDbBlockEnd
  0
BLOCK
  5
155
100
AcDbEntity
  8
0
100
AcDbBlockBegin
  2
RT162_S
 70
     0
 10
0.0
 20
0.0
 30
0.0
  3
RT162_S
  1

  0
ARC
  5
10B
100
AcDbEntity
  8
USP-GEO
100
AcDbCircle
 10
1.81229999999997
 20
4.236444541021672
 30
0.0
 40
0.3125000000000544
100
AcDbArc
 50
165.5614261716839
 51
180.0
  0
ARC
  5
10C
100
AcDbEntity
  8
USP-GEO
100
AcDbCircle
 10
1.812299999999991
 20
3.471351333114178
 30
0.0
 40
0.3125000000000035
100
AcDbArc
 50
180.0000000000006
 51
216.8698976458458
  0
LINE
  5
10D
100
AcDbEntity
  8
USP-GEO
100
AcDbLine
 10
1.499800000000005
 20
3.471351333114168
 30
0.0
 11
1.499799999999984
 21
4.236444541021654
 31
0.0
  0
LINE
  5
10E
100
AcDbEntity
  8
USP-GEO
100
AcDbLine
 10
1.562300000000011
 20
4.205038342688222
 30
0.0
 11
1.562234203251698
 21
4.205038342688222
 31
0.0
  0
ARC
  5
10F
100
AcDbEntity
  8
USP-GEO
100
AcDbCircle
 10
1.812234203251685
 20
4.392538342688229
 30
0.0
 40
0.3125000000000035
100
AcDbArc
 50
180.0000000000019
 51
216.8698976458458
  0
ARC
  5
110
100
AcDbEntity
  8
USP-GEO
100
AcDbCircle
 10
1.812299999999959
 20
5.511184941189046
 30
0.0
 40
0.3125000000000061
100
AcDbArc
 50
143.13010235415
 51
180.0
  0
LINE
  5
111
100
AcDbEntity
  8
USP-GEO
100
AcDbLine
 10
1.499800000000005
 20
4.397072581239464
 30
0.0
 11
1.499799999999973
 21
5.511184941189036
 31
0.0
  0
LINE
  5
112
100
AcDbEntity
  8
USP-GEO
100
AcDbLine
 10
1.614300000000005
 20
3.086169506011692
 30
0.0
 11
1.681812947370842
 21
3.000000000000091
 31
0.0
  0
LINE
  5
113
100
AcDbEntity
  8
USP-GEO
100
AcDbLine
 10
1.681812947370842
 20
3.000000000000092
 30
0.0
 11
1.740951788597207
 21
3.043243227036904
 31
0.0
  0
LINE
  5
114
100
AcDbEntity
  8
USP-GEO
100
AcDbLine
 10
1.740951788597206
 20
3.043243227036906
 30
0.0
 11
1.614300000000028
 21
3.199377279596308
 31
0.0
  0
LINE
  5
115
100
AcDbEntity
  8
USP-GEO
100
AcDbLine
 10
1.614300000000007
 20
6.000000000000037
 30
0.0
 11
1.614299999999994
 21
6.500000000000021
 31
0.0
  0
LINE
  5
116
100
AcDbEntity
  8
USP-GEO
100
AcDbLine
 10
1.614300000000039
 20
0.4999999999999583
 30
0.0
 11
1.614300000000008
 21
6.000000000000035
 31
0.0
  0
LINE
  5
117
100
AcDbEntity
  8
USP-GEO
100
AcDbLine
 10
1.614300000000026
 20
0.0
 30
0.0
 11
1.614300000000035
 21
0.4999999999999601
 31
0.0
  0
LINE
  5
118
100
AcDbEntity
  8
USP-GEO
100
AcDbLine
 10
1.562234203251678
 20
4.525120864160712
 30
0.0
 11
1.562300000000007
 21
4.525120864160712
 31
0.0
  0
LINE
  5
119
100
AcDbEntity
  8
USP-GEO
100
AcDbLine
 10
1.562234203251698
 20
4.205038342688226
 30
0.0
 11
1.562234203251676
 21
4.525120864160709
 31
0.0
  0
ELLIPSE
  5
11A
100
AcDbEntity
  8
USP-GEO
100
AcDbEllipse
 10
1.812234203251685
 20
4.392538342688229
 30
0.0
 11
-0.3124999999999861
 21
-0.000000000000003
 31
0.0
210
0.0
220
0.0
230
1.0
 40
0.707106781186563
 41
5.639684198386312
 42
6.28318530717962
  0
LINE
  5
11B
100
AcDbEntity
  8
USP-GEO
100
AcDbLine
 10
1.562300000000027
 20
0.0
 30
0.0
 11
1.562300000000035
 21
0.4999999999999592
 31
0.0
  0
LINE
  5
11C
100
AcDbEntity
  8
USP-GEO
100
AcDbLine
 10
1.562300000000005
 20
6.000000000000035
 30
0.0
 11
1.562300000000035
 21
0.4999999999999574
 31
0.0
  0
LINE
  5
11D
100
AcDbEntity
  8
USP-GEO
100
AcDbLine
 10
1.562299999999995
 20
6.500000000000021
 30
0.0
 11
1.562300000000007
 21
6.000000000000036
 31
0.0
  0
LINE
  5
11E
100
AcDbEntity
  8
USP-GEO
100
AcDbLine
 10
1.562300000000037
 20
0.499999999999961
 30
0.0
 11
1.614300000000035
 21
0.4999999999999614
 31
0.0
  0
LINE
  5
11F
100
AcDbEntity
  8
USP-GEO
100
AcDbLine
 10
1.562300000000027
 20
0.0
 30
0.0
 11
1.614300000000026
 21
0.0000000000000002
 31
0.0
  0
LINE
  5
120
100
AcDbEntity
  8
USP-GEO
100
AcDbLine
 10
1.562300000000005
 20
6.000000000000035
 30
0.0
 11
1.614300000000005
 21
6.000000000000035
 31
0.0
  0
LINE
  5
121
100
AcDbEntity
  8
USP-GEO
100
AcDbLine
 10
1.562299999999995
 20
6.500000000000021
 30
0.0
 11
1.614299999999992
 21
6.500000000000021
 31
0.0
  0
LINE
  5
122
100
AcDbEntity
  8
USP-GEO
100
AcDbLine
 10
0.2500000000001243
 20
6.500000000000049
 30
0.0
 11
1.56229999999997
 21
6.500000000000021
 31
0.0
  0
CIRCLE
  5
123
100
AcDbEntity
  8
USP-GEO
100
AcDbCircle
 10
0.986799999999965
 20
6.125000000000014
 30
0.0
 40
0.082
  0
CIRCLE
  5
124
100
AcDbEntity
  8
USP-GEO
100
AcDbCircle
 10
0.3833262073680732
 20
5.375000000000014
 30
0.0
 40
0.082
  0
CIRCLE
  5
125
100
AcDbEntity
  8
USP-GEO
100
AcDbCircle
 10
0.9867999999999756
 20
4.625000000000021
 30
0.0
 40
0.082
  0
CIRCLE
  5
126
100
AcDbEntity
  8
USP-GEO
100
AcDbCircle
 10
0.3833262073680803
 20
3.875000000000014
 30
0.0
 40
0.082
  0
LINE
  5
127
100
AcDbEntity
  8
USP-GEO
100
AcDbLine
 10
0.2500000000001226
 20
6.500000000000053
 30
0.0
 11
0.0000000000000124
 21
6.2499999999999
 31
0.0
  0
LINE
  5
128
100
AcDbEntity
  8
USP-GEO
100
AcDbLine
 10
0.0000000000000053
 20
3.124999999999985
 30
0.0
 11
-0.0000000000000107
 21
6.249999999999928
 31
0.0
  0
LINE
  5
129
100
AcDbEntity
  8
USP-GEO
100
AcDbLine
 10
1.562299999999984
 20
3.12500000000002
 30
0.0
 11
0.0
 21
3.124999999999984
 31
0.0
  0
ARC
  5
12A
100
AcDbEntity
  8
USP-HID
100
AcDbCircle
 10
1.81229999999997
 20
4.236444541021665
 30
0.0
 40
0.2605000000000557
100
AcDbArc
 50
139.4709667083706
 51
180.0
  0
ARC
  5
12B
100
AcDbEntity
  8
USP-HID
100
AcDbCircle
 10
1.81229999999997
 20
4.236444541021672
 30
0.0
 40
0.3125000000000544
100
AcDbArc
 50
143.1301023541453
 51
165.5614261716839
  0
ARC
  5
12C
100
AcDbEntity
  8
USP-HID
100
AcDbCircle
 10
1.812299999999991
 20
3.471351333114178
 30
0.0
 40
0.2605000000000019
100
AcDbArc
 50
180.0000000000003
 51
220.5290332916165
  0
LINE
  5
12D
100
AcDbEntity
  8
USP-HID
100
AcDbLine
 10
1.551800000000008
 20
3.47135133311417
 30
0.0
 11
1.551799999999987
 21
4.236444541021656
 31
0.0
  0
ARC
  5
12E
100
AcDbEntity
  8
USP-HID
100
AcDbCircle
 10
1.812234203251685
 20
4.392538342688233
 30
0.0
 40
0.2605000000000019
100
AcDbArc
 50
180.0000000000015
 51
220.5290332916173
  0
ARC
  5
12F
100
AcDbEntity
  8
USP-HID
100
AcDbCircle
 10
1.812299999999963
 20
5.511184941189043
 30
0.0
 40
0.2605000000000061
100
AcDbArc
 50
139.4709667083853
 51
180.0
  0
LINE
  5
130
100
AcDbEntity
  8
USP-HID
100
AcDbLine
 10
1.499800000000005
 20
4.392538342688287
 30
0.0
 11
1.499800000000005
 21
4.397072581239464
 31
0.0
  0
LINE
  5
131
100
AcDbEntity
  8
USP-HID
100
AcDbLine
 10
1.551800000000008
 20
4.392538342688292
 30
0.0
 11
1.551799999999976
 21
5.511184941189039
 31
0.0
  0
LINE
  5
132
100
AcDbEntity
  8
USP-HID
100
AcDbLine
 10
1.614234203251708
 20
4.205038342688265
 30
0.0
 11
1.61430000000001
 21
4.205038342688265
 31
0.0
  0
LINE
  5
133
100
AcDbEntity
  8
USP-HID
100
AcDbLine
 10
1.56230000000002
 20
0.8320000000000034
 30
0.0
 11
1.614300000000023
 21
0.8320000000000039
 31
0.0
  0
LINE
  5
134
100
AcDbEntity
  8
USP-HID
100
AcDbLine
 10
1.56230000000002
 20
0.6680000000000037
 30
0.0
 11
1.614300000000023
 21
0.6680000000000042
 31
0.0
  0
LINE
  5
135
100
AcDbEntity
  8
USP-HID
100
AcDbLine
 10
1.562299999999988
 20
0.4570000000000001
 30
0.0
 11
1.614299999999987
 21
0.4570000000000003
 31
0.0
  0
LINE
  5
136
100
AcDbEntity
  8
USP-HID
100
AcDbLine
 10
1.562299999999988
 20
0.2929999999999999
 30
0.0
 11
1.614299999999987
 21
0.2930000000000001
 31
0.0
  0
LINE
  5
137
100
AcDbEntity
  8
USP-HID
100
AcDbLine
 10
1.56229999999998
 20
1.957000000000003
 30
0.0
 11
1.61429999999998
 21
1.957000000000003
 31
0.0
  0
LINE
  5
138
100
AcDbEntity
  8
USP-HID
100
AcDbLine
 10
1.56229999999998
 20
1.793000000000003
 30
0.0
 11
1.61429999999998
 21
1.793000000000004
 31
0.0
  0
LINE
  5
139
100
AcDbEntity
  8
USP-HID
100
AcDbLine
 10
1.562299999999959
 20
1.656250000000014
 30
0.0
 11
1.614299999999959
 21
1.656250000000014
 31
0.0
  0
LINE
  5
13A
100
AcDbEntity
  8
USP-HID
100
AcDbLine
 10
1.562299999999959
 20
1.343750000000014
 30
0.0
 11
1.614299999999959
 21
1.343750000000014
 31
0.0
  0
LINE
  5
13B
100
AcDbEntity
  8
USP-HID
100
AcDbLine
 10
1.562300000000012
 20
2.332000000000006
 30
0.0
 11
1.614300000000012
 21
2.332000000000007
 31
0.0
  0
LINE
  5
13C
100
AcDbEntity
  8
USP-HID
100
AcDbLine
 10
1.562300000000012
 20
2.168000000000007
 30
0.0
 11
1.614300000000012
 21
2.168000000000007
 31
0.0
  0
LINE
  5
13D
100
AcDbEntity
  8
USP-HID
100
AcDbLine
 10
1.562299999999973
 20
2.999999999999971
 30
0.0
 11
1.614299999999984
 21
2.999999999999971
 31
0.0
  0
LINE
  5
13E
100
AcDbEntity
  8
USP-HID
100
AcDbLine
 10
1.56229999999997
 20
3.124999999999978
 30
0.0
 11
1.61429999999998
 21
3.124999999999978
 31
0.0
  0
LINE
  5
13F
100
AcDbEntity
  8
USP-HID
100
AcDbLine
 10
1.5622342032517
 20
4.259955821215747
 30
0.0
 11
1.562300000000007
 21
4.259955821215747
 31
0.0
  0
ELLIPSE
  5
140
100
AcDbEntity
  8
USP-HID
100
AcDbEllipse
 10
1.812299999999991
 20
4.392538342688297
 30
0.0
 11
-0.3124999999999861
 21
-0.0000000000000033
 31
0.0
210
0.0
220
0.0
230
1.0
 40
0.707106781186563
 41
5.639684198386412
 42
6.926686415973023
  0
ELLIPSE
  5
141
100
AcDbEntity
  8
USP-HID
100
AcDbEllipse
 10
1.812234203251685
 20
4.392538342688229
 30
0.0
 11
-0.3124999999999861
 21
-0.000000000000003
 31
0.0
210
0.0
220
0.0
230
1.0
 40
0.707106781186563
 41
0.0000000000000347
 42
0.6435011087933037
  0
LINE
  5
142
100
AcDbEntity
  8
USP-HID
100
AcDbLine
 10
1.614234203251708
 20
4.205038342688265
 30
0.0
 11
1.61423420325169
 21
4.525120864160736
 31
0.0
  0
ELLIPSE
  5
143
100
AcDbEntity
  8
USP-HID
100
AcDbEllipse
 10
1.812234203251685
 20
4.392538342688233
 30
0.0
 11
-0.2605000000000019
 21
-0.0000000000000087
 31
0.0
210
0.0
220
0.0
230
1.0
 40
0.7071067811865559
 41
5.575820233590482
 42
6.990550380768665
  0
LINE
  5
144
100
AcDbEntity
  8
USP-HID
100
AcDbLine
 10
1.614234203251694
 20
4.259955821215775
 30
0.0
 11
1.614300000000005
 21
4.259955821215775
 31
0.0
  0
ELLIPSE
  5
145
100
AcDbEntity
  8
USP-HID
100
AcDbEllipse
 10
1.812299999999995
 20
4.3925383426883
 30
0.0
 11
-0.2604999999999861
 21
-0.0000000000000028
 31
0.0
210
0.0
220
0.0
230
1.0
 40
0.707106781186563
 41
5.575820233590478
 42
6.990550380768939
  0
LINE
  5
146
100
AcDbEntity
  8
USP-HID
100
AcDbLine
 10
1.614234203251678
 20
4.525120864160733
 30
0.0
 11
1.61430000000001
 21
4.525120864160733
 31
0.0
  0
LINE
  5
147
100
AcDbEntity
  8
USP-HID
100
AcDbLine
 10
1.562300000000002
 20
3.889691342134931
 30
0.0
 11
1.614300000000001
 21
3.889691342134931
 31
0.0
  0
LINE
  5
148
100
AcDbEntity
  8
USP-HID
100
AcDbLine
 10
1.562300000000009
 20
4.000000000000035
 30
0.0
 11
1.614300000000008
 21
4.000000000000035
 31
0.0
  0
LINE
  5
149
100
AcDbEntity
  8
USP-HID
100
AcDbLine
 10
1.562300000000005
 20
4.110308657865139
 30
0.0
 11
1.614300000000005
 21
4.110308657865139
 31
0.0
  0
LINE
  5
14A
100
AcDbEntity
  8
USP-HID
100
AcDbLine
 10
1.562299999999995
 20
5.610308657865139
 30
0.0
 11
1.614299999999994
 21
5.610308657865139
 31
0.0
  0
LINE
  5
14B
100
AcDbEntity
  8
USP-HID
100
AcDbLine
 10
1.562299999999995
 20
5.389691342134931
 30
0.0
 11
1.614299999999996
 21
5.389691342134931
 31
0.0
  0
LINE
  5
14C
100
AcDbEntity
  8
USP-HID
100
AcDbLine
 10
1.562299999999998
 20
5.500000000000035
 30
0.0
 11
1.614299999999998
 21
5.500000000000035
 31
0.0
  0
LINE
  5
14D
100
AcDbEntity
  8
USP-HID
100
AcDbLine
 10
1.562300000000009
 20
2.999377279596281
 30
0.0
 11
1.61430000000001
 21
2.999377279596281
 31
0.0
  0
LINE
  5
14E
100
AcDbEntity
  8
USP-HID
100
AcDbLine
 10
1.562300000000009
 20
3.199377279596291
 30
0.0
 11
1.61430000000001
 21
3.199377279596291
 31
0.0
  0
LINE
  5
14F
100
AcDbEntity
  8
USP-HID
100
AcDbLine
 10
1.562299999999966
 20
0.250000000000238
 30
0.0
 11
1.614299999999968
 21
0.2500000000002382
 31
0.0
  0
CIRCLE
  5
150
100
AcDbEntity
  8
USP-HID
100
AcDbCircle
 10
0.9867999999999703
 20
4.25000000000001
 30
0.0
 40
0.082
  0
CIRCLE
  5
151
100
AcDbEntity
  8
USP-HID
100
AcDbCircle
 10
0.9867999999999632
 20
5.75000000000001
 30
0.0
 40
0.082
  0
CIRCLE
  5
152
100
AcDbEntity
  8
USP-HID
100
AcDbCircle
 10
0.3868804150958738
 20
5.000000000000014
 30
0.0
 40
0.082
  0
CIRCLE
  5
153
100
AcDbEntity
  8
USP-HID
100
AcDbCircle
 10
0.3868804150958809
 20
3.50000000000001
 30
0.0
 40
0.082
  0
TEXT
  5
154
100
AcDbEntity
  8
USP-TXT
100
AcDbText
 10
-2.468850000000006
 20
-1.510468630259959
 30
0.0
 40
0.375
  1
RT16-2 - SIDE VIEW
 72
     1
 11
0.7811499999999932
 21
-1.510468630259959
 31
0.0
100
AcDbText
  0
ENDBLK
  5
156
100
AcDbEntity
  8
0
100
AcDbBlockEnd
  0
ENDSEC
  0
SECTION
  2
ENTITIES
  0
INSERT
  5
3
100
AcDbEntity
  8
USP
100
AcDbBlockReference
  2
RT162_T
 10
0.0007649453131259
 20
13.87121702727081
 30
0.0
  0
INSERT
  5
8C
100
AcDbEntity
  8
USP
100
AcDbBlockReference
  2
RT162_F
 10
0.0007649453129959
 20
1.510943843276961
 30
0.0
  0
INSERT
  5
109
100
AcDbEntity
  8
USP
100
AcDbBlockReference
  2
RT162_S
 10
12.31020789390397
 20
1.510943843276963
 30
0.0
  0
VIEWPORT
  5
15C
102
{ACAD_XDICTIONARY
360
15D
102
}
100
AcDbEntity
 67
     1
  8
0
100
AcDbViewport
 10
5.285416850893516
 20
3.968749891115924
 30
0.0
 40
13.50573247017707
 41
8.992999745766947
 68
    -1
 69
     1
1001
ACAD
1000
MVIEW
1002
{
1070
    16
1010
0.0
1020
0.0
1030
0.0
1010
0.0
1020
0.0
1030
1.0
1040
0.0
1040
8.992999745766947
1040
5.285416850893516
1040
3.968749891115924
1040
50.0
1040
0.0
1040
0.0
1070
     0
1070
   100
1070
     1
1070
     1
1070
     0
1070
     0
1070
     0
1070
     0
1040
0.0
1040
0.0
1040
0.0
1040
0.5
1040
0.5
1040
0.5
1040
0.5
1070
     0
1002
{
1002
}
1002
}
  0
ENDSEC
  0
SECTION
  2
OBJECTS
  0
DICTIONARY
  5
173
102
{ACAD_XDICTIONARY
360
174
102
}
100
AcDbDictionary
  3
ACAD_GROUP
350
171
  3
ACAD_MLINESTYLE
350
172
  0
DICTIONARY
  5
86
100
AcDbDictionary
280
     1
  3
ACAD_XREC_ROUNDTRIP
360
87
  0
DICTIONARY
  5
3A
100
AcDbDictionary
280
     1
  3
ACAD_XREC_ROUNDTRIP
360
3B
  0
DICTIONARY
  5
157
100
AcDbDictionary
280
     1
  3
ACAD_LAYOUTSELFREF
360
158
  0
DICTIONARY
  5
161
100
AcDbDictionary
280
     1
  3
ACAD_LAYOUTSELFREF
360
162
  0
DICTIONARY
  5
15D
100
AcDbDictionary
280
     1
  3
ACAD_XREC_ROUNDTRIP
360
15E
  0
DICTIONARY
  5
174
100
AcDbDictionary
280
     1
  3
ACAD_XREC_ROUNDTRIP
360
175
  0
DICTIONARY
  5
171
102
{ACAD_REACTORS
330
173
102
}
100
AcDbDictionary
  0
DICTIONARY
  5
172
102
{ACAD_REACTORS
330
173
102
}
100
AcDbDictionary
  3
STANDARD
350
176
  0
XRECORD
  5
87
102
{ACAD_REACTORS
330
86
102
}
100
AcDbXrecord
102
EXTNAMES
  1
USP-TXT
  2
USP-Txt
  0
XRECORD
  5
3B
102
{ACAD_REACTORS
330
3A
102
}
100
AcDbXrecord
102
EXTNAMES
  1
USP-HID
  2
USP-Hid
  0
XRECORD
  5
158
102
{ACAD_REACTORS
330
157
102
}
100
AcDbXrecord
340
2
  0
XRECORD
  5
162
102
{ACAD_REACTORS
330
161
102
}
100
AcDbXrecord
340
8D
  0
XRECORD
  5
15E
102
{ACAD_REACTORS
330
15D
102
}
100
AcDbXrecord
102
UCS
 74
     0
 71
     1
 10
0.0
 20
0.0
 30
0.0
 10
1.0
 20
0.0
 30
0.0
 10
0.0
 20
1.0
 30
0.0
146
0.0
 79
     0
102
VIEW
281
     0
102
NEWVIEWCONTROL
280
     4
102
SHADEPLOT
 70
     0
  0
XRECORD
  5
175
102
{ACAD_REACTORS
330
174
102
}
100
AcDbXrecord
102
EXTNAMES
  1
ACDBVARIABLEDICTIONARY
  2
AcDbVariableDictionary
  1
AUXHDRRNDTRIPDATA
  2
AuxHdrRndTripData
  0
MLINESTYLE
  5
176
102
{ACAD_REACTORS
330
172
102
}
100
AcDbMlineStyle
  2
STANDARD
 70
     0
  3

 62
     0
 51
90.0
 52
90.0
 71
     2
 49
0.5
 62
   256
  6
BYLAYER
 49
-0.5
 62
   256
  6
BYLAYER
  0
ENDSEC
  0
EOF
