  0
SECTION
  2
HEADER
  9
$ACADVER
  1
AC1015
  9
$ACADMAINTVER
 70
    20
  9
$DWGCODEPAGE
  3
ANSI_1252
  9
$INSBASE
 10
0.0
 20
0.0
 30
0.0
  9
$EXTMIN
 10
0.0003661829982491
 20
0.0002746372486868
 30
0.0
  9
$EXTMAX
 10
9.785574362983693
 20
8.726616744999439
 30
0.0000000000000193
  9
$LIMMIN
 10
0.0
 20
0.0
  9
$LIMMAX
 10
12.0
 20
9.0
  9
$ORTHOMODE
 70
     0
  9
$REGENMODE
 70
     1
  9
$FILLMODE
 70
     1
  9
$QTEXTMODE
 70
     0
  9
$MIRRTEXT
 70
     1
  9
$LTSCALE
 40
1.0
  9
$ATTMODE
 70
     1
  9
$TEXTSIZE
 40
0.25
  9
$TRACEWID
 40
0.05
  9
$TEXTSTYLE
  7
STANDARD
  9
$CLAYER
  8
0
  9
$CELTYPE
  6
BYLAYER
  9
$CECOLOR
 62
   256
  9
$CELTSCALE
 40
1.0
  9
$DISPSILH
 70
     0
  9
$DIMSCALE
 40
1.0
  9
$DIMASZ
 40
0.18
  9
$DIMEXO
 40
0.0625
  9
$DIMDLI
 40
0.38
  9
$DIMRND
 40
0.0
  9
$DIMDLE
 40
0.0
  9
$DIMEXE
 40
0.18
  9
$DIMTP
 40
0.0
  9
$DIMTM
 40
0.0
  9
$DIMTXT
 40
0.18
  9
$DIMCEN
 40
0.09
  9
$DIMTSZ
 40
0.0
  9
$DIMTOL
 70
     0
  9
$DIMLIM
 70
     0
  9
$DIMTIH
 70
     1
  9
$DIMTOH
 70
     1
  9
$DIMSE1
 70
     0
  9
$DIMSE2
 70
     0
  9
$DIMTAD
 70
     0
  9
$DIMZIN
 70
     0
  9
$DIMBLK
  1

  9
$DIMASO
 70
     1
  9
$DIMSHO
 70
     1
  9
$DIMPOST
  1

  9
$DIMAPOST
  1

  9
$DIMALT
 70
     0
  9
$DIMALTD
 70
     2
  9
$DIMALTF
 40
25.4
  9
$DIMLFAC
 40
1.0
  9
$DIMTOFL
 70
     0
  9
$DIMTVP
 40
0.0
  9
$DIMTIX
 70
     0
  9
$DIMSOXD
 70
     0
  9
$DIMSAH
 70
     0
  9
$DIMBLK1
  1

  9
$DIMBLK2
  1

  9
$DIMSTYLE
  2
STANDARD
  9
$DIMCLRD
 70
     0
  9
$DIMCLRE
 70
     0
  9
$DIMCLRT
 70
     0
  9
$DIMTFAC
 40
1.0
  9
$DIMGAP
 40
0.09
  9
$DIMJUST
 70
     0
  9
$DIMSD1
 70
     0
  9
$DIMSD2
 70
     0
  9
$DIMTOLJ
 70
     1
  9
$DIMTZIN
 70
     0
  9
$DIMALTZ
 70
     0
  9
$DIMALTTZ
 70
     0
  9
$DIMUPT
 70
     0
  9
$DIMDEC
 70
     4
  9
$DIMTDEC
 70
     4
  9
$DIMALTU
 70
     2
  9
$DIMALTTD
 70
     2
  9
$DIMTXSTY
  7
STANDARD
  9
$DIMAUNIT
 70
     0
  9
$DIMADEC
 70
     0
  9
$DIMALTRND
 40
0.0
  9
$DIMAZIN
 70
     0
  9
$DIMDSEP
 70
    46
  9
$DIMATFIT
 70
     3
  9
$DIMFRAC
 70
     0
  9
$DIMLDRBLK
  1

  9
$DIMLUNIT
 70
     2
  9
$DIMLWD
 70
    -2
  9
$DIMLWE
 70
    -2
  9
$DIMTMOVE
 70
     0
  9
$LUNITS
 70
     2
  9
$LUPREC
 70
     4
  9
$SKETCHINC
 40
0.1
  9
$FILLETRAD
 40
0.5
  9
$AUNITS
 70
     0
  9
$AUPREC
 70
     0
  9
$MENU
  1
.
  9
$ELEVATION
 40
0.0
  9
$PELEVATION
 40
0.0
  9
$THICKNESS
 40
0.0
  9
$LIMCHECK
 70
     0
  9
$CHAMFERA
 40
0.5
  9
$CHAMFERB
 40
0.5
  9
$CHAMFERC
 40
1.0
  9
$CHAMFERD
 40
0.0
  9
$SKPOLY
 70
     0
  9
$TDCREATE
 40
2451675.885797454
  9
$TDUCREATE
 40
2451676.094130787
  9
$TDUPDATE
 40
2455846.458951504
  9
$TDUUPDATE
 40
2455846.667284838
  9
$TDINDWG
 40
0.0393562153
  9
$TDUSRTIMER
 40
0.0393479977
  9
$USRTIMER
 70
     1
  9
$ANGBASE
 50
0.0
  9
$ANGDIR
 70
     0
  9
$PDMODE
 70
     0
  9
$PDSIZE
 40
0.0
  9
$PLINEWID
 40
0.0
  9
$SPLFRAME
 70
     0
  9
$SPLINETYPE
 70
     6
  9
$SPLINESEGS
 70
     8
  9
$HANDSEED
  5
F0
  9
$SURFTAB1
 70
     6
  9
$SURFTAB2
 70
     6
  9
$SURFTYPE
 70
     6
  9
$SURFU
 70
     6
  9
$SURFV
 70
     6
  9
$UCSBASE
  2

  9
$UCSNAME
  2

  9
$UCSORG
 10
0.0
 20
0.0
 30
0.0
  9
$UCSXDIR
 10
1.0
 20
0.0
 30
0.0
  9
$UCSYDIR
 10
0.0
 20
1.0
 30
0.0
  9
$UCSORTHOREF
  2

  9
$UCSORTHOVIEW
 70
     0
  9
$UCSORGTOP
 10
0.0
 20
0.0
 30
0.0
  9
$UCSORGBOTTOM
 10
0.0
 20
0.0
 30
0.0
  9
$UCSORGLEFT
 10
0.0
 20
0.0
 30
0.0
  9
$UCSORGRIGHT
 10
0.0
 20
0.0
 30
0.0
  9
$UCSORGFRONT
 10
0.0
 20
0.0
 30
0.0
  9
$UCSORGBACK
 10
0.0
 20
0.0
 30
0.0
  9
$PUCSBASE
  2

  9
$PUCSNAME
  2

  9
$PUCSORG
 10
0.0
 20
0.0
 30
0.0
  9
$PUCSXDIR
 10
1.0
 20
0.0
 30
0.0
  9
$PUCSYDIR
 10
0.0
 20
1.0
 30
0.0
  9
$PUCSORTHOREF
  2

  9
$PUCSORTHOVIEW
 70
     0
  9
$PUCSORGTOP
 10
0.0
 20
0.0
 30
0.0
  9
$PUCSORGBOTTOM
 10
0.0
 20
0.0
 30
0.0
  9
$PUCSORGLEFT
 10
0.0
 20
0.0
 30
0.0
  9
$PUCSORGRIGHT
 10
0.0
 20
0.0
 30
0.0
  9
$PUCSORGFRONT
 10
0.0
 20
0.0
 30
0.0
  9
$PUCSORGBACK
 10
0.0
 20
0.0
 30
0.0
  9
$USERI1
 70
     0
  9
$USERI2
 70
     0
  9
$USERI3
 70
     0
  9
$USERI4
 70
     0
  9
$USERI5
 70
     0
  9
$USERR1
 40
0.0
  9
$USERR2
 40
0.0
  9
$USERR3
 40
0.0
  9
$USERR4
 40
0.0
  9
$USERR5
 40
0.0
  9
$WORLDVIEW
 70
     1
  9
$SHADEDGE
 70
     3
  9
$SHADEDIF
 70
    70
  9
$TILEMODE
 70
     1
  9
$MAXACTVP
 70
    48
  9
$PINSBASE
 10
0.0
 20
0.0
 30
0.0
  9
$PLIMCHECK
 70
     0
  9
$PEXTMIN
 10
1.000000000000000E+20
 20
1.000000000000000E+20
 30
1.000000000000000E+20
  9
$PEXTMAX
 10
-1.000000000000000E+20
 20
-1.000000000000000E+20
 30
-1.000000000000000E+20
  9
$PLIMMIN
 10
0.0
 20
0.0
  9
$PLIMMAX
 10
12.0
 20
9.0
  9
$UNITMODE
 70
     0
  9
$VISRETAIN
 70
     1
  9
$PLINEGEN
 70
     0
  9
$PSLTSCALE
 70
     1
  9
$TREEDEPTH
 70
  3020
  9
$CMLSTYLE
  2
STANDARD
  9
$CMLJUST
 70
     0
  9
$CMLSCALE
 40
1.0
  9
$PROXYGRAPHICS
 70
     1
  9
$MEASUREMENT
 70
     0
  9
$CELWEIGHT
370
    -1
  9
$ENDCAPS
280
     0
  9
$JOINSTYLE
280
     0
  9
$LWDISPLAY
290
     0
  9
$INSUNITS
 70
     0
  9
$HYPERLINKBASE
  1

  9
$STYLESHEET
  1

  9
$XEDIT
290
     1
  9
$CEPSNTYPE
380
     0
  9
$PSTYLEMODE
290
     1
  9
$FINGERPRINTGUID
  2
{6218CAAD-131A-4A19-AF48-0DAE2230B379}
  9
$VERSIONGUID
  2
{AB3660D3-9B13-4250-A71B-4B070373826D}
  9
$EXTNAMES
290
     1
  9
$PSVPSCALE
 40
0.0
  9
$OLESTARTUP
290
     0
  0
ENDSEC
  0
SECTION
  2
CLASSES
  0
CLASS
  1
ACDBDICTIONARYWDFLT
  2
AcDbDictionaryWithDefault
  3
ObjectDBX Classes
 90
        0
280
     1
281
     0
  0
CLASS
  1
ACDBPLACEHOLDER
  2
AcDbPlaceHolder
  3
ObjectDBX Classes
 90
        0
280
     0
281
     0
  0
CLASS
  1
LAYOUT
  2
AcDbLayout
  3
ObjectDBX Classes
 90
        0
280
     0
281
     0
  0
CLASS
  1
DICTIONARYVAR
  2
AcDbDictionaryVar
  3
ObjectDBX Classes
 90
        0
280
     0
281
     0
  0
ENDSEC
  0
SECTION
  2
TABLES
  0
TABLE
  2
VPORT
  5
BD
330
0
100
AcDbSymbolTable
 70
     2
  0
VPORT
  5
E8
330
BD
100
AcDbSymbolTableRecord
100
AcDbViewportTableRecord
  2
*Active
 70
     0
 10
0.0
 20
0.0
 11
1.0
 21
1.0
 12
8.085645955949054
 22
4.471033500350821
 13
0.0
 23
0.0
 14
0.5
 24
0.5
 15
0.5
 25
0.5
 16
0.0
 26
0.0
 36
1.0
 17
0.0
 27
0.0
 37
0.0
 40
9.005803314601369
 41
2.166666666666666
 42
50.0
 43
0.0
 44
0.0
 50
0.0
 51
0.0
 71
     0
 72
   100
 73
     1
 74
     3
 75
     0
 76
     0
 77
     0
 78
     0
281
     0
 65
     1
110
0.0
120
0.0
130
0.0
111
1.0
121
0.0
131
0.0
112
0.0
122
1.0
132
0.0
 79
     0
146
0.0
  0
ENDTAB
  0
TABLE
  2
LTYPE
  5
B6
330
0
100
AcDbSymbolTable
 70
     2
  0
LTYPE
  5
B7
102
{ACAD_XDICTIONARY
360
B8
102
}
330
B6
100
AcDbSymbolTableRecord
100
AcDbLinetypeTableRecord
  2
BYBLOCK
 70
     0
  3

 72
    65
 73
     0
 40
0.0
  0
LTYPE
  5
B9
102
{ACAD_XDICTIONARY
360
BA
102
}
330
B6
100
AcDbSymbolTableRecord
100
AcDbLinetypeTableRecord
  2
BYLAYER
 70
     0
  3

 72
    65
 73
     0
 40
0.0
  0
LTYPE
  5
5
102
{ACAD_XDICTIONARY
360
6
102
}
330
B6
100
AcDbSymbolTableRecord
100
AcDbLinetypeTableRecord
  2
CONTINUOUS
 70
     0
  3
Solid line
 72
    65
 73
     0
 40
0.0
  0
LTYPE
  5
4A
330
B6
100
AcDbSymbolTableRecord
100
AcDbLinetypeTableRecord
  2
HIDDEN
 70
     0
  3
Hidden __ __ __ __ __ __ __ __ __ __ __ __ __ _
 72
    65
 73
     2
 40
0.375
 49
0.25
 74
     0
 49
-0.125
 74
     0
  0
ENDTAB
  0
TABLE
  2
LAYER
  5
B4
330
0
100
AcDbSymbolTable
 70
     5
  0
LAYER
  5
40
330
B4
100
AcDbSymbolTableRecord
100
AcDbLayerTableRecord
  2
0
 70
     0
 62
     7
  6
CONTINUOUS
370
    -3
390
DC
  0
LAYER
  5
4
330
B4
100
AcDbSymbolTableRecord
100
AcDbLayerTableRecord
  2
USP
 70
     0
 62
     7
  6
CONTINUOUS
370
    -3
390
DC
  0
LAYER
  5
49
330
B4
100
AcDbSymbolTableRecord
100
AcDbLayerTableRecord
  2
USP-HID
 70
     0
 62
     7
  6
HIDDEN
370
    -3
390
DC
  0
LAYER
  5
D
330
B4
100
AcDbSymbolTableRecord
100
AcDbLayerTableRecord
  2
USP-GEO
 70
     0
 62
     7
  6
CONTINUOUS
370
    -3
390
DC
  0
LAYER
  5
9
330
B4
100
AcDbSymbolTableRecord
100
AcDbLayerTableRecord
  2
USP-TXT
 70
     0
 62
     7
  6
CONTINUOUS
370
    -3
390
DC
  0
ENDTAB
  0
TABLE
  2
STYLE
  5
B5
330
0
100
AcDbSymbolTable
 70
     1
  0
STYLE
  5
A
102
{ACAD_XDICTIONARY
360
B
102
}
330
B5
100
AcDbSymbolTableRecord
100
AcDbTextStyleTableRecord
  2
STANDARD
 70
     0
 40
0.0
 41
1.0
 50
0.0
 71
     0
 42
0.25
  3
txt
  4

  0
ENDTAB
  0
TABLE
  2
VIEW
  5
BB
330
0
100
AcDbSymbolTable
 70
     0
  0
ENDTAB
  0
TABLE
  2
UCS
  5
BC
330
0
100
AcDbSymbolTable
 70
     0
  0
ENDTAB
  0
TABLE
  2
APPID
  5
BF
330
0
100
AcDbSymbolTable
 70
     1
  0
APPID
  5
C0
330
BF
100
AcDbSymbolTableRecord
100
AcDbRegAppTableRecord
  2
ACAD
 70
     0
  0
ENDTAB
  0
TABLE
  2
DIMSTYLE
  5
C1
330
0
100
AcDbSymbolTable
 70
     1
100
AcDbDimStyleTable
 71
     0
  0
DIMSTYLE
105
CA
102
{ACAD_XDICTIONARY
360
CB
102
}
330
C1
100
AcDbSymbolTableRecord
100
AcDbDimStyleTableRecord
  2
STANDARD
 70
     0
340
A
  0
ENDTAB
  0
TABLE
  2
BLOCK_RECORD
  5
1
330
0
100
AcDbSymbolTable
 70
     3
  0
BLOCK_RECORD
  5
2
102
{ACAD_XDICTIONARY
360
AB
102
}
330
1
100
AcDbSymbolTableRecord
100
AcDbBlockTableRecord
  2
*MODEL_SPACE
340
E1
  0
BLOCK_RECORD
  5
AF
102
{ACAD_XDICTIONARY
360
B0
102
}
330
1
100
AcDbSymbolTableRecord
100
AcDbBlockTableRecord
  2
*PAPER_SPACE
340
E2
  0
BLOCK_RECORD
  5
7
330
1
100
AcDbSymbolTableRecord
100
AcDbBlockTableRecord
  2
RT15_T
340
0
102
{BLKREFS
331
3
102
}
  0
BLOCK_RECORD
  5
43
330
1
100
AcDbSymbolTableRecord
100
AcDbBlockTableRecord
  2
RT15_F
340
0
102
{BLKREFS
331
42
102
}
  0
BLOCK_RECORD
  5
8A
330
1
100
AcDbSymbolTableRecord
100
AcDbBlockTableRecord
  2
RT15_S
340
0
102
{BLKREFS
331
89
102
}
  0
ENDTAB
  0
ENDSEC
  0
SECTION
  2
BLOCKS
  0
BLOCK
  5
AD
330
2
100
AcDbEntity
  8
0
100
AcDbBlockBegin
  2
*MODEL_SPACE
 70
     0
 10
0.0
 20
0.0
 30
0.0
  3
*MODEL_SPACE
  1

  0
ENDBLK
  5
AE
330
2
100
AcDbEntity
  8
0
100
AcDbBlockEnd
  0
BLOCK
  5
B2
330
AF
100
AcDbEntity
 67
     1
  8
0
100
AcDbBlockBegin
  2
*PAPER_SPACE
 70
     0
 10
0.0
 20
0.0
 30
0.0
  3
*PAPER_SPACE
  1

  0
ENDBLK
  5
B3
330
AF
100
AcDbEntity
 67
     1
  8
0
100
AcDbBlockEnd
  0
BLOCK
  5
3F
330
7
100
AcDbEntity
  8
0
100
AcDbBlockBegin
  2
RT15_T
 70
     0
 10
0.0
 20
0.0
 30
0.0
  3
RT15_T
  1

  0
TEXT
  5
8
330
7
100
AcDbEntity
  8
USP-TXT
100
AcDbText
 10
0.8700773124991041
 20
-0.5183823494575677
 30
0.0
 40
0.25
  1
RT15 - TOP VIEW
 72
     1
 11
2.703410645832438
 21
-0.5183823494575677
 31
0.0
100
AcDbText
  0
LINE
  5
C
330
7
100
AcDbEntity
  8
USP-GEO
100
AcDbLine
 10
3.491261779368656
 20
0.1202825623028474
 30
0.0
 11
1.915559512296226
 21
0.1202825623028474
 31
0.0
  0
LINE
  5
E
330
7
100
AcDbEntity
  8
USP-GEO
100
AcDbLine
 10
1.847913374195066
 20
0.0682825623028407
 30
0.0
 11
3.558907917469809
 21
0.0682825623028407
 31
0.0
  0
LINE
  5
F
330
7
100
AcDbEntity
  8
USP-GEO
100
AcDbLine
 10
1.865913374195059
 20
0.6453093473338641
 30
0.0
 11
1.865913374195059
 21
0.1202825623028758
 31
0.0
  0
LINE
  5
10
330
7
100
AcDbEntity
  8
USP-GEO
100
AcDbLine
 10
1.917913374195052
 20
0.6453093473338641
 30
0.0
 11
1.917913374195052
 21
0.1382825623028623
 31
0.0
  0
LINE
  5
11
330
7
100
AcDbEntity
  8
USP-GEO
100
AcDbLine
 10
0.0
 20
0.0682825623028407
 30
0.0
 11
1.847913374195073
 21
0.0682825623028407
 31
0.0
  0
LINE
  5
12
330
7
100
AcDbEntity
  8
USP-GEO
100
AcDbLine
 10
1.865913374195066
 20
0.1202825623028474
 30
0.0
 11
0.0
 21
0.1202825623028474
 31
0.0
  0
LINE
  5
13
330
7
100
AcDbEntity
  8
USP-GEO
100
AcDbLine
 10
0.2524973688357477
 20
0.0
 30
0.0
 11
1.622516757384659
 21
0.0
 31
0.0
  0
LINE
  5
14
330
7
100
AcDbEntity
  8
USP-GEO
100
AcDbLine
 10
0.5038135815954093
 20
-0.00736554208504
 30
0.0
 11
1.529613389062738
 21
-0.00736554208504
 31
0.0
  0
LINE
  5
15
330
7
100
AcDbEntity
  8
USP-GEO
100
AcDbLine
 10
0.0
 20
0.0682825623028407
 30
0.0
 11
0.0
 21
0.1202825623028474
 31
0.0
  0
ARC
  5
16
330
7
100
AcDbEntity
  8
USP-GEO
100
AcDbCircle
 10
0.2514386194449898
 20
0.0756481043878807
 30
0.0
 40
0.0756481043878779
100
AcDbArc
 50
185.5875045379391
 51
269.9999999999996
  0
LINE
  5
17
330
7
100
AcDbEntity
  8
USP-GEO
100
AcDbLine
 10
0.5027548322047082
 20
-0.00736554208504
 30
0.0
 11
0.5038135815954306
 21
-0.00736554208504
 31
0.0
  0
ARC
  5
18
330
7
100
AcDbEntity
  8
USP-GEO
100
AcDbCircle
 10
0.5027548322047082
 20
0.0682825623028407
 30
0.0
 40
0.0756481043878779
100
AcDbArc
 50
244.5065040197093
 51
269.9999999999996
  0
LINE
  5
19
330
7
100
AcDbEntity
  8
USP-GEO
100
AcDbLine
 10
0.2514386194449898
 20
0.0
 30
0.0
 11
0.2524973688357335
 21
0.0
 31
0.0
  0
LINE
  5
1A
330
7
100
AcDbEntity
  8
USP-GEO
100
AcDbLine
 10
1.865913374195059
 20
0.0706364242016946
 30
0.0
 11
1.865913374195059
 21
0.1202825623028474
 31
0.0
  0
ARC
  5
1B
330
7
100
AcDbEntity
  8
USP-GEO
100
AcDbCircle
 10
1.847913374195073
 20
0.1382825623028623
 30
0.0
 40
0.07
100
AcDbArc
 50
284.9005966878187
 51
345.0994033121586
  0
LINE
  5
1C
330
7
100
AcDbEntity
  8
USP-GEO
100
AcDbLine
 10
1.529613389062745
 20
-0.00736554208504
 30
0.0
 11
1.535784232729973
 21
-0.00736554208504
 31
0.0
  0
ARC
  5
1D
330
7
100
AcDbEntity
  8
USP-GEO
100
AcDbCircle
 10
1.535784232729973
 20
0.0682825623028407
 30
0.0
 40
0.0756481043878779
100
AcDbArc
 50
269.9999999999996
 51
295.4934959802907
  0
ARC
  5
1E
330
7
100
AcDbEntity
  8
USP-GEO
100
AcDbCircle
 10
1.847913374195073
 20
0.1382825623028623
 30
0.0
 40
0.0700000000000006
100
AcDbArc
 50
270.0
 51
284.9005966878129
  0
LINE
  5
1F
330
7
100
AcDbEntity
  8
USP-GEO
100
AcDbLine
 10
1.622516757384666
 20
0.0
 30
0.0
 11
1.6286876010519
 21
0.0
 31
0.0
  0
ARC
  5
20
330
7
100
AcDbEntity
  8
USP-GEO
100
AcDbCircle
 10
1.6286876010519
 20
0.0756481043878807
 30
0.0
 40
0.0756481043878779
100
AcDbArc
 50
269.9999999999996
 51
354.4124954620609
  0
LINE
  5
21
330
7
100
AcDbEntity
  8
USP-GEO
100
AcDbLine
 10
1.915559512296226
 20
0.1202825623028474
 30
0.0
 11
1.865913374195059
 21
0.1202825623028474
 31
0.0
  0
ARC
  5
22
330
7
100
AcDbEntity
  8
USP-GEO
100
AcDbCircle
 10
1.847913374195073
 20
0.1382825623028623
 30
0.0
 40
0.0700000000000004
100
AcDbArc
 50
345.0994033121957
 51
0.0000000000008142
  0
LINE
  5
23
330
7
100
AcDbEntity
  8
USP-GEO
100
AcDbLine
 10
1.917913374195038
 20
0.8640881854329904
 30
0.0
 11
1.865913374195059
 21
0.8640881854329904
 31
0.0
  0
LINE
  5
24
330
7
100
AcDbEntity
  8
USP-GEO
100
AcDbLine
 10
1.917913374195052
 20
0.6453093473338783
 30
0.0
 11
1.865913374195059
 21
0.6453093473338783
 31
0.0
  0
LINE
  5
25
330
7
100
AcDbEntity
  8
USP-GEO
100
AcDbLine
 10
1.917913374195052
 20
0.6453093473338783
 30
0.0
 11
1.917913374195052
 21
0.8640881854329904
 31
0.0
  0
LINE
  5
26
330
7
100
AcDbEntity
  8
USP-GEO
100
AcDbLine
 10
1.865913374195059
 20
0.8640881854329904
 30
0.0
 11
1.865913374195059
 21
0.6453093473338783
 31
0.0
  0
LINE
  5
27
330
7
100
AcDbEntity
  8
USP-GEO
100
AcDbLine
 10
3.540907917469809
 20
0.1202825623028616
 30
0.0
 11
3.540907917469809
 21
0.6453093473338925
 31
0.0
  0
LINE
  5
28
330
7
100
AcDbEntity
  8
USP-GEO
100
AcDbLine
 10
3.488907917469816
 20
0.1382825623028623
 30
0.0
 11
3.488907917469816
 21
0.6453093473339067
 31
0.0
  0
LINE
  5
29
330
7
100
AcDbEntity
  8
USP-GEO
100
AcDbLine
 10
5.406821291664805
 20
0.1202825623028474
 30
0.0
 11
3.540907917469802
 21
0.1202825623028474
 31
0.0
  0
LINE
  5
2A
330
7
100
AcDbEntity
  8
USP-GEO
100
AcDbLine
 10
3.558907917469809
 20
0.0682825623028407
 30
0.0
 11
5.406821291664805
 21
0.0682825623028407
 31
0.0
  0
LINE
  5
2B
330
7
100
AcDbEntity
  8
USP-GEO
100
AcDbLine
 10
3.784304534280153
 20
0.0
 30
0.0
 11
5.154323922829092
 21
0.0
 31
0.0
  0
LINE
  5
2C
330
7
100
AcDbEntity
  8
USP-GEO
100
AcDbLine
 10
3.877207902602073
 20
-0.00736554208504
 30
0.0
 11
4.903007710069402
 21
-0.00736554208504
 31
0.0
  0
LINE
  5
2D
330
7
100
AcDbEntity
  8
USP-GEO
100
AcDbLine
 10
3.54090791746978
 20
0.0706364242017088
 30
0.0
 11
3.54090791746978
 21
0.1202825623028616
 31
0.0
  0
ARC
  5
2E
330
7
100
AcDbEntity
  8
USP-GEO
100
AcDbCircle
 10
3.558907917469809
 20
0.1382825623028623
 30
0.0
 40
0.07
100
AcDbArc
 50
194.9005966878186
 51
255.0994033121502
  0
ARC
  5
2F
330
7
100
AcDbEntity
  8
USP-GEO
100
AcDbCircle
 10
3.558907917469809
 20
0.1382825623028623
 30
0.0
 40
0.07
100
AcDbArc
 50
255.0994033121505
 51
270.0000000000061
  0
LINE
  5
30
330
7
100
AcDbEntity
  8
USP-GEO
100
AcDbLine
 10
3.871037058934852
 20
-0.00736554208504
 30
0.0
 11
3.877207902602073
 21
-0.00736554208504
 31
0.0
  0
ARC
  5
31
330
7
100
AcDbEntity
  8
USP-GEO
100
AcDbCircle
 10
3.871037058934852
 20
0.0682825623028407
 30
0.0
 40
0.0756481043878779
100
AcDbArc
 50
244.5065040197093
 51
269.9999999999996
  0
LINE
  5
32
330
7
100
AcDbEntity
  8
USP-GEO
100
AcDbLine
 10
3.778133690612911
 20
0.0
 30
0.0
 11
3.784304534280146
 21
0.0
 31
0.0
  0
ARC
  5
33
330
7
100
AcDbEntity
  8
USP-GEO
100
AcDbCircle
 10
3.778133690612911
 20
0.0756481043878807
 30
0.0
 40
0.0756481043878779
100
AcDbArc
 50
185.5875045379391
 51
269.9999999999996
  0
LINE
  5
34
330
7
100
AcDbEntity
  8
USP-GEO
100
AcDbLine
 10
3.491261779368656
 20
0.1202825623028758
 30
0.0
 11
3.540907917469809
 21
0.1202825623028758
 31
0.0
  0
ARC
  5
35
330
7
100
AcDbEntity
  8
USP-GEO
100
AcDbCircle
 10
3.558907917469809
 20
0.1382825623028623
 30
0.0
 40
0.0700000000000004
100
AcDbArc
 50
180.0
 51
194.9005966878186
  0
LINE
  5
36
330
7
100
AcDbEntity
  8
USP-GEO
100
AcDbLine
 10
4.903007710069417
 20
-0.00736554208504
 30
0.0
 11
4.90406645946016
 21
-0.00736554208504
 31
0.0
  0
ARC
  5
37
330
7
100
AcDbEntity
  8
USP-GEO
100
AcDbCircle
 10
4.90406645946016
 20
0.0682825623028407
 30
0.0
 40
0.0756481043878779
100
AcDbArc
 50
269.9999999999996
 51
295.4934959802907
  0
LINE
  5
38
330
7
100
AcDbEntity
  8
USP-GEO
100
AcDbLine
 10
5.154323922829078
 20
0.0
 30
0.0
 11
5.155382672219808
 21
0.0
 31
0.0
  0
ARC
  5
39
330
7
100
AcDbEntity
  8
USP-GEO
100
AcDbCircle
 10
5.155382672219808
 20
0.0756481043878807
 30
0.0
 40
0.0756481043878779
100
AcDbArc
 50
269.9999999999996
 51
354.4124954620609
  0
LINE
  5
3A
330
7
100
AcDbEntity
  8
USP-GEO
100
AcDbLine
 10
5.406821291664812
 20
0.0682825623028407
 30
0.0
 11
5.406821291664812
 21
0.1202825623028474
 31
0.0
  0
LINE
  5
3B
330
7
100
AcDbEntity
  8
USP-GEO
100
AcDbLine
 10
3.488907917469816
 20
0.8640881854329904
 30
0.0
 11
3.540907917469809
 21
0.8640881854329904
 31
0.0
  0
LINE
  5
3C
330
7
100
AcDbEntity
  8
USP-GEO
100
AcDbLine
 10
3.488907917469816
 20
0.6453093473338925
 30
0.0
 11
3.54090791746978
 21
0.6453093473338925
 31
0.0
  0
LINE
  5
3D
330
7
100
AcDbEntity
  8
USP-GEO
100
AcDbLine
 10
3.54090791746978
 20
0.6453093473338925
 30
0.0
 11
3.54090791746978
 21
0.8640881854329904
 31
0.0
  0
LINE
  5
3E
330
7
100
AcDbEntity
  8
USP-GEO
100
AcDbLine
 10
3.488907917469816
 20
0.6453093473338925
 30
0.0
 11
3.488907917469816
 21
0.8640881854329904
 31
0.0
  0
ENDBLK
  5
41
330
7
100
AcDbEntity
  8
0
100
AcDbBlockEnd
  0
BLOCK
  5
87
330
43
100
AcDbEntity
  8
0
100
AcDbBlockBegin
  2
RT15_F
 70
     0
 10
0.0
 20
0.0
 30
0.0
  3
RT15_F
  1

  0
LINE
  5
44
330
43
100
AcDbEntity
  8
USP-GEO
100
AcDbLine
 10
3.558907917469809
 20
4.676340498941215
 30
0.0000000000000002
 11
5.406821291664805
 21
2.828427124746209
 31
0.0000000000000005
210
0.0
220
1.0
230
0.0
  0
LINE
  5
45
330
43
100
AcDbEntity
  8
USP-GEO
100
AcDbLine
 10
1.917913374195052
 20
2.714017247550174
 30
-0.0000000000000001
 11
1.917913374195066
 21
4.71234049894123
 31
-0.0000000000000001
210
0.0
220
1.0
230
0.0
  0
LINE
  5
46
330
43
100
AcDbEntity
  8
USP-GEO
100
AcDbLine
 10
0.0
 20
2.828427124746205
 30
-0.0000000000000005
 11
1.847913374195073
 21
4.676340498941282
 31
-0.0000000000000001
210
0.0
220
1.0
230
0.0
  0
LINE
  5
47
330
43
100
AcDbEntity
  8
USP-GEO
100
AcDbLine
 10
3.488907917469816
 20
4.712340498941202
 30
0.0000000000000002
 11
3.488907917469816
 21
2.714017247550202
 31
0.0000000000000002
210
0.0
220
1.0
230
0.0
  0
LINE
  5
48
330
43
100
AcDbEntity
  8
USP-HID
100
AcDbLine
 10
3.540907917469787
 20
4.694340498941247
 30
0.0000000000000002
 11
3.540907917469787
 21
2.714017247550208
 31
0.0000000000000002
  0
LINE
  5
4B
330
43
100
AcDbEntity
  8
USP-HID
100
AcDbLine
 10
1.865913374195059
 20
4.694340498941251
 30
-0.0000000000000001
 11
1.865913374195059
 21
2.714017247550172
 31
-0.0000000000000001
  0
TEXT
  5
4C
330
43
100
AcDbEntity
  8
USP-TXT
100
AcDbText
 10
0.6200773124990869
 20
-0.5866649117604226
 30
0.0
 40
0.25
  1
RT15 - FRONT VIEW
 72
     1
 11
2.70341064583242
 21
-0.5866649117604226
 31
0.0
100
AcDbText
  0
LINE
  5
4D
330
43
100
AcDbEntity
  8
USP-GEO
100
AcDbLine
 10
5.40682129166484
 20
2.578394166918613
 30
0.0000000000000005
 11
2.828427124746212
 21
-0.0000000000000142
 31
0.0
210
0.0
220
1.0
230
0.0
  0
LINE
  5
4E
330
43
100
AcDbEntity
  8
USP-GEO
100
AcDbLine
 10
1.82390281518883
 20
2.5260172475502
 30
-0.0000000000000001
 11
3.585107917464739
 21
2.526017247550246
 31
0.0000000000000002
210
0.0
220
1.0
230
0.0
  0
LINE
  5
4F
330
43
100
AcDbEntity
  8
USP-GEO
100
AcDbLine
 10
2.578394166918627
 20
0.0
 30
0.0
 11
0.0
 21
2.578394166918627
 31
-0.0000000000000005
210
0.0
220
1.0
230
0.0
  0
LINE
  5
50
330
43
100
AcDbEntity
  8
USP-GEO
100
AcDbLine
 10
2.828427124746212
 20
-0.0000000000000142
 30
0.0
 11
2.578394166918627
 21
-0.0000000000000142
 31
0.0
210
0.0
220
1.0
230
0.0
  0
CIRCLE
  5
51
330
43
100
AcDbEntity
  8
USP-GEO
100
AcDbCircle
 10
2.261468907590824
 20
0.7588669975694132
 30
-0.0000000000000001
 40
0.082
  0
CIRCLE
  5
52
330
43
100
AcDbEntity
  8
USP-GEO
100
AcDbCircle
 10
3.145705937464612
 20
0.7585134441787887
 30
0.0000000000000001
 40
0.082
  0
LINE
  5
53
330
43
100
AcDbEntity
  8
USP-GEO
100
AcDbLine
 10
1.680865983849493
 20
3.991120350760276
 30
-0.0000000000000002
 11
0.3108465953005535
 21
2.621100962211336
 31
-0.0000000000000004
210
0.0
220
1.0
230
0.0
  0
LINE
  5
54
330
43
100
AcDbEntity
  8
USP-GEO
100
AcDbLine
 10
0.199260236647433
 20
2.732687320864485
 30
-0.0000000000000004
 11
1.569279625196351
 21
4.102706709413403
 31
-0.0000000000000002
210
0.0
220
1.0
230
0.0
  0
LINE
  5
55
330
43
100
AcDbEntity
  8
USP-GEO
100
AcDbLine
 10
0.2550534159740039
 20
2.676894141537914
 30
-0.0000000000000004
 11
1.625072804522936
 21
4.046913530086847
 31
-0.0000000000000002
210
0.0
220
1.0
230
0.0
  0
LINE
  5
56
330
43
100
AcDbEntity
  8
USP-GEO
100
AcDbLine
 10
0.450427019615816
 20
2.378000105130364
 30
-0.0000000000000004
 11
1.476226827083145
 21
3.403799912597705
 31
-0.0000000000000002
210
0.0
220
1.0
230
0.0
  0
LINE
  5
57
330
43
100
AcDbEntity
  8
USP-GEO
100
AcDbLine
 10
0.4505764494070946
 20
2.377850675339111
 30
-0.0000000000000004
 11
1.476376256874416
 21
3.403650482806433
 31
-0.0000000000000002
210
0.0
220
1.0
230
0.0
  0
LINE
  5
58
330
43
100
AcDbEntity
  8
USP-GEO
100
AcDbLine
 10
0.5063696287336939
 20
2.322057496012519
 30
-0.0000000000000004
 11
1.532169436201009
 21
3.347857303479834
 31
-0.0000000000000002
210
0.0
220
1.0
230
0.0
  0
ARC
  5
59
330
43
100
AcDbEntity
  8
USP-GEO
100
AcDbCircle
 10
0.5063696287336939
 20
2.322057496012547
 30
-0.0000000000000004
 40
0.0789034708915524
100
AcDbArc
 50
135.0000000000201
 51
314.9999999999708
  0
ARC
  5
5A
330
43
100
AcDbEntity
  8
USP-GEO
100
AcDbCircle
 10
0.2550534159739755
 20
2.676894141537928
 30
-0.0000000000000004
 40
0.0789034708915522
100
AcDbArc
 50
134.9999999999926
 51
314.9999999999918
  0
LINE
  5
5B
330
43
100
AcDbEntity
  8
USP-GEO
100
AcDbLine
 10
0.0
 20
2.578394166918627
 30
-0.0000000000000005
 11
0.0
 21
2.828427124746205
 31
-0.0000000000000005
210
0.0
220
1.0
230
0.0
  0
ARC
  5
5C
330
43
100
AcDbEntity
  8
USP-GEO
100
AcDbCircle
 10
0.5038135815954093
 20
2.324613543150789
 30
-0.0000000000000004
 40
0.0754999999999982
100
AcDbArc
 50
135.0000000000095
 51
155.145421291699
  0
LINE
  5
5D
330
43
100
AcDbEntity
  8
USP-GEO
100
AcDbLine
 10
0.5621628080602364
 20
2.266264316685948
 30
-0.0000000000000004
 11
1.587962615527565
 21
3.292064124153277
 31
-0.0000000000000002
210
0.0
220
1.0
230
0.0
  0
ARC
  5
5E
330
43
100
AcDbEntity
  8
USP-GEO
100
AcDbCircle
 10
1.822808094691936
 20
2.62001724755018
 30
-0.0000000000000001
 40
0.0940063743209251
100
AcDbArc
 50
90.6672343487164
 51
270.6672343487337
  0
CIRCLE
  5
5F
330
43
100
AcDbEntity
  8
USP-GEO
100
AcDbCircle
 10
1.200455182420398
 20
2.173434113333087
 30
-0.0000000000000003
 40
0.082
  0
CIRCLE
  5
60
330
43
100
AcDbEntity
  8
USP-GEO
100
AcDbCircle
 10
2.703410645832434
 20
1.465973778755937
 30
0.0
 40
0.1560000000000001
  0
CIRCLE
  5
61
330
43
100
AcDbEntity
  8
USP-GEO
100
AcDbCircle
 10
2.703410645832434
 20
2.173080559942505
 30
0.0
 40
0.082
  0
CIRCLE
  5
62
330
43
100
AcDbEntity
  8
USP-GEO
100
AcDbCircle
 10
1.024032040514356
 20
3.145352384074001
 30
-0.0000000000000003
 40
0.082
  0
LINE
  5
63
330
43
100
AcDbEntity
  8
USP-GEO
100
AcDbLine
 10
1.847913374195059
 20
2.714017247550174
 30
-0.0000000000000001
 11
1.82171337419507
 21
2.714017247550174
 31
-0.0000000000000001
210
0.0
220
1.0
230
0.0
  0
LINE
  5
64
330
43
100
AcDbEntity
  8
USP-GEO
100
AcDbLine
 10
1.847913374195059
 20
2.714017247550174
 30
-0.0000000000000001
 11
1.917913374195052
 21
2.714017247550174
 31
-0.0000000000000001
210
0.0
220
1.0
230
0.0
  0
ARC
  5
65
330
43
100
AcDbEntity
  8
USP-GEO
100
AcDbCircle
 10
1.532169436200987
 20
3.347857303479848
 30
-0.0000000000000002
 40
0.0789034708915524
100
AcDbArc
 50
315.0000000000054
 51
134.9999999999919
  0
ARC
  5
66
330
43
100
AcDbEntity
  8
USP-GEO
100
AcDbCircle
 10
1.529613389062745
 20
3.350413350618111
 30
-0.0000000000000002
 40
0.0754999999999982
100
AcDbArc
 50
114.8545787092225
 51
135.0000000000037
  0
ARC
  5
67
330
43
100
AcDbEntity
  8
USP-GEO
100
AcDbCircle
 10
1.625072804522915
 20
4.04691353008684
 30
-0.0000000000000002
 40
0.0789034708915522
100
AcDbArc
 50
315.0000000000073
 51
135.0
  0
LINE
  5
68
330
43
100
AcDbEntity
  8
USP-GEO
100
AcDbLine
 10
3.930594464581666
 20
3.403799912597698
 30
0.0000000000000002
 11
4.956394272048981
 21
2.378000105130379
 31
0.0000000000000004
210
0.0
220
1.0
230
0.0
  0
LINE
  5
69
330
43
100
AcDbEntity
  8
USP-GEO
100
AcDbLine
 10
5.095974696364287
 20
2.621100962211333
 30
0.0000000000000005
 11
3.725955307815326
 21
3.991120350760287
 31
0.0000000000000002
210
0.0
220
1.0
230
0.0
  0
LINE
  5
6A
330
43
100
AcDbEntity
  8
USP-GEO
100
AcDbLine
 10
4.900451662931118
 20
2.322057496012519
 30
0.0000000000000004
 11
3.874651855463802
 21
3.347857303479834
 31
0.0000000000000002
210
0.0
220
1.0
230
0.0
  0
LINE
  5
6B
330
43
100
AcDbEntity
  8
USP-GEO
100
AcDbLine
 10
4.956244842257717
 20
2.37785067533909
 30
0.0000000000000004
 11
3.930445034790402
 21
3.403650482806405
 31
0.0000000000000002
210
0.0
220
1.0
230
0.0
  0
LINE
  5
6C
330
43
100
AcDbEntity
  8
USP-GEO
100
AcDbLine
 10
4.844658483604575
 20
2.266264316685941
 30
0.0000000000000004
 11
3.818858676137253
 21
3.292064124153263
 31
0.0000000000000002
210
0.0
220
1.0
230
0.0
  0
ARC
  5
6D
330
43
100
AcDbEntity
  8
USP-GEO
100
AcDbCircle
 10
3.586202637965101
 20
2.620017247550194
 30
0.0000000000000002
 40
0.0940063743209123
100
AcDbArc
 50
269.3327656512729
 51
90.66723434871539
  0
ARC
  5
6E
330
43
100
AcDbEntity
  8
USP-GEO
100
AcDbCircle
 10
5.151767875690822
 20
2.676894141537921
 30
0.0000000000000005
 40
0.0789034708915522
100
AcDbArc
 50
225.0000000000238
 51
44.99999999999813
  0
LINE
  5
6F
330
43
100
AcDbEntity
  8
USP-GEO
100
AcDbLine
 10
5.406821291664812
 20
2.828427124746212
 30
0.0000000000000005
 11
5.406821291664812
 21
2.578394166918613
 31
0.0000000000000005
210
0.0
220
1.0
230
0.0
  0
CIRCLE
  5
70
330
43
100
AcDbEntity
  8
USP-GEO
100
AcDbCircle
 10
4.206366109244413
 20
2.173434113333115
 30
0.0000000000000003
 40
0.082
  0
ARC
  5
71
330
43
100
AcDbEntity
  8
USP-GEO
100
AcDbCircle
 10
4.900451662931175
 20
2.322057496012533
 30
0.0000000000000004
 40
0.0789034708915524
100
AcDbArc
 50
224.9999999999982
 51
45.00000000000734
  0
ARC
  5
72
330
43
100
AcDbEntity
  8
USP-GEO
100
AcDbCircle
 10
4.903007710069402
 20
2.324613543150789
 30
0.0000000000000004
 40
0.0754999999999982
100
AcDbArc
 50
24.85457871046754
 51
45.00000000000557
  0
LINE
  5
73
330
43
100
AcDbEntity
  8
USP-GEO
100
AcDbLine
 10
3.837541666468467
 20
4.102706709413432
 30
0.0000000000000002
 11
5.207561055017407
 21
2.732687320864496
 31
0.0000000000000005
210
0.0
220
1.0
230
0.0
  0
LINE
  5
74
330
43
100
AcDbEntity
  8
USP-GEO
100
AcDbLine
 10
5.151767875690836
 20
2.6768941415379
 30
0.0000000000000005
 11
3.781748487141882
 21
4.04691353008685
 31
0.0000000000000002
210
0.0
220
1.0
230
0.0
  0
LINE
  5
75
330
43
100
AcDbEntity
  8
USP-GEO
100
AcDbLine
 10
3.558907917469809
 20
2.714017247550202
 30
0.0000000000000002
 11
3.585107917471717
 21
2.714017247550202
 31
0.0000000000000002
210
0.0
220
1.0
230
0.0
  0
LINE
  5
76
330
43
100
AcDbEntity
  8
USP-GEO
100
AcDbLine
 10
3.488907917469816
 20
2.714017247550209
 30
0.0000000000000002
 11
3.558907917469809
 21
2.714017247550209
 31
0.0000000000000002
210
0.0
220
1.0
230
0.0
  0
ARC
  5
77
330
43
100
AcDbEntity
  8
USP-GEO
100
AcDbCircle
 10
3.874651855463838
 20
3.347857303479841
 30
0.0000000000000002
 40
0.0789034708915524
100
AcDbArc
 50
44.99999999999928
 51
224.9999999999945
  0
ARC
  5
78
330
43
100
AcDbEntity
  8
USP-GEO
100
AcDbCircle
 10
3.877207902602066
 20
3.350413350618111
 30
0.0000000000000002
 40
0.0754999999999982
100
AcDbArc
 50
44.9999999999905
 51
65.14542129078923
  0
CIRCLE
  5
79
330
43
100
AcDbEntity
  8
USP-GEO
100
AcDbCircle
 10
4.382789251150484
 20
3.145352384073987
 30
0.0000000000000003
 40
0.082
  0
ARC
  5
7A
330
43
100
AcDbEntity
  8
USP-GEO
100
AcDbCircle
 10
3.781748487141896
 20
4.046913530086854
 30
0.0000000000000002
 40
0.0789034708915522
100
AcDbArc
 50
45.00000000000173
 51
225.0000000000001
  0
LINE
  5
7B
330
43
100
AcDbEntity
  8
USP-GEO
100
AcDbLine
 10
1.917913374195052
 20
5.21936728397225
 30
-0.0000000000000001
 11
1.917913374195052
 21
4.712340498941237
 31
-0.0000000000000001
210
0.0
220
1.0
230
0.0
  0
LINE
  5
7C
330
43
100
AcDbEntity
  8
USP-GEO
100
AcDbLine
 10
1.865913374195059
 20
5.219367283972253
 30
-0.0000000000000001
 11
1.865913374195059
 21
4.694340498941251
 31
-0.0000000000000001
210
0.0
220
1.0
230
0.0
  0
ARC
  5
7D
330
43
100
AcDbEntity
  8
USP-GEO
100
AcDbCircle
 10
1.847913374195073
 20
4.712340498941216
 30
-0.0000000000000001
 40
0.0700000000000007
100
AcDbArc
 50
345.0994033121942
 51
0.0000000000028498
  0
LINE
  5
7E
330
43
100
AcDbEntity
  8
USP-GEO
100
AcDbLine
 10
1.915559512296226
 20
4.694340498941265
 30
-0.0000000000000001
 11
1.865913374195059
 21
4.694340498941265
 31
-0.0000000000000001
210
0.0
220
1.0
230
0.0
  0
LINE
  5
7F
330
43
100
AcDbEntity
  8
USP-GEO
100
AcDbLine
 10
1.865913374195052
 20
4.694340498941272
 30
-0.0000000000000001
 11
1.847913374195073
 21
4.676340498941286
 31
-0.0000000000000001
210
0.0
220
1.0
230
0.0
  0
LINE
  5
80
330
43
100
AcDbEntity
  8
USP-GEO
100
AcDbLine
 10
1.917913374195052
 20
5.219367283972239
 30
-0.0000000000000001
 11
1.865913374195059
 21
5.219367283972239
 31
-0.0000000000000001
210
0.0
220
1.0
230
0.0
  0
LINE
  5
81
330
43
100
AcDbEntity
  8
USP-GEO
100
AcDbLine
 10
3.488907917469816
 20
4.712340498941202
 30
0.0000000000000002
 11
3.488907917469816
 21
5.219367283972239
 31
0.0000000000000002
210
0.0
220
1.0
230
0.0
  0
LINE
  5
82
330
43
100
AcDbEntity
  8
USP-GEO
100
AcDbLine
 10
3.540907917469809
 20
4.69434049894123
 30
0.0000000000000002
 11
3.540907917469809
 21
5.219367283972253
 31
0.0000000000000002
210
0.0
220
1.0
230
0.0
  0
LINE
  5
83
330
43
100
AcDbEntity
  8
USP-GEO
100
AcDbLine
 10
3.558907917469817
 20
4.676340498941218
 30
0.0000000000000002
 11
3.540907917469787
 21
4.694340498941247
 31
0.0000000000000002
210
0.0
220
1.0
230
0.0
  0
LINE
  5
84
330
43
100
AcDbEntity
  8
USP-GEO
100
AcDbLine
 10
3.540907917469787
 20
4.694340498941247
 30
0.0000000000000002
 11
3.491261779368656
 21
4.69434049894124
 31
0.0000000000000002
210
0.0
220
1.0
230
0.0
  0
ARC
  5
85
330
43
100
AcDbEntity
  8
USP-GEO
100
AcDbCircle
 10
3.558907917469809
 20
4.712340498941209
 30
0.0000000000000002
 40
0.0700000000000004
100
AcDbArc
 50
179.9999999999996
 51
194.9005966878186
  0
LINE
  5
86
330
43
100
AcDbEntity
  8
USP-GEO
100
AcDbLine
 10
3.488907917469816
 20
5.219367283972246
 30
0.0000000000000002
 11
3.54090791746978
 21
5.219367283972246
 31
0.0000000000000002
210
0.0
220
1.0
230
0.0
  0
ENDBLK
  5
88
330
43
100
AcDbEntity
  8
0
100
AcDbBlockEnd
  0
BLOCK
  5
A9
330
8A
100
AcDbEntity
  8
0
100
AcDbBlockBegin
  2
RT15_S
 70
     0
 10
0.0
 20
0.0
 30
0.0
  3
RT15_S
  1

  0
TEXT
  5
8B
330
8A
100
AcDbEntity
  8
USP-TXT
100
AcDbText
 10
-1.443151106052762
 20
-0.5866649117604084
 30
0.0
 40
0.25
  1
RT15 - SIDE VIEW
 72
     1
 11
0.4735155606139046
 21
-0.5866649117604084
 31
0.0
100
AcDbText
  0
LINE
  5
8C
330
8A
100
AcDbEntity
  8
USP-GEO
100
AcDbLine
 10
0.0756481043878807
 20
4.676340498941229
 30
0.0
 11
0.0756481043878807
 21
2.828427124746223
 31
0.0
210
0.0
220
1.0
230
0.0
  0
LINE
  5
8D
330
8A
100
AcDbEntity
  8
USP-GEO
100
AcDbLine
 10
0.1276481043878874
 20
2.828427124746223
 30
0.0
 11
0.1276481043878874
 21
4.694340498941237
 31
0.0
210
0.0
220
1.0
230
0.0
  0
LINE
  5
8E
330
8A
100
AcDbEntity
  8
USP-GEO
100
AcDbLine
 10
0.8714537275180447
 20
5.219367283972246
 30
0.0000000000000001
 11
0.8713830168399283
 21
2.714017247550216
 31
0.0000000000000001
210
0.0
220
1.0
230
0.0
  0
LINE
  5
8F
330
8A
100
AcDbEntity
  8
USP-GEO
100
AcDbLine
 10
0.0756481043878807
 20
2.578394166918627
 30
0.0
 11
0.0756481043878807
 21
0.0
 31
0.0
210
0.0
220
1.0
230
0.0
  0
LINE
  5
90
330
8A
100
AcDbEntity
  8
USP-GEO
100
AcDbLine
 10
0.1276481043878874
 20
0.0
 30
0.0
 11
0.1276481043878874
 21
2.578394166918627
 31
0.0
210
0.0
220
1.0
230
0.0
  0
LINE
  5
91
330
8A
100
AcDbEntity
  8
USP-GEO
100
AcDbLine
 10
0.0756481043878807
 20
0.0
 30
0.0
 11
0.1276481043878874
 21
0.0
 31
0.0
210
0.0
220
1.0
230
0.0
  0
ARC
  5
92
330
8A
100
AcDbEntity
  8
USP-GEO
100
AcDbCircle
 10
0.0830136464729208
 20
2.67327934500895
 30
0.0
 40
0.0756481043878779
100
AcDbArc
 50
179.9999999999996
 51
264.4124954620608
  0
LINE
  5
93
330
8A
100
AcDbEntity
  8
USP-GEO
100
AcDbLine
 10
0.0756481043878807
 20
2.828427124746227
 30
0.0
 11
0.0756481043878807
 21
2.578394166918627
 31
0.0
210
0.0
220
1.0
230
0.0
  0
LINE
  5
94
330
8A
100
AcDbEntity
  8
USP-GEO
100
AcDbLine
 10
0.1276481043878874
 20
2.578394166918627
 30
0.0
 11
0.1276481043878874
 21
2.828427124746227
 31
0.0
210
0.0
220
1.0
230
0.0
  0
LINE
  5
95
330
8A
100
AcDbEntity
  8
USP-GEO
100
AcDbLine
 10
0.0
 20
3.350413350618136
 30
0.0
 11
0.0
 21
2.324613543150803
 31
0.0
210
0.0
220
1.0
230
0.0
  0
ARC
  5
96
330
8A
100
AcDbEntity
  8
USP-GEO
100
AcDbCircle
 10
0.0756481043878807
 20
2.318442699483561
 30
0.0
 40
0.0756481043878779
100
AcDbArc
 50
179.9999999999996
 51
264.4124954620608
  0
LINE
  5
97
330
8A
100
AcDbEntity
  8
USP-GEO
100
AcDbLine
 10
0.0756481043878807
 20
2.578394166918627
 30
0.0
 11
0.1276481043878874
 21
2.578394166918627
 31
0.0
210
0.0
220
1.0
230
0.0
  0
LINE
  5
98
330
8A
100
AcDbEntity
  8
USP-GEO
100
AcDbLine
 10
0.0
 20
2.324613543150814
 30
0.0
 11
0.0
 21
2.318442699483561
 31
0.0
210
0.0
220
1.0
230
0.0
  0
LINE
  5
99
330
8A
100
AcDbEntity
  8
USP-GEO
100
AcDbLine
 10
0.0682825623028407
 20
2.243154025120993
 30
0.0
 11
0.0682825623028407
 21
2.377850675339125
 31
0.0
210
0.0
220
1.0
230
0.0
  0
LINE
  5
9A
330
8A
100
AcDbEntity
  8
USP-GEO
100
AcDbLine
 10
0.0682825623028549
 20
2.377850675339104
 30
0.0
 11
0.0682825623028549
 21
2.599079406621822
 31
0.0
210
0.0
220
1.0
230
0.0
  0
LINE
  5
9B
330
8A
100
AcDbEntity
  8
USP-GEO
100
AcDbLine
 10
0.00736554208504
 20
4.049469577225131
 30
0.0
 11
0.00736554208504
 21
2.679450188676195
 31
0.0
210
0.0
220
1.0
230
0.0
  0
LINE
  5
9C
330
8A
100
AcDbEntity
  8
USP-GEO
100
AcDbLine
 10
0.8713830168399283
 20
2.714017247550213
 30
0.0000000000000001
 11
0.1276481043878874
 21
2.714017247550223
 31
0.0
210
0.0
220
1.0
230
0.0
  0
LINE
  5
9D
330
8A
100
AcDbEntity
  8
USP-GEO
100
AcDbLine
 10
0.0756481043878807
 20
2.828427124746227
 30
0.0
 11
0.1276481043878874
 21
2.828427124746227
 31
0.0
210
0.0
220
1.0
230
0.0
  0
LINE
  5
9E
330
8A
100
AcDbEntity
  8
USP-GEO
100
AcDbLine
 10
0.00736554208504
 20
2.679450188676185
 30
0.0
 11
0.00736554208504
 21
2.67327934500895
 31
0.0
210
0.0
220
1.0
230
0.0
  0
LINE
  5
9F
330
8A
100
AcDbEntity
  8
USP-GEO
100
AcDbLine
 10
0.0
 20
3.351472100008841
 30
0.0
 11
0.0
 21
3.350413350618129
 31
0.0
210
0.0
220
1.0
230
0.0
  0
ARC
  5
A0
330
8A
100
AcDbEntity
  8
USP-GEO
100
AcDbCircle
 10
0.0756481043878807
 20
3.351472100008841
 30
0.0
 40
0.0756481043878779
100
AcDbArc
 50
154.5065040197066
 51
179.9999999999996
  0
LINE
  5
A1
330
8A
100
AcDbEntity
  8
USP-GEO
100
AcDbLine
 10
0.00736554208504
 20
4.050528326615854
 30
0.0
 11
0.00736554208504
 21
4.049469577225124
 31
0.0
210
0.0
220
1.0
230
0.0
  0
ARC
  5
A2
330
8A
100
AcDbEntity
  8
USP-GEO
100
AcDbCircle
 10
0.0830136464729208
 20
4.050528326615854
 30
0.0
 40
0.0756481043878779
100
AcDbArc
 50
95.58750453793914
 51
179.9999999999996
  0
CIRCLE
  5
A3
330
8A
100
AcDbEntity
  8
USP-GEO
100
AcDbCircle
 10
0.6557861592561665
 20
3.776586607639245
 30
0.0000000000000001
 40
0.0820000000000001
  0
LINE
  5
A4
330
8A
100
AcDbEntity
  8
USP-GEO
100
AcDbLine
 10
0.1276481043879016
 20
4.694340498941244
 30
0.0
 11
0.6526748894189325
 21
5.219367283972268
 31
0.0000000000000001
210
0.0
220
1.0
230
0.0
  0
ARC
  5
A5
330
8A
100
AcDbEntity
  8
USP-GEO
100
AcDbCircle
 10
0.1456481043879023
 20
4.67634049894124
 30
0.0
 40
0.0700000000000004
100
AcDbArc
 50
165.0994033121502
 51
180.0000000000057
  0
LINE
  5
A6
330
8A
100
AcDbEntity
  8
USP-GEO
100
AcDbLine
 10
0.0780019662867488
 20
4.694340498941258
 30
0.0
 11
0.1276481043879016
 21
4.694340498941258
 31
0.0
210
0.0
220
1.0
230
0.0
  0
CIRCLE
  5
A7
330
8A
100
AcDbEntity
  8
USP-GEO
100
AcDbCircle
 10
0.6557861592561665
 20
4.52654405976569
 30
0.0000000000000001
 40
0.0820000000000001
  0
LINE
  5
A8
330
8A
100
AcDbEntity
  8
USP-GEO
100
AcDbLine
 10
0.6526748894189325
 20
5.21936728397226
 30
0.0000000000000001
 11
0.8714537275180305
 21
5.21936728397226
 31
0.0000000000000001
210
0.0
220
1.0
230
0.0
  0
ENDBLK
  5
AA
330
8A
100
AcDbEntity
  8
0
100
AcDbBlockEnd
  0
ENDSEC
  0
SECTION
  2
ENTITIES
  0
INSERT
  5
3
330
2
100
AcDbEntity
  8
USP
100
AcDbBlockReference
  2
RT15_T
 10
0.0003661829982491
 20
7.862528559566449
 30
0.0
  0
INSERT
  5
42
330
2
100
AcDbEntity
  8
USP
100
AcDbBlockReference
  2
RT15_F
 10
0.0003662247854521
 20
0.5869395490091094
 30
0.0000000000000069
  0
INSERT
  5
89
330
2
100
AcDbEntity
  8
USP
100
AcDbBlockReference
  2
RT15_S
 10
7.395392135703119
 20
0.5869395546245571
 30
0.0000000000000192
  0
ENDSEC
  0
SECTION
  2
OBJECTS
  0
DICTIONARY
  5
C6
330
0
100
AcDbDictionary
281
     1
  3
ACAD_COLOR
350
DE
  3
ACAD_GROUP
350
C3
  3
ACAD_LAYOUT
350
DF
  3
ACAD_MATERIAL
350
DD
  3
ACAD_MLINESTYLE
350
C4
  3
ACAD_PLOTSETTINGS
350
E0
  3
ACAD_PLOTSTYLENAME
350
DB
  3
ACDBHEADERROUNDTRIPXREC
350
E9
  3
AcDbVariableDictionary
350
E5
  0
DICTIONARY
  5
B8
330
B7
100
AcDbDictionary
280
     1
281
     1
  0
DICTIONARY
  5
BA
330
B9
100
AcDbDictionary
280
     1
281
     1
  0
DICTIONARY
  5
6
330
5
100
AcDbDictionary
280
     1
281
     1
  0
DICTIONARY
  5
B
330
A
100
AcDbDictionary
280
     1
281
     1
  0
DICTIONARY
  5
CB
330
CA
100
AcDbDictionary
280
     1
281
     1
  0
DICTIONARY
  5
AB
330
2
100
AcDbDictionary
280
     1
281
     1
  3
ACAD_LAYOUTSELFREF
360
AC
  0
DICTIONARY
  5
B0
330
AF
100
AcDbDictionary
280
     1
281
     1
  3
ACAD_LAYOUTSELFREF
360
B1
  0
DICTIONARY
  5
DE
102
{ACAD_REACTORS
330
C6
102
}
330
C6
100
AcDbDictionary
281
     1
  0
DICTIONARY
  5
C3
102
{ACAD_REACTORS
330
C6
102
}
330
C6
100
AcDbDictionary
281
     1
  0
DICTIONARY
  5
DF
102
{ACAD_REACTORS
330
C6
102
}
330
C6
100
AcDbDictionary
281
     1
  3
Layout1
350
E2
  3
Model
350
E1
  0
DICTIONARY
  5
DD
102
{ACAD_REACTORS
330
C6
102
}
330
C6
100
AcDbDictionary
281
     1
  0
DICTIONARY
  5
C4
102
{ACAD_XDICTIONARY
360
C5
102
}
102
{ACAD_REACTORS
330
C6
102
}
330
C6
100
AcDbDictionary
281
     1
  3
STANDARD
350
C9
  0
DICTIONARY
  5
E0
102
{ACAD_REACTORS
330
C6
102
}
330
C6
100
AcDbDictionary
281
     1
  0
ACDBDICTIONARYWDFLT
  5
DB
102
{ACAD_REACTORS
330
C6
102
}
330
C6
100
AcDbDictionary
281
     1
  3
Normal
350
DC
100
AcDbDictionaryWithDefault
340
DC
  0
DICTIONARY
  5
E9
102
{ACAD_REACTORS
330
C6
102
}
330
C6
100
AcDbDictionary
281
     1
  3
COLORDICT
350
EB
  3
MATERIALDICT
350
EA
  0
DICTIONARY
  5
E5
102
{ACAD_REACTORS
330
C6
102
}
330
C6
100
AcDbDictionary
281
     1
  3
DIMASSOC
350
E6
  3
PROJECTNAME
350
E7
  0
XRECORD
  5
AC
102
{ACAD_REACTORS
330
AB
102
}
330
AB
100
AcDbXrecord
280
     1
340
2
  0
XRECORD
  5
B1
102
{ACAD_REACTORS
330
B0
102
}
330
B0
100
AcDbXrecord
280
     1
340
B1
  0
LAYOUT
  5
E2
102
{ACAD_XDICTIONARY
360
EE
102
}
102
{ACAD_REACTORS
330
DF
102
}
330
DF
100
AcDbPlotSettings
  1

  2
\\mitk-us-mtg-n28\Office Canon IR C2550
  4

  6

 40
0.0
 41
0.0
 42
0.0
 43
0.0
 44
0.0
 45
0.0
 46
0.0
 47
0.0
 48
0.0
 49
0.0
140
0.0
141
0.0
142
1.0
143
1.0
 70
   688
 72
     0
 73
     0
 74
     5
  7

 75
    16
147
1.0
148
0.0
149
0.0
100
AcDbLayout
  1
Layout1
 70
     1
 71
     1
 10
0.0
 20
0.0
 11
12.0
 21
9.0
 12
0.0
 22
0.0
 32
0.0
 14
1.000000000000000E+20
 24
1.000000000000000E+20
 34
1.000000000000000E+20
 15
-1.000000000000000E+20
 25
-1.000000000000000E+20
 35
-1.000000000000000E+20
146
0.0
 13
0.0
 23
0.0
 33
0.0
 16
1.0
 26
0.0
 36
0.0
 17
0.0
 27
1.0
 37
0.0
 76
     0
330
AF
  0
LAYOUT
  5
E1
102
{ACAD_XDICTIONARY
360
EC
102
}
102
{ACAD_REACTORS
330
DF
102
}
330
DF
100
AcDbPlotSettings
  1

  2
\\mitk-us-mtg-n28\Office Canon IR C2550
  4

  6

 40
0.0
 41
0.0
 42
0.0
 43
0.0
 44
0.0
 45
0.0
 46
0.0
 47
0.0
 48
0.0
 49
0.0
140
0.0
141
0.0
142
1.0
143
1.0
 70
  1712
 72
     0
 73
     0
 74
     0
  7

 75
     0
147
1.0
148
0.0
149
0.0
100
AcDbLayout
  1
Model
 70
     1
 71
     0
 10
0.0
 20
0.0
 11
12.0
 21
9.0
 12
0.0
 22
0.0
 32
0.0
 14
0.0
 24
0.0
 34
0.0
 15
0.0
 25
0.0
 35
0.0
146
0.0
 13
0.0
 23
0.0
 33
0.0
 16
1.0
 26
0.0
 36
0.0
 17
0.0
 27
1.0
 37
0.0
 76
     0
330
2
  0
DICTIONARY
  5
C5
330
C4
100
AcDbDictionary
280
     1
281
     1
  0
MLINESTYLE
  5
C9
102
{ACAD_REACTORS
330
C4
102
}
330
C4
100
AcDbMlineStyle
  2
STANDARD
 70
     0
  3

 62
   256
 51
90.0
 52
90.0
 71
     2
 49
0.5
 62
   256
  6
BYLAYER
 49
-0.5
 62
   256
  6
BYLAYER
  0
ACDBPLACEHOLDER
  5
DC
102
{ACAD_REACTORS
330
DB
102
}
330
DB
  0
XRECORD
  5
EB
102
{ACAD_REACTORS
330
E9
102
}
330
E9
100
AcDbXrecord
280
     1
340
DE
  0
XRECORD
  5
EA
102
{ACAD_REACTORS
330
E9
102
}
330
E9
100
AcDbXrecord
280
     1
340
DD
  0
DICTIONARYVAR
  5
E6
102
{ACAD_REACTORS
330
E5
102
}
330
E5
100
DictionaryVariables
280
     0
  1
1
  0
DICTIONARYVAR
  5
E7
102
{ACAD_REACTORS
330
E5
102
}
330
E5
100
DictionaryVariables
280
     0
  1

  0
DICTIONARY
  5
EE
330
E2
100
AcDbDictionary
280
     1
281
     1
  3
ACAD_XREC_ROUNDTRIP
360
EF
  0
DICTIONARY
  5
EC
330
E1
100
AcDbDictionary
280
     1
281
     1
  3
ACAD_XREC_ROUNDTRIP
360
ED
  0
XRECORD
  5
EF
102
{ACAD_REACTORS
330
EE
102
}
330
EE
100
AcDbXrecord
280
     1
102
SHADEPLOT
 70
     0
102
SHADEPLOTRESLEVEL
 70
     2
102
SHADEPLOTCUSTOMDPI
 70
   300
  0
XRECORD
  5
ED
102
{ACAD_REACTORS
330
EC
102
}
330
EC
100
AcDbXrecord
280
     1
102
SHADEPLOT
 70
     0
102
SHADEPLOTRESLEVEL
 70
     2
102
SHADEPLOTCUSTOMDPI
 70
   300
  0
ENDSEC
  0
EOF
