  0
SECTION
  2
HEADER
  9
$ACADVER
  1
AC1015
  9
$ACADMAINTVER
 70
    20
  9
$DWGCODEPAGE
  3
ANSI_1252
  9
$INSBASE
 10
0.0
 20
0.0
 30
0.0
  9
$EXTMIN
 10
0.0003661829982491
 20
0.0003531909660878
 30
-19.79225933493883
  9
$EXTMAX
 10
11.15695482487483
 20
11.57440854494723
 30
0.0000000000000008
  9
$LIMMIN
 10
0.0
 20
0.0
  9
$LIMMAX
 10
12.0
 20
9.0
  9
$ORTHOMODE
 70
     0
  9
$REGENMODE
 70
     1
  9
$FILLMODE
 70
     1
  9
$QTEXTMODE
 70
     0
  9
$MIRRTEXT
 70
     1
  9
$LTSCALE
 40
1.0
  9
$ATTMODE
 70
     1
  9
$TEXTSIZE
 40
0.25
  9
$TRACEWID
 40
0.05
  9
$TEXTSTYLE
  7
STANDARD
  9
$CLAYER
  8
0
  9
$CELTYPE
  6
BYLAYER
  9
$CECOLOR
 62
   256
  9
$CELTSCALE
 40
1.0
  9
$DISPSILH
 70
     0
  9
$DIMSCALE
 40
1.0
  9
$DIMASZ
 40
0.18
  9
$DIMEXO
 40
0.0625
  9
$DIMDLI
 40
0.38
  9
$DIMRND
 40
0.0
  9
$DIMDLE
 40
0.0
  9
$DIMEXE
 40
0.18
  9
$DIMTP
 40
0.0
  9
$DIMTM
 40
0.0
  9
$DIMTXT
 40
0.18
  9
$DIMCEN
 40
0.09
  9
$DIMTSZ
 40
0.0
  9
$DIMTOL
 70
     0
  9
$DIMLIM
 70
     0
  9
$DIMTIH
 70
     1
  9
$DIMTOH
 70
     1
  9
$DIMSE1
 70
     0
  9
$DIMSE2
 70
     0
  9
$DIMTAD
 70
     0
  9
$DIMZIN
 70
     0
  9
$DIMBLK
  1

  9
$DIMASO
 70
     1
  9
$DIMSHO
 70
     1
  9
$DIMPOST
  1

  9
$DIMAPOST
  1

  9
$DIMALT
 70
     0
  9
$DIMALTD
 70
     2
  9
$DIMALTF
 40
25.4
  9
$DIMLFAC
 40
1.0
  9
$DIMTOFL
 70
     0
  9
$DIMTVP
 40
0.0
  9
$DIMTIX
 70
     0
  9
$DIMSOXD
 70
     0
  9
$DIMSAH
 70
     0
  9
$DIMBLK1
  1

  9
$DIMBLK2
  1

  9
$DIMSTYLE
  2
STANDARD
  9
$DIMCLRD
 70
     0
  9
$DIMCLRE
 70
     0
  9
$DIMCLRT
 70
     0
  9
$DIMTFAC
 40
1.0
  9
$DIMGAP
 40
0.09
  9
$DIMJUST
 70
     0
  9
$DIMSD1
 70
     0
  9
$DIMSD2
 70
     0
  9
$DIMTOLJ
 70
     1
  9
$DIMTZIN
 70
     0
  9
$DIMALTZ
 70
     0
  9
$DIMALTTZ
 70
     0
  9
$DIMUPT
 70
     0
  9
$DIMDEC
 70
     4
  9
$DIMTDEC
 70
     4
  9
$DIMALTU
 70
     2
  9
$DIMALTTD
 70
     2
  9
$DIMTXSTY
  7
STANDARD
  9
$DIMAUNIT
 70
     0
  9
$DIMADEC
 70
     0
  9
$DIMALTRND
 40
0.0
  9
$DIMAZIN
 70
     0
  9
$DIMDSEP
 70
    46
  9
$DIMATFIT
 70
     3
  9
$DIMFRAC
 70
     0
  9
$DIMLDRBLK
  1

  9
$DIMLUNIT
 70
     2
  9
$DIMLWD
 70
    -2
  9
$DIMLWE
 70
    -2
  9
$DIMTMOVE
 70
     0
  9
$LUNITS
 70
     2
  9
$LUPREC
 70
     4
  9
$SKETCHINC
 40
0.1
  9
$FILLETRAD
 40
0.5
  9
$AUNITS
 70
     0
  9
$AUPREC
 70
     0
  9
$MENU
  1
.
  9
$ELEVATION
 40
0.0
  9
$PELEVATION
 40
0.0
  9
$THICKNESS
 40
0.0
  9
$LIMCHECK
 70
     0
  9
$CHAMFERA
 40
0.5
  9
$CHAMFERB
 40
0.5
  9
$CHAMFERC
 40
1.0
  9
$CHAMFERD
 40
0.0
  9
$SKPOLY
 70
     0
  9
$TDCREATE
 40
2451675.885797454
  9
$TDUCREATE
 40
2451676.094130787
  9
$TDUPDATE
 40
2455846.458836493
  9
$TDUUPDATE
 40
2455846.667169827
  9
$TDINDWG
 40
0.0497745602
  9
$TDUSRTIMER
 40
0.0497663426
  9
$USRTIMER
 70
     1
  9
$ANGBASE
 50
0.0
  9
$ANGDIR
 70
     0
  9
$PDMODE
 70
     0
  9
$PDSIZE
 40
0.0
  9
$PLINEWID
 40
0.0
  9
$SPLFRAME
 70
     0
  9
$SPLINETYPE
 70
     6
  9
$SPLINESEGS
 70
     8
  9
$HANDSEED
  5
105
  9
$SURFTAB1
 70
     6
  9
$SURFTAB2
 70
     6
  9
$SURFTYPE
 70
     6
  9
$SURFU
 70
     6
  9
$SURFV
 70
     6
  9
$UCSBASE
  2

  9
$UCSNAME
  2

  9
$UCSORG
 10
0.0
 20
0.0
 30
0.0
  9
$UCSXDIR
 10
1.0
 20
0.0
 30
0.0
  9
$UCSYDIR
 10
0.0
 20
1.0
 30
0.0
  9
$UCSORTHOREF
  2

  9
$UCSORTHOVIEW
 70
     0
  9
$UCSORGTOP
 10
0.0
 20
0.0
 30
0.0
  9
$UCSORGBOTTOM
 10
0.0
 20
0.0
 30
0.0
  9
$UCSORGLEFT
 10
0.0
 20
0.0
 30
0.0
  9
$UCSORGRIGHT
 10
0.0
 20
0.0
 30
0.0
  9
$UCSORGFRONT
 10
0.0
 20
0.0
 30
0.0
  9
$UCSORGBACK
 10
0.0
 20
0.0
 30
0.0
  9
$PUCSBASE
  2

  9
$PUCSNAME
  2

  9
$PUCSORG
 10
0.0
 20
0.0
 30
0.0
  9
$PUCSXDIR
 10
1.0
 20
0.0
 30
0.0
  9
$PUCSYDIR
 10
0.0
 20
1.0
 30
0.0
  9
$PUCSORTHOREF
  2

  9
$PUCSORTHOVIEW
 70
     0
  9
$PUCSORGTOP
 10
0.0
 20
0.0
 30
0.0
  9
$PUCSORGBOTTOM
 10
0.0
 20
0.0
 30
0.0
  9
$PUCSORGLEFT
 10
0.0
 20
0.0
 30
0.0
  9
$PUCSORGRIGHT
 10
0.0
 20
0.0
 30
0.0
  9
$PUCSORGFRONT
 10
0.0
 20
0.0
 30
0.0
  9
$PUCSORGBACK
 10
0.0
 20
0.0
 30
0.0
  9
$USERI1
 70
     0
  9
$USERI2
 70
     0
  9
$USERI3
 70
     0
  9
$USERI4
 70
     0
  9
$USERI5
 70
     0
  9
$USERR1
 40
0.0
  9
$USERR2
 40
0.0
  9
$USERR3
 40
0.0
  9
$USERR4
 40
0.0
  9
$USERR5
 40
0.0
  9
$WORLDVIEW
 70
     1
  9
$SHADEDGE
 70
     3
  9
$SHADEDIF
 70
    70
  9
$TILEMODE
 70
     1
  9
$MAXACTVP
 70
    48
  9
$PINSBASE
 10
0.0
 20
0.0
 30
0.0
  9
$PLIMCHECK
 70
     0
  9
$PEXTMIN
 10
1.000000000000000E+20
 20
1.000000000000000E+20
 30
1.000000000000000E+20
  9
$PEXTMAX
 10
-1.000000000000000E+20
 20
-1.000000000000000E+20
 30
-1.000000000000000E+20
  9
$PLIMMIN
 10
0.0
 20
0.0
  9
$PLIMMAX
 10
12.0
 20
9.0
  9
$UNITMODE
 70
     0
  9
$VISRETAIN
 70
     1
  9
$PLINEGEN
 70
     0
  9
$PSLTSCALE
 70
     1
  9
$TREEDEPTH
 70
  3020
  9
$CMLSTYLE
  2
STANDARD
  9
$CMLJUST
 70
     0
  9
$CMLSCALE
 40
1.0
  9
$PROXYGRAPHICS
 70
     1
  9
$MEASUREMENT
 70
     0
  9
$CELWEIGHT
370
    -1
  9
$ENDCAPS
280
     0
  9
$JOINSTYLE
280
     0
  9
$LWDISPLAY
290
     0
  9
$INSUNITS
 70
     0
  9
$HYPERLINKBASE
  1

  9
$STYLESHEET
  1

  9
$XEDIT
290
     1
  9
$CEPSNTYPE
380
     0
  9
$PSTYLEMODE
290
     1
  9
$FINGERPRINTGUID
  2
{65E6C99E-7E22-44DE-9708-FDF38C50C46A}
  9
$VERSIONGUID
  2
{199411D6-5C8C-455F-9851-16457DD7EE33}
  9
$EXTNAMES
290
     1
  9
$PSVPSCALE
 40
0.0
  9
$OLESTARTUP
290
     0
  0
ENDSEC
  0
SECTION
  2
CLASSES
  0
CLASS
  1
ACDBDICTIONARYWDFLT
  2
AcDbDictionaryWithDefault
  3
ObjectDBX Classes
 90
        0
280
     1
281
     0
  0
CLASS
  1
ACDBPLACEHOLDER
  2
AcDbPlaceHolder
  3
ObjectDBX Classes
 90
        0
280
     0
281
     0
  0
CLASS
  1
LAYOUT
  2
AcDbLayout
  3
ObjectDBX Classes
 90
        0
280
     0
281
     0
  0
CLASS
  1
DICTIONARYVAR
  2
AcDbDictionaryVar
  3
ObjectDBX Classes
 90
        0
280
     0
281
     0
  0
ENDSEC
  0
SECTION
  2
TABLES
  0
TABLE
  2
VPORT
  5
D2
330
0
100
AcDbSymbolTable
 70
     2
  0
VPORT
  5
FD
330
D2
100
AcDbSymbolTableRecord
100
AcDbViewportTableRecord
  2
*Active
 70
     0
 10
0.0
 20
0.0
 11
1.0
 21
1.0
 12
9.575729099332001
 22
5.930195235252861
 13
0.0
 23
0.0
 14
0.5
 24
0.5
 15
0.5
 25
0.5
 16
0.0
 26
0.0
 36
1.0
 17
0.0
 27
0.0
 37
0.0
 40
11.94493882353741
 41
2.1268758526603
 42
50.0
 43
0.0
 44
0.0
 50
0.0
 51
0.0
 71
     0
 72
   100
 73
     1
 74
     3
 75
     0
 76
     0
 77
     0
 78
     0
281
     0
 65
     1
110
0.0
120
0.0
130
0.0
111
1.0
121
0.0
131
0.0
112
0.0
122
1.0
132
0.0
 79
     0
146
0.0
  0
ENDTAB
  0
TABLE
  2
LTYPE
  5
CB
330
0
100
AcDbSymbolTable
 70
     2
  0
LTYPE
  5
CC
102
{ACAD_XDICTIONARY
360
CD
102
}
330
CB
100
AcDbSymbolTableRecord
100
AcDbLinetypeTableRecord
  2
BYBLOCK
 70
     0
  3

 72
    65
 73
     0
 40
0.0
  0
LTYPE
  5
CE
102
{ACAD_XDICTIONARY
360
CF
102
}
330
CB
100
AcDbSymbolTableRecord
100
AcDbLinetypeTableRecord
  2
BYLAYER
 70
     0
  3

 72
    65
 73
     0
 40
0.0
  0
LTYPE
  5
5
102
{ACAD_XDICTIONARY
360
6
102
}
330
CB
100
AcDbSymbolTableRecord
100
AcDbLinetypeTableRecord
  2
CONTINUOUS
 70
     0
  3
Solid line
 72
    65
 73
     0
 40
0.0
  0
LTYPE
  5
1D
330
CB
100
AcDbSymbolTableRecord
100
AcDbLinetypeTableRecord
  2
HIDDEN
 70
     0
  3
Hidden __ __ __ __ __ __ __ __ __ __ __ __ __ _
 72
    65
 73
     2
 40
0.375
 49
0.25
 74
     0
 49
-0.125
 74
     0
  0
ENDTAB
  0
TABLE
  2
LAYER
  5
C9
330
0
100
AcDbSymbolTable
 70
     5
  0
LAYER
  5
4A
330
C9
100
AcDbSymbolTableRecord
100
AcDbLayerTableRecord
  2
0
 70
     0
 62
     7
  6
CONTINUOUS
370
    -3
390
F1
  0
LAYER
  5
4
330
C9
100
AcDbSymbolTableRecord
100
AcDbLayerTableRecord
  2
USP
 70
     0
 62
     7
  6
CONTINUOUS
370
    -3
390
F1
  0
LAYER
  5
1C
330
C9
100
AcDbSymbolTableRecord
100
AcDbLayerTableRecord
  2
USP-HID
 70
     0
 62
     7
  6
HIDDEN
370
    -3
390
F1
  0
LAYER
  5
D
330
C9
100
AcDbSymbolTableRecord
100
AcDbLayerTableRecord
  2
USP-GEO
 70
     0
 62
     7
  6
CONTINUOUS
370
    -3
390
F1
  0
LAYER
  5
9
330
C9
100
AcDbSymbolTableRecord
100
AcDbLayerTableRecord
  2
USP-TXT
 70
     0
 62
     7
  6
CONTINUOUS
370
    -3
390
F1
  0
ENDTAB
  0
TABLE
  2
STYLE
  5
CA
330
0
100
AcDbSymbolTable
 70
     1
  0
STYLE
  5
A
102
{ACAD_XDICTIONARY
360
B
102
}
330
CA
100
AcDbSymbolTableRecord
100
AcDbTextStyleTableRecord
  2
STANDARD
 70
     0
 40
0.0
 41
1.0
 50
0.0
 71
     0
 42
0.25
  3
txt
  4

  0
ENDTAB
  0
TABLE
  2
VIEW
  5
D0
330
0
100
AcDbSymbolTable
 70
     0
  0
ENDTAB
  0
TABLE
  2
UCS
  5
D1
330
0
100
AcDbSymbolTable
 70
     0
  0
ENDTAB
  0
TABLE
  2
APPID
  5
D4
330
0
100
AcDbSymbolTable
 70
     1
  0
APPID
  5
D5
330
D4
100
AcDbSymbolTableRecord
100
AcDbRegAppTableRecord
  2
ACAD
 70
     0
  0
ENDTAB
  0
TABLE
  2
DIMSTYLE
  5
D6
330
0
100
AcDbSymbolTable
 70
     1
100
AcDbDimStyleTable
 71
     0
  0
DIMSTYLE
105
DF
102
{ACAD_XDICTIONARY
360
E0
102
}
330
D6
100
AcDbSymbolTableRecord
100
AcDbDimStyleTableRecord
  2
STANDARD
 70
     0
340
A
  0
ENDTAB
  0
TABLE
  2
BLOCK_RECORD
  5
1
330
0
100
AcDbSymbolTable
 70
     2
  0
BLOCK_RECORD
  5
2
102
{ACAD_XDICTIONARY
360
C0
102
}
330
1
100
AcDbSymbolTableRecord
100
AcDbBlockTableRecord
  2
*MODEL_SPACE
340
F6
  0
BLOCK_RECORD
  5
C4
102
{ACAD_XDICTIONARY
360
C5
102
}
330
1
100
AcDbSymbolTableRecord
100
AcDbBlockTableRecord
  2
*PAPER_SPACE
340
F7
  0
BLOCK_RECORD
  5
7
330
1
100
AcDbSymbolTableRecord
100
AcDbBlockTableRecord
  2
RT10_F
340
0
102
{BLKREFS
331
3
102
}
  0
BLOCK_RECORD
  5
4D
330
1
100
AcDbSymbolTableRecord
100
AcDbBlockTableRecord
  2
RT10_S
340
0
102
{BLKREFS
331
4C
102
}
  0
ENDTAB
  0
ENDSEC
  0
SECTION
  2
BLOCKS
  0
BLOCK
  5
C2
330
2
100
AcDbEntity
  8
0
100
AcDbBlockBegin
  2
*MODEL_SPACE
 70
     0
 10
0.0
 20
0.0
 30
0.0
  3
*MODEL_SPACE
  1

  0
ENDBLK
  5
C3
330
2
100
AcDbEntity
  8
0
100
AcDbBlockEnd
  0
BLOCK
  5
C7
330
C4
100
AcDbEntity
 67
     1
  8
0
100
AcDbBlockBegin
  2
*PAPER_SPACE
 70
     0
 10
0.0
 20
0.0
 30
0.0
  3
*PAPER_SPACE
  1

  0
ENDBLK
  5
C8
330
C4
100
AcDbEntity
 67
     1
  8
0
100
AcDbBlockEnd
  0
BLOCK
  5
49
330
7
100
AcDbEntity
  8
0
100
AcDbBlockBegin
  2
RT10_F
 70
     0
 10
0.0
 20
0.0
 30
0.0
  3
RT10_F
  1

  0
TEXT
  5
8
330
7
100
AcDbEntity
  8
USP-TXT
100
AcDbText
 10
-1.797125000000005
 20
-0.8240553539811408
 30
-0.0000000000000001
 40
0.3125
  1
RT10 - FRONT VIEW
 72
     1
 11
0.7809999999999953
 21
-0.8240553539811408
 31
-0.0000000000000001
100
AcDbText
  0
LINE
  5
C
330
7
100
AcDbEntity
  8
USP-GEO
100
AcDbLine
 10
0.4492874286322888
 20
6.90599999999987
 30
-0.0000000000000002
 11
1.139423050054855
 21
8.386000616230724
 31
-0.0000000000000001
210
0.0
220
1.0
230
0.0
  0
LINE
  5
E
330
7
100
AcDbEntity
  8
USP-GEO
100
AcDbLine
 10
1.139423050054851
 20
2.363999383769268
 30
-0.0000000000000001
 11
0.4492874286322853
 21
3.844000000000121
 31
-0.0000000000000002
210
0.0
220
1.0
230
0.0
  0
LINE
  5
F
330
7
100
AcDbEntity
  8
USP-GEO
100
AcDbLine
 10
0.0
 20
4.780000000000121
 30
-0.0000000000000003
 11
0.0
 21
5.969999999999979
 31
-0.0000000000000003
210
0.0
220
1.0
230
0.0
  0
LINE
  5
10
330
7
100
AcDbEntity
  8
USP-GEO
100
AcDbLine
 10
0.4734639680330162
 20
3.844000000000121
 30
-0.0000000000000002
 11
0.0369999999999919
 21
4.780000000000008
 31
-0.0000000000000003
210
0.0
220
1.0
230
0.0
  0
CIRCLE
  5
11
330
7
100
AcDbEntity
  8
USP-GEO
100
AcDbCircle
 10
0.5749999999999887
 20
4.468999999999994
 30
-0.0000000000000002
 40
0.078
  0
LINE
  5
12
330
7
100
AcDbEntity
  8
USP-GEO
100
AcDbLine
 10
0.4492874286322888
 20
3.844000000000121
 30
-0.0000000000000002
 11
0.4734639680330162
 21
3.844000000000121
 31
-0.0000000000000002
210
0.0
220
1.0
230
0.0
  0
CIRCLE
  5
13
330
7
100
AcDbEntity
  8
USP-GEO
100
AcDbCircle
 10
0.2339999999999947
 20
4.815000000000004
 30
-0.0000000000000002
 40
0.078
  0
LINE
  5
14
330
7
100
AcDbEntity
  8
USP-GEO
100
AcDbLine
 10
0.0369999999999919
 20
4.780000000000008
 30
-0.0000000000000003
 11
0.0
 21
4.780000000000121
 31
-0.0000000000000003
210
0.0
220
1.0
230
0.0
  0
LINE
  5
15
330
7
100
AcDbEntity
  8
USP-GEO
100
AcDbLine
 10
0.0369999999999919
 20
5.969999999999979
 30
-0.0000000000000003
 11
0.4734639680330162
 21
6.90599999999987
 31
-0.0000000000000002
210
0.0
220
1.0
230
0.0
  0
CIRCLE
  5
16
330
7
100
AcDbEntity
  8
USP-GEO
100
AcDbCircle
 10
0.2339999999999947
 20
5.934999999999982
 30
-0.0000000000000002
 40
0.078
  0
LINE
  5
17
330
7
100
AcDbEntity
  8
USP-GEO
100
AcDbLine
 10
0.0
 20
5.969999999999979
 30
-0.0000000000000003
 11
0.0369999999999919
 21
5.969999999999979
 31
-0.0000000000000003
210
0.0
220
1.0
230
0.0
  0
CIRCLE
  5
18
330
7
100
AcDbEntity
  8
USP-GEO
100
AcDbCircle
 10
0.5749999999999887
 20
6.280999999999986
 30
-0.0000000000000002
 40
0.078
  0
LINE
  5
19
330
7
100
AcDbEntity
  8
USP-GEO
100
AcDbLine
 10
0.4734639680330162
 20
6.90599999999987
 30
-0.0000000000000002
 11
0.4492874286322888
 21
6.90599999999987
 31
-0.0000000000000002
210
0.0
220
1.0
230
0.0
  0
LINE
  5
1A
330
7
100
AcDbEntity
  8
USP-GEO
100
AcDbLine
 10
1.609800000000021
 20
2.33050573471538
 30
0.0
 11
1.609800000000021
 21
3.877493649053899
 31
0.0
210
0.0
220
1.0
230
0.0
  0
LINE
  5
1B
330
7
100
AcDbEntity
  8
USP-HID
100
AcDbLine
 10
1.562000000000018
 20
2.33050573471538
 30
0.0
 11
1.562000000000018
 21
3.877493649053899
 31
0.0
  0
LINE
  5
1E
330
7
100
AcDbEntity
  8
USP-GEO
100
AcDbLine
 10
1.562000000000018
 20
0.0
 30
0.0
 11
1.562000000000018
 21
1.427800000000004
 31
0.0
210
0.0
220
1.0
230
0.0
  0
LINE
  5
1F
330
7
100
AcDbEntity
  8
USP-GEO
100
AcDbLine
 10
1.609800000000021
 20
0.0
 30
0.0
 11
1.609800000000021
 21
1.427800000000004
 31
0.0
210
0.0
220
1.0
230
0.0
  0
LINE
  5
20
330
7
100
AcDbEntity
  8
USP-GEO
100
AcDbLine
 10
1.562000000000018
 20
0.0
 30
0.0
 11
1.609800000000021
 21
0.0
 31
0.0
210
0.0
220
1.0
230
0.0
  0
LINE
  5
21
330
7
100
AcDbEntity
  8
USP-GEO
100
AcDbLine
 10
1.562000000000018
 20
1.427799999999976
 30
0.0
 11
1.562000000000018
 21
2.113999383769268
 31
0.0
210
0.0
220
1.0
230
0.0
  0
LINE
  5
22
330
7
100
AcDbEntity
  8
USP-GEO
100
AcDbLine
 10
1.609800000000021
 20
1.427799999999976
 30
0.0
 11
1.609800000000021
 21
2.113999383769268
 31
0.0
210
0.0
220
1.0
230
0.0
  0
LINE
  5
23
330
7
100
AcDbEntity
  8
USP-GEO
100
AcDbLine
 10
1.562000000000018
 20
1.427800000000004
 30
0.0
 11
1.609800000000021
 21
1.427800000000004
 31
0.0
210
0.0
220
1.0
230
0.0
  0
LINE
  5
24
330
7
100
AcDbEntity
  8
USP-GEO
100
AcDbLine
 10
1.437000000000018
 20
2.363999383769268
 30
0.0
 11
1.139423050054851
 21
2.363999383769268
 31
-0.0000000000000001
210
0.0
220
1.0
230
0.0
  0
LINE
  5
25
330
7
100
AcDbEntity
  8
USP-GEO
100
AcDbLine
 10
1.562000000000018
 20
2.113999383769268
 30
0.0
 11
1.562000000000018
 21
2.330505734715382
 31
0.0
210
0.0
220
1.0
230
0.0
  0
LINE
  5
26
330
7
100
AcDbEntity
  8
USP-GEO
100
AcDbLine
 10
1.609800000000021
 20
2.113999383769268
 30
0.0
 11
1.609800000000021
 21
2.330505734715382
 31
0.0
210
0.0
220
1.0
230
0.0
  0
LINE
  5
27
330
7
100
AcDbEntity
  8
USP-GEO
100
AcDbLine
 10
1.562000000000018
 20
2.33050573471538
 30
0.0
 11
1.609800000000021
 21
2.33050573471538
 31
0.0
210
0.0
220
1.0
230
0.0
  0
SPLINE
  5
28
330
7
100
AcDbEntity
  8
USP-GEO
100
AcDbSpline
210
0.0000000000000226
220
0.00000000000005
230
1.0
 70
     8
 71
     3
 72
    10
 73
     6
 74
     0
 42
0.0000000001
 43
0.0000000001
 40
0.4465973149794074
 40
0.4465973149794074
 40
0.4465973149794074
 40
0.4465973149794074
 40
0.4874012508973584
 40
0.4874012508973584
 40
0.4986388691438599
 40
0.4986388691438599
 40
0.4986388691438599
 40
0.4986388691438599
 10
1.51420000000002
 20
2.351781132438087
 30
0.0
 10
1.527136574980207
 20
2.347581047300934
 30
0.0
 10
1.540449971664578
 20
2.341991132775369
 30
0.0
 10
1.555718206208517
 20
2.334044383598573
 30
0.0
 10
1.558919599896263
 20
2.332284204544496
 30
0.0
 10
1.562000000000018
 20
2.33050573471538
 30
0.0
  0
ARC
  5
29
330
7
100
AcDbEntity
  8
USP-GEO
100
AcDbCircle
 10
1.437000000000026
 20
2.113999383769275
 30
0.0
 40
0.2499999999999937
100
AcDbArc
 50
72.01307220017191
 51
90.00000000000161
  0
LINE
  5
2A
330
7
100
AcDbEntity
  8
USP-GEO
100
AcDbLine
 10
1.609800000000021
 20
6.872506350946096
 30
0.0
 11
1.609800000000021
 21
8.419494265284615
 31
0.0
210
0.0
220
1.0
230
0.0
  0
LINE
  5
2B
330
7
100
AcDbEntity
  8
USP-HID
100
AcDbLine
 10
1.562000000000018
 20
8.636000616230724
 30
0.0
 11
1.562000000000018
 21
6.872506350946094
 31
0.0
  0
LINE
  5
2C
330
7
100
AcDbEntity
  8
USP-GEO
100
AcDbLine
 10
1.56199999999999
 20
5.969999999999979
 30
0.0
 11
1.56199999999999
 21
4.779999999999979
 31
0.0
210
0.0
220
1.0
230
0.0
  0
CIRCLE
  5
2D
330
7
100
AcDbEntity
  8
USP-GEO
100
AcDbCircle
 10
1.124336570479719
 20
3.243499999999983
 30
-0.0000000000000001
 40
0.094
  0
LINE
  5
2E
330
7
100
AcDbEntity
  8
USP-GEO
100
AcDbLine
 10
1.437000000000018
 20
4.779999999999979
 30
0.0
 11
1.437000000000018
 21
4.094000000000008
 31
0.0
210
0.0
220
1.0
230
0.0
  0
SPLINE
  5
2F
330
7
100
AcDbEntity
  8
USP-GEO
100
AcDbSpline
210
0.000000000000033
220
0.0000000000000445
230
1.0
 70
     8
 71
     3
 72
    10
 73
     6
 74
     0
 42
0.0000000001
 43
0.0000000001
 40
-0.2751458661897892
 40
-0.2751458661897892
 40
-0.2751458661897892
 40
-0.2751458661897892
 40
-0.2530358030706381
 40
-0.2530358030706381
 40
-0.2128120484502466
 40
-0.2128120484502466
 40
-0.2128120484502466
 40
-0.2128120484502466
 10
1.562000000000018
 20
3.877493649053899
 30
0.0
 10
1.555908385657282
 20
3.881010644234478
 30
0.0
 10
1.549693763604015
 20
3.884960083485946
 30
0.0
 10
1.53323762305094
 20
3.896452799722151
 30
0.0
 10
1.523354693635717
 20
3.904578006411124
 30
0.0
 10
1.51420000000002
 20
3.913334120542927
 30
0.0
  0
LINE
  5
30
330
7
100
AcDbEntity
  8
USP-GEO
100
AcDbLine
 10
1.609800000000021
 20
3.877493649053899
 30
0.0
 11
1.562000000000018
 21
3.877493649053899
 31
0.0
210
0.0
220
1.0
230
0.0
  0
ARC
  5
31
330
7
100
AcDbEntity
  8
USP-GEO
100
AcDbCircle
 10
1.687000000000018
 20
4.094000000000008
 30
0.0
 40
0.2500000000000003
100
AcDbArc
 50
179.9999999999999
 51
226.2748255137643
  0
CIRCLE
  5
32
330
7
100
AcDbEntity
  8
USP-GEO
100
AcDbCircle
 10
1.239999999999987
 20
4.641999999999995
 30
-0.0000000000000001
 40
0.078
  0
CIRCLE
  5
33
330
7
100
AcDbEntity
  8
USP-GEO
100
AcDbCircle
 10
0.8889999999999886
 20
4.987999999999978
 30
-0.0000000000000001
 40
0.078
  0
LINE
  5
34
330
7
100
AcDbEntity
  8
USP-GEO
100
AcDbLine
 10
1.56199999999999
 20
4.779999999999979
 30
0.0
 11
1.437000000000018
 21
4.779999999999979
 31
0.0
210
0.0
220
1.0
230
0.0
  0
LINE
  5
35
330
7
100
AcDbEntity
  8
USP-GEO
100
AcDbLine
 10
1.437000000000018
 20
6.655999999999984
 30
0.0
 11
1.437000000000018
 21
5.970000000000007
 31
0.0
210
0.0
220
1.0
230
0.0
  0
CIRCLE
  5
36
330
7
100
AcDbEntity
  8
USP-GEO
100
AcDbCircle
 10
0.8889999999999886
 20
5.76199999999998
 30
-0.0000000000000001
 40
0.078
  0
CIRCLE
  5
37
330
7
100
AcDbEntity
  8
USP-GEO
100
AcDbCircle
 10
1.239999999999987
 20
6.107999999999984
 30
-0.0000000000000001
 40
0.078
  0
LINE
  5
38
330
7
100
AcDbEntity
  8
USP-GEO
100
AcDbLine
 10
1.437000000000018
 20
5.970000000000007
 30
0.0
 11
1.56199999999999
 21
5.969999999999979
 31
0.0
210
0.0
220
1.0
230
0.0
  0
ARC
  5
39
330
7
100
AcDbEntity
  8
USP-GEO
100
AcDbCircle
 10
1.687000000000018
 20
6.655999999999988
 30
0.0
 40
0.2500000000000002
100
AcDbArc
 50
133.7251744862363
 51
180.0000000000008
  0
LINE
  5
3A
330
7
100
AcDbEntity
  8
USP-GEO
100
AcDbLine
 10
1.562000000000018
 20
6.872506350946096
 30
0.0
 11
1.609800000000021
 21
6.872506350946096
 31
0.0
210
0.0
220
1.0
230
0.0
  0
SPLINE
  5
3B
330
7
100
AcDbEntity
  8
USP-GEO
100
AcDbSpline
210
0.000000000000033
220
-0.0000000000000445
230
1.0
 70
     8
 71
     3
 72
    10
 73
     6
 74
     0
 42
0.0000000001
 43
0.0000000001
 40
0.2128120484502464
 40
0.2128120484502464
 40
0.2128120484502464
 40
0.2128120484502464
 40
0.2530358030706379
 40
0.2530358030706379
 40
0.2751458661897906
 40
0.2751458661897906
 40
0.2751458661897906
 40
0.2751458661897906
 10
1.51420000000002
 20
6.836665879457068
 30
0.0
 10
1.523354693635717
 20
6.845421993588871
 30
0.0
 10
1.53323762305094
 20
6.853547200277844
 30
0.0
 10
1.549693763604015
 20
6.865039916514046
 30
0.0
 10
1.555908385657282
 20
6.868989355765521
 30
0.0
 10
1.562000000000018
 20
6.872506350946096
 30
0.0
  0
CIRCLE
  5
3C
330
7
100
AcDbEntity
  8
USP-GEO
100
AcDbCircle
 10
1.124336570479719
 20
7.506499999999995
 30
-0.0000000000000001
 40
0.094
  0
LINE
  5
3D
330
7
100
AcDbEntity
  8
USP-GEO
100
AcDbLine
 10
1.609800000000021
 20
9.322199999999988
 30
0.0
 11
1.609800000000021
 21
10.75000000000001
 31
0.0
210
0.0
220
1.0
230
0.0
  0
LINE
  5
3E
330
7
100
AcDbEntity
  8
USP-GEO
100
AcDbLine
 10
1.562000000000018
 20
10.75000000000001
 30
0.0
 11
1.562000000000018
 21
9.322199999999988
 31
0.0
210
0.0
220
1.0
230
0.0
  0
LINE
  5
3F
330
7
100
AcDbEntity
  8
USP-GEO
100
AcDbLine
 10
1.609800000000021
 20
8.636000616230724
 30
0.0
 11
1.609800000000021
 21
9.322200000000016
 31
0.0
210
0.0
220
1.0
230
0.0
  0
LINE
  5
40
330
7
100
AcDbEntity
  8
USP-GEO
100
AcDbLine
 10
1.562000000000018
 20
9.322200000000016
 30
0.0
 11
1.562000000000018
 21
8.636000616230724
 31
0.0
210
0.0
220
1.0
230
0.0
  0
LINE
  5
41
330
7
100
AcDbEntity
  8
USP-GEO
100
AcDbLine
 10
1.139423050054851
 20
8.386000616230724
 30
-0.0000000000000001
 11
1.437000000000018
 21
8.386000616230724
 31
0.0
210
0.0
220
1.0
230
0.0
  0
LINE
  5
42
330
7
100
AcDbEntity
  8
USP-GEO
100
AcDbLine
 10
1.609800000000021
 20
8.419494265284614
 30
0.0
 11
1.609800000000021
 21
8.636000616230724
 31
0.0
210
0.0
220
1.0
230
0.0
  0
LINE
  5
43
330
7
100
AcDbEntity
  8
USP-GEO
100
AcDbLine
 10
1.562000000000018
 20
8.636000616230724
 30
0.0
 11
1.562000000000018
 21
8.419494265284614
 31
0.0
210
0.0
220
1.0
230
0.0
  0
SPLINE
  5
44
330
7
100
AcDbEntity
  8
USP-GEO
100
AcDbSpline
210
-0.0000000000000226
220
0.00000000000005
230
-1.0
 70
     8
 71
     3
 72
    10
 73
     6
 74
     0
 42
0.0000000001
 43
0.0000000001
 40
0.1036676207946708
 40
0.1036676207946708
 40
0.1036676207946708
 40
0.1036676207946708
 40
0.114905239041174
 40
0.114905239041174
 40
0.1557091749591255
 40
0.1557091749591255
 40
0.1557091749591255
 40
0.1557091749591255
 10
1.562000000000018
 20
8.419494265284619
 30
0.0
 10
1.558919599896263
 20
8.417715795455499
 30
0.0
 10
1.555718206208517
 20
8.415955616401419
 30
0.0
 10
1.540449971664578
 20
8.408008867224626
 30
0.0
 10
1.527136574980207
 20
8.402418952699065
 30
0.0
 10
1.51420000000002
 20
8.398218867561908
 30
0.0
  0
LINE
  5
45
330
7
100
AcDbEntity
  8
USP-GEO
100
AcDbLine
 10
1.609800000000021
 20
8.419494265284615
 30
0.0
 11
1.562000000000018
 21
8.419494265284615
 31
0.0
210
0.0
220
1.0
230
0.0
  0
ARC
  5
46
330
7
100
AcDbEntity
  8
USP-GEO
100
AcDbCircle
 10
1.437000000000022
 20
8.636000616230717
 30
0.0
 40
0.249999999999994
100
AcDbArc
 50
269.9999999999992
 51
287.986927799829
  0
LINE
  5
47
330
7
100
AcDbEntity
  8
USP-GEO
100
AcDbLine
 10
1.562000000000018
 20
9.322199999999988
 30
0.0
 11
1.609800000000021
 21
9.322199999999988
 31
0.0
210
0.0
220
1.0
230
0.0
  0
LINE
  5
48
330
7
100
AcDbEntity
  8
USP-GEO
100
AcDbLine
 10
1.562000000000018
 20
10.75000000000001
 30
0.0
 11
1.609800000000021
 21
10.75000000000001
 31
0.0
210
0.0
220
1.0
230
0.0
  0
ENDBLK
  5
4B
330
7
100
AcDbEntity
  8
0
100
AcDbBlockEnd
  0
BLOCK
  5
BE
330
4D
100
AcDbEntity
  8
0
100
AcDbBlockBegin
  2
RT10_S
 70
     0
 10
0.0
 20
0.0
 30
0.0
  3
RT10_S
  1

  0
LINE
  5
4E
330
4D
100
AcDbEntity
  8
USP-GEO
100
AcDbLine
 10
1.610136570479703
 20
2.363999383769268
 30
-18.8045467635711
 11
1.610136570479703
 21
8.386000616230722
 31
-18.8045467635711
  0
LINE
  5
4F
330
4D
100
AcDbEntity
  8
USP-GEO
100
AcDbLine
 10
1.657936570479705
 20
8.386000616230722
 30
-18.8045467635711
 11
1.657936570479705
 21
2.363999383769268
 31
-18.8045467635711
  0
LINE
  5
50
330
4D
100
AcDbEntity
  8
USP-GEO
100
AcDbLine
 10
1.112712571367694
 20
3.844000000000008
 30
-18.6317467635711
 11
0.4225769499451247
 21
2.363999383769154
 31
-18.6317467635711
210
-0.9063077870366486
220
0.4226182617407025
230
0.0
  0
ARC
  5
51
330
4D
100
AcDbEntity
  8
USP-GEO
100
AcDbCircle
 10
1.6873365704797
 20
2.113999383769272
 30
-18.6317467635711
 40
0.2500000000000004
100
AcDbArc
 50
120.0000000000001
 51
180.0000000000008
  0
CIRCLE
  5
52
330
4D
100
AcDbEntity
  8
USP-GEO
100
AcDbCircle
 10
1.159999999999996
 20
1.311750000000003
 30
-18.6795467635711
 40
0.078
  0
CIRCLE
  5
53
330
4D
100
AcDbEntity
  8
USP-GEO
100
AcDbCircle
 10
0.2493365704797554
 20
0.2499999999999858
 30
-18.6795467635711
 40
0.078
  0
CIRCLE
  5
54
330
4D
100
AcDbEntity
  8
USP-GEO
100
AcDbCircle
 10
1.100999999999999
 20
0.3147500000000036
 30
-18.6795467635711
 40
0.078
  0
LINE
  5
55
330
4D
100
AcDbEntity
  8
USP-GEO
100
AcDbLine
 10
0.0374719953410647
 20
1.427749999999875
 30
-18.6795467635711
 11
0.0374719953410647
 21
1.427749999999875
 31
-18.6317467635711
210
0.0
220
1.0
230
0.0
  0
LINE
  5
56
330
4D
100
AcDbEntity
  8
USP-GEO
100
AcDbLine
 10
0.0374719953410647
 20
1.427749999999875
 30
-18.6317467635711
 11
0.0
 21
1.427749999999875
 31
-18.6317467635711
210
0.0
220
1.0
230
0.0
  0
CIRCLE
  5
57
330
4D
100
AcDbEntity
  8
USP-GEO
100
AcDbCircle
 10
0.3469999999999942
 20
1.431750000000008
 30
-18.6795467635711
 40
0.078
  0
LINE
  5
58
330
4D
100
AcDbEntity
  8
USP-GEO
100
AcDbLine
 10
0.4225769499451247
 20
2.363999383769154
 30
-18.6795467635711
 11
0.4225769499451247
 21
2.363999383769154
 31
-18.6317467635711
210
-0.9063077870366486
220
0.4226182617407025
230
0.0
  0
LINE
  5
59
330
4D
100
AcDbEntity
  8
USP-GEO
100
AcDbLine
 10
0.4225769499451247
 20
2.363999383769154
 30
-18.6795467635711
 11
0.4225769499451247
 21
2.363999383769154
 31
-18.6317467635711
210
0.0
220
-1.0
230
0.0
  0
LINE
  5
5A
330
4D
100
AcDbEntity
  8
USP-GEO
100
AcDbLine
 10
0.4225769499451247
 20
2.363999383769154
 30
-18.6317467635711
 11
0.4740522529355644
 21
2.363999383769154
 31
-18.6317467635711
210
0.0
220
-1.0
230
0.0
  0
CIRCLE
  5
5B
330
4D
100
AcDbEntity
  8
USP-GEO
100
AcDbCircle
 10
0.6553365704797472
 20
1.551999999999999
 30
-18.6795467635711
 40
0.078
  0
CIRCLE
  5
5C
330
4D
100
AcDbEntity
  8
USP-GEO
100
AcDbCircle
 10
1.22933657047973
 20
1.671999999999989
 30
-18.6795467635711
 40
0.078
  0
LINE
  5
5D
330
4D
100
AcDbEntity
  8
USP-GEO
100
AcDbLine
 10
1.4373365704797
 20
1.427799999999976
 30
-18.6317467635711
 11
1.4373365704797
 21
2.113999383769268
 31
-18.6317467635711
210
1.0
220
0.0
230
0.0
  0
LINE
  5
5E
330
4D
100
AcDbEntity
  8
USP-GEO
100
AcDbLine
 10
1.562336570479686
 20
1.427800000000004
 30
-18.6795467635711
 11
1.562336570479686
 21
1.427800000000004
 31
-18.6317467635711
210
-0.0000000000002274
220
1.0
230
0.0
  0
LINE
  5
5F
330
4D
100
AcDbEntity
  8
USP-GEO
100
AcDbLine
 10
1.562336570479686
 20
1.427800000000004
 30
-18.6317467635711
 11
1.4373365704797
 21
1.427799999999976
 31
-18.6317467635711
210
-0.0000000000002274
220
1.0
230
0.0
  0
LINE
  5
60
330
4D
100
AcDbEntity
  8
USP-GEO
100
AcDbLine
 10
1.610136570479703
 20
2.363999383769268
 30
-18.8045467635711
 11
1.610136570479703
 21
2.363999383769268
 31
-19.10212371351627
210
-1.0
220
0.0
230
0.0
  0
LINE
  5
61
330
4D
100
AcDbEntity
  8
USP-GEO
100
AcDbLine
 10
1.657936570479705
 20
2.363999383769268
 30
-18.8045467635711
 11
1.657936570479705
 21
2.363999383769268
 31
-19.10212371351627
210
1.0
220
0.0
230
0.0
  0
LINE
  5
62
330
4D
100
AcDbEntity
  8
USP-GEO
100
AcDbLine
 10
1.610136570479703
 20
2.363999383769268
 30
-18.8045467635711
 11
1.610136570479703
 21
2.363999383769268
 31
-19.10212371351627
210
0.0
220
-1.0
230
0.0
  0
LINE
  5
63
330
4D
100
AcDbEntity
  8
USP-GEO
100
AcDbLine
 10
1.657936570479705
 20
2.363999383769268
 30
-18.8045467635711
 11
1.657936570479705
 21
2.363999383769268
 31
-19.10212371351627
210
0.0
220
-1.0
230
0.0
  0
LINE
  5
64
330
4D
100
AcDbEntity
  8
USP-GEO
100
AcDbLine
 10
1.610136570479703
 20
2.363999383769268
 30
-19.10212371351627
 11
1.657936570479705
 21
2.363999383769268
 31
-19.10212371351627
210
0.0
220
-1.0
230
0.0
  0
LINE
  5
65
330
4D
100
AcDbEntity
  8
USP-GEO
100
AcDbLine
 10
1.4373365704797
 20
2.113999383769268
 30
-18.6795467635711
 11
1.4373365704797
 21
2.113999383769268
 31
-18.6317467635711
210
1.0
220
0.0
230
0.0
  0
LINE
  5
66
330
4D
100
AcDbEntity
  8
USP-GEO
100
AcDbLine
 10
1.4373365704797
 20
2.113999383769268
 30
-18.6795467635711
 11
1.4373365704797
 21
2.113999383769268
 31
-18.6317467635711
  0
SPLINE
  5
67
330
4D
100
AcDbEntity
  8
USP-GEO
100
AcDbSpline
 70
     0
 71
     3
 72
    10
 73
     6
 74
     0
 42
0.0000000001
 43
0.0000000001
 40
0.4465973149794074
 40
0.4465973149794074
 40
0.4465973149794074
 40
0.4465973149794074
 40
0.4874012508973584
 40
0.4874012508973584
 40
0.4986388691438599
 40
0.4986388691438599
 40
0.4986388691438599
 40
0.4986388691438599
 10
1.657936570479705
 20
2.351781132438087
 30
-18.7273467635711
 10
1.657936570479705
 20
2.347581047300934
 30
-18.71441018859091
 10
1.655185244748736
 20
2.341991132775369
 30
-18.70109679190654
 10
1.648525528331376
 20
2.334044383598573
 30
-18.6858285573626
 10
1.646907068910607
 20
2.332284204544496
 30
-18.68262716367486
 10
1.645128599081495
 20
2.33050573471538
 30
-18.6795467635711
  0
LINE
  5
68
330
4D
100
AcDbEntity
  8
USP-GEO
100
AcDbLine
 10
1.5623365704797
 20
2.33050573471538
 30
-18.6795467635711
 11
1.5623365704797
 21
2.33050573471538
 31
-18.6317467635711
  0
LINE
  5
69
330
4D
100
AcDbEntity
  8
USP-GEO
100
AcDbLine
 10
1.5623365704797
 20
2.33050573471538
 30
-18.6795467635711
 11
1.5623365704797
 21
2.33050573471538
 31
-18.6317467635711
210
0.0
220
-1.0
230
0.0
  0
SPLINE
  5
6A
330
4D
100
AcDbEntity
  8
USP-GEO
100
AcDbSpline
 70
     0
 71
     3
 72
    14
 73
    10
 74
     0
 42
0.0000000001
 43
0.0000000001
 40
0.1483945245300267
 40
0.1483945245300267
 40
0.1483945245300267
 40
0.1483945245300267
 40
0.1664904528965553
 40
0.1664904528965553
 40
0.1845863812630839
 40
0.1845863812630839
 40
0.2041475754482557
 40
0.2041475754482557
 40
0.2237087696334277
 40
0.2237087696334277
 40
0.2237087696334277
 40
0.2237087696334277
 10
1.5623365704797
 20
2.33050573471538
 30
-18.6795467635711
 10
1.568368546601874
 20
2.33050573471538
 30
-18.6795467635711
 10
1.574721621767906
 20
2.331218047436308
 30
-18.68075898901937
 10
1.586270790641663
 20
2.333853342520313
 30
-18.6855022446926
 10
1.591474144873345
 20
2.335753830936823
 30
-18.68902806303433
 10
1.599998443688363
 20
2.339865361912501
 30
-18.69727389473289
 10
1.603793729960159
 20
2.342398280373942
 30
-18.70268566965081
 10
1.608864558661679
 20
2.347354526027256
 30
-18.71461836978671
 10
1.610136570479703
 20
2.349767633516627
 30
-18.72114503695857
 10
1.610136570479703
 20
2.351781132438087
 30
-18.7273467635711
  0
LINE
  5
6B
330
4D
100
AcDbEntity
  8
USP-GEO
100
AcDbLine
 10
1.5623365704797
 20
2.33050573471538
 30
-18.6795467635711
 11
1.645128599081495
 21
2.33050573471538
 31
-18.6795467635711
  0
ARC
  5
6C
330
4D
100
AcDbEntity
  8
USP
100
AcDbCircle
 10
-2.113999383769275
 20
-18.80454676357109
 30
-1.610136570479703
 40
0.2499999999999937
210
-1.0
220
0.0
230
0.0
100
AcDbArc
 50
162.013072200172
 51
180.0000000000016
  0
ARC
  5
6D
330
4D
100
AcDbEntity
  8
USP
100
AcDbCircle
 10
2.113999383769275
 20
-18.80454676357109
 30
1.610136570479703
 40
0.2499999999999937
210
1.0
220
0.0
230
0.0
100
AcDbArc
 50
359.9999999999984
 51
17.98692779982807
  0
ARC
  5
6E
330
4D
100
AcDbEntity
  8
USP
100
AcDbCircle
 10
2.113999383769275
 20
-18.80454676357109
 30
1.657936570479705
 40
0.2499999999999937
210
1.0
220
0.0
230
0.0
100
AcDbArc
 50
359.9999999999984
 51
17.98692779982807
  0
ARC
  5
6F
330
4D
100
AcDbEntity
  8
USP
100
AcDbCircle
 10
2.113999383769275
 20
-18.80454676357109
 30
1.657936570479705
 40
0.2499999999999937
210
1.0
220
0.0
230
0.0
100
AcDbArc
 50
359.9999999999984
 51
17.98692779982807
  0
TEXT
  5
70
330
4D
100
AcDbEntity
  8
USP-TXT
100
AcDbText
 10
-1.588623381426823
 20
-0.8240553539811408
 30
-0.0000000000000001
 40
0.3125
  1
RT10 - SIDE VIEW
 72
     1
 11
0.7811682852398434
 21
-0.8240553539811408
 31
-0.0000000000000001
100
AcDbText
  0
LINE
  5
71
330
4D
100
AcDbEntity
  8
USP-GEO
100
AcDbLine
 10
0.0
 20
0.0
 30
0.0
 11
1.562336570479686
 21
0.0
 31
-0.0000000000000002
210
0.0
220
1.0
230
0.0
  0
LINE
  5
72
330
4D
100
AcDbEntity
  8
USP-GEO
100
AcDbLine
 10
0.0
 20
1.427749999999875
 30
0.0
 11
0.0
 21
0.0
 31
0.0
210
0.0
220
1.0
230
0.0
  0
LINE
  5
73
330
4D
100
AcDbEntity
  8
USP-GEO
100
AcDbLine
 10
0.4740522529355644
 20
2.363999383769154
 30
-0.0000000000000001
 11
0.0374719953410647
 21
1.427749999999875
 31
0.0
210
0.0
220
1.0
230
0.0
  0
LINE
  5
74
330
4D
100
AcDbEntity
  8
USP-GEO
100
AcDbLine
 10
1.562336570479686
 20
0.0
 30
-0.0000000000000002
 11
1.562336570479686
 21
1.427800000000004
 31
-0.0000000000000002
210
0.0
220
1.0
230
0.0
  0
LINE
  5
75
330
4D
100
AcDbEntity
  8
USP-GEO
100
AcDbLine
 10
0.4225769499451247
 20
8.386000616230838
 30
-18.6317467635711
 11
1.112712571367694
 21
6.905999999999984
 31
-18.6317467635711
210
-0.9063077870366486
220
-0.4226182617407025
230
0.0
  0
LINE
  5
76
330
4D
100
AcDbEntity
  8
USP-GEO
100
AcDbLine
 10
1.610136570479703
 20
3.844000000000121
 30
-19.7680827955381
 11
1.657936570479705
 21
3.844000000000121
 31
-19.7680827955381
210
0.0
220
1.0
230
0.0
  0
LINE
  5
77
330
4D
100
AcDbEntity
  8
USP-GEO
100
AcDbLine
 10
1.610136570479703
 20
3.844000000000121
 30
-19.79225933493883
 11
1.610136570479703
 21
3.844000000000121
 31
-19.7680827955381
210
-1.0
220
0.0
230
0.0
  0
LINE
  5
78
330
4D
100
AcDbEntity
  8
USP-GEO
100
AcDbLine
 10
1.610136570479703
 20
3.844000000000121
 30
-19.79225933493883
 11
1.610136570479703
 21
3.844000000000121
 31
-19.7680827955381
210
0.0
220
1.0
230
0.0
  0
LINE
  5
79
330
4D
100
AcDbEntity
  8
USP-GEO
100
AcDbLine
 10
1.657936570479705
 20
3.844000000000121
 30
-19.79225933493883
 11
1.657936570479705
 21
3.844000000000121
 31
-19.7680827955381
210
1.0
220
0.0
230
0.0
  0
LINE
  5
7A
330
4D
100
AcDbEntity
  8
USP-GEO
100
AcDbLine
 10
1.657936570479705
 20
3.844000000000121
 30
-19.79225933493883
 11
1.657936570479705
 21
3.844000000000121
 31
-19.7680827955381
210
0.0
220
1.0
230
0.0
  0
LINE
  5
7B
330
4D
100
AcDbEntity
  8
USP-GEO
100
AcDbLine
 10
1.4373365704797
 20
3.844000000000008
 30
-18.6317467635711
 11
1.112712571367694
 21
3.844000000000008
 31
-18.6317467635711
210
0.0
220
1.0
230
0.0
  0
LINE
  5
7C
330
4D
100
AcDbEntity
  8
USP-GEO
100
AcDbLine
 10
1.112712571367694
 20
3.844000000000008
 30
-18.6795467635711
 11
1.112712571367694
 21
3.844000000000008
 31
-18.6317467635711
210
-0.9063077870366486
220
0.4226182617407025
230
0.0
  0
LINE
  5
7D
330
4D
100
AcDbEntity
  8
USP-GEO
100
AcDbLine
 10
1.112712571367694
 20
3.844000000000008
 30
-18.6795467635711
 11
1.112712571367694
 21
3.844000000000008
 31
-18.6317467635711
210
0.0
220
1.0
230
0.0
  0
SPLINE
  5
7E
330
4D
100
AcDbEntity
  8
USP-GEO
100
AcDbSpline
 70
     0
 71
     3
 72
    10
 73
     6
 74
     0
 42
0.0000000001
 43
0.0000000001
 40
-0.2751458661897892
 40
-0.2751458661897892
 40
-0.2751458661897892
 40
-0.2751458661897892
 40
-0.2530358030706381
 40
-0.2530358030706381
 40
-0.2128120484502466
 40
-0.2128120484502466
 40
-0.2128120484502466
 40
-0.2128120484502466
 10
1.645128599081495
 20
3.877493649053899
 30
-18.6795467635711
 10
1.648645594262077
 20
3.881010644234478
 30
-18.68563837791384
 10
1.651315511745963
 20
3.884960083485946
 30
-18.69185299996711
 10
1.656685397307441
 20
3.896452799722151
 30
-18.70830914052018
 10
1.657936570479705
 20
3.904578006411124
 30
-18.7181920699354
 10
1.657936570479705
 20
3.913334120542927
 30
-18.7273467635711
  0
ARC
  5
7F
330
4D
100
AcDbEntity
  8
USP
100
AcDbCircle
 10
-1.5623365704797
 20
-18.7273467635711
 30
3.877493649053899
 40
0.0956
210
0.0
220
1.0
230
0.0
100
AcDbArc
 50
90.0
 51
150.0000000000012
  0
SPLINE
  5
80
330
4D
100
AcDbEntity
  8
USP-GEO
100
AcDbSpline
 70
     0
 71
     3
 72
    14
 73
    10
 74
     0
 42
0.0000000001
 43
0.0000000001
 40
0.0965271750968295
 40
0.0965271750968295
 40
0.0965271750968295
 40
0.0965271750968295
 40
0.1198886020780479
 40
0.1198886020780479
 40
0.1432500290592662
 40
0.1432500290592662
 40
0.1608764609652997
 40
0.1608764609652997
 40
0.1785028928713332
 40
0.1785028928713332
 40
0.1785028928713332
 40
0.1785028928713332
 10
1.610136570479703
 20
3.913334120542927
 30
-18.7273467635711
 10
1.610136570479703
 20
3.907951647766452
 30
-18.72171927990319
 10
1.609085976049193
 20
3.902407738804228
 30
-18.71534002735514
 10
1.603987934263308
 20
3.89266371135416
 30
-18.70295756625347
 10
1.599921534259792
 20
3.888454356670347
 30
-18.69696944251644
 10
1.590736105839255
 20
3.882887152504828
 30
-18.6885254317609
 10
1.585680847106807
 20
3.880839284357499
 30
-18.68519654586014
 10
1.574418714821291
 20
3.878149589818846
 30
-18.68070323883728
 10
1.568212047781713
 20
3.877493649053899
 30
-18.6795467635711
 10
1.5623365704797
 20
3.877493649053899
 30
-18.6795467635711
  0
LINE
  5
81
330
4D
100
AcDbEntity
  8
USP-GEO
100
AcDbLine
 10
1.4373365704797
 20
3.844000000000008
 30
-18.6795467635711
 11
1.4373365704797
 21
3.844000000000008
 31
-18.6317467635711
210
0.0
220
1.0
230
0.0
  0
LINE
  5
82
330
4D
100
AcDbEntity
  8
USP-GEO
100
AcDbLine
 10
1.5623365704797
 20
3.877493649053899
 30
-18.6795467635711
 11
1.5623365704797
 21
3.877493649053899
 31
-18.6317467635711
210
0.0
220
1.0
230
0.0
  0
LINE
  5
83
330
4D
100
AcDbEntity
  8
USP-GEO
100
AcDbLine
 10
1.5623365704797
 20
3.877493649053899
 30
-18.6795467635711
 11
1.5623365704797
 21
3.877493649053899
 31
-18.6317467635711
  0
LINE
  5
84
330
4D
100
AcDbEntity
  8
USP-GEO
100
AcDbLine
 10
1.4373365704797
 20
3.844000000000008
 30
-18.6795467635711
 11
1.4373365704797
 21
3.844000000000008
 31
-18.6317467635711
  0
ARC
  5
85
330
4D
100
AcDbEntity
  8
USP-GEO
100
AcDbCircle
 10
1.4373365704797
 20
4.094000000000008
 30
-18.6317467635711
 40
0.2500000000000004
100
AcDbArc
 50
270.0000000000001
 51
300.0000000000002
  0
LINE
  5
86
330
4D
100
AcDbEntity
  8
USP-GEO
100
AcDbLine
 10
1.610136570479703
 20
6.90599999999987
 30
-19.7680827955381
 11
1.610136570479703
 21
6.90599999999987
 31
-19.79225933493883
210
-1.0
220
0.0
230
0.0
  0
LINE
  5
87
330
4D
100
AcDbEntity
  8
USP-GEO
100
AcDbLine
 10
1.610136570479703
 20
6.90599999999987
 30
-19.7680827955381
 11
1.610136570479703
 21
6.90599999999987
 31
-19.79225933493883
210
0.0
220
-1.0
230
0.0
  0
LINE
  5
88
330
4D
100
AcDbEntity
  8
USP-GEO
100
AcDbLine
 10
1.657936570479705
 20
6.90599999999987
 30
-19.7680827955381
 11
1.657936570479705
 21
6.90599999999987
 31
-19.79225933493883
210
1.0
220
0.0
230
0.0
  0
LINE
  5
89
330
4D
100
AcDbEntity
  8
USP-GEO
100
AcDbLine
 10
1.657936570479705
 20
6.90599999999987
 30
-19.7680827955381
 11
1.657936570479705
 21
6.90599999999987
 31
-19.79225933493883
210
0.0
220
-1.0
230
0.0
  0
LINE
  5
8A
330
4D
100
AcDbEntity
  8
USP-GEO
100
AcDbLine
 10
1.112712571367694
 20
6.905999999999984
 30
-18.6317467635711
 11
1.4373365704797
 21
6.905999999999984
 31
-18.6317467635711
  0
LINE
  5
8B
330
4D
100
AcDbEntity
  8
USP-GEO
100
AcDbLine
 10
1.112712571367694
 20
6.905999999999984
 30
-18.6795467635711
 11
1.112712571367694
 21
6.905999999999984
 31
-18.6317467635711
210
0.0
220
-1.0
230
0.0
  0
LINE
  5
8C
330
4D
100
AcDbEntity
  8
USP-GEO
100
AcDbLine
 10
1.112712571367694
 20
6.905999999999984
 30
-18.6795467635711
 11
1.112712571367694
 21
6.905999999999984
 31
-18.6317467635711
210
-0.9063077870366486
220
-0.4226182617407025
230
0.0
  0
SPLINE
  5
8D
330
4D
100
AcDbEntity
  8
USP-GEO
100
AcDbSpline
 70
     0
 71
     3
 72
    10
 73
     6
 74
     0
 42
0.0000000001
 43
0.0000000001
 40
0.2128120484502464
 40
0.2128120484502464
 40
0.2128120484502464
 40
0.2128120484502464
 40
0.2530358030706379
 40
0.2530358030706379
 40
0.2751458661897906
 40
0.2751458661897906
 40
0.2751458661897906
 40
0.2751458661897906
 10
1.657936570479705
 20
6.836665879457068
 30
-18.7273467635711
 10
1.657936570479705
 20
6.845421993588871
 30
-18.7181920699354
 10
1.656685397307441
 20
6.853547200277844
 30
-18.70830914052018
 10
1.651315511745963
 20
6.865039916514046
 30
-18.69185299996711
 10
1.648645594262077
 20
6.868989355765521
 30
-18.68563837791384
 10
1.645128599081495
 20
6.872506350946096
 30
-18.6795467635711
  0
ARC
  5
8E
330
4D
100
AcDbEntity
  8
USP
100
AcDbCircle
 10
-1.5623365704797
 20
-18.7273467635711
 30
6.872506350946096
 40
0.0956
210
0.0
220
1.0
230
0.0
100
AcDbArc
 50
90.0
 51
150.0000000000012
  0
LINE
  5
8F
330
4D
100
AcDbEntity
  8
USP-GEO
100
AcDbLine
 10
1.4373365704797
 20
6.905999999999984
 30
-18.6795467635711
 11
1.4373365704797
 21
6.905999999999984
 31
-18.6317467635711
210
0.0
220
-1.0
230
0.0
  0
LINE
  5
90
330
4D
100
AcDbEntity
  8
USP-GEO
100
AcDbLine
 10
1.4373365704797
 20
6.905999999999984
 30
-18.6795467635711
 11
1.4373365704797
 21
6.905999999999984
 31
-18.6317467635711
  0
LINE
  5
91
330
4D
100
AcDbEntity
  8
USP-GEO
100
AcDbLine
 10
1.5623365704797
 20
6.872506350946096
 30
-18.6795467635711
 11
1.5623365704797
 21
6.872506350946096
 31
-18.6317467635711
  0
LINE
  5
92
330
4D
100
AcDbEntity
  8
USP-GEO
100
AcDbLine
 10
1.5623365704797
 20
6.872506350946096
 30
-18.6795467635711
 11
1.5623365704797
 21
6.872506350946096
 31
-18.6317467635711
210
0.0
220
-1.0
230
0.0
  0
ARC
  5
93
330
4D
100
AcDbEntity
  8
USP-GEO
100
AcDbCircle
 10
1.4373365704797
 20
6.655999999999984
 30
-18.6317467635711
 40
0.2500000000000008
100
AcDbArc
 50
60.00000000000024
 51
90.0
  0
LINE
  5
94
330
4D
100
AcDbEntity
  8
USP-GEO
100
AcDbLine
 10
0.0
 20
10.74999999999998
 30
-18.6317467635711
 11
0.0
 21
9.322250000000117
 31
-18.6317467635711
  0
LINE
  5
95
330
4D
100
AcDbEntity
  8
USP-GEO
100
AcDbLine
 10
1.562336570479686
 20
9.322199999999988
 30
-18.6317467635711
 11
1.562336570479686
 21
10.75000000000001
 31
-18.6317467635711
  0
ARC
  5
96
330
4D
100
AcDbEntity
  8
USP-GEO
100
AcDbCircle
 10
1.6873365704797
 20
8.636000616230724
 30
-18.6317467635711
 40
0.2500000000000004
100
AcDbArc
 50
180.0
 51
239.9999999999999
  0
LINE
  5
97
330
4D
100
AcDbEntity
  8
USP-GEO
100
AcDbLine
 10
0.0374719953410647
 20
9.322250000000117
 30
-18.6317467635711
 11
0.4740522529355644
 21
8.386000616230838
 31
-18.6317467635711
  0
LINE
  5
98
330
4D
100
AcDbEntity
  8
USP-GEO
100
AcDbLine
 10
0.4740522529355644
 20
8.386000616230838
 30
-18.6317467635711
 11
0.4225769499451247
 21
8.386000616230838
 31
-18.6317467635711
  0
LINE
  5
99
330
4D
100
AcDbEntity
  8
USP-GEO
100
AcDbLine
 10
0.0
 20
9.322250000000117
 30
-18.6317467635711
 11
0.0374719953410647
 21
9.322250000000117
 31
-18.6317467635711
  0
CIRCLE
  5
9A
330
4D
100
AcDbEntity
  8
USP-GEO
100
AcDbCircle
 10
0.3469999999999942
 20
9.318249999999984
 30
-18.6317467635711
 40
0.078
  0
CIRCLE
  5
9B
330
4D
100
AcDbEntity
  8
USP-GEO
100
AcDbCircle
 10
0.6553365704797472
 20
9.197999999999986
 30
-18.6317467635711
 40
0.078
  0
CIRCLE
  5
9C
330
4D
100
AcDbEntity
  8
USP-GEO
100
AcDbCircle
 10
1.22933657047973
 20
9.077999999999995
 30
-18.6317467635711
 40
0.078
  0
CIRCLE
  5
9D
330
4D
100
AcDbEntity
  8
USP-GEO
100
AcDbCircle
 10
1.159999999999996
 20
9.438249999999989
 30
-18.6317467635711
 40
0.078
  0
LINE
  5
9E
330
4D
100
AcDbEntity
  8
USP-GEO
100
AcDbLine
 10
1.4373365704797
 20
8.636000616230724
 30
-18.6317467635711
 11
1.4373365704797
 21
9.322200000000016
 31
-18.6317467635711
  0
LINE
  5
9F
330
4D
100
AcDbEntity
  8
USP-GEO
100
AcDbLine
 10
1.610136570479703
 20
8.386000616230724
 30
-19.10212371351627
 11
1.610136570479703
 21
8.386000616230724
 31
-18.8045467635711
210
0.0
220
1.0
230
0.0
  0
LINE
  5
A0
330
4D
100
AcDbEntity
  8
USP-GEO
100
AcDbLine
 10
1.657936570479705
 20
8.386000616230724
 30
-19.10212371351627
 11
1.657936570479705
 21
8.386000616230724
 31
-18.8045467635711
210
0.0
220
1.0
230
0.0
  0
LINE
  5
A1
330
4D
100
AcDbEntity
  8
USP-GEO
100
AcDbLine
 10
1.610136570479703
 20
8.386000616230724
 30
-19.10212371351627
 11
1.610136570479703
 21
8.386000616230724
 31
-18.8045467635711
210
-1.0
220
0.0
230
0.0
  0
LINE
  5
A2
330
4D
100
AcDbEntity
  8
USP-GEO
100
AcDbLine
 10
1.657936570479705
 20
8.386000616230724
 30
-19.10212371351627
 11
1.657936570479705
 21
8.386000616230724
 31
-18.8045467635711
210
1.0
220
0.0
230
0.0
  0
LINE
  5
A3
330
4D
100
AcDbEntity
  8
USP-GEO
100
AcDbLine
 10
1.610136570479703
 20
8.386000616230724
 30
-19.10212371351627
 11
1.657936570479705
 21
8.386000616230724
 31
-19.10212371351627
210
0.0
220
0.4226182617407007
230
-0.9063077870366495
  0
SPLINE
  5
A4
330
4D
100
AcDbEntity
  8
USP-GEO
100
AcDbSpline
 70
     0
 71
     3
 72
    10
 73
     6
 74
     0
 42
0.0000000001
 43
0.0000000001
 40
0.1036676207946708
 40
0.1036676207946708
 40
0.1036676207946708
 40
0.1036676207946708
 40
0.114905239041174
 40
0.114905239041174
 40
0.1557091749591255
 40
0.1557091749591255
 40
0.1557091749591255
 40
0.1557091749591255
 10
1.645128599081495
 20
8.419494265284619
 30
-18.6795467635711
 10
1.646907068910607
 20
8.417715795455499
 30
-18.68262716367486
 10
1.648525528331376
 20
8.415955616401419
 30
-18.6858285573626
 10
1.655185244748736
 20
8.408008867224626
 30
-18.70109679190654
 10
1.657936570479705
 20
8.402418952699065
 30
-18.71441018859091
 10
1.657936570479705
 20
8.398218867561908
 30
-18.7273467635711
  0
ARC
  5
A5
330
4D
100
AcDbEntity
  8
USP
100
AcDbCircle
 10
1.5623365704797
 20
-18.7273467635711
 30
-8.419494265284615
 40
0.0956
210
0.0
220
-1.0
230
0.0
100
AcDbArc
 50
29.99999999999878
 51
90.0
  0
LINE
  5
A6
330
4D
100
AcDbEntity
  8
USP-GEO
100
AcDbLine
 10
1.5623365704797
 20
8.419494265284615
 30
-18.6795467635711
 11
1.5623365704797
 21
8.419494265284615
 31
-18.6317467635711
  0
LINE
  5
A7
330
4D
100
AcDbEntity
  8
USP-GEO
100
AcDbLine
 10
1.5623365704797
 20
8.419494265284615
 30
-18.6795467635711
 11
1.5623365704797
 21
8.419494265284615
 31
-18.6317467635711
210
0.0
220
1.0
230
0.0
  0
SPLINE
  5
A8
330
4D
100
AcDbEntity
  8
USP-GEO
100
AcDbSpline
 70
     0
 71
     3
 72
    14
 73
    10
 74
     0
 42
0.0000000001
 43
0.0000000001
 40
0.2214693495988669
 40
0.2214693495988669
 40
0.2214693495988669
 40
0.2214693495988669
 40
0.2410305437840392
 40
0.2410305437840392
 40
0.2605917379692114
 40
0.2605917379692114
 40
0.27868766633574
 40
0.27868766633574
 40
0.2967835947022685
 40
0.2967835947022685
 40
0.2967835947022685
 40
0.2967835947022685
 10
1.610136570479703
 20
8.398218867561908
 30
-18.7273467635711
 10
1.610136570479703
 20
8.400232366483368
 30
-18.72114503695857
 10
1.608864558661679
 20
8.402645473972739
 30
-18.7146183697867
 10
1.603793729960159
 20
8.407601719626054
 30
-18.70268566965081
 10
1.599998443688363
 20
8.410134638087491
 30
-18.69727389473289
 10
1.591474144873345
 20
8.414246169063169
 30
-18.68902806303433
 10
1.586270790641663
 20
8.416146657479686
 30
-18.6855022446926
 10
1.574721621767906
 20
8.418781952563684
 30
-18.68075898901937
 10
1.568368546601874
 20
8.419494265284615
 30
-18.6795467635711
 10
1.5623365704797
 20
8.419494265284615
 30
-18.6795467635711
  0
ARC
  5
A9
330
4D
100
AcDbEntity
  8
USP
100
AcDbCircle
 10
8.636000616230717
 20
-18.8045467635711
 30
1.610136570479703
 40
0.249999999999994
210
1.0
220
0.0
230
0.0
100
AcDbArc
 50
162.0130722001709
 51
180.0000000000008
  0
ARC
  5
AA
330
4D
100
AcDbEntity
  8
USP
100
AcDbCircle
 10
-8.636000616230717
 20
-18.8045467635711
 30
-1.610136570479703
 40
0.249999999999994
210
-1.0
220
0.0
230
0.0
100
AcDbArc
 50
359.9999999999992
 51
17.98692779982909
  0
ARC
  5
AB
330
4D
100
AcDbEntity
  8
USP
100
AcDbCircle
 10
8.636000616230717
 20
-18.8045467635711
 30
1.657936570479705
 40
0.249999999999994
210
1.0
220
0.0
230
0.0
100
AcDbArc
 50
162.0130722001709
 51
180.0000000000008
  0
ARC
  5
AC
330
4D
100
AcDbEntity
  8
USP
100
AcDbCircle
 10
8.636000616230717
 20
-18.8045467635711
 30
1.657936570479705
 40
0.249999999999994
210
1.0
220
0.0
230
0.0
100
AcDbArc
 50
162.0130722001709
 51
180.0000000000008
  0
LINE
  5
AD
330
4D
100
AcDbEntity
  8
USP-GEO
100
AcDbLine
 10
1.4373365704797
 20
8.636000616230724
 30
-18.6795467635711
 11
1.4373365704797
 21
8.636000616230724
 31
-18.6317467635711
  0
LINE
  5
AE
330
4D
100
AcDbEntity
  8
USP-GEO
100
AcDbLine
 10
1.4373365704797
 20
8.636000616230724
 30
-18.6795467635711
 11
1.4373365704797
 21
8.636000616230724
 31
-18.6317467635711
210
1.0
220
0.0
230
0.0
  0
LINE
  5
AF
330
4D
100
AcDbEntity
  8
USP-GEO
100
AcDbLine
 10
1.562336570479686
 20
9.322199999999988
 30
-18.6795467635711
 11
1.562336570479686
 21
9.322199999999988
 31
-18.6317467635711
210
1.0
220
0.0
230
0.0
  0
LINE
  5
B0
330
4D
100
AcDbEntity
  8
USP-GEO
100
AcDbLine
 10
1.4373365704797
 20
9.322200000000016
 30
-18.6795467635711
 11
1.4373365704797
 21
9.322200000000016
 31
-18.6317467635711
210
-0.0000000000002274
220
-1.0
230
0.0
  0
LINE
  5
B1
330
4D
100
AcDbEntity
  8
USP-GEO
100
AcDbLine
 10
1.562336570479686
 20
9.322199999999988
 30
-18.6795467635711
 11
1.562336570479686
 21
9.322199999999988
 31
-18.6317467635711
210
-0.0000000000002274
220
-1.0
230
0.0
  0
LINE
  5
B2
330
4D
100
AcDbEntity
  8
USP-GEO
100
AcDbLine
 10
1.4373365704797
 20
9.322200000000016
 30
-18.6795467635711
 11
1.4373365704797
 21
9.322200000000016
 31
-18.6317467635711
210
1.0
220
0.0
230
0.0
  0
LINE
  5
B3
330
4D
100
AcDbEntity
  8
USP-GEO
100
AcDbLine
 10
1.4373365704797
 20
9.322200000000016
 30
-18.6317467635711
 11
1.562336570479686
 21
9.322199999999988
 31
-18.6317467635711
  0
LINE
  5
B4
330
4D
100
AcDbEntity
  8
USP-GEO
100
AcDbLine
 10
1.562336570479686
 20
10.75000000000001
 30
-18.6317467635711
 11
0.0
 21
10.74999999999998
 31
-18.6317467635711
  0
LINE
  5
B5
330
4D
100
AcDbEntity
  8
USP-GEO
100
AcDbLine
 10
0.0
 20
10.74999999999998
 30
-18.6795467635711
 11
0.0
 21
10.74999999999998
 31
-18.6317467635711
210
-0.0000000000000182
220
1.0
230
0.0
  0
LINE
  5
B6
330
4D
100
AcDbEntity
  8
USP-GEO
100
AcDbLine
 10
0.0
 20
10.74999999999998
 30
-18.6795467635711
 11
0.0
 21
10.74999999999998
 31
-18.6317467635711
210
-1.0
220
0.0
230
0.0
  0
CIRCLE
  5
B7
330
4D
100
AcDbEntity
  8
USP-GEO
100
AcDbCircle
 10
0.2493365704797554
 20
10.49999999999998
 30
-18.6317467635711
 40
0.078
  0
CIRCLE
  5
B8
330
4D
100
AcDbEntity
  8
USP-GEO
100
AcDbCircle
 10
1.100999999999999
 20
10.43524999999997
 30
-18.6317467635711
 40
0.078
  0
LINE
  5
B9
330
4D
100
AcDbEntity
  8
USP-GEO
100
AcDbLine
 10
1.562336570479686
 20
10.75000000000001
 30
-18.6795467635711
 11
1.562336570479686
 21
10.75000000000001
 31
-18.6317467635711
210
-0.0000000000000182
220
1.0
230
0.0
  0
LINE
  5
BA
330
4D
100
AcDbEntity
  8
USP-GEO
100
AcDbLine
 10
1.562336570479686
 20
10.75000000000001
 30
-18.6795467635711
 11
1.562336570479686
 21
10.75000000000001
 31
-18.6317467635711
210
1.0
220
0.0
230
0.0
  0
LINE
  5
BB
330
4D
100
AcDbEntity
  8
USP-GEO
100
AcDbLine
 10
1.610136570479703
 20
4.780000000000121
 30
-0.0000000000000039
 11
1.657936570479709
 21
4.780000000000121
 31
-0.0000000000000039
  0
LINE
  5
BC
330
4D
100
AcDbEntity
  8
USP-GEO
100
AcDbLine
 10
1.610136570479706
 20
5.969999999999979
 30
-0.0000000000000039
 11
1.657936570479709
 21
5.969999999999979
 31
-0.0000000000000039
  0
LINE
  5
BD
330
4D
100
AcDbEntity
  8
USP-GEO
100
AcDbLine
 10
1.610136570479703
 20
6.905999999999869
 30
-0.0000000000000038
 11
1.657936570479705
 21
6.90599999999987
 31
-0.0000000000000038
  0
ENDBLK
  5
BF
330
4D
100
AcDbEntity
  8
0
100
AcDbBlockEnd
  0
ENDSEC
  0
SECTION
  2
ENTITIES
  0
INSERT
  5
3
330
2
100
AcDbEntity
  8
USP
100
AcDbBlockReference
  2
RT10_F
 10
7.797829824874837
 20
0.8244085449472287
 30
-0.0000000000000028
  0
INSERT
  5
4C
330
2
100
AcDbEntity
  8
USP
100
AcDbBlockReference
  2
RT10_S
 10
1.588989564425072
 20
0.8244085449472287
 30
0.0000000000000008
  0
ENDSEC
  0
SECTION
  2
OBJECTS
  0
DICTIONARY
  5
DB
330
0
100
AcDbDictionary
281
     1
  3
ACAD_COLOR
350
F3
  3
ACAD_GROUP
350
D8
  3
ACAD_LAYOUT
350
F4
  3
ACAD_MATERIAL
350
F2
  3
ACAD_MLINESTYLE
350
D9
  3
ACAD_PLOTSETTINGS
350
F5
  3
ACAD_PLOTSTYLENAME
350
F0
  3
ACDBHEADERROUNDTRIPXREC
350
FE
  3
AcDbVariableDictionary
350
FA
  0
DICTIONARY
  5
CD
330
CC
100
AcDbDictionary
280
     1
281
     1
  0
DICTIONARY
  5
CF
330
CE
100
AcDbDictionary
280
     1
281
     1
  0
DICTIONARY
  5
6
330
5
100
AcDbDictionary
280
     1
281
     1
  0
DICTIONARY
  5
B
330
A
100
AcDbDictionary
280
     1
281
     1
  0
DICTIONARY
  5
E0
330
DF
100
AcDbDictionary
280
     1
281
     1
  0
DICTIONARY
  5
C0
330
2
100
AcDbDictionary
280
     1
281
     1
  3
ACAD_LAYOUTSELFREF
360
C1
  0
DICTIONARY
  5
C5
330
C4
100
AcDbDictionary
280
     1
281
     1
  3
ACAD_LAYOUTSELFREF
360
C6
  0
DICTIONARY
  5
F3
102
{ACAD_REACTORS
330
DB
102
}
330
DB
100
AcDbDictionary
281
     1
  0
DICTIONARY
  5
D8
102
{ACAD_REACTORS
330
DB
102
}
330
DB
100
AcDbDictionary
281
     1
  0
DICTIONARY
  5
F4
102
{ACAD_REACTORS
330
DB
102
}
330
DB
100
AcDbDictionary
281
     1
  3
Layout1
350
F7
  3
Model
350
F6
  0
DICTIONARY
  5
F2
102
{ACAD_REACTORS
330
DB
102
}
330
DB
100
AcDbDictionary
281
     1
  0
DICTIONARY
  5
D9
102
{ACAD_XDICTIONARY
360
DA
102
}
102
{ACAD_REACTORS
330
DB
102
}
330
DB
100
AcDbDictionary
281
     1
  3
STANDARD
350
DE
  0
DICTIONARY
  5
F5
102
{ACAD_REACTORS
330
DB
102
}
330
DB
100
AcDbDictionary
281
     1
  0
ACDBDICTIONARYWDFLT
  5
F0
102
{ACAD_REACTORS
330
DB
102
}
330
DB
100
AcDbDictionary
281
     1
  3
Normal
350
F1
100
AcDbDictionaryWithDefault
340
F1
  0
DICTIONARY
  5
FE
102
{ACAD_REACTORS
330
DB
102
}
330
DB
100
AcDbDictionary
281
     1
  3
COLORDICT
350
100
  3
MATERIALDICT
350
FF
  0
DICTIONARY
  5
FA
102
{ACAD_REACTORS
330
DB
102
}
330
DB
100
AcDbDictionary
281
     1
  3
DIMASSOC
350
FB
  3
PROJECTNAME
350
FC
  0
XRECORD
  5
C1
102
{ACAD_REACTORS
330
C0
102
}
330
C0
100
AcDbXrecord
280
     1
340
2
  0
XRECORD
  5
C6
102
{ACAD_REACTORS
330
C5
102
}
330
C5
100
AcDbXrecord
280
     1
340
C6
  0
LAYOUT
  5
F7
102
{ACAD_XDICTIONARY
360
103
102
}
102
{ACAD_REACTORS
330
F4
102
}
330
F4
100
AcDbPlotSettings
  1

  2
\\mitk-us-mtg-n28\Office Canon IR C2550
  4

  6

 40
0.0
 41
0.0
 42
0.0
 43
0.0
 44
0.0
 45
0.0
 46
0.0
 47
0.0
 48
0.0
 49
0.0
140
0.0
141
0.0
142
1.0
143
1.0
 70
   688
 72
     0
 73
     0
 74
     5
  7

 75
    16
147
1.0
148
0.0
149
0.0
100
AcDbLayout
  1
Layout1
 70
     1
 71
     1
 10
0.0
 20
0.0
 11
12.0
 21
9.0
 12
0.0
 22
0.0
 32
0.0
 14
1.000000000000000E+20
 24
1.000000000000000E+20
 34
1.000000000000000E+20
 15
-1.000000000000000E+20
 25
-1.000000000000000E+20
 35
-1.000000000000000E+20
146
0.0
 13
0.0
 23
0.0
 33
0.0
 16
1.0
 26
0.0
 36
0.0
 17
0.0
 27
1.0
 37
0.0
 76
     0
330
C4
  0
LAYOUT
  5
F6
102
{ACAD_XDICTIONARY
360
101
102
}
102
{ACAD_REACTORS
330
F4
102
}
330
F4
100
AcDbPlotSettings
  1

  2
\\mitk-us-mtg-n28\Office Canon IR C2550
  4

  6

 40
0.0
 41
0.0
 42
0.0
 43
0.0
 44
0.0
 45
0.0
 46
0.0
 47
0.0
 48
0.0
 49
0.0
140
0.0
141
0.0
142
1.0
143
1.0
 70
  1712
 72
     0
 73
     0
 74
     0
  7

 75
     0
147
1.0
148
0.0
149
0.0
100
AcDbLayout
  1
Model
 70
     1
 71
     0
 10
0.0
 20
0.0
 11
12.0
 21
9.0
 12
0.0
 22
0.0
 32
0.0
 14
0.0
 24
0.0
 34
0.0
 15
0.0
 25
0.0
 35
0.0
146
0.0
 13
0.0
 23
0.0
 33
0.0
 16
1.0
 26
0.0
 36
0.0
 17
0.0
 27
1.0
 37
0.0
 76
     0
330
2
  0
DICTIONARY
  5
DA
330
D9
100
AcDbDictionary
280
     1
281
     1
  0
MLINESTYLE
  5
DE
102
{ACAD_REACTORS
330
D9
102
}
330
D9
100
AcDbMlineStyle
  2
STANDARD
 70
     0
  3

 62
   256
 51
90.0
 52
90.0
 71
     2
 49
0.5
 62
   256
  6
BYLAYER
 49
-0.5
 62
   256
  6
BYLAYER
  0
ACDBPLACEHOLDER
  5
F1
102
{ACAD_REACTORS
330
F0
102
}
330
F0
  0
XRECORD
  5
100
102
{ACAD_REACTORS
330
FE
102
}
330
FE
100
AcDbXrecord
280
     1
340
F3
  0
XRECORD
  5
FF
102
{ACAD_REACTORS
330
FE
102
}
330
FE
100
AcDbXrecord
280
     1
340
F2
  0
DICTIONARYVAR
  5
FB
102
{ACAD_REACTORS
330
FA
102
}
330
FA
100
DictionaryVariables
280
     0
  1
1
  0
DICTIONARYVAR
  5
FC
102
{ACAD_REACTORS
330
FA
102
}
330
FA
100
DictionaryVariables
280
     0
  1

  0
DICTIONARY
  5
103
330
F7
100
AcDbDictionary
280
     1
281
     1
  3
ACAD_XREC_ROUNDTRIP
360
104
  0
DICTIONARY
  5
101
330
F6
100
AcDbDictionary
280
     1
281
     1
  3
ACAD_XREC_ROUNDTRIP
360
102
  0
XRECORD
  5
104
102
{ACAD_REACTORS
330
103
102
}
330
103
100
AcDbXrecord
280
     1
102
SHADEPLOT
 70
     0
102
SHADEPLOTRESLEVEL
 70
     2
102
SHADEPLOTCUSTOMDPI
 70
   300
  0
XRECORD
  5
102
102
{ACAD_REACTORS
330
101
102
}
330
101
100
AcDbXrecord
280
     1
102
SHADEPLOT
 70
     0
102
SHADEPLOTRESLEVEL
 70
     2
102
SHADEPLOTCUSTOMDPI
 70
   300
  0
ENDSEC
  0
EOF
