  0
SECTION
  2
HEADER
  9
$ACADVER
  1
AC1014
  9
$ACADMAINTVER
 70
     8
  9
$DWGCODEPAGE
  3
ANSI_1252
  9
$INSBASE
 10
0.0
 20
0.0
 30
0.0
  9
$EXTMIN
 10
0.158932701977486
 20
0.0005635956824168
 30
0.0
  9
$EXTMAX
 10
11.63403986837482
 20
11.00149467689563
 30
0.0
  9
$LIMMIN
 10
0.0
 20
0.0
  9
$LIMMAX
 10
12.0
 20
9.0
  9
$ORTHOMODE
 70
     1
  9
$REGENMODE
 70
     1
  9
$FILLMODE
 70
     1
  9
$QTEXTMODE
 70
     0
  9
$MIRRTEXT
 70
     0
  9
$DRAGMODE
 70
     2
  9
$LTSCALE
 40
1.5
  9
$OSMODE
 70
     0
  9
$ATTMODE
 70
     1
  9
$TEXTSIZE
 40
0.25
  9
$TRACEWID
 40
0.05
  9
$TEXTSTYLE
  7
STANDARD
  9
$CLAYER
  8
USP
  9
$CELTYPE
  6
BYLAYER
  9
$CECOLOR
 62
   256
  9
$CELTSCALE
 40
1.0
  9
$DELOBJ
 70
     1
  9
$DISPSILH
 70
     1
  9
$DIMSCALE
 40
5.0
  9
$DIMASZ
 40
0.125
  9
$DIMEXO
 40
0.0625
  9
$DIMDLI
 40
0.38
  9
$DIMRND
 40
0.0
  9
$DIMDLE
 40
0.0
  9
$DIMEXE
 40
0.09375
  9
$DIMTP
 40
0.0
  9
$DIMTM
 40
0.0
  9
$DIMTXT
 40
0.109375
  9
$DIMCEN
 40
0.0
  9
$DIMTSZ
 40
0.0
  9
$DIMTOL
 70
     0
  9
$DIMLIM
 70
     0
  9
$DIMTIH
 70
     1
  9
$DIMTOH
 70
     1
  9
$DIMSE1
 70
     0
  9
$DIMSE2
 70
     0
  9
$DIMTAD
 70
     0
  9
$DIMZIN
 70
     8
  9
$DIMBLK
  1

  9
$DIMASO
 70
     1
  9
$DIMSHO
 70
     1
  9
$DIMPOST
  1

  9
$DIMAPOST
  1

  9
$DIMALT
 70
     0
  9
$DIMALTD
 70
     2
  9
$DIMALTF
 40
25.4
  9
$DIMLFAC
 40
1.0
  9
$DIMTOFL
 70
     0
  9
$DIMTVP
 40
0.0
  9
$DIMTIX
 70
     0
  9
$DIMSOXD
 70
     0
  9
$DIMSAH
 70
     0
  9
$DIMBLK1
  1

  9
$DIMBLK2
  1

  9
$DIMSTYLE
  2
STANDARD
  9
$DIMCLRD
 70
   256
  9
$DIMCLRE
 70
   256
  9
$DIMCLRT
 70
   256
  9
$DIMTFAC
 40
1.0
  9
$DIMGAP
 40
0.09
  9
$DIMJUST
 70
     0
  9
$DIMSD1
 70
     0
  9
$DIMSD2
 70
     0
  9
$DIMTOLJ
 70
     1
  9
$DIMTZIN
 70
     0
  9
$DIMALTZ
 70
     0
  9
$DIMALTTZ
 70
     0
  9
$DIMFIT
 70
     3
  9
$DIMUPT
 70
     1
  9
$DIMUNIT
 70
     7
  9
$DIMDEC
 70
     4
  9
$DIMTDEC
 70
     4
  9
$DIMALTU
 70
     2
  9
$DIMALTTD
 70
     2
  9
$DIMTXSTY
  7
STANDARD
  9
$DIMAUNIT
 70
     0
  9
$LUNITS
 70
     5
  9
$LUPREC
 70
     6
  9
$SKETCHINC
 40
0.1
  9
$FILLETRAD
 40
0.0
  9
$AUNITS
 70
     0
  9
$AUPREC
 70
     1
  9
$MENU
  1
CUSTOM
  9
$ELEVATION
 40
0.0
  9
$PELEVATION
 40
0.0
  9
$THICKNESS
 40
0.0
  9
$LIMCHECK
 70
     0
  9
$BLIPMODE
 70
     0
  9
$CHAMFERA
 40
0.0
  9
$CHAMFERB
 40
0.0
  9
$CHAMFERC
 40
0.0
  9
$CHAMFERD
 40
0.0
  9
$SKPOLY
 70
     0
  9
$TDCREATE
 40
2451263.621564698
  9
$TDUPDATE
 40
2453354.906948784
  9
$TDINDWG
 40
1.3016809722
  9
$TDUSRTIMER
 40
1.3016809722
  9
$USRTIMER
 70
     1
  9
$ANGBASE
 50
0.0
  9
$ANGDIR
 70
     0
  9
$PDMODE
 70
     0
  9
$PDSIZE
 40
0.0
  9
$PLINEWID
 40
0.0
  9
$COORDS
 70
     0
  9
$SPLFRAME
 70
     0
  9
$SPLINETYPE
 70
     6
  9
$SPLINESEGS
 70
     8
  9
$ATTDIA
 70
     0
  9
$ATTREQ
 70
     1
  9
$HANDLING
 70
     1
  9
$HANDSEED
  5
C4
  9
$SURFTAB1
 70
     6
  9
$SURFTAB2
 70
     6
  9
$SURFTYPE
 70
     6
  9
$SURFU
 70
     6
  9
$SURFV
 70
     6
  9
$UCSNAME
  2

  9
$UCSORG
 10
0.0
 20
0.0
 30
0.0
  9
$UCSXDIR
 10
1.0
 20
0.0
 30
0.0
  9
$UCSYDIR
 10
0.0
 20
1.0
 30
0.0
  9
$PUCSNAME
  2

  9
$PUCSORG
 10
0.0
 20
0.0
 30
0.0
  9
$PUCSXDIR
 10
1.0
 20
0.0
 30
0.0
  9
$PUCSYDIR
 10
0.0
 20
1.0
 30
0.0
  9
$USERI1
 70
     0
  9
$USERI2
 70
     0
  9
$USERI3
 70
     0
  9
$USERI4
 70
     0
  9
$USERI5
 70
     0
  9
$USERR1
 40
0.0
  9
$USERR2
 40
0.0
  9
$USERR3
 40
0.0
  9
$USERR4
 40
0.0
  9
$USERR5
 40
0.0
  9
$WORLDVIEW
 70
     1
  9
$SHADEDGE
 70
     3
  9
$SHADEDIF
 70
    70
  9
$TILEMODE
 70
     1
  9
$MAXACTVP
 70
    16
  9
$PINSBASE
 10
0.0
 20
0.0
 30
0.0
  9
$PLIMCHECK
 70
     0
  9
$PEXTMIN
 10
1.000000000000000E+20
 20
1.000000000000000E+20
 30
1.000000000000000E+20
  9
$PEXTMAX
 10
-1.000000000000000E+20
 20
-1.000000000000000E+20
 30
-1.000000000000000E+20
  9
$PLIMMIN
 10
0.0
 20
0.0
  9
$PLIMMAX
 10
12.0
 20
9.0
  9
$UNITMODE
 70
     0
  9
$VISRETAIN
 70
     0
  9
$PLINEGEN
 70
     0
  9
$PSLTSCALE
 70
     0
  9
$TREEDEPTH
 70
  3020
  9
$PICKSTYLE
 70
     1
  9
$CMLSTYLE
  2
STANDARD
  9
$CMLJUST
 70
     0
  9
$CMLSCALE
 40
1.0
  9
$PROXYGRAPHICS
 70
     1
  9
$MEASUREMENT
 70
     0
  0
ENDSEC
  0
SECTION
  2
CLASSES
  0
CLASS
  1
ACDBDICTIONARYWDFLT
  2
AcDbDictionaryWithDefault
  3
ObjectDBX Classes
 90
        0
280
     0
281
     0
  0
CLASS
  1
ACDBPLACEHOLDER
  2
AcDbPlaceHolder
  3
ObjectDBX Classes
 90
        0
280
     0
281
     0
  0
CLASS
  1
LAYOUT
  2
AcDbLayout
  3
ObjectDBX Classes
 90
        0
280
     0
281
     0
  0
CLASS
  1
DICTIONARYVAR
  2
AcDbDictionaryVar
  3
"AutoCAD"
 90
        0
280
     0
281
     0
  0
CLASS
  1
SORTENTSTABLE
  2
AcDbSortentsTable
  3
"AutoCAD"
 90
        0
280
     0
281
     0
  0
CLASS
  1
XRECORD
  2
AcDbXrecord
  3
"<Built In>"
 90
        0
280
     0
281
     0
  0
ENDSEC
  0
SECTION
  2
TABLES
  0
TABLE
  2
VPORT
  5
B2
100
AcDbSymbolTable
 70
     1
  0
VPORT
  5
B3
100
AcDbSymbolTableRecord
100
AcDbViewportTableRecord
  2
*ACTIVE
 70
     0
 10
0.0
 20
0.0
 11
1.0
 21
1.0
 12
-17.09603071721725
 22
15.77101938585534
 13
0.0
 23
0.0
 14
1.0
 24
1.0
 15
0.0
 25
0.0
 16
0.0
 26
0.0
 36
1.0
 17
23.09603071721725
 27
-10.27010416511325
 37
-10.44050274849355
 40
11.08145768231517
 41
1.379227053140096
 42
50.0
 43
10.55307667737539
 44
10.55307667737539
 50
0.0
 51
0.0
 71
     0
 72
   100
 73
     1
 74
     1
 75
     0
 76
     0
 77
     0
 78
     0
  0
ENDTAB
  0
TABLE
  2
LTYPE
  5
AD
100
AcDbSymbolTable
 70
     1
  0
LTYPE
  5
AE
100
AcDbSymbolTableRecord
100
AcDbLinetypeTableRecord
  2
BYBLOCK
 70
     0
  3

 72
    65
 73
     0
 40
0.0
  0
LTYPE
  5
AF
100
AcDbSymbolTableRecord
100
AcDbLinetypeTableRecord
  2
BYLAYER
 70
     0
  3

 72
    65
 73
     0
 40
0.0
  0
LTYPE
  5
5
100
AcDbSymbolTableRecord
100
AcDbLinetypeTableRecord
  2
CONTINUOUS
 70
     0
  3
Solid line
 72
    65
 73
     0
 40
0.0
  0
ENDTAB
  0
TABLE
  2
LAYER
  5
AB
100
AcDbSymbolTable
 70
     5
  0
LAYER
  5
4D
100
AcDbSymbolTableRecord
100
AcDbLayerTableRecord
  2
0
 70
     0
 62
     7
  6
CONTINUOUS
  0
LAYER
  5
D
102
{ACAD_XDICTIONARY
360
E
102
}
100
AcDbSymbolTableRecord
100
AcDbLayerTableRecord
  2
USP-GEO
 70
     0
 62
     7
  6
CONTINUOUS
  0
LAYER
  5
8
102
{ACAD_XDICTIONARY
360
9
102
}
100
AcDbSymbolTableRecord
100
AcDbLayerTableRecord
  2
USP-TXT
 70
     0
 62
     7
  6
CONTINUOUS
  0
LAYER
  5
26
102
{ACAD_XDICTIONARY
360
27
102
}
100
AcDbSymbolTableRecord
100
AcDbLayerTableRecord
  2
USP-HID
 70
     0
 62
     7
  6
CONTINUOUS
  0
LAYER
  5
4
100
AcDbSymbolTableRecord
100
AcDbLayerTableRecord
  2
USP
 70
     0
 62
     7
  6
CONTINUOUS
  0
ENDTAB
  0
TABLE
  2
STYLE
  5
AC
100
AcDbSymbolTable
 70
     1
  0
STYLE
  5
B
100
AcDbSymbolTableRecord
100
AcDbTextStyleTableRecord
  2
STANDARD
 70
     0
 40
0.0
 41
1.0
 50
0.0
 71
     0
 42
0.25
  3
txt
  4

  0
ENDTAB
  0
TABLE
  2
VIEW
  5
B0
100
AcDbSymbolTable
 70
     0
  0
ENDTAB
  0
TABLE
  2
UCS
  5
B1
100
AcDbSymbolTable
 70
     0
  0
ENDTAB
  0
TABLE
  2
APPID
  5
B4
100
AcDbSymbolTable
 70
     1
  0
APPID
  5
B5
100
AcDbSymbolTableRecord
100
AcDbRegAppTableRecord
  2
ACAD
 70
     0
  0
ENDTAB
  0
TABLE
  2
DIMSTYLE
  5
B6
100
AcDbSymbolTable
 70
     1
  0
DIMSTYLE
105
BE
102
{ACAD_XDICTIONARY
360
BF
102
}
100
AcDbSymbolTableRecord
100
AcDbDimStyleTableRecord
  2
STANDARD
 70
     0
  3

  4

  5

  6

  7

 40
1.0
 41
0.125
 42
0.0625
 43
0.38
 44
0.09375
 45
0.0
 46
0.0
 47
0.0
 48
0.0
140
0.109375
141
0.0
142
0.0
143
25.4
144
1.0
145
0.0
146
1.0
147
0.09
 71
     0
 72
     0
 73
     1
 74
     1
 75
     0
 76
     0
 77
     0
 78
     8
170
     0
171
     2
172
     0
173
     0
174
     0
175
     0
176
     0
177
     0
178
     0
270
     7
271
     4
272
     4
273
     2
274
     2
340
B
275
     0
280
     0
281
     0
282
     0
283
     1
284
     0
285
     0
286
     0
287
     3
288
     0
  0
ENDTAB
  0
TABLE
  2
BLOCK_RECORD
  5
1
100
AcDbSymbolTable
 70
     3
  0
BLOCK_RECORD
  5
2
102
{ACAD_XDICTIONARY
360
A2
102
}
100
AcDbSymbolTableRecord
100
AcDbBlockTableRecord
  2
*MODEL_SPACE
  0
BLOCK_RECORD
  5
A6
102
{ACAD_XDICTIONARY
360
A7
102
}
100
AcDbSymbolTableRecord
100
AcDbBlockTableRecord
  2
*PAPER_SPACE
  0
BLOCK_RECORD
  5
6
100
AcDbSymbolTableRecord
100
AcDbBlockTableRecord
  2
RSPT62_T
  0
BLOCK_RECORD
  5
50
100
AcDbSymbolTableRecord
100
AcDbBlockTableRecord
  2
RSPT62_S
  0
BLOCK_RECORD
  5
72
100
AcDbSymbolTableRecord
100
AcDbBlockTableRecord
  2
RSPT62_F
  0
ENDTAB
  0
ENDSEC
  0
SECTION
  2
BLOCKS
  0
BLOCK
  5
A4
100
AcDbEntity
  8
0
100
AcDbBlockBegin
  2
*MODEL_SPACE
 70
     0
 10
0.0
 20
0.0
 30
0.0
  3
*MODEL_SPACE
  1

  0
ENDBLK
  5
A5
100
AcDbEntity
  8
0
100
AcDbBlockEnd
  0
BLOCK
  5
A9
100
AcDbEntity
 67
     1
  8
0
100
AcDbBlockBegin
  2
*PAPER_SPACE
 70
     0
 10
0.0
 20
0.0
 30
0.0
  3
*PAPER_SPACE
  1

  0
ENDBLK
  5
AA
100
AcDbEntity
 67
     1
  8
0
100
AcDbBlockEnd
  0
BLOCK
  5
4C
100
AcDbEntity
  8
0
100
AcDbBlockBegin
  2
RSPT62_T
 70
     0
 10
0.0
 20
0.0
 30
0.0
  3
RSPT62_T
  1

  0
TEXT
  5
7
100
AcDbEntity
  8
USP-TXT
100
AcDbText
 10
-0.8749999999999996
 20
-1.492608561572929
 30
0.0
 40
0.25
  1
RSPT6-2 - TOP VIEW
 72
     1
 11
1.375
 21
-1.492608561572929
 31
0.0
100
AcDbText
  0
LINE
  5
C
100
AcDbEntity
  8
USP-GEO
100
AcDbLine
 10
0.1325825000000123
 20
0.0399999999999992
 30
0.0
 11
0.0
 21
0.0399999999999992
 31
0.0
  0
LINE
  5
10
100
AcDbEntity
  8
USP-GEO
100
AcDbLine
 10
1.125
 20
0.0399999999999992
 30
0.0
 11
0.1325825000000123
 21
0.0399999999999992
 31
0.0
  0
LINE
  5
11
100
AcDbEntity
  8
USP-GEO
100
AcDbLine
 10
1.625
 20
0.0399999999999992
 30
0.0
 11
1.125
 21
0.0399999999999992
 31
0.0
  0
LINE
  5
12
100
AcDbEntity
  8
USP-GEO
100
AcDbLine
 10
2.617417500000016
 20
0.0399999999999992
 30
0.0
 11
1.625
 21
0.0399999999999992
 31
0.0
  0
LINE
  5
13
100
AcDbEntity
  8
USP-GEO
100
AcDbLine
 10
2.75
 20
0.0399999999999992
 30
0.0
 11
2.617417500000016
 21
0.0399999999999992
 31
0.0
  0
LINE
  5
14
100
AcDbEntity
  8
USP-GEO
100
AcDbLine
 10
0.0
 20
0.0
 30
0.0
 11
0.1325825000000123
 21
0.0
 31
0.0
  0
LINE
  5
15
100
AcDbEntity
  8
USP-GEO
100
AcDbLine
 10
0.1325825000000123
 20
0.0399999999999992
 30
0.0
 11
0.1325825000000123
 21
0.0
 31
0.0
  0
LINE
  5
16
100
AcDbEntity
  8
USP-GEO
100
AcDbLine
 10
0.0
 20
0.0399999999999992
 30
0.0
 11
0.0
 21
0.0
 31
0.0
  0
LINE
  5
17
100
AcDbEntity
  8
USP-GEO
100
AcDbLine
 10
0.1325825000000123
 20
0.0
 30
0.0
 11
1.125
 21
0.0
 31
0.0
  0
LINE
  5
18
100
AcDbEntity
  8
USP-GEO
100
AcDbLine
 10
1.125
 20
0.0399999999999992
 30
0.0
 11
1.125
 21
0.0
 31
0.0
  0
LINE
  5
19
100
AcDbEntity
  8
USP-GEO
100
AcDbLine
 10
1.125
 20
0.0
 30
0.0
 11
1.625
 21
0.0
 31
0.0
  0
LINE
  5
1A
100
AcDbEntity
  8
USP-GEO
100
AcDbLine
 10
1.625
 20
0.0399999999999992
 30
0.0
 11
1.625
 21
0.0
 31
0.0
  0
LINE
  5
1B
100
AcDbEntity
  8
USP-GEO
100
AcDbLine
 10
1.625
 20
0.0
 30
0.0
 11
2.617417500000016
 21
0.0
 31
0.0
  0
LINE
  5
1C
100
AcDbEntity
  8
USP-GEO
100
AcDbLine
 10
2.617417500000016
 20
0.0399999999999992
 30
0.0
 11
2.617417500000016
 21
0.0
 31
0.0
  0
LINE
  5
1D
100
AcDbEntity
  8
USP-GEO
100
AcDbLine
 10
2.617417500000016
 20
0.0
 30
0.0
 11
2.75
 21
0.0
 31
0.0
  0
LINE
  5
1E
100
AcDbEntity
  8
USP-GEO
100
AcDbLine
 10
2.75
 20
0.0399999999999992
 30
0.0
 11
2.75
 21
0.0
 31
0.0
  0
LINE
  5
1F
100
AcDbEntity
  8
USP-GEO
100
AcDbLine
 10
2.499999999983689
 20
0.0400000000000009
 30
0.0
 11
2.49999999993642
 21
0.2269469065229472
 31
0.0
  0
LINE
  5
20
100
AcDbEntity
  8
USP-GEO
100
AcDbLine
 10
2.749999999938527
 20
0.0400000000000009
 30
0.0
 11
2.74999999993642
 21
0.2269469065229472
 31
0.0
  0
LINE
  5
21
100
AcDbEntity
  8
USP-GEO
100
AcDbLine
 10
2.49999999993642
 20
0.2269469065229508
 30
0.0
 11
2.74999999993642
 21
0.226946906522949
 31
0.0
  0
LINE
  5
22
100
AcDbEntity
  8
USP-GEO
100
AcDbLine
 10
0.2499999999364206
 20
0.2269469065229472
 30
0.0
 11
0.2499999999835971
 21
0.0400000000000009
 31
0.0
  0
LINE
  5
23
100
AcDbEntity
  8
USP-GEO
100
AcDbLine
 10
-0.0000000000635794
 20
0.2269469065229472
 30
0.0
 11
0.2499999999364206
 21
0.2269469065229472
 31
0.0
  0
LINE
  5
24
100
AcDbEntity
  8
USP-GEO
100
AcDbLine
 10
-0.0000000000614486
 20
0.0400000000000009
 30
0.0
 11
-0.0000000000635794
 21
0.2269469065229472
 31
0.0
  0
LINE
  5
25
100
AcDbEntity
  8
USP-HID
100
AcDbLine
 10
1.80075
 20
0.0400000000000027
 30
0.0
 11
1.80075
 21
0.0
 31
0.0
  0
LINE
  5
29
100
AcDbEntity
  8
USP-HID
100
AcDbLine
 10
1.636749999999999
 20
0.0400000000000027
 30
0.0
 11
1.636749999999999
 21
0.0
 31
0.0
  0
LINE
  5
2A
100
AcDbEntity
  8
USP-HID
100
AcDbLine
 10
1.11325
 20
0.0400000000000027
 30
0.0
 11
1.11325
 21
0.0
 31
0.0
  0
LINE
  5
2B
100
AcDbEntity
  8
USP-HID
100
AcDbLine
 10
0.9492499999999992
 20
0.0400000000000027
 30
0.0
 11
0.9492499999999992
 21
0.0
 31
0.0
  0
LINE
  5
2C
100
AcDbEntity
  8
USP-HID
100
AcDbLine
 10
0.8695000000000234
 20
0.0400000000000027
 30
0.0
 11
0.8695000000000234
 21
0.0
 31
0.0
  0
LINE
  5
2D
100
AcDbEntity
  8
USP-HID
100
AcDbLine
 10
0.705500000000022
 20
0.0400000000000027
 30
0.0
 11
0.705500000000022
 21
0.0
 31
0.0
  0
LINE
  5
2E
100
AcDbEntity
  8
USP-HID
100
AcDbLine
 10
1.732000000000006
 20
0.0399999999999992
 30
0.0
 11
1.732000000000006
 21
0.0
 31
0.0
  0
LINE
  5
2F
100
AcDbEntity
  8
USP-HID
100
AcDbLine
 10
1.568000000000004
 20
0.0399999999999992
 30
0.0
 11
1.568000000000004
 21
0.0
 31
0.0
  0
LINE
  5
30
100
AcDbEntity
  8
USP-HID
100
AcDbLine
 10
2.282000000000017
 20
0.0399999999999992
 30
0.0
 11
2.282000000000017
 21
0.0
 31
0.0
  0
LINE
  5
31
100
AcDbEntity
  8
USP-HID
100
AcDbLine
 10
2.118000000000016
 20
0.0399999999999992
 30
0.0
 11
2.118000000000016
 21
0.0
 31
0.0
  0
LINE
  5
32
100
AcDbEntity
  8
USP-HID
100
AcDbLine
 10
0.6320000000000121
 20
0.0400000000000027
 30
0.0
 11
0.6320000000000121
 21
0.0
 31
0.0
  0
LINE
  5
33
100
AcDbEntity
  8
USP-HID
100
AcDbLine
 10
0.4680000000000107
 20
0.0400000000000027
 30
0.0
 11
0.4680000000000107
 21
0.0
 31
0.0
  0
LINE
  5
34
100
AcDbEntity
  8
USP-HID
100
AcDbLine
 10
0.9070000000000177
 20
0.0399999999999992
 30
0.0
 11
0.9070000000000177
 21
0.0
 31
0.0
  0
LINE
  5
35
100
AcDbEntity
  8
USP-HID
100
AcDbLine
 10
0.7430000000000164
 20
0.0399999999999992
 30
0.0
 11
0.7430000000000164
 21
0.0
 31
0.0
  0
LINE
  5
36
100
AcDbEntity
  8
USP-HID
100
AcDbLine
 10
0.3570000000000064
 20
0.0399999999999992
 30
0.0
 11
0.3570000000000064
 21
0.0
 31
0.0
  0
LINE
  5
37
100
AcDbEntity
  8
USP-HID
100
AcDbLine
 10
0.1930000000000058
 20
0.0399999999999992
 30
0.0
 11
0.1930000000000058
 21
0.0
 31
0.0
  0
LINE
  5
38
100
AcDbEntity
  8
USP-HID
100
AcDbLine
 10
1.182000000000023
 20
0.0399999999999992
 30
0.0
 11
1.182000000000023
 21
0.0
 31
0.0
  0
LINE
  5
39
100
AcDbEntity
  8
USP-HID
100
AcDbLine
 10
1.018000000000021
 20
0.0399999999999992
 30
0.0
 11
1.018000000000021
 21
0.0
 31
0.0
  0
LINE
  5
3A
100
AcDbEntity
  8
USP-HID
100
AcDbLine
 10
2.007000000000012
 20
0.0400000000000027
 30
0.0
 11
2.007000000000012
 21
0.0
 31
0.0
  0
LINE
  5
3B
100
AcDbEntity
  8
USP-HID
100
AcDbLine
 10
1.84300000000001
 20
0.0400000000000027
 30
0.0
 11
1.84300000000001
 21
0.0
 31
0.0
  0
LINE
  5
3C
100
AcDbEntity
  8
USP-HID
100
AcDbLine
 10
2.557000000000023
 20
0.0399999999999992
 30
0.0
 11
2.557000000000023
 21
0.0
 31
0.0
  0
LINE
  5
3D
100
AcDbEntity
  8
USP-HID
100
AcDbLine
 10
2.393000000000021
 20
0.0399999999999992
 30
0.0
 11
2.393000000000021
 21
0.0
 31
0.0
  0
LINE
  5
3E
100
AcDbEntity
  8
USP-HID
100
AcDbLine
 10
0.4257500000000008
 20
0.0400000000000027
 30
0.0
 11
0.4257500000000008
 21
0.0
 31
0.0
  0
LINE
  5
3F
100
AcDbEntity
  8
USP-HID
100
AcDbLine
 10
0.2617499999999993
 20
0.0400000000000027
 30
0.0
 11
0.2617499999999993
 21
0.0
 31
0.0
  0
LINE
  5
40
100
AcDbEntity
  8
USP-HID
100
AcDbLine
 10
2.244500000000023
 20
0.0400000000000027
 30
0.0
 11
2.244500000000023
 21
0.0
 31
0.0
  0
LINE
  5
41
100
AcDbEntity
  8
USP-HID
100
AcDbLine
 10
2.080500000000021
 20
0.0400000000000027
 30
0.0
 11
2.080500000000021
 21
0.0
 31
0.0
  0
LINE
  5
42
100
AcDbEntity
  8
USP-HID
100
AcDbLine
 10
2.48825
 20
0.0400000000000027
 30
0.0
 11
2.48825
 21
0.0
 31
0.0
  0
LINE
  5
43
100
AcDbEntity
  8
USP-HID
100
AcDbLine
 10
2.324249999999999
 20
0.0400000000000027
 30
0.0
 11
2.324249999999999
 21
0.0
 31
0.0
  0
LINE
  5
44
100
AcDbEntity
  8
USP-HID
100
AcDbLine
 10
0.25
 20
0.0400000000000027
 30
0.0
 11
0.25
 21
0.0000000000000036
 31
0.0
  0
LINE
  5
45
100
AcDbEntity
  8
USP-HID
100
AcDbLine
 10
2.500000000000028
 20
0.0400000000000027
 30
0.0
 11
2.500000000000028
 21
0.0000000000000036
 31
0.0
  0
LINE
  5
46
100
AcDbEntity
  8
USP-HID
100
AcDbLine
 10
0.6875
 20
0.0400000000000027
 30
0.0
 11
0.6875
 21
0.0000000000000036
 31
0.0
  0
LINE
  5
47
100
AcDbEntity
  8
USP-HID
100
AcDbLine
 10
0.8034655121145988
 20
0.0400000000000027
 30
0.0
 11
0.8034655121145988
 21
0.0000000000000036
 31
0.0
  0
LINE
  5
48
100
AcDbEntity
  8
USP-HID
100
AcDbLine
 10
0.5715344878854296
 20
0.0400000000000027
 30
0.0
 11
0.5715344878854296
 21
0.0000000000000036
 31
0.0
  0
LINE
  5
49
100
AcDbEntity
  8
USP-HID
100
AcDbLine
 10
1.946534487885401
 20
0.0400000000000027
 30
0.0
 11
1.946534487885401
 21
0.0000000000000036
 31
0.0
  0
LINE
  5
4A
100
AcDbEntity
  8
USP-HID
100
AcDbLine
 10
2.0625
 20
0.0400000000000027
 30
0.0
 11
2.0625
 21
0.0000000000000036
 31
0.0
  0
LINE
  5
4B
100
AcDbEntity
  8
USP-HID
100
AcDbLine
 10
2.178465512114598
 20
0.0400000000000027
 30
0.0
 11
2.178465512114598
 21
0.0000000000000036
 31
0.0
  0
ENDBLK
  5
4E
100
AcDbEntity
  8
0
100
AcDbBlockEnd
  0
BLOCK
  5
6F
100
AcDbEntity
  8
0
100
AcDbBlockBegin
  2
RSPT62_S
 70
     0
 10
0.0
 20
0.0
 30
0.0
  3
RSPT62_S
  1

  0
TEXT
  5
51
100
AcDbEntity
  8
USP-TXT
100
AcDbText
 10
-2.21985988007186
 20
-1.407640342829548
 30
0.0
 40
0.25
  1
RSPT6-2 - SIDE VIEW
 72
     1
 11
0.1134734532614727
 21
-1.407640342829548
 31
0.0
100
AcDbText
  0
LINE
  5
52
100
AcDbEntity
  8
USP-GEO
100
AcDbLine
 10
0.1869469065229481
 20
5.345470593477053
 30
0.0
 11
0.1869469065229472
 21
0.0400000000000027
 31
0.0
  0
LINE
  5
53
100
AcDbEntity
  8
USP-GEO
100
AcDbLine
 10
0.1869469065229481
 20
5.478053093477054
 30
0.0
 11
0.1869469065229481
 21
5.345470593477053
 31
0.0
  0
LINE
  5
54
100
AcDbEntity
  8
USP-GEO
100
AcDbLine
 10
0.2269469065229472
 20
5.345470593477053
 30
0.0
 11
0.2269469065229472
 21
5.478053093477054
 31
0.0
  0
LINE
  5
55
100
AcDbEntity
  8
USP-GEO
100
AcDbLine
 10
0.1869469065229481
 20
5.478053093477054
 30
0.0
 11
0.2269469065229481
 21
5.478053093477054
 31
0.0
  0
LINE
  5
56
100
AcDbEntity
  8
USP-GEO
100
AcDbLine
 10
0.1869469065229481
 20
5.345470593477053
 30
0.0
 11
0.2269469065229481
 21
5.345470593477053
 31
0.0
  0
LINE
  5
57
100
AcDbEntity
  8
USP-GEO
100
AcDbLine
 10
0.0
 20
0.0
 30
0.0
 11
0.2269469065229455
 21
0.0
 31
0.0
  0
LINE
  5
58
100
AcDbEntity
  8
USP-GEO
100
AcDbLine
 10
0.0
 20
0.0399999999999992
 30
0.0
 11
0.0
 21
-0.0000000000000009
 31
0.0
  0
LINE
  5
59
100
AcDbEntity
  8
USP-GEO
100
AcDbLine
 10
0.1869469065229454
 20
0.0399999999999992
 30
0.0
 11
0.0
 21
0.0399999999999992
 31
0.0
  0
LINE
  5
5A
100
AcDbEntity
  8
USP-GEO
100
AcDbLine
 10
0.226946906522949
 20
5.345470593477049
 30
0.0
 11
0.2269469065229472
 21
-0.0000000000000018
 31
0.0
  0
LINE
  5
5B
100
AcDbEntity
  8
USP-HID
100
AcDbLine
 10
0.1869469065229445
 20
1.060053093477058
 30
0.0
 11
0.2269469065229472
 21
1.060053093477058
 31
0.0
  0
LINE
  5
5C
100
AcDbEntity
  8
USP-HID
100
AcDbLine
 10
0.1869469065229445
 20
0.8960530934770583
 30
0.0
 11
0.2269469065229472
 21
0.8960530934770583
 31
0.0
  0
LINE
  5
5D
100
AcDbEntity
  8
USP-HID
100
AcDbLine
 10
0.1869469065229445
 20
0.560053093477058
 30
0.0
 11
0.2269469065229472
 21
0.560053093477058
 31
0.0
  0
LINE
  5
5E
100
AcDbEntity
  8
USP-HID
100
AcDbLine
 10
0.1869469065229445
 20
0.3960530934770583
 30
0.0
 11
0.2269469065229472
 21
0.3960530934770583
 31
0.0
  0
LINE
  5
5F
100
AcDbEntity
  8
USP-HID
100
AcDbLine
 10
0.1869469065229445
 20
4.06005309347705
 30
0.0
 11
0.2269469065229472
 21
4.06005309347705
 31
0.0
  0
LINE
  5
60
100
AcDbEntity
  8
USP-HID
100
AcDbLine
 10
0.1869469065229445
 20
3.896053093477051
 30
0.0
 11
0.2269469065229472
 21
3.896053093477051
 31
0.0
  0
LINE
  5
61
100
AcDbEntity
  8
USP-HID
100
AcDbLine
 10
0.1869469065229481
 20
5.185053093477054
 30
0.0
 11
0.2269469065229472
 21
5.185053093477054
 31
0.0
  0
LINE
  5
62
100
AcDbEntity
  8
USP-HID
100
AcDbLine
 10
0.1869469065229481
 20
5.021053093477054
 30
0.0
 11
0.2269469065229472
 21
5.021053093477054
 31
0.0
  0
LINE
  5
63
100
AcDbEntity
  8
USP-HID
100
AcDbLine
 10
0.1869469065229481
 20
4.810053093477054
 30
0.0
 11
0.2269469065229472
 21
4.810053093477054
 31
0.0
  0
LINE
  5
64
100
AcDbEntity
  8
USP-HID
100
AcDbLine
 10
0.1869469065229481
 20
4.646053093477054
 30
0.0
 11
0.2269469065229472
 21
4.646053093477054
 31
0.0
  0
LINE
  5
65
100
AcDbEntity
  8
USP-HID
100
AcDbLine
 10
0.1869469065229481
 20
4.43505309347705
 30
0.0
 11
0.2269469065229472
 21
4.43505309347705
 31
0.0
  0
LINE
  5
66
100
AcDbEntity
  8
USP-HID
100
AcDbLine
 10
0.1869469065229481
 20
4.271053093477051
 30
0.0
 11
0.2269469065229472
 21
4.271053093477051
 31
0.0
  0
LINE
  5
67
100
AcDbEntity
  8
USP-HID
100
AcDbLine
 10
0.1869469065229445
 20
0.810053093477058
 30
0.0
 11
0.2269469065229472
 21
0.810053093477058
 31
0.0
  0
LINE
  5
68
100
AcDbEntity
  8
USP-HID
100
AcDbLine
 10
0.1869469065229445
 20
0.6460530934770583
 30
0.0
 11
0.2269469065229472
 21
0.6460530934770583
 31
0.0
  0
LINE
  5
69
100
AcDbEntity
  8
USP-HID
100
AcDbLine
 10
0.1869469065229445
 20
0.1030530934770581
 30
0.0
 11
0.2269469065229446
 21
0.1030530934770581
 31
0.0
  0
LINE
  5
6A
100
AcDbEntity
  8
USP-HID
100
AcDbLine
 10
0.1869469065229445
 20
2.404768019966937
 30
0.0
 11
0.2269469065229446
 21
2.404768019966937
 31
0.0
  0
LINE
  5
6B
100
AcDbEntity
  8
USP-HID
100
AcDbLine
 10
0.1869469065229445
 20
2.17283699573775
 30
0.0
 11
0.2269469065229446
 21
2.17283699573775
 31
0.0
  0
LINE
  5
6C
100
AcDbEntity
  8
USP-HID
100
AcDbLine
 10
0.1869469065229445
 20
2.288802507852345
 30
0.0
 11
0.2269469065229446
 21
2.288802507852345
 31
0.0
  0
LINE
  5
6D
100
AcDbEntity
  8
USP-HID
100
AcDbLine
 10
0.1869469065229445
 20
0.0530530934770539
 30
0.0
 11
0.2269469065229446
 21
0.0530530934770539
 31
0.0
  0
LINE
  5
6E
100
AcDbEntity
  8
USP-HID
100
AcDbLine
 10
0.1869469065229481
 20
5.428053093477053
 30
0.0
 11
0.2269469065229481
 21
5.428053093477053
 31
0.0
  0
ENDBLK
  5
70
100
AcDbEntity
  8
0
100
AcDbBlockEnd
  0
BLOCK
  5
A0
100
AcDbEntity
  8
0
100
AcDbBlockBegin
  2
RSPT62_F
 70
     0
 10
0.0
 20
0.0
 30
0.0
  3
RSPT62_F
  1

  0
TEXT
  5
73
100
AcDbEntity
  8
USP-TXT
100
AcDbText
 10
-1.124999999938522
 20
-1.407640342829546
 30
0.0
 40
0.25
  1
RSPT6-2 - FRONT VIEW
 72
     1
 11
1.375000000061476
 21
-1.407640342829546
 31
0.0
100
AcDbText
  0
LINE
  5
74
100
AcDbEntity
  8
USP-GEO
100
AcDbLine
 10
0.2500000000614762
 20
0.1030530934770617
 30
0.0
 11
0.2500000000455298
 21
0.040000000000008
 31
0.0
  0
LINE
  5
75
100
AcDbEntity
  8
USP-GEO
100
AcDbLine
 10
2.500000000045593
 20
0.0400000000000063
 30
0.0
 11
2.500000000061504
 21
0.1030530934770599
 31
0.0
  0
CIRCLE
  5
76
100
AcDbEntity
  8
USP-GEO
100
AcDbCircle
 10
1.718750000061476
 20
0.72805309347706
 30
0.0
 40
0.0819999999999999
  0
CIRCLE
  5
77
100
AcDbEntity
  8
USP-GEO
100
AcDbCircle
 10
1.031250000061476
 20
0.9780530934770599
 30
0.0
 40
0.0819999999999999
  0
CIRCLE
  5
78
100
AcDbEntity
  8
USP-GEO
100
AcDbCircle
 10
0.7875000000614989
 20
0.47805309347706
 30
0.0
 40
0.0819999999999999
  0
LINE
  5
79
100
AcDbEntity
  8
USP-GEO
100
AcDbLine
 10
0.6875000000614638
 20
2.404768019966925
 30
0.0
 11
0.8034655121760625
 21
2.288802507852331
 31
0.0
  0
LINE
  5
7A
100
AcDbEntity
  8
USP-GEO
100
AcDbLine
 10
0.8034655121760714
 20
2.288802507852345
 30
0.0
 11
0.6875000000614726
 21
2.172836995737753
 31
0.0
  0
LINE
  5
7B
100
AcDbEntity
  8
USP-GEO
100
AcDbLine
 10
0.6875000000614691
 20
2.172836995737742
 30
0.0
 11
0.5715344879468987
 21
2.288802507852336
 31
0.0
  0
LINE
  5
7C
100
AcDbEntity
  8
USP-GEO
100
AcDbLine
 10
0.5715344879469005
 20
2.28880250785235
 30
0.0
 11
0.6875000000614709
 21
2.404768019966942
 31
0.0
  0
CIRCLE
  5
7D
100
AcDbEntity
  8
USP-GEO
100
AcDbCircle
 10
1.650000000061481
 20
4.728053093477056
 30
0.0
 40
0.0819999999999999
  0
CIRCLE
  5
7E
100
AcDbEntity
  8
USP-GEO
100
AcDbCircle
 10
2.200000000061493
 20
5.103053093477056
 30
0.0
 40
0.0819999999999999
  0
CIRCLE
  5
7F
100
AcDbEntity
  8
USP-GEO
100
AcDbCircle
 10
0.5500000000614876
 20
3.978053093477052
 30
0.0
 40
0.0819999999999999
  0
CIRCLE
  5
80
100
AcDbEntity
  8
USP-GEO
100
AcDbCircle
 10
0.8250000000614932
 20
5.103053093477056
 30
0.0
 40
0.0819999999999999
  0
CIRCLE
  5
81
100
AcDbEntity
  8
USP-GEO
100
AcDbCircle
 10
0.2750000000614818
 20
4.728053093477056
 30
0.0
 40
0.0819999999999999
  0
CIRCLE
  5
82
100
AcDbEntity
  8
USP-GEO
100
AcDbCircle
 10
1.100000000061498
 20
4.353053093477052
 30
0.0
 40
0.0819999999999999
  0
CIRCLE
  5
83
100
AcDbEntity
  8
USP-GEO
100
AcDbCircle
 10
1.925000000061487
 20
3.978053093477052
 30
0.0
 40
0.0819999999999999
  0
CIRCLE
  5
84
100
AcDbEntity
  8
USP-GEO
100
AcDbCircle
 10
2.475000000061498
 20
4.353053093477052
 30
0.0
 40
0.0819999999999999
  0
LINE
  5
85
100
AcDbEntity
  8
USP-GEO
100
AcDbLine
 10
1.946534487946868
 20
2.288802507852353
 30
0.0
 11
2.062500000061467
 21
2.404768019966945
 31
0.0
  0
LINE
  5
86
100
AcDbEntity
  8
USP-GEO
100
AcDbLine
 10
2.062500000061472
 20
2.404768019966933
 30
0.0
 11
2.178465512176071
 21
2.288802507852339
 31
0.0
  0
LINE
  5
87
100
AcDbEntity
  8
USP-GEO
100
AcDbLine
 10
2.178465512176067
 20
2.288802507852348
 30
0.0
 11
2.062500000061469
 21
2.172836995737756
 31
0.0
  0
LINE
  5
88
100
AcDbEntity
  8
USP-GEO
100
AcDbLine
 10
2.06250000006147
 20
2.172836995737746
 30
0.0
 11
1.946534487946872
 21
2.28880250785234
 31
0.0
  0
CIRCLE
  5
89
100
AcDbEntity
  8
USP-GEO
100
AcDbCircle
 10
0.3437500000614762
 20
0.72805309347706
 30
0.0
 40
0.0819999999999999
  0
CIRCLE
  5
8A
100
AcDbEntity
  8
USP-GEO
100
AcDbCircle
 10
2.162500000061498
 20
0.47805309347706
 30
0.0
 40
0.0819999999999999
  0
CIRCLE
  5
8B
100
AcDbEntity
  8
USP-GEO
100
AcDbCircle
 10
2.406250000061476
 20
0.9780530934770599
 30
0.0
 40
0.0819999999999999
  0
LINE
  5
8C
100
AcDbEntity
  8
USP-GEO
100
AcDbLine
 10
2.500000000061504
 20
0.1030530934770546
 30
0.0
 11
1.625000000061476
 21
0.1030530934770528
 31
0.0
  0
LINE
  5
8D
100
AcDbEntity
  8
USP-GEO
100
AcDbLine
 10
1.625000000061476
 20
0.1030530934770546
 30
0.0
 11
1.625000000061476
 21
0.0530530934770557
 31
0.0
  0
LINE
  5
8E
100
AcDbEntity
  8
USP-GEO
100
AcDbLine
 10
1.625000000061476
 20
0.0530530934770557
 30
0.0
 11
1.125000000061476
 21
0.0530530934770557
 31
0.0
  0
LINE
  5
8F
100
AcDbEntity
  8
USP-GEO
100
AcDbLine
 10
1.125000000061476
 20
0.0530530934770539
 30
0.0
 11
1.125000000061476
 21
0.1030530934770528
 31
0.0
  0
LINE
  5
90
100
AcDbEntity
  8
USP-GEO
100
AcDbLine
 10
1.125000000061476
 20
0.1030530934770581
 30
0.0
 11
0.2500000000614762
 21
0.1030530934770599
 31
0.0
  0
LINE
  5
91
100
AcDbEntity
  8
USP-GEO
100
AcDbLine
 10
0.0000000000614762
 20
5.345470593477054
 30
0.0
 11
0.1325825000614884
 21
5.478053093477056
 31
0.0
  0
LINE
  5
92
100
AcDbEntity
  8
USP-GEO
100
AcDbLine
 10
0.1325825000614884
 20
5.478053093477056
 30
0.0
 11
1.125000000061476
 21
5.478053093477056
 31
0.0
  0
LINE
  5
93
100
AcDbEntity
  8
USP-GEO
100
AcDbLine
 10
1.125000000061476
 20
5.478053093477054
 30
0.0
 11
1.125000000061476
 21
5.428053093477055
 31
0.0
  0
LINE
  5
94
100
AcDbEntity
  8
USP-GEO
100
AcDbLine
 10
1.125000000061476
 20
5.428053093477055
 30
0.0
 11
1.625000000061476
 21
5.428053093477055
 31
0.0
  0
LINE
  5
95
100
AcDbEntity
  8
USP-GEO
100
AcDbLine
 10
1.625000000061476
 20
5.428053093477057
 30
0.0
 11
1.625000000061476
 21
5.478053093477056
 31
0.0
  0
LINE
  5
96
100
AcDbEntity
  8
USP-GEO
100
AcDbLine
 10
1.625000000061476
 20
5.478053093477056
 30
0.0
 11
2.617417500061492
 21
5.478053093477056
 31
0.0
  0
LINE
  5
97
100
AcDbEntity
  8
USP-GEO
100
AcDbLine
 10
2.617417500061492
 20
5.478053093477056
 30
0.0
 11
2.750000000061476
 21
5.345470593477054
 31
0.0
  0
LINE
  5
98
100
AcDbEntity
  8
USP-GEO
100
AcDbLine
 10
2.499999999984112
 20
0.0400000000000009
 30
0.0
 11
2.499999999984112
 21
0.0000000000000009
 31
0.0
  0
LINE
  5
99
100
AcDbEntity
  8
USP-GEO
100
AcDbLine
 10
2.750000000061476
 20
5.345470593477053
 30
0.0
 11
2.750000000000028
 21
0.0000000000000018
 31
0.0
  0
LINE
  5
9A
100
AcDbEntity
  8
USP-GEO
100
AcDbLine
 10
2.499999999984112
 20
0.0000000000000018
 30
0.0
 11
2.750000000000028
 21
0.0000000000000018
 31
0.0
  0
LINE
  5
9B
100
AcDbEntity
  8
USP-GEO
100
AcDbLine
 10
0.2499999999840554
 20
0.0400000000000009
 30
0.0
 11
0.2499999999840554
 21
0.0000000000000009
 31
0.0
  0
LINE
  5
9C
100
AcDbEntity
  8
USP-GEO
100
AcDbLine
 10
0.0
 20
0.0000000000000018
 30
0.0
 11
0.2499999999840554
 21
0.0000000000000018
 31
0.0
  0
LINE
  5
9D
100
AcDbEntity
  8
USP-GEO
100
AcDbLine
 10
0.0
 20
5.345470593477051
 30
0.0
 11
0.0
 21
0.0
 31
0.0
  0
LINE
  5
9E
100
AcDbEntity
  8
USP-HID
100
AcDbLine
 10
0.0000000000004547
 20
0.0400000000000009
 30
0.0
 11
0.2500000000455316
 21
0.0400000000000009
 31
0.0
  0
LINE
  5
9F
100
AcDbEntity
  8
USP-HID
100
AcDbLine
 10
2.500000000045588
 20
0.0400000000000009
 30
0.0
 11
2.750000000000483
 21
0.0400000000000009
 31
0.0
  0
ENDBLK
  5
A1
100
AcDbEntity
  8
0
100
AcDbBlockEnd
  0
ENDSEC
  0
SECTION
  2
ENTITIES
  0
INSERT
  5
3
100
AcDbEntity
  8
USP
100
AcDbBlockReference
  2
RSPT62_T
 10
7.759039868374816
 20
10.77454777037268
 30
0.0
  0
INSERT
  5
4F
100
AcDbEntity
  8
USP
100
AcDbBlockReference
  2
RSPT62_S
 10
2.378792582049346
 20
1.408203938511965
 30
0.0
  0
INSERT
  5
71
100
AcDbEntity
  8
USP
100
AcDbBlockReference
  2
RSPT62_F
 10
7.75903986831334
 20
1.408203938511963
 30
0.0
  0
ENDSEC
  0
SECTION
  2
OBJECTS
  0
DICTIONARY
  5
BA
102
{ACAD_XDICTIONARY
360
BB
102
}
100
AcDbDictionary
  3
ACAD_GROUP
350
B8
  3
ACAD_MLINESTYLE
350
B9
  0
DICTIONARY
  5
E
100
AcDbDictionary
280
     1
  3
ACAD_XREC_ROUNDTRIP
360
F
  0
DICTIONARY
  5
9
100
AcDbDictionary
280
     1
  3
ACAD_XREC_ROUNDTRIP
360
A
  0
DICTIONARY
  5
27
100
AcDbDictionary
280
     1
  3
ACAD_XREC_ROUNDTRIP
360
28
  0
DICTIONARY
  5
BF
100
AcDbDictionary
280
     1
  3
ACAD_XREC_ROUNDTRIP
360
C0
  0
DICTIONARY
  5
A2
100
AcDbDictionary
280
     1
  3
ACAD_LAYOUTSELFREF
360
A3
  0
DICTIONARY
  5
A7
100
AcDbDictionary
280
     1
  3
ACAD_LAYOUTSELFREF
360
A8
  0
DICTIONARY
  5
BB
100
AcDbDictionary
280
     1
  3
ACAD_XREC_ROUNDTRIP
360
BC
  0
DICTIONARY
  5
B8
102
{ACAD_REACTORS
330
BA
102
}
100
AcDbDictionary
  0
DICTIONARY
  5
B9
102
{ACAD_REACTORS
330
BA
102
}
100
AcDbDictionary
  3
STANDARD
350
BD
  0
XRECORD
  5
F
102
{ACAD_REACTORS
330
E
102
}
100
AcDbXrecord
102
EXTNAMES
  1
USP-GEO
  2
USP-Geo
  0
XRECORD
  5
A
102
{ACAD_REACTORS
330
9
102
}
100
AcDbXrecord
102
EXTNAMES
  1
USP-TXT
  2
USP-Txt
  0
XRECORD
  5
28
102
{ACAD_REACTORS
330
27
102
}
100
AcDbXrecord
102
EXTNAMES
  1
USP-HID
  2
USP-Hid
  0
XRECORD
  5
C0
102
{ACAD_REACTORS
330
BF
102
}
100
AcDbXrecord
102
ACADR14ROUNDTRIP
1000
DSTYLE
1002
{
1070
   276
 70
     2
1070
   277
 70
     5
1002
}
  0
XRECORD
  5
A3
102
{ACAD_REACTORS
330
A2
102
}
100
AcDbXrecord
340
18
  0
XRECORD
  5
A8
102
{ACAD_REACTORS
330
A7
102
}
100
AcDbXrecord
340
15
  0
XRECORD
  5
BC
102
{ACAD_REACTORS
330
BB
102
}
100
AcDbXrecord
102
EXTNAMES
  1
ACADDIM
  2
AcadDim
  1
ACDBVARIABLEDICTIONARY
  2
AcDbVariableDictionary
  1
AUXHDRRNDTRIPDATA
  2
AuxHdrRndTripData
  0
MLINESTYLE
  5
BD
102
{ACAD_REACTORS
330
B9
102
}
100
AcDbMlineStyle
  2
STANDARD
 70
     0
  3

 62
     0
 51
90.0
 52
90.0
 71
     2
 49
0.5
 62
   256
  6
BYLAYER
 49
-0.5
 62
   256
  6
BYLAYER
  0
ENDSEC
  0
EOF
