  0
SECTION
  2
HEADER
  9
$ACADVER
  1
AC1014
  9
$ACADMAINTVER
 70
     9
  9
$DWGCODEPAGE
  3
ANSI_1252
  9
$INSBASE
 10
0.0
 20
0.0
 30
0.0
  9
$EXTMIN
 10
0.0003661829982491
 20
0.0002746372486868
 30
-0.0000000000000122
  9
$EXTMAX
 10
10.1419090737816
 20
7.44548475403937
 30
-0.0000000000000113
  9
$LIMMIN
 10
0.0
 20
0.0
  9
$LIMMAX
 10
12.0
 20
9.0
  9
$ORTHOMODE
 70
     0
  9
$REGENMODE
 70
     1
  9
$FILLMODE
 70
     1
  9
$QTEXTMODE
 70
     0
  9
$MIRRTEXT
 70
     1
  9
$DRAGMODE
 70
     2
  9
$LTSCALE
 40
0.5
  9
$OSMODE
 70
    37
  9
$ATTMODE
 70
     1
  9
$TEXTSIZE
 40
0.25
  9
$TRACEWID
 40
0.05
  9
$TEXTSTYLE
  7
STANDARD
  9
$CLAYER
  8
0
  9
$CELTYPE
  6
BYLAYER
  9
$CECOLOR
 62
   256
  9
$CELTSCALE
 40
1.0
  9
$DELOBJ
 70
     1
  9
$DISPSILH
 70
     0
  9
$DIMSCALE
 40
1.0
  9
$DIMASZ
 40
0.18
  9
$DIMEXO
 40
0.0625
  9
$DIMDLI
 40
0.38
  9
$DIMRND
 40
0.0
  9
$DIMDLE
 40
0.0
  9
$DIMEXE
 40
0.18
  9
$DIMTP
 40
0.0
  9
$DIMTM
 40
0.0
  9
$DIMTXT
 40
0.18
  9
$DIMCEN
 40
0.09
  9
$DIMTSZ
 40
0.0
  9
$DIMTOL
 70
     0
  9
$DIMLIM
 70
     0
  9
$DIMTIH
 70
     1
  9
$DIMTOH
 70
     1
  9
$DIMSE1
 70
     0
  9
$DIMSE2
 70
     0
  9
$DIMTAD
 70
     0
  9
$DIMZIN
 70
     0
  9
$DIMBLK
  1

  9
$DIMASO
 70
     1
  9
$DIMSHO
 70
     1
  9
$DIMPOST
  1

  9
$DIMAPOST
  1

  9
$DIMALT
 70
     0
  9
$DIMALTD
 70
     2
  9
$DIMALTF
 40
25.4
  9
$DIMLFAC
 40
1.0
  9
$DIMTOFL
 70
     0
  9
$DIMTVP
 40
0.0
  9
$DIMTIX
 70
     0
  9
$DIMSOXD
 70
     0
  9
$DIMSAH
 70
     0
  9
$DIMBLK1
  1

  9
$DIMBLK2
  1

  9
$DIMSTYLE
  2
STANDARD
  9
$DIMCLRD
 70
     0
  9
$DIMCLRE
 70
     0
  9
$DIMCLRT
 70
     0
  9
$DIMTFAC
 40
1.0
  9
$DIMGAP
 40
0.09
  9
$DIMJUST
 70
     0
  9
$DIMSD1
 70
     0
  9
$DIMSD2
 70
     0
  9
$DIMTOLJ
 70
     1
  9
$DIMTZIN
 70
     0
  9
$DIMALTZ
 70
     0
  9
$DIMALTTZ
 70
     0
  9
$DIMFIT
 70
     3
  9
$DIMUPT
 70
     0
  9
$DIMUNIT
 70
     2
  9
$DIMDEC
 70
     4
  9
$DIMTDEC
 70
     4
  9
$DIMALTU
 70
     2
  9
$DIMALTTD
 70
     2
  9
$DIMTXSTY
  7
STANDARD
  9
$DIMAUNIT
 70
     0
  9
$LUNITS
 70
     2
  9
$LUPREC
 70
     4
  9
$SKETCHINC
 40
0.1
  9
$FILLETRAD
 40
0.5
  9
$AUNITS
 70
     0
  9
$AUPREC
 70
     0
  9
$MENU
  1
.
  9
$ELEVATION
 40
0.0
  9
$PELEVATION
 40
0.0
  9
$THICKNESS
 40
0.0
  9
$LIMCHECK
 70
     0
  9
$BLIPMODE
 70
     0
  9
$CHAMFERA
 40
0.5
  9
$CHAMFERB
 40
0.5
  9
$CHAMFERC
 40
1.0
  9
$CHAMFERD
 40
0.0
  9
$SKPOLY
 70
     0
  9
$TDCREATE
 40
2451675.885797453
  9
$TDUPDATE
 40
2452759.746587453
  9
$TDINDWG
 40
0.3395784028
  9
$TDUSRTIMER
 40
0.3395701852
  9
$USRTIMER
 70
     1
  9
$ANGBASE
 50
0.0
  9
$ANGDIR
 70
     0
  9
$PDMODE
 70
     0
  9
$PDSIZE
 40
0.0
  9
$PLINEWID
 40
0.0
  9
$COORDS
 70
     1
  9
$SPLFRAME
 70
     0
  9
$SPLINETYPE
 70
     6
  9
$SPLINESEGS
 70
     8
  9
$ATTDIA
 70
     0
  9
$ATTREQ
 70
     1
  9
$HANDLING
 70
     1
  9
$HANDSEED
  5
B1
  9
$SURFTAB1
 70
     6
  9
$SURFTAB2
 70
     6
  9
$SURFTYPE
 70
     6
  9
$SURFU
 70
     6
  9
$SURFV
 70
     6
  9
$UCSNAME
  2

  9
$UCSORG
 10
0.0
 20
0.0
 30
0.0
  9
$UCSXDIR
 10
1.0
 20
0.0
 30
0.0
  9
$UCSYDIR
 10
0.0
 20
1.0
 30
0.0
  9
$PUCSNAME
  2

  9
$PUCSORG
 10
0.0
 20
0.0
 30
0.0
  9
$PUCSXDIR
 10
1.0
 20
0.0
 30
0.0
  9
$PUCSYDIR
 10
0.0
 20
1.0
 30
0.0
  9
$USERI1
 70
     0
  9
$USERI2
 70
     0
  9
$USERI3
 70
     0
  9
$USERI4
 70
     0
  9
$USERI5
 70
     0
  9
$USERR1
 40
0.0
  9
$USERR2
 40
0.0
  9
$USERR3
 40
0.0
  9
$USERR4
 40
0.0
  9
$USERR5
 40
0.0
  9
$WORLDVIEW
 70
     1
  9
$SHADEDGE
 70
     3
  9
$SHADEDIF
 70
    70
  9
$TILEMODE
 70
     1
  9
$MAXACTVP
 70
    48
  9
$PINSBASE
 10
0.0
 20
0.0
 30
0.0
  9
$PLIMCHECK
 70
     0
  9
$PEXTMIN
 10
1.000000000000000E+20
 20
1.000000000000000E+20
 30
1.000000000000000E+20
  9
$PEXTMAX
 10
-1.000000000000000E+20
 20
-1.000000000000000E+20
 30
-1.000000000000000E+20
  9
$PLIMMIN
 10
0.0
 20
0.0
  9
$PLIMMAX
 10
12.0
 20
9.0
  9
$UNITMODE
 70
     0
  9
$VISRETAIN
 70
     1
  9
$PLINEGEN
 70
     0
  9
$PSLTSCALE
 70
     1
  9
$TREEDEPTH
 70
  3020
  9
$PICKSTYLE
 70
     1
  9
$CMLSTYLE
  2
STANDARD
  9
$CMLJUST
 70
     0
  9
$CMLSCALE
 40
1.0
  9
$PROXYGRAPHICS
 70
     1
  9
$MEASUREMENT
 70
     0
  0
ENDSEC
  0
SECTION
  2
CLASSES
  0
CLASS
  1
ACDBDICTIONARYWDFLT
  2
AcDbDictionaryWithDefault
  3
AutoCAD 2000
 90
        0
280
     1
281
     0
  0
CLASS
  1
ACDBPLACEHOLDER
  2
AcDbPlaceHolder
  3
AutoCAD 2000
 90
        0
280
     1
281
     0
  0
CLASS
  1
LAYOUT
  2
AcDbLayout
  3
AutoCAD 2000
 90
        0
280
     1
281
     0
  0
CLASS
  1
LONG_TRANSACTION
  2
AcDbLongTransaction
  3
AutoCAD 2000
 90
        0
280
     1
281
     0
  0
CLASS
  1
LWPOLYLINE
  2
AcDbPolyline
  3
"AutoCAD"
 90
        0
280
     1
281
     1
  0
CLASS
  1
HATCH
  2
AcDbHatch
  3
"ACAD_SEDONA"
 90
        0
280
     1
281
     1
  0
CLASS
  1
XRECORD
  2
AcDbXrecord
  3
"<Built In>"
 90
        0
280
     0
281
     0
  0
CLASS
  1
LONG_TRANSACTION
  2
AcDbLongTransaction
  3
AutoCAD 2000
 90
        0
280
     1
281
     0
  0
CLASS
  1
LWPOLYLINE
  2
AcDbPolyline
  3
"AutoCAD"
 90
        0
280
     1
281
     1
  0
CLASS
  1
HATCH
  2
AcDbHatch
  3
"ACAD_SEDONA"
 90
        0
280
     1
281
     1
  0
CLASS
  1
XRECORD
  2
AcDbXrecord
  3
"<Built In>"
 90
        0
280
     0
281
     0
  0
CLASS
  1
LONG_TRANSACTION
  2
AcDbLongTransaction
  3
AutoCAD 2000
 90
        0
280
     1
281
     0
  0
CLASS
  1
LWPOLYLINE
  2
AcDbPolyline
  3
"AutoCAD"
 90
        0
280
     1
281
     1
  0
CLASS
  1
HATCH
  2
AcDbHatch
  3
"ACAD_SEDONA"
 90
        0
280
     1
281
     1
  0
CLASS
  1
XRECORD
  2
AcDbXrecord
  3
"<Built In>"
 90
        0
280
     0
281
     0
  0
CLASS
  1
LONG_TRANSACTION
  2
AcDbLongTransaction
  3
AutoCAD 2000
 90
        0
280
     1
281
     0
  0
CLASS
  1
LWPOLYLINE
  2
AcDbPolyline
  3
"AutoCAD"
 90
        0
280
     1
281
     1
  0
CLASS
  1
HATCH
  2
AcDbHatch
  3
"ACAD_SEDONA"
 90
        0
280
     1
281
     1
  0
CLASS
  1
XRECORD
  2
AcDbXrecord
  3
"<Built In>"
 90
        0
280
     0
281
     0
  0
CLASS
  1
DICTIONARYVAR
  2
AcDbDictionaryVar
  3
"AutoCAD"
 90
        0
280
     0
281
     0
  0
CLASS
  1
LONG_TRANSACTION
  2
AcDbLongTransaction
  3
AutoCAD 2000
 90
        0
280
     0
281
     0
  0
CLASS
  1
LWPOLYLINE
  2
AcDbPolyline
  3
"AutoCAD"
 90
        0
280
     0
281
     1
  0
CLASS
  1
HATCH
  2
AcDbHatch
  3
"ACAD_SEDONA"
 90
        0
280
     0
281
     1
  0
CLASS
  1
XRECORD
  2
AcDbXrecord
  3
"<Built In>"
 90
        0
280
     0
281
     0
  0
CLASS
  1
LONG_TRANSACTION
  2
AcDbLongTransaction
  3
AutoCAD 2000
 90
        0
280
     0
281
     0
  0
CLASS
  1
LWPOLYLINE
  2
AcDbPolyline
  3
"AutoCAD"
 90
        0
280
     0
281
     1
  0
CLASS
  1
HATCH
  2
AcDbHatch
  3
"ACAD_SEDONA"
 90
        0
280
     0
281
     1
  0
CLASS
  1
XRECORD
  2
AcDbXrecord
  3
"<Built In>"
 90
        0
280
     0
281
     0
  0
ENDSEC
  0
SECTION
  2
TABLES
  0
TABLE
  2
VPORT
  5
91
100
AcDbSymbolTable
 70
     1
  0
VPORT
  5
AD
100
AcDbSymbolTableRecord
100
AcDbViewportTableRecord
  2
*ACTIVE
 70
     0
 10
0.0
 20
0.0
 11
1.0
 21
1.0
 12
5.071443880126858
 22
3.814593799044363
 13
0.0
 23
0.0
 14
0.5
 24
0.5
 15
0.5
 25
0.5
 16
0.0
 26
0.0
 36
1.0
 17
0.0
 27
0.0
 37
0.0
 40
7.683525479585041
 41
1.457627118644067
 42
50.0
 43
0.0
 44
0.0
 50
0.0
 51
0.0
 71
     0
 72
   100
 73
     1
 74
     3
 75
     0
 76
     0
 77
     0
 78
     0
  0
ENDTAB
  0
TABLE
  2
LTYPE
  5
8A
100
AcDbSymbolTable
 70
     1
  0
LTYPE
  5
8B
102
{ACAD_XDICTIONARY
360
8C
102
}
100
AcDbSymbolTableRecord
100
AcDbLinetypeTableRecord
  2
BYBLOCK
 70
     0
  3

 72
    65
 73
     0
 40
0.0
  0
LTYPE
  5
8D
102
{ACAD_XDICTIONARY
360
8E
102
}
100
AcDbSymbolTableRecord
100
AcDbLinetypeTableRecord
  2
BYLAYER
 70
     0
  3

 72
    65
 73
     0
 40
0.0
  0
LTYPE
  5
5
102
{ACAD_XDICTIONARY
360
6
102
}
100
AcDbSymbolTableRecord
100
AcDbLinetypeTableRecord
  2
CONTINUOUS
 70
     0
  3
Solid line
 72
    65
 73
     0
 40
0.0
  0
ENDTAB
  0
TABLE
  2
LAYER
  5
88
100
AcDbSymbolTable
 70
     4
  0
LAYER
  5
26
100
AcDbSymbolTableRecord
100
AcDbLayerTableRecord
  2
0
 70
     0
 62
     7
  6
CONTINUOUS
  0
LAYER
  5
4
100
AcDbSymbolTableRecord
100
AcDbLayerTableRecord
  2
USP
 70
     0
 62
     7
  6
CONTINUOUS
  0
LAYER
  5
D
100
AcDbSymbolTableRecord
100
AcDbLayerTableRecord
  2
USP-GEO
 70
     0
 62
     7
  6
CONTINUOUS
  0
LAYER
  5
9
100
AcDbSymbolTableRecord
100
AcDbLayerTableRecord
  2
USP-TXT
 70
     0
 62
     7
  6
CONTINUOUS
  0
ENDTAB
  0
TABLE
  2
STYLE
  5
89
100
AcDbSymbolTable
 70
     1
  0
STYLE
  5
A
102
{ACAD_XDICTIONARY
360
B
102
}
100
AcDbSymbolTableRecord
100
AcDbTextStyleTableRecord
  2
STANDARD
 70
     0
 40
0.0
 41
1.0
 50
0.0
 71
     0
 42
0.25
  3
txt
  4

  0
ENDTAB
  0
TABLE
  2
VIEW
  5
8F
100
AcDbSymbolTable
 70
     0
  0
ENDTAB
  0
TABLE
  2
UCS
  5
90
100
AcDbSymbolTable
 70
     0
  0
ENDTAB
  0
TABLE
  2
APPID
  5
93
100
AcDbSymbolTable
 70
     1
  0
APPID
  5
94
100
AcDbSymbolTableRecord
100
AcDbRegAppTableRecord
  2
ACAD
 70
     0
  0
ENDTAB
  0
TABLE
  2
DIMSTYLE
  5
95
100
AcDbSymbolTable
 70
     1
  0
DIMSTYLE
105
9E
102
{ACAD_XDICTIONARY
360
9F
102
}
100
AcDbSymbolTableRecord
100
AcDbDimStyleTableRecord
  2
STANDARD
 70
     0
  3

  4

  5

  6

  7

 40
1.0
 41
0.18
 42
0.0625
 43
0.38
 44
0.18
 45
0.0
 46
0.0
 47
0.0
 48
0.0
140
0.18
141
0.09
142
0.0
143
25.4
144
1.0
145
0.0
146
1.0
147
0.09
 71
     0
 72
     0
 73
     1
 74
     1
 75
     0
 76
     0
 77
     0
 78
     0
170
     0
171
     2
172
     0
173
     0
174
     0
175
     0
176
     0
177
     0
178
     0
270
     2
271
     4
272
     4
273
     2
274
     2
340
A
275
     0
280
     0
281
     0
282
     0
283
     1
284
     0
285
     0
286
     0
287
     3
288
     0
  0
ENDTAB
  0
TABLE
  2
BLOCK_RECORD
  5
1
100
AcDbSymbolTable
 70
     3
  0
BLOCK_RECORD
  5
2
102
{ACAD_XDICTIONARY
360
7F
102
}
100
AcDbSymbolTableRecord
100
AcDbBlockTableRecord
  2
*MODEL_SPACE
  0
BLOCK_RECORD
  5
83
102
{ACAD_XDICTIONARY
360
84
102
}
100
AcDbSymbolTableRecord
100
AcDbBlockTableRecord
  2
*PAPER_SPACE
  0
BLOCK_RECORD
  5
7
100
AcDbSymbolTableRecord
100
AcDbBlockTableRecord
  2
RSPT4_T
  0
BLOCK_RECORD
  5
29
100
AcDbSymbolTableRecord
100
AcDbBlockTableRecord
  2
RSPT4_F
  0
BLOCK_RECORD
  5
65
100
AcDbSymbolTableRecord
100
AcDbBlockTableRecord
  2
RSPT4_S
  0
ENDTAB
  0
ENDSEC
  0
SECTION
  2
BLOCKS
  0
BLOCK
  5
81
100
AcDbEntity
  8
0
100
AcDbBlockBegin
  2
*MODEL_SPACE
 70
     0
 10
0.0
 20
0.0
 30
0.0
  3
*MODEL_SPACE
  1

  0
ENDBLK
  5
82
100
AcDbEntity
  8
0
100
AcDbBlockEnd
  0
BLOCK
  5
86
100
AcDbEntity
 67
     1
  8
0
100
AcDbBlockBegin
  2
*PAPER_SPACE
 70
     0
 10
0.0
 20
0.0
 30
0.0
  3
*PAPER_SPACE
  1

  0
ENDBLK
  5
87
100
AcDbEntity
 67
     1
  8
0
100
AcDbBlockEnd
  0
BLOCK
  5
25
100
AcDbEntity
  8
0
100
AcDbBlockBegin
  2
RSPT4_T
 70
     0
 10
0.0
 20
0.0
 30
0.0
  3
RSPT4_T
  1

  0
TEXT
  5
8
100
AcDbEntity
  8
USP-TXT
100
AcDbText
 10
-0.9999999999999928
 20
-0.4788264174559984
 30
0.0
 40
0.25
  1
RSPT4 - TOP VIEW
 72
     1
 11
1.000000000000007
 21
-0.4788264174559984
 31
0.0
100
AcDbText
  0
LINE
  5
C
100
AcDbEntity
  8
USP-GEO
100
AcDbLine
 10
1.750000000000014
 20
0.119999999999834
 30
0.0
 11
0.25
 21
0.119999999999834
 31
0.0
  0
LINE
  5
E
100
AcDbEntity
  8
USP-GEO
100
AcDbLine
 10
1.750000000000014
 20
0.079999999999842
 30
0.0
 11
0.25
 21
0.079999999999842
 31
0.0
  0
ARC
  5
F
100
AcDbEntity
  8
USP-GEO
100
AcDbCircle
 10
0.624950000000041
 20
0.1376562499985141
 30
0.0
 40
0.1376562499985148
100
AcDbArc
 50
204.7615138572843
 51
335.2384861427097
  0
LINE
  5
10
100
AcDbEntity
  8
USP-GEO
100
AcDbLine
 10
0.25
 20
0.119999999999834
 30
0.0
 11
0.0
 21
0.119999999999834
 31
0.0
  0
LINE
  5
11
100
AcDbEntity
  8
USP-GEO
100
AcDbLine
 10
0.25
 20
0.079999999999842
 30
0.0
 11
0.0
 21
0.079999999999842
 31
0.0
  0
LINE
  5
12
100
AcDbEntity
  8
USP-GEO
100
AcDbLine
 10
0.0000000000000142
 20
0.369999999999834
 30
0.0
 11
0.1562750000000186
 21
0.119999999999834
 31
0.0
  0
LINE
  5
13
100
AcDbEntity
  8
USP-GEO
100
AcDbLine
 10
0.0000000000000142
 20
0.1199999999998482
 30
0.0
 11
0.0
 21
0.369999999999834
 31
0.0
  0
LINE
  5
14
100
AcDbEntity
  8
USP-GEO
100
AcDbLine
 10
0.0
 20
0.079999999999842
 30
0.0
 11
0.0
 21
0.119999999999834
 31
0.0
  0
LINE
  5
15
100
AcDbEntity
  8
USP-GEO
100
AcDbLine
 10
0.2099500000000347
 20
0.1299999999998249
 30
0.0
 11
0.2099500000000347
 21
0.3699999999998624
 31
0.0
  0
LINE
  5
16
100
AcDbEntity
  8
USP-GEO
100
AcDbLine
 10
0.2499500000000268
 20
0.3699999999998624
 30
0.0
 11
0.2499500000000268
 21
0.119999999999834
 31
0.0
  0
LINE
  5
17
100
AcDbEntity
  8
USP-GEO
100
AcDbLine
 10
0.25
 20
0.079999999999842
 30
0.0
 11
0.25
 21
0.119999999999834
 31
0.0
  0
ARC
  5
18
100
AcDbEntity
  8
USP-GEO
100
AcDbCircle
 10
0.2599500000000319
 20
0.1299999999998249
 30
0.0
 40
0.05
100
AcDbArc
 50
180.0
 51
191.5369590328048
  0
LINE
  5
19
100
AcDbEntity
  8
USP-GEO
100
AcDbLine
 10
0.2099500000000205
 20
0.3699999999998482
 30
0.0
 11
0.2499500000000268
 21
0.3699999999998482
 31
0.0
  0
ARC
  5
1A
100
AcDbEntity
  8
USP-GEO
100
AcDbCircle
 10
1.374950000000026
 20
0.1376562499984999
 30
0.0
 40
0.1376562499985148
100
AcDbArc
 50
204.7615138572843
 51
335.2384861427097
  0
LINE
  5
1B
100
AcDbEntity
  8
USP-GEO
100
AcDbLine
 10
2.000000000000056
 20
0.369999999999834
 30
0.0
 11
2.000000000000071
 21
0.119999999999834
 31
0.0
  0
LINE
  5
1C
100
AcDbEntity
  8
USP-GEO
100
AcDbLine
 10
1.843725000000034
 20
0.119999999999834
 30
0.0
 11
2.000000000000042
 21
0.369999999999834
 31
0.0
  0
LINE
  5
1D
100
AcDbEntity
  8
USP-GEO
100
AcDbLine
 10
1.789950000000047
 20
0.3699999999998482
 30
0.0
 11
1.789950000000047
 21
0.1299999999998533
 31
0.0
  0
LINE
  5
1E
100
AcDbEntity
  8
USP-GEO
100
AcDbLine
 10
1.749950000000026
 20
0.1199999999998624
 30
0.0
 11
1.749950000000026
 21
0.369999999999834
 31
0.0
  0
LINE
  5
1F
100
AcDbEntity
  8
USP-GEO
100
AcDbLine
 10
2.000000000000028
 20
0.1199999999998482
 30
0.0
 11
1.750000000000014
 21
0.1199999999998482
 31
0.0
  0
LINE
  5
20
100
AcDbEntity
  8
USP-GEO
100
AcDbLine
 10
2.000000000000014
 20
0.079999999999842
 30
0.0
 11
1.75000000000001
 21
0.079999999999842
 31
0.0
  0
LINE
  5
21
100
AcDbEntity
  8
USP-GEO
100
AcDbLine
 10
1.750000000000014
 20
0.079999999999842
 30
0.0
 11
1.750000000000014
 21
0.119999999999834
 31
0.0
  0
LINE
  5
22
100
AcDbEntity
  8
USP-GEO
100
AcDbLine
 10
2.000000000000014
 20
0.079999999999842
 30
0.0
 11
2.000000000000014
 21
0.1199999999998482
 31
0.0
  0
ARC
  5
23
100
AcDbEntity
  8
USP-GEO
100
AcDbCircle
 10
1.73995000000005
 20
0.1299999999998249
 30
0.0
 40
0.05
100
AcDbArc
 50
348.4630409672117
 51
0.0000000000325689
  0
LINE
  5
24
100
AcDbEntity
  8
USP-GEO
100
AcDbLine
 10
1.749950000000026
 20
0.3699999999998198
 30
0.0
 11
1.789950000000033
 21
0.3699999999998198
 31
0.0
  0
ENDBLK
  5
27
100
AcDbEntity
  8
0
100
AcDbBlockEnd
  0
BLOCK
  5
62
100
AcDbEntity
  8
0
100
AcDbBlockBegin
  2
RSPT4_F
 70
     0
 10
0.0
 20
0.0
 30
0.0
  3
RSPT4_F
  1

  0
ARC
  5
2A
100
AcDbEntity
  8
USP-GEO
100
AcDbCircle
 10
0.6249500000000268
 20
3.125
 30
0.0
 40
0.1249999999989769
100
AcDbArc
 50
0.0000000000065138
 51
179.9999999999996
  0
ARC
  5
2B
100
AcDbEntity
  8
USP-GEO
100
AcDbCircle
 10
1.374950000000012
 20
3.125
 30
0.0000000000000001
 40
0.1249999999989795
100
AcDbArc
 50
0.0000000000032569
 51
179.9999999999991
  0
LINE
  5
2C
100
AcDbEntity
  8
USP-GEO
100
AcDbLine
 10
0.0
 20
2.697500000000026
 30
0.0
 11
-0.0000000000000284
 21
3.875000000000003
 31
0.0
210
0.0
220
1.0
230
0.0
  0
LINE
  5
2D
100
AcDbEntity
  8
USP-GEO
100
AcDbLine
 10
2.0
 20
3.875
 30
0.0000000000000002
 11
2.000000000000042
 21
2.697500000000019
 31
0.0000000000000002
210
0.0
220
1.0
230
0.0
  0
TEXT
  5
2E
100
AcDbEntity
  8
USP-TXT
100
AcDbText
 10
-1.375049999999972
 20
-0.5988264174558396
 30
0.0000000000000001
 40
0.25
  1
RSPT4 -  FRONT VIEW
 72
     1
 11
0.9999500000000267
 21
-0.5988264174558396
 31
0.0000000000000001
100
AcDbText
  0
LINE
  5
2F
100
AcDbEntity
  8
USP-GEO
100
AcDbLine
 10
1.739950000000035
 20
-0.0000000000000071
 30
0.0000000000000002
 11
0.2599500000000177
 21
-0.0000000000000071
 31
0.0
210
0.0
220
1.0
230
0.0
  0
CIRCLE
  5
30
100
AcDbEntity
  8
USP-GEO
100
AcDbCircle
 10
1.481371135010533
 20
0.2326975061473533
 30
0.0000000000000001
 40
0.078
  0
LINE
  5
31
100
AcDbEntity
  8
USP-GEO
100
AcDbLine
 10
0.2099500000000205
 20
0.8125000000000284
 30
0.0
 11
0.2099500000000205
 21
0.0099999999999909
 31
0.0
210
0.0
220
1.0
230
0.0
  0
ARC
  5
32
100
AcDbEntity
  8
USP-GEO
100
AcDbCircle
 10
0.2599500000000035
 20
0.0099999999999909
 30
0.0
 40
0.05
100
AcDbArc
 50
180.0
 51
191.5369590328048
  0
LINE
  5
33
100
AcDbEntity
  8
USP-GEO
100
AcDbLine
 10
0.2109602051443531
 20
0.0
 30
0.0
 11
0.2599500000000177
 21
0.0
 31
0.0
210
0.0
220
1.0
230
0.0
  0
LINE
  5
34
100
AcDbEntity
  8
USP-GEO
100
AcDbLine
 10
0.2899500000000188
 20
0.8125000000000284
 30
0.0
 11
0.2899500000000188
 21
2.727500000000013
 31
0.0
210
0.0
220
1.0
230
0.0
  0
LINE
  5
35
100
AcDbEntity
  8
USP-GEO
100
AcDbLine
 10
1.499949999998989
 20
3.125000000000007
 30
0.0000000000000002
 11
1.499949999998989
 21
0.9999999999999928
 31
0.0000000000000002
210
0.0
220
1.0
230
0.0
  0
LINE
  5
36
100
AcDbEntity
  8
USP-GEO
100
AcDbLine
 10
1.249950000001035
 20
0.9999999999999928
 30
0.0000000000000001
 11
1.249950000001035
 21
3.125
 31
0.0000000000000001
210
0.0
220
1.0
230
0.0
  0
LINE
  5
37
100
AcDbEntity
  8
USP-GEO
100
AcDbLine
 10
0.7499499999989894
 20
3.125000000000014
 30
0.0000000000000001
 11
0.7499499999989894
 21
0.9999999999999857
 31
0.0000000000000001
210
0.0
220
1.0
230
0.0
  0
LINE
  5
38
100
AcDbEntity
  8
USP-GEO
100
AcDbLine
 10
0.49995000000105
 20
1.0
 30
0.0
 11
0.49995000000105
 21
3.125
 31
0.0
210
0.0
220
1.0
230
0.0
  0
ARC
  5
39
100
AcDbEntity
  8
USP-GEO
100
AcDbCircle
 10
0.6249500000000268
 20
0.9999999999999857
 30
0.0
 40
0.1249999999989769
100
AcDbArc
 50
179.9999999999926
 51
0.0
  0
CIRCLE
  5
3A
100
AcDbEntity
  8
USP-GEO
100
AcDbCircle
 10
0.5624500000000268
 20
0.2499999999999858
 30
0.0
 40
0.078
  0
LINE
  5
3B
100
AcDbEntity
  8
USP-GEO
100
AcDbLine
 10
0.289950000000033
 20
0.8125000000000213
 30
0.0
 11
0.2599500000000035
 21
0.8125000000000213
 31
0.0
210
0.0
220
1.0
230
0.0
  0
LINE
  5
3C
100
AcDbEntity
  8
USP-GEO
100
AcDbLine
 10
0.2599500000000035
 20
0.8125000000000284
 30
0.0
 11
0.2099500000000178
 21
0.8125000000000284
 31
0.0
210
0.0
220
1.0
230
0.0
  0
ARC
  5
3D
100
AcDbEntity
  8
USP-GEO
100
AcDbCircle
 10
1.374950000000012
 20
0.9999999999999928
 30
0.0000000000000001
 40
0.1249999999989795
100
AcDbArc
 50
179.9999999999991
 51
0.0
  0
CIRCLE
  5
3E
100
AcDbEntity
  8
USP-GEO
100
AcDbCircle
 10
1.000035750981055
 20
0.3213075000642007
 30
0.0000000000000001
 40
0.125
  0
CIRCLE
  5
3F
100
AcDbEntity
  8
USP-GEO
100
AcDbCircle
 10
0.7752922700210548
 20
0.7433487932207044
 30
0.0000000000000001
 40
0.078
  0
CIRCLE
  5
40
100
AcDbEntity
  8
USP-GEO
100
AcDbCircle
 10
1.209967391271462
 20
0.6407813137121395
 30
0.0000000000000001
 40
0.078
  0
LINE
  5
41
100
AcDbEntity
  8
USP-GEO
100
AcDbLine
 10
0.0
 20
2.647500000000015
 30
0.0
 11
0.1500240000000019
 21
2.647500000000015
 31
0.0
210
0.0
220
1.0
230
0.0
  0
LINE
  5
42
100
AcDbEntity
  8
USP-GEO
100
AcDbLine
 10
-0.0000000000000151
 20
2.697500000000026
 30
0.0
 11
-0.0000000000000133
 21
2.647500000000022
 31
0.0
210
0.0
220
1.0
230
0.0
  0
LINE
  5
43
100
AcDbEntity
  8
USP-GEO
100
AcDbLine
 10
0.1561750000000215
 20
2.687500000000014
 30
0.0
 11
0.1624260000000248
 21
2.697500000000019
 31
0.0
210
0.0
220
1.0
230
0.0
  0
LINE
  5
44
100
AcDbEntity
  8
USP-GEO
100
AcDbLine
 10
0.1562750000000221
 20
2.687500000000014
 30
0.0
 11
0.1561750000000188
 21
2.687500000000014
 31
0.0
210
0.0
220
1.0
230
0.0
  0
LINE
  5
45
100
AcDbEntity
  8
USP-GEO
100
AcDbLine
 10
0.1562750000000364
 20
2.648510205144354
 30
0.0
 11
0.1562750000000364
 21
2.687500000000021
 31
0.0
210
0.0
220
1.0
230
0.0
  0
ELLIPSE
  5
46
100
AcDbEntity
  8
USP-GEO
100
AcDbEllipse
 10
0.1500239999999877
 20
2.697500000000019
 30
0.0
 11
0.0
 21
0.05
 31
0.0
210
-0.0000000000000001
220
0.0
230
1.0
 40
0.6251000000000318
 41
-3.141592653589537
 42
-2.940234732799066
  0
LINE
  5
47
100
AcDbEntity
  8
USP-GEO
100
AcDbLine
 10
0.1624260000000222
 20
2.697500000000019
 30
0.0
 11
0.1811790000000135
 21
2.727500000000013
 31
0.0
210
0.0
220
1.0
230
0.0
  0
LINE
  5
48
100
AcDbEntity
  8
USP-GEO
100
AcDbLine
 10
0.1811790000000002
 20
2.72750000000002
 30
0.0
 11
0.2899500000000188
 21
2.72750000000002
 31
0.0
210
0.0
220
1.0
230
0.0
  0
LINE
  5
49
100
AcDbEntity
  8
USP-GEO
100
AcDbLine
 10
1.070696429099768
 20
2.133807500064193
 30
0.0000000000000001
 11
0.9999857509811098
 21
2.063096821945535
 31
0.0000000000000001
210
0.0
220
1.0
230
0.0
  0
LINE
  5
4A
100
AcDbEntity
  8
USP-GEO
100
AcDbLine
 10
0.9999857509811107
 20
2.204518178182851
 30
0.0000000000000001
 11
1.070696429099768
 21
2.133807500064193
 31
0.0000000000000001
210
0.0
220
1.0
230
0.0
  0
LINE
  5
4B
100
AcDbEntity
  8
USP-GEO
100
AcDbLine
 10
0.9999857509811107
 20
2.063096821945535
 30
0.0000000000000001
 11
0.929275072862449
 21
2.133807500064186
 31
0.0000000000000001
210
0.0
220
1.0
230
0.0
  0
LINE
  5
4C
100
AcDbEntity
  8
USP-GEO
100
AcDbLine
 10
0.929275072862449
 20
2.133807500064193
 30
0.0000000000000001
 11
0.9999857509811125
 21
2.204518178182851
 31
0.0000000000000001
210
0.0
220
1.0
230
0.0
  0
LINE
  5
4D
100
AcDbEntity
  8
USP-GEO
100
AcDbLine
 10
1.789950000000033
 20
0.0100000000000336
 30
0.0000000000000002
 11
1.789950000000033
 21
0.8125000000000142
 31
0.0000000000000002
210
0.0
220
1.0
230
0.0
  0
LINE
  5
4E
100
AcDbEntity
  8
USP-GEO
100
AcDbLine
 10
1.739950000000035
 20
-0.0000000000000071
 30
0.0000000000000002
 11
1.788939794855697
 21
-0.0000000000000071
 31
0.0000000000000002
210
0.0
220
1.0
230
0.0
  0
ARC
  5
4F
100
AcDbEntity
  8
USP-GEO
100
AcDbCircle
 10
1.739950000000021
 20
0.0100000000000336
 30
0.0000000000000002
 40
0.05
100
AcDbArc
 50
348.4630409671698
 51
0.0000000000081422
  0
LINE
  5
50
100
AcDbEntity
  8
USP-GEO
100
AcDbLine
 10
1.70995
 20
0.8125000000000142
 30
0.0000000000000002
 11
1.70995000000002
 21
2.72750000000002
 31
0.0000000000000002
210
0.0
220
1.0
230
0.0
  0
LINE
  5
51
100
AcDbEntity
  8
USP-GEO
100
AcDbLine
 10
1.789950000000035
 20
0.8125000000000142
 30
0.0000000000000002
 11
1.739950000000021
 21
0.8125000000000142
 31
0.0000000000000002
210
0.0
220
1.0
230
0.0
  0
LINE
  5
52
100
AcDbEntity
  8
USP-GEO
100
AcDbLine
 10
1.739950000000021
 20
0.8125000000000142
 30
0.0000000000000002
 11
1.709950000000006
 21
0.8125000000000142
 31
0.0000000000000002
210
0.0
220
1.0
230
0.0
  0
LINE
  5
53
100
AcDbEntity
  8
USP-GEO
100
AcDbLine
 10
1.818721000000024
 20
2.727500000000006
 30
0.0000000000000002
 11
1.70995000000002
 21
2.727500000000006
 31
0.0000000000000002
210
0.0
220
1.0
230
0.0
  0
LINE
  5
54
100
AcDbEntity
  8
USP-GEO
100
AcDbLine
 10
2.000000000000043
 20
2.647500000000015
 30
0.0000000000000002
 11
2.000000000000041
 21
2.697500000000019
 31
0.0000000000000002
210
0.0
220
1.0
230
0.0
  0
ELLIPSE
  5
55
100
AcDbEntity
  8
USP-GEO
100
AcDbEllipse
 10
1.849976000000026
 20
2.697500000000019
 30
0.0000000000000002
 11
0.0
 21
-0.05
 31
0.0
210
-0.0000000000000001
220
0.0
230
1.0
 40
0.6251000000000319
 41
-0.2013579207903939
 42
-0.0000000000000002
  0
LINE
  5
56
100
AcDbEntity
  8
USP-GEO
100
AcDbLine
 10
1.843725000000034
 20
2.687500000000014
 30
0.0000000000000002
 11
1.843725000000034
 21
2.648510205144354
 31
0.0000000000000002
210
0.0
220
1.0
230
0.0
  0
LINE
  5
57
100
AcDbEntity
  8
USP-GEO
100
AcDbLine
 10
1.837474000000014
 20
2.697500000000019
 30
0.0000000000000002
 11
1.843725000000017
 21
2.687500000000014
 31
0.0000000000000002
210
0.0
220
1.0
230
0.0
  0
LINE
  5
58
100
AcDbEntity
  8
USP-GEO
100
AcDbLine
 10
1.837474000000027
 20
2.697500000000026
 30
0.0000000000000002
 11
1.818721000000038
 21
2.727500000000013
 31
0.0000000000000002
210
0.0
220
1.0
230
0.0
  0
LINE
  5
59
100
AcDbEntity
  8
USP-GEO
100
AcDbLine
 10
1.849976000000026
 20
2.647500000000022
 30
0.0000000000000002
 11
2.000000000000042
 21
2.647500000000022
 31
0.0000000000000002
210
0.0
220
1.0
230
0.0
  0
LINE
  5
5A
100
AcDbEntity
  8
USP-GEO
100
AcDbLine
 10
1.75
 20
4.124999999999992
 30
0.0000000000000002
 11
0.2499999999999858
 21
4.125000000000003
 31
0.0
210
0.0
220
1.0
230
0.0
  0
CIRCLE
  5
5B
100
AcDbEntity
  8
USP-GEO
100
AcDbCircle
 10
0.6250000000000427
 20
3.750000000000014
 30
0.0
 40
0.078
  0
LINE
  5
5C
100
AcDbEntity
  8
USP-GEO
100
AcDbLine
 10
0.2499999999999858
 20
4.125000000000003
 30
0.0
 11
-0.0000000000000142
 21
3.875000000000003
 31
0.0
210
0.0
220
1.0
230
0.0
  0
CIRCLE
  5
5D
100
AcDbEntity
  8
USP-GEO
100
AcDbCircle
 10
0.2725173912714922
 20
3.375000000000007
 30
0.0
 40
0.078
  0
CIRCLE
  5
5E
100
AcDbEntity
  8
USP-GEO
100
AcDbCircle
 10
0.9999999999999715
 20
3.875000000000003
 30
0.0000000000000001
 40
0.125
  0
CIRCLE
  5
5F
100
AcDbEntity
  8
USP-GEO
100
AcDbCircle
 10
1.125000000000056
 20
3.500000000000017
 30
0.0000000000000001
 40
0.078
  0
CIRCLE
  5
60
100
AcDbEntity
  8
USP-GEO
100
AcDbCircle
 10
1.625000000000056
 20
3.875000000000014
 30
0.0000000000000002
 40
0.078
  0
LINE
  5
61
100
AcDbEntity
  8
USP-GEO
100
AcDbLine
 10
2.0
 20
3.875
 30
0.0000000000000002
 11
1.749999999999996
 21
4.124999999999989
 31
0.0000000000000002
210
0.0
220
1.0
230
0.0
  0
ENDBLK
  5
63
100
AcDbEntity
  8
0
100
AcDbBlockEnd
  0
BLOCK
  5
7D
100
AcDbEntity
  8
0
100
AcDbBlockBegin
  2
RSPT4_S
 70
     0
 10
0.0
 20
0.0
 30
0.0
  3
RSPT4_S
  1

  0
ARC
  5
66
100
AcDbEntity
  8
USP-GEO
100
AcDbCircle
 10
0.2323437500013199
 20
3.125
 30
0.0
 40
0.1376562499985147
100
AcDbArc
 50
0.0
 51
65.23848614270936
  0
LINE
  5
67
100
AcDbEntity
  8
USP-GEO
100
AcDbLine
 10
0.289999999999992
 20
2.697500000000026
 30
0.0
 11
0.289999999999992
 21
3.875000000000003
 31
0.0
210
0.0
220
1.0
230
0.0
  0
LINE
  5
68
100
AcDbEntity
  8
USP-GEO
100
AcDbLine
 10
0.2499999999999858
 20
3.875000000000007
 30
0.0
 11
0.2499999999999858
 21
2.687500000000021
 31
0.0
210
0.0
220
1.0
230
0.0
  0
TEXT
  5
69
100
AcDbEntity
  8
USP-TXT
100
AcDbText
 10
-1.938333333333338
 20
-0.5988264174558467
 30
0.0
 40
0.25
  1
RSPT4 - SIDE VIEW
 72
     1
 11
0.144999999999996
 21
-0.5988264174558467
 31
0.0
100
AcDbText
  0
LINE
  5
6A
100
AcDbEntity
  8
USP-GEO
100
AcDbLine
 10
0.2900000000000062
 20
-0.0000000000000142
 30
0.0
 11
0.2900000000000062
 21
0.8125000000000213
 31
0.0
210
0.0
220
1.0
230
0.0
  0
LINE
  5
6B
100
AcDbEntity
  8
USP-GEO
100
AcDbLine
 10
0.0
 20
0.2499999999999858
 30
-0.0000000000000001
 11
0.2400000000000091
 21
0.0099999999999838
 31
0.0
210
0.0
220
1.0
230
0.0
  0
LINE
  5
6C
100
AcDbEntity
  8
USP-GEO
100
AcDbLine
 10
0.2400000000000091
 20
0.0099999999999909
 30
0.0
 11
0.25
 21
0.0
 31
0.0
210
0.0
220
1.0
230
0.0
  0
LINE
  5
6D
100
AcDbEntity
  8
USP-GEO
100
AcDbLine
 10
0.25
 20
0.0
 30
0.0
 11
0.2900000000000062
 21
0.0
 31
0.0
210
0.0
220
1.0
230
0.0
  0
LINE
  5
6E
100
AcDbEntity
  8
USP-GEO
100
AcDbLine
 10
0.369999999999834
 20
0.9999999999999857
 30
0.0
 11
0.369999999999834
 21
3.125
 31
0.0
210
0.0
220
1.0
230
0.0
  0
LINE
  5
6F
100
AcDbEntity
  8
USP-GEO
100
AcDbLine
 10
0.289999999999992
 20
0.8125000000000284
 30
0.0
 11
0.289999999999992
 21
2.697500000000019
 31
0.0
210
0.0
220
1.0
230
0.0
  0
LINE
  5
70
100
AcDbEntity
  8
USP-GEO
100
AcDbLine
 10
0.25
 20
0.8125000000000284
 30
0.0
 11
0.25
 21
2.648510205144361
 31
0.0
210
0.0
220
1.0
230
0.0
  0
ARC
  5
71
100
AcDbEntity
  8
USP-GEO
100
AcDbCircle
 10
0.2323437500013199
 20
0.9999999999999857
 30
0.0
 40
0.1376562499985147
100
AcDbArc
 50
294.7615138572905
 51
0.0
  0
LINE
  5
72
100
AcDbEntity
  8
USP-GEO
100
AcDbLine
 10
0.2400000000000091
 20
0.8125000000000284
 30
0.0
 11
-0.0000000000000284
 21
0.8125000000000284
 31
-0.0000000000000001
210
0.0
220
1.0
230
0.0
  0
LINE
  5
73
100
AcDbEntity
  8
USP-GEO
100
AcDbLine
 10
0.0
 20
0.2499999999999858
 30
-0.0000000000000001
 11
-0.0000000000000142
 21
0.8125000000000213
 31
-0.0000000000000001
210
0.0
220
1.0
230
0.0
  0
LINE
  5
74
100
AcDbEntity
  8
USP-GEO
100
AcDbLine
 10
0.2900000000000204
 20
0.8125000000000284
 30
0.0
 11
0.2400000000000091
 21
0.8125000000000284
 31
0.0
210
0.0
220
1.0
230
0.0
  0
LINE
  5
75
100
AcDbEntity
  8
USP-GEO
100
AcDbLine
 10
0.2499999999999858
 20
2.687500000000021
 30
0.0
 11
0.0
 21
2.687500000000021
 31
-0.0000000000000001
210
0.0
220
1.0
230
0.0
  0
LINE
  5
76
100
AcDbEntity
  8
USP-GEO
100
AcDbLine
 10
0.2399999999999807
 20
2.647500000000022
 30
0.0
 11
0.0
 21
2.647500000000022
 31
-0.0000000000000001
210
0.0
220
1.0
230
0.0
  0
LINE
  5
77
100
AcDbEntity
  8
USP-GEO
100
AcDbLine
 10
0.0
 20
2.647500000000022
 30
-0.0000000000000001
 11
0.0
 21
2.687500000000014
 31
-0.0000000000000001
210
0.0
220
1.0
230
0.0
  0
ARC
  5
78
100
AcDbEntity
  8
USP-GEO
100
AcDbCircle
 10
0.2399999999999949
 20
2.697500000000019
 30
0.0
 40
0.05
100
AcDbArc
 50
269.9999999999837
 51
0.0000000000081422
  0
LINE
  5
79
100
AcDbEntity
  8
USP-GEO
100
AcDbLine
 10
0.289999999999992
 20
4.125000000000003
 30
0.0
 11
0.289999999999992
 21
3.875000000000003
 31
0.0
210
0.0
220
1.0
230
0.0
  0
LINE
  5
7A
100
AcDbEntity
  8
USP-GEO
100
AcDbLine
 10
0.25
 20
4.125000000000007
 30
0.0
 11
0.25
 21
3.875000000000007
 31
0.0
210
0.0
220
1.0
230
0.0
  0
LINE
  5
7B
100
AcDbEntity
  8
USP-GEO
100
AcDbLine
 10
0.289999999999992
 20
3.875000000000003
 30
0.0
 11
0.25
 21
3.875000000000003
 31
0.0
210
0.0
220
1.0
230
0.0
  0
LINE
  5
7C
100
AcDbEntity
  8
USP-GEO
100
AcDbLine
 10
0.289999999999992
 20
4.125000000000003
 30
0.0
 11
0.25
 21
4.125000000000003
 31
0.0
210
0.0
220
1.0
230
0.0
  0
ENDBLK
  5
7E
100
AcDbEntity
  8
0
100
AcDbBlockEnd
  0
ENDSEC
  0
SECTION
  2
ENTITIES
  0
INSERT
  5
3
100
AcDbEntity
  8
USP
100
AcDbBlockReference
  2
RSPT4_T
 10
6.766959073781555
 20
7.075484754039507
 30
-0.0000000000000115
  0
INSERT
  5
28
100
AcDbEntity
  8
USP
100
AcDbBlockReference
  2
RSPT4_F
 10
6.766959073781569
 20
0.5991010547045264
 30
-0.0000000000000116
  0
INSERT
  5
64
100
AcDbEntity
  8
USP
100
AcDbBlockReference
  2
RSPT4_S
 10
1.938699516331587
 20
0.5991010843405818
 30
-0.0000000000000121
  0
ENDSEC
  0
SECTION
  2
OBJECTS
  0
DICTIONARY
  5
9A
102
{ACAD_XDICTIONARY
360
9B
102
}
100
AcDbDictionary
  3
ACAD_GROUP
350
97
  3
ACAD_MLINESTYLE
350
98
  0
DICTIONARY
  5
8C
100
AcDbDictionary
280
     1
  0
DICTIONARY
  5
8E
100
AcDbDictionary
280
     1
  0
DICTIONARY
  5
6
100
AcDbDictionary
280
     1
  0
DICTIONARY
  5
B
100
AcDbDictionary
280
     1
  0
DICTIONARY
  5
9F
100
AcDbDictionary
280
     1
  0
DICTIONARY
  5
7F
100
AcDbDictionary
280
     1
  3
ACAD_LAYOUTSELFREF
360
80
  0
DICTIONARY
  5
84
100
AcDbDictionary
280
     1
  3
ACAD_LAYOUTSELFREF
360
85
  0
DICTIONARY
  5
9B
100
AcDbDictionary
280
     1
  3
ACAD_XREC_ROUNDTRIP
360
9C
  0
DICTIONARY
  5
97
102
{ACAD_REACTORS
330
9A
102
}
100
AcDbDictionary
  0
DICTIONARY
  5
98
102
{ACAD_XDICTIONARY
360
99
102
}
102
{ACAD_REACTORS
330
9A
102
}
100
AcDbDictionary
  3
STANDARD
350
9D
  0
XRECORD
  5
80
102
{ACAD_REACTORS
330
7F
102
}
100
AcDbXrecord
340
2
  0
XRECORD
  5
85
102
{ACAD_REACTORS
330
84
102
}
100
AcDbXrecord
340
85
  0
XRECORD
  5
9C
102
{ACAD_REACTORS
330
9B
102
}
100
AcDbXrecord
102
EXTNAMES
  1
ACDBVARIABLEDICTIONARY
  2
AcDbVariableDictionary
  0
DICTIONARY
  5
99
100
AcDbDictionary
280
     1
  0
MLINESTYLE
  5
9D
102
{ACAD_REACTORS
330
98
102
}
100
AcDbMlineStyle
  2
STANDARD
 70
     0
  3

 62
   256
 51
90.0
 52
90.0
 71
     2
 49
0.5
 62
   256
  6
BYLAYER
 49
-0.5
 62
   256
  6
BYLAYER
  0
ENDSEC
  0
EOF
