  0
SECTION
  2
HEADER
  9
$ACADVER
  1
AC1015
  9
$ACADMAINTVER
 70
    20
  9
$DWGCODEPAGE
  3
ANSI_1252
  9
$INSBASE
 10
0.0
 20
0.0
 30
0.0
  9
$EXTMIN
 10
0.3402053626791162
 20
0.329347071950723
 30
-0.0015258207003583
  9
$EXTMAX
 10
2.452037689548908
 20
2.45755983737217
 30
0.0000000349246037
  9
$LIMMIN
 10
0.0
 20
0.0
  9
$LIMMAX
 10
0.0
 20
0.0
  9
$ORTHOMODE
 70
     0
  9
$REGENMODE
 70
     1
  9
$FILLMODE
 70
     1
  9
$QTEXTMODE
 70
     0
  9
$MIRRTEXT
 70
     1
  9
$LTSCALE
 40
1.0
  9
$ATTMODE
 70
     1
  9
$TEXTSIZE
 40
0.2
  9
$TRACEWID
 40
0.05
  9
$TEXTSTYLE
  7
Standard
  9
$CLAYER
  8
0
  9
$CELTYPE
  6
ByLayer
  9
$CECOLOR
 62
   256
  9
$CELTSCALE
 40
1.0
  9
$DISPSILH
 70
     0
  9
$DIMSCALE
 40
1.0
  9
$DIMASZ
 40
0.156
  9
$DIMEXO
 40
0.05
  9
$DIMDLI
 40
0.38
  9
$DIMRND
 40
0.0
  9
$DIMDLE
 40
0.0
  9
$DIMEXE
 40
0.125
  9
$DIMTP
 40
0.0
  9
$DIMTM
 40
0.0
  9
$DIMTXT
 40
0.125
  9
$DIMCEN
 40
0.09
  9
$DIMTSZ
 40
0.0
  9
$DIMTOL
 70
     0
  9
$DIMLIM
 70
     0
  9
$DIMTIH
 70
     1
  9
$DIMTOH
 70
     1
  9
$DIMSE1
 70
     0
  9
$DIMSE2
 70
     0
  9
$DIMTAD
 70
     0
  9
$DIMZIN
 70
     0
  9
$DIMBLK
  1

  9
$DIMASO
 70
     1
  9
$DIMSHO
 70
     1
  9
$DIMPOST
  1

  9
$DIMAPOST
  1

  9
$DIMALT
 70
     0
  9
$DIMALTD
 70
     2
  9
$DIMALTF
 40
25.4
  9
$DIMLFAC
 40
7.0
  9
$DIMTOFL
 70
     0
  9
$DIMTVP
 40
0.0
  9
$DIMTIX
 70
     0
  9
$DIMSOXD
 70
     0
  9
$DIMSAH
 70
     0
  9
$DIMBLK1
  1

  9
$DIMBLK2
  1

  9
$DIMSTYLE
  2
Standard
  9
$DIMCLRD
 70
     0
  9
$DIMCLRE
 70
     0
  9
$DIMCLRT
 70
     0
  9
$DIMTFAC
 40
1.0
  9
$DIMGAP
 40
0.06
  9
$DIMJUST
 70
     0
  9
$DIMSD1
 70
     0
  9
$DIMSD2
 70
     0
  9
$DIMTOLJ
 70
     1
  9
$DIMTZIN
 70
     0
  9
$DIMALTZ
 70
     0
  9
$DIMALTTZ
 70
     0
  9
$DIMUPT
 70
     0
  9
$DIMDEC
 70
     4
  9
$DIMTDEC
 70
     4
  9
$DIMALTU
 70
     2
  9
$DIMALTTD
 70
     2
  9
$DIMTXSTY
  7
Standard
  9
$DIMAUNIT
 70
     0
  9
$DIMADEC
 70
     0
  9
$DIMALTRND
 40
0.0
  9
$DIMAZIN
 70
     0
  9
$DIMDSEP
 70
    46
  9
$DIMATFIT
 70
     3
  9
$DIMFRAC
 70
     0
  9
$DIMLDRBLK
  1

  9
$DIMLUNIT
 70
     2
  9
$DIMLWD
 70
    -2
  9
$DIMLWE
 70
    -2
  9
$DIMTMOVE
 70
     0
  9
$LUNITS
 70
     2
  9
$LUPREC
 70
     4
  9
$SKETCHINC
 40
0.1
  9
$FILLETRAD
 40
0.5
  9
$AUNITS
 70
     0
  9
$AUPREC
 70
     0
  9
$MENU
  1
.
  9
$ELEVATION
 40
0.0
  9
$PELEVATION
 40
0.0
  9
$THICKNESS
 40
0.0
  9
$LIMCHECK
 70
     0
  9
$CHAMFERA
 40
0.5
  9
$CHAMFERB
 40
0.5
  9
$CHAMFERC
 40
1.0
  9
$CHAMFERD
 40
0.0
  9
$SKPOLY
 70
     0
  9
$TDCREATE
 40
2454659.424575857
  9
$TDUCREATE
 40
2454659.674575857
  9
$TDUPDATE
 40
2454769.380616319
  9
$TDUUPDATE
 40
2454769.630616319
  9
$TDINDWG
 40
0.0073645370
  9
$TDUSRTIMER
 40
0.0073645370
  9
$USRTIMER
 70
     1
  9
$ANGBASE
 50
0.0
  9
$ANGDIR
 70
     0
  9
$PDMODE
 70
     0
  9
$PDSIZE
 40
-1.0
  9
$PLINEWID
 40
0.0
  9
$SPLFRAME
 70
     0
  9
$SPLINETYPE
 70
     6
  9
$SPLINESEGS
 70
     8
  9
$HANDSEED
  5
16E
  9
$SURFTAB1
 70
     6
  9
$SURFTAB2
 70
     6
  9
$SURFTYPE
 70
     6
  9
$SURFU
 70
     6
  9
$SURFV
 70
     6
  9
$UCSBASE
  2

  9
$UCSNAME
  2

  9
$UCSORG
 10
0.0
 20
0.0
 30
0.0
  9
$UCSXDIR
 10
1.0
 20
0.0
 30
0.0
  9
$UCSYDIR
 10
0.0
 20
1.0
 30
0.0
  9
$UCSORTHOREF
  2

  9
$UCSORTHOVIEW
 70
     0
  9
$UCSORGTOP
 10
0.0
 20
0.0
 30
0.0
  9
$UCSORGBOTTOM
 10
0.0
 20
0.0
 30
0.0
  9
$UCSORGLEFT
 10
0.0
 20
0.0
 30
0.0
  9
$UCSORGRIGHT
 10
0.0
 20
0.0
 30
0.0
  9
$UCSORGFRONT
 10
0.0
 20
0.0
 30
0.0
  9
$UCSORGBACK
 10
0.0
 20
0.0
 30
0.0
  9
$PUCSBASE
  2

  9
$PUCSNAME
  2

  9
$PUCSORG
 10
0.0
 20
0.0
 30
0.0
  9
$PUCSXDIR
 10
1.0
 20
0.0
 30
0.0
  9
$PUCSYDIR
 10
0.0
 20
1.0
 30
0.0
  9
$PUCSORTHOREF
  2

  9
$PUCSORTHOVIEW
 70
     0
  9
$PUCSORGTOP
 10
0.0
 20
0.0
 30
0.0
  9
$PUCSORGBOTTOM
 10
0.0
 20
0.0
 30
0.0
  9
$PUCSORGLEFT
 10
0.0
 20
0.0
 30
0.0
  9
$PUCSORGRIGHT
 10
0.0
 20
0.0
 30
0.0
  9
$PUCSORGFRONT
 10
0.0
 20
0.0
 30
0.0
  9
$PUCSORGBACK
 10
0.0
 20
0.0
 30
0.0
  9
$USERI1
 70
     0
  9
$USERI2
 70
     0
  9
$USERI3
 70
     0
  9
$USERI4
 70
     0
  9
$USERI5
 70
     0
  9
$USERR1
 40
0.0
  9
$USERR2
 40
0.0
  9
$USERR3
 40
0.0
  9
$USERR4
 40
0.0
  9
$USERR5
 40
0.0
  9
$WORLDVIEW
 70
     1
  9
$SHADEDGE
 70
     3
  9
$SHADEDIF
 70
    70
  9
$TILEMODE
 70
     1
  9
$MAXACTVP
 70
    64
  9
$PINSBASE
 10
0.0
 20
0.0
 30
0.0
  9
$PLIMCHECK
 70
     0
  9
$PEXTMIN
 10
1.000000000000000E+20
 20
1.000000000000000E+20
 30
1.000000000000000E+20
  9
$PEXTMAX
 10
-1.000000000000000E+20
 20
-1.000000000000000E+20
 30
-1.000000000000000E+20
  9
$PLIMMIN
 10
0.0
 20
0.0
  9
$PLIMMAX
 10
12.0
 20
9.0
  9
$UNITMODE
 70
     0
  9
$VISRETAIN
 70
     1
  9
$PLINEGEN
 70
     0
  9
$PSLTSCALE
 70
     1
  9
$TREEDEPTH
 70
  3020
  9
$CMLSTYLE
  2
Standard
  9
$CMLJUST
 70
     0
  9
$CMLSCALE
 40
1.0
  9
$PROXYGRAPHICS
 70
     1
  9
$MEASUREMENT
 70
     0
  9
$CELWEIGHT
370
    -1
  9
$ENDCAPS
280
     0
  9
$JOINSTYLE
280
     0
  9
$LWDISPLAY
290
     1
  9
$INSUNITS
 70
     1
  9
$HYPERLINKBASE
  1

  9
$STYLESHEET
  1

  9
$XEDIT
290
     1
  9
$CEPSNTYPE
380
     0
  9
$PSTYLEMODE
290
     1
  9
$FINGERPRINTGUID
  2
{ABDD6753-72B2-4256-9807-E5309835DA26}
  9
$VERSIONGUID
  2
{09A85A42-A414-4EB9-A5A3-9CA8C5B0945D}
  9
$EXTNAMES
290
     1
  9
$PSVPSCALE
 40
0.0
  9
$OLESTARTUP
290
     0
  0
ENDSEC
  0
SECTION
  2
CLASSES
  0
CLASS
  1
ACDBDICTIONARYWDFLT
  2
AcDbDictionaryWithDefault
  3
ObjectDBX Classes
 90
        0
280
     0
281
     0
  0
CLASS
  1
ACDBPLACEHOLDER
  2
AcDbPlaceHolder
  3
ObjectDBX Classes
 90
        0
280
     0
281
     0
  0
CLASS
  1
LAYOUT
  2
AcDbLayout
  3
ObjectDBX Classes
 90
        0
280
     0
281
     0
  0
CLASS
  1
DICTIONARYVAR
  2
AcDbDictionaryVar
  3
ObjectDBX Classes
 90
        0
280
     0
281
     0
  0
ENDSEC
  0
SECTION
  2
TABLES
  0
TABLE
  2
VPORT
  5
8
330
0
100
AcDbSymbolTable
 70
     2
  0
VPORT
  5
164
330
8
100
AcDbSymbolTableRecord
100
AcDbViewportTableRecord
  2
*Active
 70
     0
 10
0.0
 20
0.0
 11
1.0
 21
1.0
 12
1.396121526114012
 22
1.393453454661446
 13
0.0
 23
0.0
 14
0.5
 24
0.5
 15
0.5
 25
0.5
 16
0.0
 26
0.0
 36
1.0
 17
0.0
 27
0.0
 37
0.0
 40
2.144417431148006
 41
1.532401524777636
 42
50.0
 43
0.0
 44
0.0
 50
0.0
 51
0.0
 71
     0
 72
  2000
 73
     1
 74
     3
 75
     0
 76
     0
 77
     0
 78
     0
281
     0
 65
     1
110
0.0
120
0.0
130
0.0
111
1.0
121
0.0
131
0.0
112
0.0
122
1.0
132
0.0
 79
     0
146
0.0
  0
ENDTAB
  0
TABLE
  2
LTYPE
  5
5
330
0
100
AcDbSymbolTable
 70
     6
  0
LTYPE
  5
14
330
5
100
AcDbSymbolTableRecord
100
AcDbLinetypeTableRecord
  2
ByBlock
 70
     0
  3

 72
    65
 73
     0
 40
0.0
  0
LTYPE
  5
15
330
5
100
AcDbSymbolTableRecord
100
AcDbLinetypeTableRecord
  2
ByLayer
 70
     0
  3

 72
    65
 73
     0
 40
0.0
  0
LTYPE
  5
16
330
5
100
AcDbSymbolTableRecord
100
AcDbLinetypeTableRecord
  2
Continuous
 70
     0
  3
Solid line
 72
    65
 73
     0
 40
0.0
  0
LTYPE
  5
2A
330
5
100
AcDbSymbolTableRecord
100
AcDbLinetypeTableRecord
  2
HIDDEN
 70
     0
  3
Hidden __ __ __ __ __ __ __ __ __ __ __ __ __ __
 72
    65
 73
     2
 40
0.075
 49
0.05
 74
     0
 49
-0.025
 74
     0
  0
LTYPE
  5
2B
330
5
100
AcDbSymbolTableRecord
100
AcDbLinetypeTableRecord
  2
PHANTOM
 70
     0
  3
Phantom ______  __  __  ______  __  __  ______
 72
    65
 73
     6
 40
0.5
 49
0.25
 74
     0
 49
-0.05
 74
     0
 49
0.05
 74
     0
 49
-0.05
 74
     0
 49
0.05
 74
     0
 49
-0.05
 74
     0
  0
LTYPE
  5
2C
330
5
100
AcDbSymbolTableRecord
100
AcDbLinetypeTableRecord
  2
CENTER
 70
     0
  3
Center ____ _ ____ _ ____ _ ____ _ ____ _ ____
 72
    65
 73
     4
 40
0.4
 49
0.25
 74
     0
 49
-0.05
 74
     0
 49
0.05
 74
     0
 49
-0.05
 74
     0
  0
LTYPE
  5
2D
330
5
100
AcDbSymbolTableRecord
100
AcDbLinetypeTableRecord
  2
CENTERX2
 70
     0
  3
Center (2x) ________  __  ________  __  _____
 72
    65
 73
     4
 40
0.8
 49
0.5
 74
     0
 49
-0.1
 74
     0
 49
0.1
 74
     0
 49
-0.1
 74
     0
  0
LTYPE
  5
2E
330
5
100
AcDbSymbolTableRecord
100
AcDbLinetypeTableRecord
  2
DOT2
 70
     0
  3
Dot (.5x) ........................................
 72
    65
 73
     2
 40
0.025
 49
0.0
 74
     0
 49
-0.025
 74
     0
  0
ENDTAB
  0
TABLE
  2
LAYER
  5
2
330
0
100
AcDbSymbolTable
 70
     6
  0
LAYER
  5
10
330
2
100
AcDbSymbolTableRecord
100
AcDbLayerTableRecord
  2
0
 70
     0
 62
     7
  6
Continuous
370
    -3
390
F
  0
LAYER
  5
2F
330
2
100
AcDbSymbolTableRecord
100
AcDbLayerTableRecord
  2
SLD-0
 70
     0
 62
   179
  6
Continuous
370
    -3
390
F
  0
LAYER
  5
30
330
2
100
AcDbSymbolTableRecord
100
AcDbLayerTableRecord
  2
DIM
 70
     0
 62
     3
  6
Continuous
370
    -3
390
F
  0
LAYER
  5
31
330
2
100
AcDbSymbolTableRecord
100
AcDbLayerTableRecord
  2
BORDER
 70
     0
 62
   179
  6
Continuous
370
    -3
390
F
  0
LAYER
  5
32
330
2
100
AcDbSymbolTableRecord
100
AcDbLayerTableRecord
  2
SLD-DEFPOINTS
 70
     0
 62
   179
  6
Continuous
370
    -3
390
F
  0
LAYER
  5
33
330
2
100
AcDbSymbolTableRecord
100
AcDbLayerTableRecord
  2
OBJ
 70
     0
 62
   179
  6
Continuous
370
    -3
390
F
  0
ENDTAB
  0
TABLE
  2
STYLE
  5
3
330
0
100
AcDbSymbolTable
 70
     2
  0
STYLE
  5
11
330
3
100
AcDbSymbolTableRecord
100
AcDbTextStyleTableRecord
  2
Standard
 70
     0
 40
0.0
 41
1.0
 50
0.0
 71
     0
 42
0.2
  3
txt
  4

  0
STYLE
  5
34
330
3
100
AcDbSymbolTableRecord
100
AcDbTextStyleTableRecord
  2
SLDTEXTSTYLE0
 70
     0
 40
0.0
 41
0.605
 50
0.0
 71
     0
 42
0.2
  3
TXT
  4

  0
ENDTAB
  0
TABLE
  2
VIEW
  5
6
330
0
100
AcDbSymbolTable
 70
     0
  0
ENDTAB
  0
TABLE
  2
UCS
  5
7
330
0
100
AcDbSymbolTable
 70
     0
  0
ENDTAB
  0
TABLE
  2
APPID
  5
9
330
0
100
AcDbSymbolTable
 70
     1
  0
APPID
  5
12
330
9
100
AcDbSymbolTableRecord
100
AcDbRegAppTableRecord
  2
ACAD
 70
     0
  0
ENDTAB
  0
TABLE
  2
DIMSTYLE
  5
A
330
0
100
AcDbSymbolTable
 70
     1
100
AcDbDimStyleTable
 71
     0
  0
DIMSTYLE
105
27
330
A
100
AcDbSymbolTableRecord
100
AcDbDimStyleTableRecord
  2
Standard
 70
     0
340
11
  0
ENDTAB
  0
TABLE
  2
BLOCK_RECORD
  5
1
330
0
100
AcDbSymbolTable
 70
     1
  0
BLOCK_RECORD
  5
1F
330
1
100
AcDbSymbolTableRecord
100
AcDbBlockTableRecord
  2
*Model_Space
340
22
  0
BLOCK_RECORD
  5
1B
330
1
100
AcDbSymbolTableRecord
100
AcDbBlockTableRecord
  2
*Paper_Space
340
1E
  0
BLOCK_RECORD
  5
23
330
1
100
AcDbSymbolTableRecord
100
AcDbBlockTableRecord
  2
*Paper_Space0
340
26
  0
ENDTAB
  0
ENDSEC
  0
SECTION
  2
BLOCKS
  0
BLOCK
  5
20
330
1F
100
AcDbEntity
  8
0
100
AcDbBlockBegin
  2
*Model_Space
 70
     0
 10
0.0
 20
0.0
 30
0.0
  3
*Model_Space
  1

  0
ENDBLK
  5
21
330
1F
100
AcDbEntity
  8
0
100
AcDbBlockEnd
  0
BLOCK
  5
1C
330
1B
100
AcDbEntity
 67
     1
  8
0
100
AcDbBlockBegin
  2
*Paper_Space
 70
     0
 10
0.0
 20
0.0
 30
0.0
  3
*Paper_Space
  1

  0
ENDBLK
  5
1D
330
1B
100
AcDbEntity
 67
     1
  8
0
100
AcDbBlockEnd
  0
BLOCK
  5
24
330
23
100
AcDbEntity
  8
0
100
AcDbBlockBegin
  2
*Paper_Space0
 70
     0
 10
0.0
 20
0.0
 30
0.0
  3
*Paper_Space0
  1

  0
ENDBLK
  5
25
330
23
100
AcDbEntity
  8
0
100
AcDbBlockEnd
  0
ENDSEC
  0
SECTION
  2
ENTITIES
  0
MTEXT
  5
35
330
1F
100
AcDbEntity
  8
0
100
AcDbMText
 10
1.657900355871886
 20
0.4232166524486171
 30
0.0
 40
0.09375
 41
0.0
 71
     1
 72
     1
  1
RBC-FRONT-VIEW
  7
SLDTEXTSTYLE0
 73
     1
 44
1.0
1001
ACAD
1000
MTEXTBEGIN
1070
    73
1070
     1
1070
    44
1040
1.0
1070
    74
1070
     0
1000
MTEXTEND
  0
MTEXT
  5
36
330
1F
100
AcDbEntity
  8
0
100
AcDbMText
 10
0.3402491103202855
 20
0.4232166524486177
 30
0.0
 40
0.09375
 41
0.0
 71
     1
 72
     1
  1
RBC-SIDE-VIEW
  7
SLDTEXTSTYLE0
 73
     1
 44
1.0
1001
ACAD
1000
MTEXTBEGIN
1070
    73
1070
     1
1070
    44
1040
1.0
1070
    74
1070
     0
1000
MTEXTEND
  0
MTEXT
  5
37
330
1F
100
AcDbEntity
  8
0
100
AcDbMText
 10
1.610711743772242
 20
2.263572524334737
 30
0.0
 40
0.09375
 41
0.0
 71
     1
 72
     1
  1
RBC-TOP-VIEW
  7
SLDTEXTSTYLE0
 73
     1
 44
1.0
1001
ACAD
1000
MTEXTBEGIN
1070
    73
1070
     1
1070
    44
1040
1.0
1070
    74
1070
     0
1000
MTEXTEND
  0
SPLINE
  5
38
330
1F
100
AcDbEntity
  8
0
  6
Continuous
 62
     7
370
    15
100
AcDbSpline
210
0.0
220
0.0
230
1.0
 70
     8
 71
     3
 72
    15
 73
    11
 74
     0
 42
0.0000000001
 43
0.0000000001
 40
0.0
 40
0.0
 40
0.0
 40
0.0
 40
0.1243285095938487
 40
0.2471560163611858
 40
0.368779749291336
 40
0.4907338624016474
 40
0.6136137718478431
 40
0.738957575722216
 40
0.8673105751912624
 40
1.0
 40
1.0
 40
1.0
 40
1.0
 10
1.996325245586611
 20
1.420821525274229
 30
0.0
 10
1.996570134163198
 20
1.421020825856342
 30
0.0
 10
1.997056954806663
 20
1.421417020889119
 30
0.0
 10
1.997845964824989
 20
1.421923914497394
 30
0.0
 10
1.998669745527328
 20
1.42235781525785
 30
0.0
 10
1.999532624766801
 20
1.42270863595964
 30
0.0
 10
2.000432666314835
 20
1.422982892051623
 30
0.0
 10
2.001370323876201
 20
1.423172887524513
 30
0.0
 10
2.002344721751353
 20
1.423296349866907
 30
0.0
 10
2.003007470843929
 20
1.423310468476475
 30
0.0
 10
2.003344350169692
 20
1.423317645050122
 30
0.0
  0
SPLINE
  5
39
330
1F
100
AcDbEntity
  8
0
  6
Continuous
 62
     7
370
    15
100
AcDbSpline
210
0.0
220
0.0
230
1.0
 70
     8
 71
     3
 72
    23
 73
    19
 74
     0
 42
0.0000000001
 43
0.0000000001
 40
0.0
 40
0.0
 40
0.0
 40
0.0
 40
0.0696628008990817
 40
0.1377495622582736
 40
0.2039167435177803
 40
0.2687798623293404
 40
0.3324137064772257
 40
0.39475354044714
 40
0.4561800316591685
 40
0.5169956491967194
 40
0.5773959379659517
 40
0.6371983435092762
 40
0.6969991842614565
 40
0.7567561942255559
 40
0.8165539052726062
 40
0.8769479965978707
 40
0.9381317879205919
 40
1.0
 40
1.0
 40
1.0
 40
1.0
 10
1.992882729687156
 20
1.412702235197507
 30
0.0
 10
1.992884203211092
 20
1.412913954359812
 30
0.0
 10
1.992887116922205
 20
1.413332602785553
 30
0.0
 10
1.992934316963886
 20
1.413950706000469
 30
0.0
 10
1.992998713684415
 20
1.414552447174831
 30
0.0
 10
1.993095677301198
 20
1.415136106487917
 30
0.0
 10
1.993210099911174
 20
1.415704869002239
 30
0.0
 10
1.993363481556986
 20
1.416253578701288
 30
0.0
 10
1.993535299141891
 20
1.416787635002517
 30
0.0
 10
1.993737239449791
 20
1.417304892261775
 30
0.0
 10
1.993965114492184
 20
1.417805790460856
 30
0.0
 10
1.994222659817837
 20
1.418288714034354
 30
0.0
 10
1.994507709675325
 20
1.418753440875742
 30
0.0
 10
1.994813980825064
 20
1.419204539980666
 30
0.0
 10
1.995151310981816
 20
1.419635347537893
 30
0.0
 10
1.995515015337854
 20
1.42004959683681
 30
0.0
 10
1.995903868041742
 20
1.420449610763877
 30
0.0
 10
1.996184266541981
 20
1.420697094931435
 30
0.0
 10
1.996325245586611
 20
1.420821525274229
 30
0.0
  0
SPLINE
  5
3A
330
1F
100
AcDbEntity
  8
0
  6
Continuous
 62
     7
370
    15
100
AcDbSpline
210
0.0
220
0.0
230
1.0
 70
     8
 71
     3
 72
    23
 73
    19
 74
     0
 42
0.0000000001
 43
0.0000000001
 40
0.0
 40
0.0
 40
0.0
 40
0.0
 40
0.0616722703117625
 40
0.1230491339327917
 40
0.1834691444358891
 40
0.2437187210612123
 40
0.3042692043043866
 40
0.3648512749860892
 40
0.4255910364573348
 40
0.4870341012046494
 40
0.5488612818043548
 40
0.6111560005098296
 40
0.6735389508769552
 40
0.7369698525233032
 40
0.8007916415610006
 40
0.8660168723543677
 40
0.9321029150509998
 40
0.9999999999999998
 40
0.9999999999999998
 40
0.9999999999999998
 40
0.9999999999999998
 10
1.997011382776193
 20
1.404137350279276
 30
0.0
 10
1.996850873773365
 20
1.404261748932381
 30
0.0
 10
1.996530624596765
 20
1.404509950376071
 30
0.0
 10
1.996079156732661
 20
1.40491185393306
 30
0.0
 10
1.995654484414262
 20
1.405335226659205
 30
0.0
 10
1.995260122404571
 20
1.405783268067389
 30
0.0
 10
1.994887837987518
 20
1.406250619578958
 30
0.0
 10
1.994550111700936
 20
1.406745513357321
 30
0.0
 10
1.994236655862158
 20
1.407259401625132
 30
0.0
 10
1.993953436319345
 20
1.407795276316552
 30
0.0
 10
1.993699498919068
 20
1.408351378084062
 30
0.0
 10
1.993485117944851
 20
1.40892712820195
 30
0.0
 10
1.993297788959926
 20
1.4095176488829
 30
0.0
 10
1.993144694366102
 20
1.410123237516768
 30
0.0
 10
1.993025010911284
 20
1.410745917208075
 30
0.0
 10
1.99294504856914
 20
1.411383551528457
 30
0.0
 10
1.99289025355034
 20
1.412037486455789
 30
0.0
 10
1.992885260140098
 20
1.412478664490868
 30
0.0
 10
1.992882729687156
 20
1.412702235197507
 30
0.0
  0
LINE
  5
3B
330
1F
100
AcDbEntity
  8
0
  6
Continuous
 62
     7
370
    15
100
AcDbLine
 10
1.9981825479791
 20
1.405683130614426
 30
0.0
 11
1.997011382776193
 21
1.404137350279276
 31
0.0
  0
SPLINE
  5
3C
330
1F
100
AcDbEntity
  8
0
  6
Continuous
 62
     7
370
    15
100
AcDbSpline
210
0.0
220
0.0
230
1.0
 70
     8
 71
     3
 72
    15
 73
    11
 74
     0
 42
0.0000000001
 43
0.0000000001
 40
0.0
 40
0.0
 40
0.0
 40
0.0
 40
0.1285151895116619
 40
0.252948636352651
 40
0.3747547340060014
 40
0.4959397538670517
 40
0.6171806414298917
 40
0.7409094692781357
 40
0.8678111481862016
 40
1.0
 40
1.0
 40
1.0
 40
1.0
 10
1.994901708084087
 20
1.412714065149052
 30
0.0
 10
1.994911206282911
 20
1.412370405480921
 30
0.0
 10
1.994929901010355
 20
1.411694001043801
 30
0.0
 10
1.995088276989674
 20
1.410702054888901
 30
0.0
 10
1.995345070678285
 20
1.409752472405049
 30
0.0
 10
1.995704451568719
 20
1.408845202514491
 30
0.0
 10
1.996171635415191
 20
1.407982802929536
 30
0.0
 10
1.996737990181262
 20
1.407163924075155
 30
0.0
 10
1.997408903188915
 20
1.406387874747236
 30
0.0
 10
1.997921181750541
 20
1.405921219616548
 30
0.0
 10
1.9981825479791
 20
1.405683130614426
 30
0.0
  0
SPLINE
  5
3D
330
1F
100
AcDbEntity
  8
0
  6
Continuous
 62
     7
370
    15
100
AcDbSpline
210
0.0
220
0.0
230
1.0
 70
     8
 71
     3
 72
    23
 73
    19
 74
     0
 42
0.0000000001
 43
0.0000000001
 40
0.0
 40
0.0
 40
0.0
 40
0.0
 40
0.0643232165798417
 40
0.1262901037035552
 40
0.1867264692161323
 40
0.2461464323353439
 40
0.3055756426461367
 40
0.3654293856180508
 40
0.4263263089482592
 40
0.4888399064006391
 40
0.5517249718140472
 40
0.6139185964661556
 40
0.6754837657683935
 40
0.737333897099283
 40
0.8002290443945229
 40
0.8645022981233234
 40
0.931040739155695
 40
1.0
 40
1.0
 40
1.0
 40
1.0
 10
2.003210277385521
 20
1.421551038952807
 30
0.0
 10
2.002919325079993
 20
1.421543942107903
 30
0.0
 10
2.002348078820998
 20
1.421530008394284
 30
0.0
 10
2.001511348727965
 20
1.421406002015879
 30
0.0
 10
2.000709770135275
 20
1.421217559432703
 30
0.0
 10
1.999948353699331
 20
1.420935132115855
 30
0.0
 10
1.999217710515652
 20
1.420586880987843
 30
0.0
 10
1.998530202903693
 20
1.42014683255418
 30
0.0
 10
1.997875441573482
 20
1.419637178238295
 30
0.0
 10
1.997268900809992
 20
1.419050707937614
 30
0.0
 10
1.996714830363996
 20
1.41840725565421
 30
0.0
 10
1.996226919331874
 20
1.417716884947833
 30
0.0
 10
1.995820198958047
 20
1.416981315275256
 30
0.0
 10
1.995481751564817
 20
1.416208668311327
 30
0.0
 10
1.995221589991951
 20
1.415392998379276
 30
0.0
 10
1.995038439691033
 20
1.414535772268962
 30
0.0
 10
1.994918967359528
 20
1.413638854410413
 30
0.0
 10
1.994907529293897
 20
1.413025978145564
 30
0.0
 10
1.994901708084087
 20
1.412714065149052
 30
0.0
  0
SPLINE
  5
3E
330
1F
100
AcDbEntity
  8
0
  6
Continuous
 62
     7
370
    15
100
AcDbSpline
210
0.0
220
0.0
230
1.0
 70
     8
 71
     3
 72
    31
 73
    27
 74
     0
 42
0.0000000001
 43
0.0000000001
 40
0.0
 40
0.0
 40
0.0
 40
0.0
 40
0.043958361884224
 40
0.0875087487067709
 40
0.1304728755204261
 40
0.173051756039511
 40
0.2154245498493581
 40
0.2576746310036811
 40
0.3001808891314077
 40
0.3431530051835289
 40
0.3859600414280027
 40
0.4277238862206541
 40
0.4688593405399533
 40
0.5095363854353071
 40
0.5497252456581481
 40
0.5898253874622571
 40
0.6302537701964677
 40
0.6707203449665502
 40
0.7112388454951981
 40
0.7516077465768634
 40
0.7917592193211426
 40
0.8324457572323254
 40
0.873309093306196
 40
0.9145362423534935
 40
0.9569201742418396
 40
1.0
 40
1.0
 40
1.0
 40
1.0
 10
2.011558279858769
 20
1.412836307981678
 30
0.0
 10
2.011555997601825
 20
1.413033624477124
 30
0.0
 10
2.011551454269435
 20
1.41342642618482
 30
0.0
 10
2.011491936693858
 20
1.414009411376022
 30
0.0
 10
2.011407320629194
 20
1.414582614598449
 30
0.0
 10
2.011284821306858
 20
1.415143904312467
 30
0.0
 10
2.011125338303131
 20
1.415692166051784
 30
0.0
 10
2.010938307309618
 20
1.416231574375354
 30
0.0
 10
2.010705566218932
 20
1.416755776492967
 30
0.0
 10
2.010448534756535
 20
1.417271081041713
 30
0.0
 10
2.010158136441531
 20
1.417764754598316
 30
0.0
 10
2.009841487037477
 20
1.418231953570454
 30
0.0
 10
2.009501694412254
 20
1.418670543547114
 30
0.0
 10
2.009139635671241
 20
1.419081739872159
 30
0.0
 10
2.008750811153559
 20
1.419461032889248
 30
0.0
 10
2.008339794918716
 20
1.419814501334767
 30
0.0
 10
2.007901639875557
 20
1.420135774874171
 30
0.0
 10
2.007444563253219
 20
1.420432748245
 30
0.0
 10
2.00696789323781
 20
1.42069700143038
 30
0.0
 10
2.006474628481206
 20
1.420925196850539
 30
0.0
 10
2.005966654913112
 20
1.421120779298813
 30
0.0
 10
2.005442931916851
 20
1.421276973624052
 30
0.0
 10
2.004905520469895
 20
1.421400173845959
 30
0.0
 10
2.004353280063974
 20
1.421485286157975
 30
0.0
 10
2.003787282627222
 20
1.421544268318408
 30
0.0
 10
2.003403653706731
 20
1.421548769856657
 30
0.0
 10
2.003210277385521
 20
1.421551038952807
 30
0.0
  0
SPLINE
  5
3F
330
1F
100
AcDbEntity
  8
0
  6
Continuous
 62
     7
370
    15
100
AcDbSpline
210
0.0
220
0.0
230
1.0
 70
     8
 71
     3
 72
    19
 73
    15
 74
     0
 42
0.0000000001
 43
0.0000000001
 40
0.0
 40
0.0
 40
0.0
 40
0.0
 40
0.0631632593634746
 40
0.1254749410306422
 40
0.1871212198160313
 40
0.2482943461143007
 40
0.3092948562551183
 40
0.3698500660670937
 40
0.430973375547385
 40
0.4924559896728137
 40
0.6161479662918549
 40
0.7408436984673643
 40
0.8681826486700446
 40
0.9999999999999998
 40
0.9999999999999998
 40
0.9999999999999998
 40
0.9999999999999998
 10
2.008277439963756
 20
1.405683130614426
 30
0.0
 10
2.008408857116912
 20
1.405793399952763
 30
0.0
 10
2.008669919635041
 20
1.406012451959652
 30
0.0
 10
2.009036508749073
 20
1.406364865922103
 30
0.0
 10
2.00937995791343
 20
1.406732141753916
 30
0.0
 10
2.009701903243177
 20
1.407114139061092
 30
0.0
 10
2.00999108640254
 20
1.407517733658881
 30
0.0
 10
2.010262577420216
 20
1.407933148724494
 30
0.0
 10
2.010505928027317
 20
1.40836733345569
 30
0.0
 10
2.010800995440793
 20
1.408967736912638
 30
0.0
 10
2.011108904074157
 20
1.409753157881594
 30
0.0
 10
2.011367077478545
 20
1.410741880261083
 30
0.0
 10
2.011531426048199
 20
1.411774001174945
 30
0.0
 10
2.011549226056405
 20
1.412478149654287
 30
0.0
 10
2.011558279858769
 20
1.412836307981678
 30
0.0
  0
LINE
  5
40
330
1F
100
AcDbEntity
  8
0
  6
Continuous
 62
     7
370
    15
100
AcDbLine
 10
2.009460435118208
 20
1.404137350279276
 30
0.0
 11
2.008277439963756
 21
1.405683130614426
 31
0.0
  0
SPLINE
  5
41
330
1F
100
AcDbEntity
  8
0
  6
Continuous
 62
     7
370
    15
100
AcDbSpline
210
0.0
220
0.0
230
1.0
 70
     8
 71
     3
 72
    23
 73
    19
 74
     0
 42
0.0000000001
 43
0.0000000001
 40
0.0
 40
0.0
 40
0.0
 40
0.0
 40
0.0685440747457043
 40
0.1356760930155522
 40
0.2012048272517727
 40
0.2656688165902778
 40
0.3296372211939518
 40
0.3927626259391926
 40
0.4550616518817837
 40
0.5174790385078325
 40
0.5791391094579283
 40
0.6400858592705577
 40
0.7002066453625594
 40
0.7598183734767457
 40
0.8196374288674126
 40
0.8793608841794942
 40
0.939514662704305
 40
0.9999999999999998
 40
0.9999999999999998
 40
0.9999999999999998
 40
0.9999999999999998
 10
2.0135772582557
 20
1.412725895100596
 30
0.0
 10
2.01357454859369
 20
1.412499716525019
 30
0.0
 10
2.013569185090626
 20
1.412052018812679
 30
0.0
 10
2.013516815210549
 20
1.411389749351012
 30
0.0
 10
2.013429670072274
 20
1.410744943243292
 30
0.0
 10
2.013310275340907
 20
1.410116041115256
 30
0.0
 10
2.013163937423668
 20
1.40950076243892
 30
0.0
 10
2.012972369780882
 20
1.408905419512723
 30
0.0
 10
2.012749912784863
 20
1.408326770471456
 30
0.0
 10
2.012500236714266
 20
1.407764381938507
 30
0.0
 10
2.012214799759053
 20
1.407224372532744
 30
0.0
 10
2.01190478530489
 20
1.406706840526952
 30
0.0
 10
2.011563037182178
 20
1.406218028998314
 30
0.0
 10
2.011200853593588
 20
1.40574874336935
 30
0.0
 10
2.010804686494804
 20
1.405309548744931
 30
0.0
 10
2.010387437374907
 20
1.404887901835091
 30
0.0
 10
2.009936724990808
 20
1.404498367912507
 30
0.0
 10
2.009619489034446
 20
1.404257909778228
 30
0.0
 10
2.009460435118208
 20
1.404137350279276
 30
0.0
  0
SPLINE
  5
42
330
1F
100
AcDbEntity
  8
0
  6
Continuous
 62
     7
370
    15
100
AcDbSpline
210
0.0
220
0.0
230
1.0
 70
     8
 71
     3
 72
    23
 73
    19
 74
     0
 42
0.0000000001
 43
0.0000000001
 40
0.0
 40
0.0
 40
0.0
 40
0.0
 40
0.0645563361002817
 40
0.1270105610545996
 40
0.1879504144589977
 40
0.2479281443229032
 40
0.3077638717156559
 40
0.3682492899446015
 40
0.4294831870648248
 40
0.4927553000744291
 40
0.5562681466093952
 40
0.6182257143964454
 40
0.679662967559846
 40
0.7412515971715541
 40
0.8034198622788617
 40
0.8668185763619304
 40
0.9323298946028526
 40
1.0
 40
1.0
 40
1.0
 40
1.0
 10
2.003344350169692
 20
1.423317645050122
 30
0.0
 10
2.003698415521837
 20
1.423308859057343
 30
0.0
 10
2.004395016998044
 20
1.423291573165055
 30
0.0
 10
2.005417579126941
 20
1.423145923472605
 30
0.0
 10
2.006395856221658
 20
1.422908777635871
 30
0.0
 10
2.007333612459871
 20
1.422582226238476
 30
0.0
 10
2.008225482355654
 20
1.422151417635291
 30
0.0
 10
2.009075232652949
 20
1.42162988898068
 30
0.0
 10
2.009882169506054
 20
1.421012546199782
 30
0.0
 10
2.01063597615168
 20
1.420307142528408
 30
0.0
 10
2.011325155498438
 20
1.419533382220322
 30
0.0
 10
2.01193149440357
 20
1.418704828120136
 30
0.0
 10
2.012436091090501
 20
1.417823037081944
 30
0.0
 10
2.012857892118688
 20
1.416897740582363
 30
0.0
 10
2.013182101605379
 20
1.415922005385638
 30
0.0
 10
2.013409059936117
 20
1.414897914502074
 30
0.0
 10
2.01355032604999
 20
1.41382739190623
 30
0.0
 10
2.013568184363121
 20
1.413097007062202
 30
0.0
 10
2.0135772582557
 20
1.412725895100596
 30
0.0
  0
LINE
  5
43
330
1F
100
AcDbEntity
  8
0
  6
Continuous
 62
     7
370
    15
100
AcDbLine
 10
2.002472877072579
 20
1.45284520410524
 30
0.0
 11
1.993387474286389
 21
1.45284520410524
 31
0.0
  0
LINE
  5
44
330
1F
100
AcDbEntity
  8
0
  6
Continuous
 62
     7
370
    15
100
AcDbLine
 10
2.002472877072579
 20
1.451409836651172
 30
0.0
 11
2.002472877072579
 21
1.45284520410524
 31
0.0
  0
LINE
  5
45
330
1F
100
AcDbEntity
  8
0
  6
Continuous
 62
     7
370
    15
100
AcDbLine
 10
1.993387474286389
 20
1.444177792940289
 30
0.0
 11
2.002472877072579
 21
1.451409836651172
 31
0.0
  0
LINE
  5
46
330
1F
100
AcDbEntity
  8
0
  6
Continuous
 62
     7
370
    15
100
AcDbLine
 10
1.993387474286389
 20
1.441993195221735
 30
0.0
 11
1.993387474286389
 21
1.444177792940289
 31
0.0
  0
LINE
  5
47
330
1F
100
AcDbEntity
  8
0
  6
Continuous
 62
     7
370
    15
100
AcDbLine
 10
2.002472877072579
 20
1.449225238932617
 30
0.0
 11
1.993387474286389
 21
1.441993195221735
 31
0.0
  0
SPLINE
  5
48
330
1F
100
AcDbEntity
  8
0
  6
Continuous
 62
     7
370
    15
100
AcDbSpline
210
0.0
220
0.0
230
1.0
 70
     8
 71
     3
 72
    23
 73
    19
 74
     0
 42
0.0000000001
 43
0.0000000001
 40
0.0
 40
0.0
 40
0.0
 40
0.0
 40
0.0787751416419543
 40
0.1537107046119193
 40
0.2266988709826949
 40
0.2991718203265848
 40
0.3711659956446377
 40
0.4429777695015677
 40
0.5163340130087282
 40
0.5928571080241123
 40
0.633510180405672
 40
0.67662361698717
 40
0.7229154223713066
 40
0.7719713543836268
 40
0.8238292573168902
 40
0.879386450019194
 40
0.9379521316130141
 40
1.0
 40
1.0
 40
1.0
 40
1.0
 10
2.007808185219157
 20
1.442245567521351
 30
0.0
 10
2.007545895240109
 20
1.442253829388532
 30
0.0
 10
2.007034099556196
 20
1.442269950431279
 30
0.0
 10
2.006291354157858
 20
1.442420263345786
 30
0.0
 10
2.005598485452809
 20
1.442666464540303
 30
0.0
 10
2.004956457673982
 20
1.443005780982509
 30
0.0
 10
2.00437744743642
 20
1.443437687190965
 30
0.0
 10
2.003870603949812
 20
1.443956740239988
 30
0.0
 10
2.003442551532661
 20
1.444560289361659
 30
0.0
 10
2.003148869847191
 20
1.445124791918595
 30
0.0
 10
2.00295990246322
 20
1.445623680467189
 30
0.0
 10
2.002826276859611
 20
1.446035602120222
 30
0.0
 10
2.002724775303209
 20
1.446485280208279
 30
0.0
 10
2.002632524570633
 20
1.446966263415702
 30
0.0
 10
2.002562129850523
 20
1.44748226690527
 30
0.0
 10
2.002512136220317
 20
1.448032251572421
 30
0.0
 10
2.002479989935693
 20
1.448617592961199
 30
0.0
 10
2.00247529322591
 20
1.449018828966039
 30
0.0
 10
2.002472877072579
 20
1.449225238932617
 30
0.0
  0
SPLINE
  5
49
330
1F
100
AcDbEntity
  8
0
  6
Continuous
 62
     7
370
    15
100
AcDbSpline
210
0.0
220
0.0
230
1.0
 70
     8
 71
     3
 72
    23
 73
    19
 74
     0
 42
0.0000000001
 43
0.0000000001
 40
0.0
 40
0.0
 40
0.0
 40
0.0
 40
0.0642108050223266
 40
0.1270518192735025
 40
0.1887267927580919
 40
0.2491086796614381
 40
0.3098971111464157
 40
0.3702655783614317
 40
0.4306689305647483
 40
0.4927445906670926
 40
0.5541140319972973
 40
0.6157259162417902
 40
0.6768280896924408
 40
0.7384636399696078
 40
0.8013355900682107
 40
0.8651971869410697
 40
0.9316477514395476
 40
1.0
 40
1.0
 40
1.0
 40
1.0
 10
2.012804368088125
 20
1.446212544605947
 30
0.0
 10
2.012768788517615
 20
1.446068522810813
 30
0.0
 10
2.012698388385415
 20
1.445783551596384
 30
0.0
 10
2.012549513169038
 20
1.445373295564408
 30
0.0
 10
2.012377515369314
 20
1.444982190584821
 30
0.0
 10
2.01217392955331
 20
1.444611704360104
 30
0.0
 10
2.011942306696403
 20
1.444261802521462
 30
0.0
 10
2.011681293510772
 20
1.443933008967149
 30
0.0
 10
2.011389560755225
 20
1.443627203503365
 30
0.0
 10
2.011074558056874
 20
1.443342033106425
 30
0.0
 10
2.01073353692142
 20
1.443083535319138
 30
0.0
 10
2.010371465103905
 20
1.442859839306071
 30
0.0
 10
2.009990607150669
 20
1.442668289532971
 30
0.0
 10
2.009589636774041
 20
1.442515369588624
 30
0.0
 10
2.00917194351908
 20
1.442392350181749
 30
0.0
 10
2.008733880137032
 20
1.442305580486105
 30
0.0
 10
2.008277404958396
 20
1.442253551255897
 30
0.0
 10
2.00796605588204
 20
1.442248253677452
 30
0.0
 10
2.007808185219157
 20
1.442245567521351
 30
0.0
  0
SPLINE
  5
4A
330
1F
100
AcDbEntity
  8
0
  6
Continuous
 62
     7
370
    15
100
AcDbSpline
210
0.0
220
0.0
230
1.0
 70
     8
 71
     3
 72
    15
 73
    11
 74
     0
 42
0.0000000001
 43
0.0000000001
 40
0.0
 40
0.0
 40
0.0
 40
0.0
 40
0.1762577548178
 40
0.3384344138804789
 40
0.4848220507878315
 40
0.6171575782663404
 40
0.7346983606124847
 40
0.8373851838323556
 40
0.926372420929588
 40
1.0
 40
1.0
 40
1.0
 40
1.0
 10
2.013072513656468
 20
1.45067243633823
 30
0.0
 10
2.013071638594668
 20
1.45040955035109
 30
0.0
 10
2.013069958379078
 20
1.449904780135066
 30
0.0
 10
2.013060589633814
 20
1.449181645881074
 30
0.0
 10
2.013033737239504
 20
1.448524575594234
 30
0.0
 10
2.013010629345932
 20
1.447933912830921
 30
0.0
 10
2.012968492443102
 20
1.447409668427229
 30
0.0
 10
2.012928218837254
 20
1.44695023484597
 30
0.0
 10
2.012875498585403
 20
1.446557728110867
 30
0.0
 10
2.012826536701457
 20
1.446320124897692
 30
0.0
 10
2.012804368088125
 20
1.446212544605947
 30
0.0
  0
LINE
  5
4B
330
1F
100
AcDbEntity
  8
0
  6
Continuous
 62
     7
370
    15
100
AcDbLine
 10
2.013072513656468
 20
1.454611810202555
 30
0.0
 11
2.013072513656468
 21
1.45067243633823
 31
0.0
  0
LINE
  5
4C
330
1F
100
AcDbEntity
  8
0
  6
Continuous
 62
     7
370
    15
100
AcDbLine
 10
1.993387474286389
 20
1.454611810202555
 30
0.0
 11
2.013072513656468
 21
1.454611810202555
 31
0.0
  0
LINE
  5
4D
330
1F
100
AcDbEntity
  8
0
  6
Continuous
 62
     7
370
    15
100
AcDbLine
 10
1.993387474286389
 20
1.45284520410524
 30
0.0
 11
1.993387474286389
 21
1.454611810202555
 31
0.0
  0
SPLINE
  5
4E
330
1F
100
AcDbEntity
  8
0
  6
Continuous
 62
     7
370
    15
100
AcDbSpline
210
0.0
220
0.0
230
1.0
 70
     8
 71
     3
 72
    19
 73
    15
 74
     0
 42
0.0000000001
 43
0.0000000001
 40
0.0
 40
0.0
 40
0.0
 40
0.0
 40
0.0969723103815127
 40
0.1877734389628707
 40
0.2723961390136955
 40
0.3513209973752852
 40
0.4243347744514659
 40
0.4919087840005295
 40
0.5542332197968013
 40
0.6112676582441558
 40
0.7163478449915515
 40
0.8145400858216166
 40
0.9084954561491848
 40
0.9999999999999998
 40
0.9999999999999998
 40
0.9999999999999998
 40
0.9999999999999998
 10
2.043752647990638
 20
1.431740570549819
 30
0.0
 10
2.043597184776072
 20
1.431526926492972
 30
0.0
 10
2.043296151807833
 20
1.431113234387356
 30
0.0
 10
2.042843870142887
 20
1.430524609078517
 30
0.0
 10
2.042401531736957
 20
1.429990898121853
 30
0.0
 10
2.041971961393334
 20
1.429510227685575
 30
0.0
 10
2.041558417563168
 20
1.429077849122922
 30
0.0
 10
2.041155924985383
 20
1.428698559355348
 30
0.0
 10
2.040767367208767
 20
1.428368493661606
 30
0.0
 10
2.040269208740313
 20
1.428013154975104
 30
0.0
 10
2.03965739161841
 20
1.427650062626845
 30
0.0
 10
2.038907795226142
 20
1.42733824312501
 30
0.0
 10
2.038155284987126
 20
1.427141626997595
 30
0.0
 10
2.037649509753858
 20
1.427115915437235
 30
0.0
 10
2.037399964011231
 20
1.427103229544368
 30
0.0
  0
SPLINE
  5
4F
330
1F
100
AcDbEntity
  8
0
  6
Continuous
 62
     7
370
    15
100
AcDbSpline
210
0.0
220
0.0
230
1.0
 70
     8
 71
     3
 72
    15
 73
    11
 74
     0
 42
0.0000000001
 43
0.0000000001
 40
0.0
 40
0.0
 40
0.0
 40
0.0
 40
0.0525942815291279
 40
0.1249519739750356
 40
0.2180938989285919
 40
0.333502410732514
 40
0.4687891785044355
 40
0.6249375859645938
 40
0.8016830479282273
 40
1.0
 40
1.0
 40
1.0
 40
1.0
 10
2.045712476629846
 20
1.43438653637861
 30
0.0
 10
2.045674023166315
 20
1.434343446545045
 30
0.0
 10
2.045582666539041
 20
1.434241074963848
 30
0.0
 10
2.045433103655781
 20
1.434053921275773
 30
0.0
 10
2.045248611123186
 20
1.433806773929148
 30
0.0
 10
2.045020336002406
 20
1.43350608663344
 30
0.0
 10
2.044755535878012
 20
1.433146315195156
 30
0.0
 10
2.044457596552006
 20
1.432727420053735
 30
0.0
 10
2.044116845938919
 20
1.43225407060022
 30
0.0
 10
2.043878614551911
 20
1.431918176810009
 30
0.0
 10
2.043752647990638
 20
1.431740570549819
 30
0.0
  0
SPLINE
  5
50
330
1F
100
AcDbEntity
  8
0
  6
Continuous
 62
     7
370
    15
100
AcDbSpline
210
0.0
220
0.0
230
1.0
 70
     8
 71
     3
 72
    15
 73
    11
 74
     0
 42
0.0000000001
 43
0.0000000001
 40
0.0
 40
0.0
 40
0.0
 40
0.0
 40
0.1073157910028316
 40
0.214807064436366
 40
0.3233866114385846
 40
0.4345959004816702
 40
0.5532850316073468
 40
0.6859835143010572
 40
0.8342087543254921
 40
1.0
 40
1.0
 40
1.0
 40
1.0
 10
2.048255916211918
 20
1.435683887731325
 30
0.0
 10
2.048150479216521
 20
1.435681573737569
 30
0.0
 10
2.047939432815498
 20
1.435676941966222
 30
0.0
 10
2.047626808306059
 20
1.435616700833192
 30
0.0
 10
2.047316958856181
 20
1.43553128071717
 30
0.0
 10
2.047008506692288
 20
1.435406263116827
 30
0.0
 10
2.046694195240809
 20
1.435237870023587
 30
0.0
 10
2.046374873104956
 20
1.435008906038349
 30
0.0
 10
2.046042478168607
 20
1.43472246266701
 30
0.0
 10
2.045826504317622
 20
1.434502611285634
 30
0.0
 10
2.045712476629846
 20
1.43438653637861
 30
0.0
  0
SPLINE
  5
51
330
1F
100
AcDbEntity
  8
0
  6
Continuous
 62
     7
370
    15
100
AcDbSpline
210
0.0
220
0.0
230
1.0
 70
     8
 71
     3
 72
    15
 73
    11
 74
     0
 42
0.0000000001
 43
0.0000000001
 40
0.0
 40
0.0
 40
0.0
 40
0.0
 40
0.1430730837303745
 40
0.2759029640930181
 40
0.4023708562740061
 40
0.528413645093594
 40
0.650356379186957
 40
0.7658950861246994
 40
0.8807741308440228
 40
1.0
 40
1.0
 40
1.0
 40
1.0
 10
2.050748092670629
 20
1.432797379554463
 30
0.0
 10
2.05074127771027
 20
1.433000734573616
 30
0.0
 10
2.050728135701205
 20
1.433392885571447
 30
0.0
 10
2.050584603725436
 20
1.433949636055742
 30
0.0
 10
2.050358609010556
 20
1.434450726747886
 30
0.0
 10
2.050041876850288
 20
1.434881281107032
 30
0.0
 10
2.049666618173768
 20
1.435239756793438
 30
0.0
 10
2.049234791092357
 20
1.435499067585142
 30
0.0
 10
2.048757949682883
 20
1.435655142751351
 30
0.0
 10
2.048425319444797
 20
1.435674188193708
 30
0.0
 10
2.048255916211918
 20
1.435683887731325
 30
0.0
  0
SPLINE
  5
52
330
1F
100
AcDbEntity
  8
0
  6
Continuous
 62
     7
370
    15
100
AcDbSpline
210
0.0
220
0.0
230
1.0
 70
     8
 71
     3
 72
    19
 73
    15
 74
     0
 42
0.0000000001
 43
0.0000000001
 40
0.0
 40
0.0
 40
0.0
 40
0.0
 40
0.0984723204983713
 40
0.1896346655866784
 40
0.2741921350564175
 40
0.3521934953791248
 40
0.4232112914702747
 40
0.4885652819691534
 40
0.5484894403508246
 40
0.60145781219143
 40
0.7012186582813338
 40
0.8003937125553102
 40
0.8985421214042045
 40
1.0
 40
1.0
 40
1.0
 40
1.0
 10
2.048224369674465
 20
1.428952645302494
 30
0.0
 10
2.048348603032377
 20
1.429049079117324
 30
0.0
 10
2.048587847432865
 20
1.429234788097614
 30
0.0
 10
2.048922894156362
 20
1.429516731232943
 30
0.0
 10
2.049228948752606
 20
1.42978247161037
 30
0.0
 10
2.049494781354157
 20
1.430044285046314
 30
0.0
 10
2.04973495251364
 20
1.430288343180837
 30
0.0
 10
2.049940569920485
 20
1.430525223692046
 30
0.0
 10
2.050113678941244
 20
1.430751507921458
 30
0.0
 10
2.05029832602424
 20
1.431036778721687
 30
0.0
 10
2.050482525152587
 20
1.431396090094433
 30
0.0
 10
2.050635073478968
 20
1.431846684879012
 30
0.0
 10
2.050730045440648
 20
1.432316286031525
 30
0.0
 10
2.050742010798806
 20
1.4326352522283
 30
0.0
 10
2.050748092670629
 20
1.432797379554463
 30
0.0
  0
LINE
  5
53
330
1F
100
AcDbEntity
  8
0
  6
Continuous
 62
     7
370
    15
100
AcDbLine
 10
2.049434968049188
 20
1.427355601843984
 30
0.0
 11
2.048224369674465
 21
1.428952645302494
 31
0.0
  0
SPLINE
  5
54
330
1F
100
AcDbEntity
  8
0
  6
Continuous
 62
     7
370
    15
100
AcDbSpline
210
0.0
220
0.0
230
1.0
 70
     8
 71
     3
 72
    19
 73
    15
 74
     0
 42
0.0000000001
 43
0.0000000001
 40
0.0
 40
0.0
 40
0.0
 40
0.0
 40
0.1072351343401495
 40
0.2126600942152404
 40
0.3188156149304523
 40
0.4267810491390403
 40
0.4836347072414286
 40
0.5435938840545852
 40
0.6082991205148315
 40
0.6771197297378501
 40
0.7506802072331169
 40
0.8287096887005727
 40
0.9121884361798668
 40
1.0
 40
1.0
 40
1.0
 40
1.0
 10
2.05276707106756
 20
1.432600213695387
 30
0.0
 10
2.052759220091707
 20
1.43236821004935
 30
0.0
 10
2.052743650667796
 20
1.431908119077039
 30
0.0
 10
2.052603431230002
 20
1.43123007606798
 30
0.0
 10
2.052376932443226
 20
1.430576005363072
 30
0.0
 10
2.052116060778148
 20
1.43004951049473
 30
0.0
 10
2.051856680059456
 20
1.429638165578035
 30
0.0
 10
2.051620331244754
 20
1.429324488603413
 30
0.0
 10
2.051348260271713
 20
1.429006616061816
 30
0.0
 10
2.051039714102493
 20
1.428681993058383
 30
0.0
 10
2.050691870044093
 20
1.428356117442784
 30
0.0
 10
2.050307107886286
 20
1.428024152060882
 30
0.0
 10
2.049887779712582
 20
1.427685320390835
 30
0.0
 10
2.049588429309398
 20
1.427467345926137
 30
0.0
 10
2.049434968049188
 20
1.427355601843984
 30
0.0
  0
SPLINE
  5
55
330
1F
100
AcDbEntity
  8
0
  6
Continuous
 62
     7
370
    15
100
AcDbSpline
210
0.0
220
0.0
230
1.0
 70
     8
 71
     3
 72
    19
 73
    15
 74
     0
 42
0.0000000001
 43
0.0000000001
 40
0.0
 40
0.0
 40
0.0
 40
0.0
 40
0.0837951576321061
 40
0.1657992526891514
 40
0.2463087758881742
 40
0.3277386355213819
 40
0.4087822589416398
 40
0.4897099982146174
 40
0.5713803279196834
 40
0.6559873054484111
 40
0.7414934539531907
 40
0.8265264994117151
 40
0.9119785710628837
 40
1.0
 40
1.0
 40
1.0
 40
1.0
 10
2.048173106551106
 20
1.43745049382864
 30
0.0
 10
2.048381390437545
 20
1.437443184967371
 30
0.0
 10
2.048793506288802
 20
1.437428723466604
 30
0.0
 10
2.049395226465177
 20
1.437305421321711
 30
0.0
 10
2.04997146171346
 20
1.437113078123782
 30
0.0
 10
2.050509519328425
 20
1.436834893545297
 30
0.0
 10
2.051008141056219
 20
1.436490954401673
 30
0.0
 10
2.051459708771877
 20
1.436084472361024
 30
0.0
 10
2.051842559894768
 20
1.43560186440938
 30
0.0
 10
2.052173185123636
 20
1.435069397686107
 30
0.0
 10
2.052434227567236
 20
1.434490333023258
 30
0.0
 10
2.052632189297588
 20
1.433884630081759
 30
0.0
 10
2.05274286202735
 20
1.433249632831562
 30
0.0
 10
2.05275892209765
 20
1.432818813728852
 30
0.0
 10
2.05276707106756
 20
1.432600213695387
 30
0.0
  0
SPLINE
  5
56
330
1F
100
AcDbEntity
  8
0
  6
Continuous
 62
     7
370
    15
100
AcDbSpline
210
0.0
220
0.0
230
1.0
 70
     8
 71
     3
 72
    15
 73
    11
 74
     0
 42
0.0000000001
 43
0.0000000001
 40
0.0
 40
0.0
 40
0.0
 40
0.0
 40
0.1335067689985181
 40
0.2625589787303715
 40
0.3882644471488832
 40
0.5126673546814268
 40
0.6337222699657629
 40
0.7553938601370957
 40
0.8775529450912781
 40
1.0
 40
1.0
 40
1.0
 40
1.0
 10
2.045176185493161
 20
1.436350308335
 30
0.0
 10
2.045292051842173
 20
1.436437330524151
 30
0.0
 10
2.045519918567536
 20
1.436608471338073
 30
0.0
 10
2.045876076372754
 20
1.436834376880622
 30
0.0
 10
2.046240661667519
 20
1.437026385670263
 30
0.0
 10
2.046614654156634
 20
1.437176904973617
 30
0.0
 10
2.046992803362936
 20
1.437303655360791
 30
0.0
 10
2.047380043215015
 20
1.437388908064491
 30
0.0
 10
2.047774636119765
 20
1.437442290499338
 30
0.0
 10
2.048040178867923
 20
1.437447757240244
 30
0.0
 10
2.048173106551106
 20
1.43745049382864
 30
0.0
  0
SPLINE
  5
57
330
1F
100
AcDbEntity
  8
0
  6
Continuous
 62
     7
370
    15
100
AcDbSpline
210
0.0
220
0.0
230
1.0
 70
     8
 71
     3
 72
    15
 73
    11
 74
     0
 42
0.0000000001
 43
0.0000000001
 40
0.0
 40
0.0
 40
0.0
 40
0.0
 40
0.1815319715023469
 40
0.3470753060162292
 40
0.4955587263078024
 40
0.6290766435747214
 40
0.7455243378854558
 40
0.8458335786603218
 40
0.9307830770433474
 40
1.0
 40
1.0
 40
1.0
 40
1.0
 10
2.042498673126918
 20
1.433124674880527
 30
0.0
 10
2.042646224257374
 20
1.433331756344238
 30
0.0
 10
2.04292833078292
 20
1.433727680333787
 30
0.0
 10
2.043346478545133
 20
1.434281797791599
 30
0.0
 10
2.043731220687023
 20
1.434776636430244
 30
0.0
 10
2.044077197892521
 20
1.435214717698294
 30
0.0
 10
2.044399499934809
 20
1.435584707878461
 30
0.0
 10
2.044680853225261
 20
1.435900132777815
 30
0.0
 10
2.044936281709162
 20
1.436149355178278
 30
0.0
 10
2.045101849594098
 20
1.436288041565691
 30
0.0
 10
2.045176185493161
 20
1.436350308335
 30
0.0
  0
SPLINE
  5
58
330
1F
100
AcDbEntity
  8
0
  6
Continuous
 62
     7
370
    15
100
AcDbSpline
210
0.0
220
0.0
230
1.0
 70
     8
 71
     3
 72
    15
 73
    11
 74
     0
 42
0.0000000001
 43
0.0000000001
 40
0.0
 40
0.0
 40
0.0
 40
0.0
 40
0.0902833575110696
 40
0.1900949818423775
 40
0.2991799221090999
 40
0.418913430732101
 40
0.548369769763611
 40
0.6887820023551723
 40
0.8390761172936775
 40
1.0
 40
1.0
 40
1.0
 40
1.0
 10
2.03935979265044
 20
1.429575689417172
 30
0.0
 10
2.039472772426348
 20
1.429663576093639
 30
0.0
 10
2.039710655564967
 20
1.429848624774013
 30
0.0
 10
2.040058830313067
 20
1.430171159575136
 30
0.0
 10
2.040426748437005
 20
1.430539785680988
 30
0.0
 10
2.040812915905677
 20
1.430956345951992
 30
0.0
 10
2.041210280339996
 20
1.431429120740546
 30
0.0
 10
2.041627124840747
 20
1.431948402192517
 30
0.0
 10
2.042062196633142
 20
1.432516878412429
 30
0.0
 10
2.042349905362372
 20
1.432917514762749
 30
0.0
 10
2.042498673126918
 20
1.433124674880527
 30
0.0
  0
SPLINE
  5
59
330
1F
100
AcDbEntity
  8
0
  6
Continuous
 62
     7
370
    15
100
AcDbSpline
210
0.0
220
0.0
230
1.0
 70
     8
 71
     3
 72
    11
 73
     7
 74
     0
 42
0.0000000001
 43
0.0000000001
 40
0.0
 40
0.0
 40
0.0
 40
0.0
 40
0.2347233736739006
 40
0.4771583189289906
 40
0.728556284203059
 40
0.9999999999999998
 40
0.9999999999999998
 40
0.9999999999999998
 40
0.9999999999999998
 10
2.037427567231501
 20
1.428869835641682
 30
0.0
 10
2.037591464024007
 20
1.428878127602871
 30
0.0
 10
2.037924642253195
 20
1.428894983948276
 30
0.0
 10
2.038416203855861
 20
1.429037455714713
 30
0.0
 10
2.03890266375476
 20
1.429261579712707
 30
0.0
 10
2.039203570760259
 20
1.429468343738045
 30
0.0
 10
2.03935979265044
 20
1.429575689417172
 30
0.0
  0
SPLINE
  5
5A
330
1F
100
AcDbEntity
  8
0
  6
Continuous
 62
     7
370
    15
100
AcDbSpline
210
0.0
220
0.0
230
1.0
 70
     8
 71
     3
 72
    19
 73
    15
 74
     0
 42
0.0000000001
 43
0.0000000001
 40
0.0
 40
0.0
 40
0.0
 40
0.0
 40
0.0912725322324318
 40
0.1809480095492873
 40
0.2701146396541535
 40
0.3601913635843558
 40
0.448386389020671
 40
0.5327179471023023
 40
0.6138937488489959
 40
0.6940494120240725
 40
0.7727915635729871
 40
0.8491746569835667
 40
0.9239598891174571
 40
1.0
 40
1.0
 40
1.0
 40
1.0
 10
2.034091520895947
 20
1.432726399845195
 30
0.0
 10
2.034096327821946
 20
1.432553807811021
 30
0.0
 10
2.034105857564029
 20
1.432211643697852
 30
0.0
 10
2.034197425717639
 20
1.431707919307398
 30
0.0
 10
2.034338101025511
 20
1.431218706836446
 30
0.0
 10
2.034539569827696
 20
1.4307540950122
 30
0.0
 10
2.034783313841129
 20
1.430320473067418
 30
0.0
 10
2.035077740103923
 20
1.429940279727611
 30
0.0
 10
2.035407302685705
 20
1.429611395387512
 30
0.0
 10
2.035775238263645
 20
1.429343106607029
 30
0.0
 10
2.036169574107088
 20
1.42913483228738
 30
0.0
 10
2.036577961962
 20
1.428984119227631
 30
0.0
 10
2.036998605462197
 20
1.428888199429527
 30
0.0
 10
2.037283789058396
 20
1.428875990763319
 30
0.0
 10
2.037427567231501
 20
1.428869835641682
 30
0.0
  0
SPLINE
  5
5B
330
1F
100
AcDbEntity
  8
0
  6
Continuous
 62
     7
370
    15
100
AcDbSpline
210
0.0
220
0.0
230
1.0
 70
     8
 71
     3
 72
    15
 73
    11
 74
     0
 42
0.0000000001
 43
0.0000000001
 40
0.0
 40
0.0
 40
0.0
 40
0.0
 40
0.1590042985173781
 40
0.3046460998968153
 40
0.4385469045795927
 40
0.5623222987759275
 40
0.6774325425257292
 40
0.7868973929387498
 40
0.8936108891042715
 40
1.0
 40
1.0
 40
1.0
 40
1.0
 10
2.037372360790961
 20
1.437048275476126
 30
0.0
 10
2.037113281010606
 20
1.436893504737934
 30
0.0
 10
2.036616894149475
 20
1.436596969976245
 30
0.0
 10
2.035946151514893
 20
1.436102305414083
 30
0.0
 10
2.035376060644482
 20
1.435589746858594
 30
0.0
 10
2.034909937992402
 20
1.435055498638406
 30
0.0
 10
2.034542958876836
 20
1.434502821764827
 30
0.0
 10
2.034283103805303
 20
1.433928108301741
 30
0.0
 10
2.03412103420254
 20
1.433333294968156
 30
0.0
 10
2.034101348676361
 20
1.432928492822602
 30
0.0
 10
2.034091520895947
 20
1.432726399845195
 30
0.0
  0
LINE
  5
5C
330
1F
100
AcDbEntity
  8
0
  6
Continuous
 62
     7
370
    15
100
AcDbLine
 10
2.03637470154404
 20
1.438712355326722
 30
0.0
 11
2.037372360790961
 21
1.437048275476126
 31
0.0
  0
ARC
  5
5D
330
1F
100
AcDbEntity
  8
0
  6
Continuous
 62
     7
370
    15
100
AcDbCircle
 10
2.321863001383963
 20
1.459012007493645
 30
0.0
 40
0.0178571428571433
100
AcDbArc
 50
270.0000000000008
 51
0.0
  0
LINE
  5
5E
330
1F
100
AcDbEntity
  8
0
  6
Continuous
 62
     7
370
    15
100
AcDbLine
 10
2.321863001383963
 20
1.441154864636502
 30
0.0
 11
2.250434429955392
 21
1.441154864636502
 31
0.0
  0
ARC
  5
5F
330
1F
100
AcDbEntity
  8
0
  6
Continuous
 62
     7
370
    15
100
AcDbCircle
 10
2.250434429955392
 20
1.42329772177936
 30
0.0
 40
0.0178571428571428
100
AcDbArc
 50
90.0
 51
180.0
  0
LINE
  5
60
330
1F
100
AcDbEntity
  8
0
  6
Continuous
 62
     7
370
    15
100
AcDbLine
 10
2.232577287098249
 20
1.42329772177936
 30
0.0
 11
2.232577287098249
 21
1.351869150350788
 31
0.0
  0
ARC
  5
61
330
1F
100
AcDbEntity
  8
0
  6
Continuous
 62
     7
370
    15
100
AcDbCircle
 10
2.250434429955392
 20
1.351869150350788
 30
0.0
 40
0.0178571428571428
100
AcDbArc
 50
180.0
 51
270.0000000000008
  0
LINE
  5
62
330
1F
100
AcDbEntity
  8
0
  6
Continuous
 62
     7
370
    15
100
AcDbLine
 10
2.250434429955392
 20
1.334012007493645
 30
0.0
 11
2.321863001383963
 21
1.334012007493645
 31
0.0
  0
ARC
  5
63
330
1F
100
AcDbEntity
  8
0
  6
Continuous
 62
     7
370
    15
100
AcDbCircle
 10
2.321863001383963
 20
1.316154864636502
 30
0.0
 40
0.0178571428571433
100
AcDbArc
 50
0.0000000000007124
 51
90.0
  0
LINE
  5
64
330
1F
100
AcDbEntity
  8
0
  6
Continuous
 62
     7
370
    15
100
AcDbLine
 10
2.339720144241106
 20
1.244726293207931
 30
0.0
 11
2.339720144241106
 21
1.316154864636502
 31
0.0
  0
ARC
  5
65
330
1F
100
AcDbEntity
  8
0
  6
Continuous
 62
     7
370
    15
100
AcDbCircle
 10
2.321863001383963
 20
1.244726293207931
 30
0.0
 40
0.0178571428571433
100
AcDbArc
 50
270.0000000000008
 51
0.0000000000007124
  0
LINE
  5
66
330
1F
100
AcDbEntity
  8
0
  6
Continuous
 62
     7
370
    15
100
AcDbLine
 10
2.321863001383963
 20
1.226869150350788
 30
0.0
 11
2.250434429955392
 21
1.226869150350788
 31
0.0
  0
ARC
  5
67
330
1F
100
AcDbEntity
  8
0
  6
Continuous
 62
     7
370
    15
100
AcDbCircle
 10
2.250434429955392
 20
1.209012007493645
 30
0.0
 40
0.017857142857143
100
AcDbArc
 50
90.0
 51
180.0
  0
LINE
  5
68
330
1F
100
AcDbEntity
  8
0
  6
Continuous
 62
     7
370
    15
100
AcDbLine
 10
2.232577287098249
 20
1.209012007493645
 30
0.0
 11
2.232577287098249
 21
1.137583436065073
 31
0.0
  0
ARC
  5
69
330
1F
100
AcDbEntity
  8
0
  6
Continuous
 62
     7
370
    15
100
AcDbCircle
 10
2.250434429955392
 20
1.137583436065073
 30
0.0
 40
0.0178571428571428
100
AcDbArc
 50
180.0
 51
270.0000000000008
  0
LINE
  5
6A
330
1F
100
AcDbEntity
  8
0
  6
Continuous
 62
     7
370
    15
100
AcDbLine
 10
2.250434429955392
 20
1.119726293207931
 30
0.0
 11
2.321863001383963
 21
1.119726293207931
 31
0.0
  0
ARC
  5
6B
330
1F
100
AcDbEntity
  8
0
  6
Continuous
 62
     7
370
    15
100
AcDbCircle
 10
2.321863001383963
 20
1.101869150350788
 30
0.0
 40
0.0178571428571433
100
AcDbArc
 50
0.0
 51
90.0
  0
LINE
  5
6C
330
1F
100
AcDbEntity
  8
0
  6
Continuous
 62
     7
370
    15
100
AcDbLine
 10
2.339720144241106
 20
1.030440578922217
 30
0.0
 11
2.339720144241106
 21
1.101869150350788
 31
0.0
  0
ARC
  5
6D
330
1F
100
AcDbEntity
  8
0
  6
Continuous
 62
     7
370
    15
100
AcDbCircle
 10
2.321863001383963
 20
1.030440578922216
 30
0.0
 40
0.0178571428571433
100
AcDbArc
 50
270.0000000000008
 51
0.0000000000014249
  0
LINE
  5
6E
330
1F
100
AcDbEntity
  8
0
  6
Continuous
 62
     7
370
    15
100
AcDbLine
 10
2.321863001383963
 20
1.012583436065074
 30
0.0
 11
2.250434429955392
 21
1.012583436065074
 31
0.0
  0
ARC
  5
6F
330
1F
100
AcDbEntity
  8
0
  6
Continuous
 62
     7
370
    15
100
AcDbCircle
 10
2.250434429955392
 20
0.9947262932079313
 30
0.0
 40
0.0178571428571429
100
AcDbArc
 50
90.0
 51
180.0
  0
LINE
  5
70
330
1F
100
AcDbEntity
  8
0
  6
Continuous
 62
     7
370
    15
100
AcDbLine
 10
2.232577287098249
 20
0.9947262932079313
 30
0.0
 11
2.232577287098249
 21
0.9232977217793594
 31
0.0
  0
ARC
  5
71
330
1F
100
AcDbEntity
  8
0
  6
Continuous
 62
     7
370
    15
100
AcDbCircle
 10
2.250434429955392
 20
0.9232977217793594
 30
0.0
 40
0.0178571428571428
100
AcDbArc
 50
180.0
 51
270.0000000000022
  0
LINE
  5
72
330
1F
100
AcDbEntity
  8
0
  6
Continuous
 62
     7
370
    15
100
AcDbLine
 10
2.250434429955392
 20
0.9054405789222165
 30
0.0
 11
2.321863001383963
 21
0.9054405789222167
 31
0.0
  0
ARC
  5
73
330
1F
100
AcDbEntity
  8
0
  6
Continuous
 62
     7
370
    15
100
AcDbCircle
 10
2.321863001383963
 20
0.8875834360650738
 30
0.0
 40
0.0178571428571433
100
AcDbArc
 50
0.0000000000007124
 51
90.0
  0
LINE
  5
74
330
1F
100
AcDbEntity
  8
0
  6
Continuous
 62
     7
370
    15
100
AcDbLine
 10
2.339720144241106
 20
0.816154864636503
 30
0.0
 11
2.339720144241106
 21
0.8875834360650742
 31
0.0
  0
LINE
  5
75
330
1F
100
AcDbEntity
  8
0
  6
Continuous
 62
     7
370
    15
100
AcDbLine
 10
2.321863001383963
 20
0.7982977217793598
 30
0.0
 11
2.339720144241106
 21
0.816154864636503
 31
0.0
  0
LINE
  5
76
330
1F
100
AcDbEntity
  8
0
  6
Continuous
 62
     7
370
    15
100
AcDbLine
 10
1.857577287098249
 20
0.7982977217793598
 30
0.0
 11
2.321863001383963
 21
0.7982977217793598
 31
0.0
  0
LINE
  5
77
330
1F
100
AcDbEntity
  8
0
  6
Continuous
 62
     7
370
    15
100
AcDbLine
 10
1.839720144241106
 20
0.8161548646365025
 30
0.0
 11
1.857577287098249
 21
0.7982977217793598
 31
0.0
  0
LINE
  5
78
330
1F
100
AcDbEntity
  8
0
  6
Continuous
 62
     7
370
    15
100
AcDbLine
 10
1.839720144241106
 20
0.8161548646365025
 30
0.0
 11
1.839720144241106
 21
0.8875834360650737
 31
0.0
  0
ARC
  5
79
330
1F
100
AcDbEntity
  8
0
  6
Continuous
 62
     7
370
    15
100
AcDbCircle
 10
1.821863001383963
 20
0.8875834360650737
 30
0.0
 40
0.0178571428571429
100
AcDbArc
 50
0.0
 51
90.0
  0
LINE
  5
7A
330
1F
100
AcDbEntity
  8
0
  6
Continuous
 62
     7
370
    15
100
AcDbLine
 10
1.821863001383963
 20
0.9054405789222165
 30
0.0
 11
1.750434429955392
 21
0.9054405789222171
 31
0.0
  0
ARC
  5
7B
330
1F
100
AcDbEntity
  8
0
  6
Continuous
 62
     7
370
    15
100
AcDbCircle
 10
1.750434429955392
 20
0.9232977217793598
 30
0.0
 40
0.017857142857143
100
AcDbArc
 50
179.9999999999986
 51
270.0000000000008
  0
LINE
  5
7C
330
1F
100
AcDbEntity
  8
0
  6
Continuous
 62
     7
370
    15
100
AcDbLine
 10
1.732577287098249
 20
0.9947262932079313
 30
0.0
 11
1.732577287098249
 21
0.9232977217793603
 31
0.0
  0
ARC
  5
7D
330
1F
100
AcDbEntity
  8
0
  6
Continuous
 62
     7
370
    15
100
AcDbCircle
 10
1.750434429955392
 20
0.9947262932079311
 30
0.0
 40
0.017857142857143
100
AcDbArc
 50
89.99999999999928
 51
179.9999999999996
  0
LINE
  5
7E
330
1F
100
AcDbEntity
  8
0
  6
Continuous
 62
     7
370
    15
100
AcDbLine
 10
1.750434429955392
 20
1.012583436065074
 30
0.0
 11
1.821863001383963
 21
1.012583436065073
 31
0.0
  0
ARC
  5
7F
330
1F
100
AcDbEntity
  8
0
  6
Continuous
 62
     7
370
    15
100
AcDbCircle
 10
1.821863001383963
 20
1.030440578922216
 30
0.0
 40
0.017857142857143
100
AcDbArc
 50
270.0000000000008
 51
0.0
  0
LINE
  5
80
330
1F
100
AcDbEntity
  8
0
  6
Continuous
 62
     7
370
    15
100
AcDbLine
 10
1.839720144241106
 20
1.030440578922216
 30
0.0
 11
1.839720144241106
 21
1.101869150350788
 31
0.0
  0
ARC
  5
81
330
1F
100
AcDbEntity
  8
0
  6
Continuous
 62
     7
370
    15
100
AcDbCircle
 10
1.821863001383963
 20
1.101869150350788
 30
0.0
 40
0.017857142857143
100
AcDbArc
 50
0.0
 51
90.0
  0
LINE
  5
82
330
1F
100
AcDbEntity
  8
0
  6
Continuous
 62
     7
370
    15
100
AcDbLine
 10
1.821863001383963
 20
1.119726293207931
 30
0.0
 11
1.750434429955392
 21
1.119726293207931
 31
0.0
  0
ARC
  5
83
330
1F
100
AcDbEntity
  8
0
  6
Continuous
 62
     7
370
    15
100
AcDbCircle
 10
1.750434429955392
 20
1.137583436065073
 30
0.0
 40
0.017857142857143
100
AcDbArc
 50
179.9999999999993
 51
270.0000000000008
  0
LINE
  5
84
330
1F
100
AcDbEntity
  8
0
  6
Continuous
 62
     7
370
    15
100
AcDbLine
 10
1.732577287098249
 20
1.209012007493645
 30
0.0
 11
1.732577287098249
 21
1.137583436065074
 31
0.0
  0
ARC
  5
85
330
1F
100
AcDbEntity
  8
0
  6
Continuous
 62
     7
370
    15
100
AcDbCircle
 10
1.750434429955392
 20
1.209012007493645
 30
0.0
 40
0.017857142857143
100
AcDbArc
 50
90.0
 51
180.0
  0
LINE
  5
86
330
1F
100
AcDbEntity
  8
0
  6
Continuous
 62
     7
370
    15
100
AcDbLine
 10
1.750434429955392
 20
1.226869150350788
 30
0.0
 11
1.821863001383963
 21
1.226869150350788
 31
0.0
  0
ARC
  5
87
330
1F
100
AcDbEntity
  8
0
  6
Continuous
 62
     7
370
    15
100
AcDbCircle
 10
1.821863001383963
 20
1.244726293207931
 30
0.0
 40
0.017857142857143
100
AcDbArc
 50
270.0000000000008
 51
0.0
  0
LINE
  5
88
330
1F
100
AcDbEntity
  8
0
  6
Continuous
 62
     7
370
    15
100
AcDbLine
 10
1.839720144241106
 20
1.244726293207931
 30
0.0
 11
1.839720144241106
 21
1.316154864636502
 31
0.0
  0
ARC
  5
89
330
1F
100
AcDbEntity
  8
0
  6
Continuous
 62
     7
370
    15
100
AcDbCircle
 10
1.821863001383963
 20
1.316154864636502
 30
0.0
 40
0.017857142857143
100
AcDbArc
 50
0.0
 51
90.0
  0
LINE
  5
8A
330
1F
100
AcDbEntity
  8
0
  6
Continuous
 62
     7
370
    15
100
AcDbLine
 10
1.821863001383963
 20
1.334012007493645
 30
0.0
 11
1.750434429955392
 21
1.334012007493645
 31
0.0
  0
ARC
  5
8B
330
1F
100
AcDbEntity
  8
0
  6
Continuous
 62
     7
370
    15
100
AcDbCircle
 10
1.750434429955392
 20
1.351869150350788
 30
0.0
 40
0.017857142857143
100
AcDbArc
 50
179.9999999999986
 51
270.0000000000008
  0
LINE
  5
8C
330
1F
100
AcDbEntity
  8
0
  6
Continuous
 62
     7
370
    15
100
AcDbLine
 10
1.732577287098249
 20
1.423297721779359
 30
0.0
 11
1.732577287098249
 21
1.351869150350788
 31
0.0
  0
ARC
  5
8D
330
1F
100
AcDbEntity
  8
0
  6
Continuous
 62
     7
370
    15
100
AcDbCircle
 10
1.750434429955392
 20
1.423297721779359
 30
0.0
 40
0.017857142857143
100
AcDbArc
 50
90.0
 51
180.0
  0
LINE
  5
8E
330
1F
100
AcDbEntity
  8
0
  6
Continuous
 62
     7
370
    15
100
AcDbLine
 10
1.750434429955392
 20
1.441154864636502
 30
0.0
 11
1.821863001383963
 21
1.441154864636502
 31
0.0
  0
ARC
  5
8F
330
1F
100
AcDbEntity
  8
0
  6
Continuous
 62
     7
370
    15
100
AcDbCircle
 10
1.821863001383963
 20
1.459012007493645
 30
0.0
 40
0.017857142857143
100
AcDbArc
 50
270.0000000000008
 51
0.0
  0
LINE
  5
90
330
1F
100
AcDbEntity
  8
0
  6
Continuous
 62
     7
370
    15
100
AcDbLine
 10
1.839720144241106
 20
1.459012007493645
 30
0.0
 11
1.839720144241106
 21
1.530440578922216
 31
0.0
  0
ARC
  5
91
330
1F
100
AcDbEntity
  8
0
  6
Continuous
 62
     7
370
    15
100
AcDbCircle
 10
1.821863001383963
 20
1.530440578922216
 30
0.0
 40
0.017857142857143
100
AcDbArc
 50
0.0
 51
90.0
  0
LINE
  5
92
330
1F
100
AcDbEntity
  8
0
  6
Continuous
 62
     7
370
    15
100
AcDbLine
 10
1.821863001383963
 20
1.548297721779359
 30
0.0
 11
1.750434429955392
 21
1.548297721779359
 31
0.0
  0
ARC
  5
93
330
1F
100
AcDbEntity
  8
0
  6
Continuous
 62
     7
370
    15
100
AcDbCircle
 10
1.750434429955392
 20
1.566154864636502
 30
0.0
 40
0.017857142857143
100
AcDbArc
 50
180.0
 51
270.0000000000008
  0
LINE
  5
94
330
1F
100
AcDbEntity
  8
0
  6
Continuous
 62
     7
370
    15
100
AcDbLine
 10
1.750434429955392
 20
1.655440578922217
 30
0.0
 11
1.732577287098249
 21
1.637583436065074
 31
0.0
  0
LINE
  5
95
330
1F
100
AcDbEntity
  8
0
  6
Continuous
 62
     7
370
    15
100
AcDbLine
 10
2.214720144241106
 20
1.655440578922216
 30
0.0
 11
1.750434429955392
 21
1.655440578922217
 31
0.0
  0
LINE
  5
96
330
1F
100
AcDbEntity
  8
0
  6
Continuous
 62
     7
370
    15
100
AcDbLine
 10
2.232577287098249
 20
1.637583436065074
 30
0.0
 11
2.214720144241106
 21
1.655440578922216
 31
0.0
  0
LINE
  5
97
330
1F
100
AcDbEntity
  8
0
  6
Continuous
 62
     7
370
    15
100
AcDbLine
 10
2.232577287098249
 20
1.637583436065074
 30
0.0
 11
2.232577287098249
 21
1.566154864636502
 31
0.0
  0
ARC
  5
98
330
1F
100
AcDbEntity
  8
0
  6
Continuous
 62
     7
370
    15
100
AcDbCircle
 10
2.250434429955392
 20
1.566154864636502
 30
0.0
 40
0.017857142857143
100
AcDbArc
 50
180.0
 51
270.0000000000008
  0
LINE
  5
99
330
1F
100
AcDbEntity
  8
0
  6
Continuous
 62
     7
370
    15
100
AcDbLine
 10
2.250434429955392
 20
1.548297721779359
 30
0.0
 11
2.321863001383963
 21
1.548297721779359
 31
0.0
  0
ARC
  5
9A
330
1F
100
AcDbEntity
  8
0
  6
Continuous
 62
     7
370
    15
100
AcDbCircle
 10
2.321863001383963
 20
1.530440578922216
 30
0.0
 40
0.0178571428571433
100
AcDbArc
 50
0.0
 51
90.0
  0
LINE
  5
9B
330
1F
100
AcDbEntity
  8
0
  6
Continuous
 62
     7
370
    15
100
AcDbLine
 10
2.339720144241106
 20
1.459012007493645
 30
0.0
 11
2.339720144241106
 21
1.530440578922216
 31
0.0
  0
CIRCLE
  5
9C
330
1F
100
AcDbEntity
  8
0
  6
Continuous
 62
     7
370
    15
100
AcDbCircle
 10
1.893291572812535
 20
0.8518691503507884
 30
0.0
 40
0.0155714285714286
  0
CIRCLE
  5
9D
330
1F
100
AcDbEntity
  8
0
  6
Continuous
 62
     7
370
    15
100
AcDbCircle
 10
2.286148715669678
 20
0.8518691503507884
 30
0.0
 40
0.0155714285714286
  0
CIRCLE
  5
9E
330
1F
100
AcDbEntity
  8
0
  6
Continuous
 62
     7
370
    15
100
AcDbCircle
 10
2.071863001383963
 20
0.9590120074936455
 30
0.0
 40
0.0155714285714286
  0
CIRCLE
  5
9F
330
1F
100
AcDbEntity
  8
0
  6
Continuous
 62
     7
370
    15
100
AcDbCircle
 10
2.232577287098249
 20
0.8518691503507884
 30
0.0
 40
0.0117142857142856
  0
CIRCLE
  5
A0
330
1F
100
AcDbEntity
  8
0
  6
Continuous
 62
     7
370
    15
100
AcDbCircle
 10
1.946863001383963
 20
0.8518691503507884
 30
0.0
 40
0.0117142857142856
  0
CIRCLE
  5
A1
330
1F
100
AcDbEntity
  8
0
  6
Continuous
 62
     7
370
    15
100
AcDbCircle
 10
1.786148715669678
 20
0.9590120074936455
 30
0.0
 40
0.0117142857142858
  0
CIRCLE
  5
A2
330
1F
100
AcDbEntity
  8
0
  6
Continuous
 62
     7
370
    15
100
AcDbCircle
 10
1.786148715669678
 20
1.387583436065074
 30
0.0
 40
0.0117142857142858
  0
CIRCLE
  5
A3
330
1F
100
AcDbEntity
  8
0
  6
Continuous
 62
     7
370
    15
100
AcDbCircle
 10
2.286148715669678
 20
1.494726293207931
 30
0.0
 40
0.0117142857142856
  0
CIRCLE
  5
A4
330
1F
100
AcDbEntity
  8
0
  6
Continuous
 62
     7
370
    15
100
AcDbCircle
 10
1.786148715669678
 20
1.601869150350788
 30
0.0
 40
0.0117142857142858
  0
CIRCLE
  5
A5
330
1F
100
AcDbEntity
  8
0
  6
Continuous
 62
     7
370
    15
100
AcDbCircle
 10
2.161148715669678
 20
1.601869150350788
 30
0.0
 40
0.0117142857142856
  0
CIRCLE
  5
A6
330
1F
100
AcDbEntity
  8
0
  6
Continuous
 62
     7
370
    15
100
AcDbCircle
 10
1.946863001383963
 20
1.405440578922216
 30
0.0
 40
0.0117142857142856
  0
CIRCLE
  5
A7
330
1F
100
AcDbEntity
  8
0
  6
Continuous
 62
     7
370
    15
100
AcDbCircle
 10
2.161148715669678
 20
1.387583436065074
 30
0.0
 40
0.0117142857142856
  0
CIRCLE
  5
A8
330
1F
100
AcDbEntity
  8
0
  6
Continuous
 62
     7
370
    15
100
AcDbCircle
 10
2.125434429955392
 20
1.048297721779359
 30
0.0
 40
0.0117142857142856
  0
CIRCLE
  5
A9
330
1F
100
AcDbEntity
  8
0
  6
Continuous
 62
     7
370
    15
100
AcDbCircle
 10
1.911148715669678
 20
1.066154864636502
 30
0.0
 40
0.0117142857142856
  0
LINE
  5
AA
330
1F
100
AcDbEntity
  8
0
  6
Continuous
 62
     7
370
    15
100
AcDbLine
 10
1.913934429955392
 20
1.215154864636502
 30
0.0
 11
1.944077287098249
 21
1.215154864636502
 31
0.0
  0
ARC
  5
AB
330
1F
100
AcDbEntity
  8
0
  6
Continuous
 62
     7
370
    15
100
AcDbCircle
 10
1.944077287098249
 20
1.226869150350788
 30
0.0
 40
0.0117142857142858
100
AcDbArc
 50
270.0000000000008
 51
90.0
  0
LINE
  5
AC
330
1F
100
AcDbEntity
  8
0
  6
Continuous
 62
     7
370
    15
100
AcDbLine
 10
1.944077287098249
 20
1.238583436065073
 30
0.0
 11
1.913934429955392
 21
1.238583436065073
 31
0.0
  0
ARC
  5
AD
330
1F
100
AcDbEntity
  8
0
  6
Continuous
 62
     7
370
    15
100
AcDbCircle
 10
1.913934429955392
 20
1.226869150350788
 30
0.0
 40
0.0117142857142858
100
AcDbArc
 50
90.0
 51
270.0000000000008
  0
LINE
  5
AE
330
1F
100
AcDbEntity
  8
0
  6
Continuous
 62
     7
370
    15
100
AcDbLine
 10
2.128220144241106
 20
1.215154864636502
 30
0.0
 11
2.158363001383964
 21
1.215154864636502
 31
0.0
  0
ARC
  5
AF
330
1F
100
AcDbEntity
  8
0
  6
Continuous
 62
     7
370
    15
100
AcDbCircle
 10
2.158363001383964
 20
1.226869150350788
 30
0.0
 40
0.0117142857142858
100
AcDbArc
 50
270.0000000000008
 51
90.0
  0
LINE
  5
B0
330
1F
100
AcDbEntity
  8
0
  6
Continuous
 62
     7
370
    15
100
AcDbLine
 10
2.158363001383964
 20
1.238583436065073
 30
0.0
 11
2.128220144241106
 21
1.238583436065073
 31
0.0
  0
ARC
  5
B1
330
1F
100
AcDbEntity
  8
0
  6
Continuous
 62
     7
370
    15
100
AcDbCircle
 10
2.128220144241106
 20
1.226869150350788
 30
0.0
 40
0.0117142857142858
100
AcDbArc
 50
90.0
 51
270.0000000000008
  0
SPLINE
  5
B2
330
1F
100
AcDbEntity
  8
0
  6
Continuous
 62
     7
370
    15
100
AcDbSpline
210
0.0
220
0.0
230
1.0
 70
     8
 71
     3
 72
    23
 73
    19
 74
     0
 42
0.0000000001
 43
0.0000000001
 40
0.0
 40
0.0
 40
0.0
 40
0.0
 40
0.0711745037456324
 40
0.1396441217506301
 40
0.2063172239119694
 40
0.2713732401918803
 40
0.3354180839163109
 40
0.3980763446528612
 40
0.4606079146322867
 40
0.5229695111172306
 40
0.5847157240924594
 40
0.6448949403163596
 40
0.7042905608207927
 40
0.7629981899193238
 40
0.8210874309038784
 40
0.8801038914767024
 40
0.9393884881896676
 40
1.0
 40
1.0
 40
1.0
 40
1.0
 10
2.032072542499016
 20
1.448109280170251
 30
0.0
 10
2.032076956251908
 20
1.448298645201792
 30
0.0
 10
2.032085616019293
 20
1.448670178716297
 30
0.0
 10
2.032135237786042
 20
1.449217636912472
 30
0.0
 10
2.032228704570717
 20
1.44974246366331
 30
0.0
 10
2.032347714377933
 20
1.450250202004283
 30
0.0
 10
2.032511852382873
 20
1.450733939333501
 30
0.0
 10
2.032703630362964
 20
1.45120015668098
 30
0.0
 10
2.032939160510788
 20
1.451640869173212
 30
0.0
 10
2.033201215589639
 20
1.45206322647701
 30
0.0
 10
2.033496067322872
 20
1.452455941640993
 30
0.0
 10
2.033817440629681
 20
1.45281644447062
 30
0.0
 10
2.034160187409183
 20
1.453145330131989
 30
0.0
 10
2.034528018487745
 20
1.453437055083328
 30
0.0
 10
2.034918073082817
 20
1.453696452634398
 30
0.0
 10
2.03533145463405
 20
1.453919907152977
 30
0.0
 10
2.03576800309386
 20
1.454111770168275
 30
0.0
 10
2.036071451915037
 20
1.454210794729906
 30
0.0
 10
2.036224855491142
 20
1.454260854973401
 30
0.0
  0
SPLINE
  5
B3
330
1F
100
AcDbEntity
  8
0
  6
Continuous
 62
     7
370
    15
100
AcDbSpline
210
0.0
220
0.0
230
1.0
 70
     8
 71
     3
 72
    31
 73
    27
 74
     0
 42
0.0000000001
 43
0.0000000001
 40
0.0
 40
0.0
 40
0.0
 40
0.0
 40
0.0548485096121872
 40
0.1070402013004354
 40
0.1569510960432395
 40
0.2039568549090443
 40
0.248403834425411
 40
0.2904462554614329
 40
0.3303727596364195
 40
0.3677631873063575
 40
0.403840717845859
 40
0.4398491463132288
 40
0.4762888662480195
 40
0.5127798124645815
 40
0.5502624745827634
 40
0.5881521852192641
 40
0.6274095785735561
 40
0.6677367120299002
 40
0.7081829805566013
 40
0.7486334474399874
 40
0.7888101086167044
 40
0.8294908178700596
 40
0.8703935547472317
 40
0.9122294707250137
 40
0.9555542940543009
 40
1.0
 40
1.0
 40
1.0
 40
1.0
 10
2.040373225166087
 20
1.441993195221735
 30
0.0
 10
2.040158946263574
 20
1.441994608680396
 30
0.0
 10
2.039740767957151
 20
1.441997367130913
 30
0.0
 10
2.039128025187181
 20
1.442021774200537
 30
0.0
 10
2.038546624183152
 20
1.442059565098772
 30
0.0
 10
2.03799730677873
 20
1.442116696739291
 30
0.0
 10
2.037479418816646
 20
1.442179768014851
 30
0.0
 10
2.036993716926182
 20
1.442270010245622
 30
0.0
 10
2.036536944359368
 20
1.442364348407212
 30
0.0
 10
2.036109883172411
 20
1.442483675332199
 30
0.0
 10
2.035706882912809
 20
1.44262762295373
 30
0.0
 10
2.035317314109592
 20
1.442796158337025
 30
0.0
 10
2.034944361344884
 20
1.443002385323595
 30
0.0
 10
2.034582638199571
 20
1.443237718511431
 30
0.0
 10
2.034231649123688
 20
1.443499002633404
 30
0.0
 10
2.033899636764656
 20
1.443800164494533
 30
0.0
 10
2.033575716097769
 20
1.444125611989341
 30
0.0
 10
2.033270575976678
 20
1.444482200551104
 30
0.0
 10
2.032988746713511
 20
1.444863557540697
 30
0.0
 10
2.032746317178875
 20
1.445270360374295
 30
0.0
 10
2.032533450163915
 20
1.445694417650661
 30
0.0
 10
2.032365305792767
 20
1.446140271380927
 30
0.0
 10
2.032235161335401
 20
1.446605017518662
 30
0.0
 10
2.032139384162019
 20
1.447088632045744
 30
0.0
 10
2.032084744280894
 20
1.447592759560832
 30
0.0
 10
2.032076644240444
 20
1.447935647007252
 30
0.0
 10
2.032072542499016
 20
1.448109280170251
 30
0.0
  0
LINE
  5
B4
330
1F
100
AcDbEntity
  8
0
  6
Continuous
 62
     7
370
    15
100
AcDbLine
 10
2.052262326468328
 20
1.441993195221735
 30
0.0
 11
2.040373225166087
 21
1.441993195221735
 31
0.0
  0
LINE
  5
B5
330
1F
100
AcDbEntity
  8
0
  6
Continuous
 62
     7
370
    15
100
AcDbLine
 10
2.052262326468328
 20
1.44375980131905
 30
0.0
 11
2.052262326468328
 21
1.441993195221735
 31
0.0
  0
LINE
  5
B6
330
1F
100
AcDbEntity
  8
0
  6
Continuous
 62
     7
370
    15
100
AcDbLine
 10
2.040467864778443
 20
1.44375980131905
 30
0.0
 11
2.052262326468328
 21
1.44375980131905
 31
0.0
  0
SPLINE
  5
B7
330
1F
100
AcDbEntity
  8
0
  6
Continuous
 62
     7
370
    15
100
AcDbSpline
210
0.0
220
0.0
230
1.0
 70
     8
 71
     3
 72
    15
 73
    11
 74
     0
 42
0.0000000001
 43
0.0000000001
 40
0.0
 40
0.0
 40
0.0
 40
0.0
 40
0.0698351039154357
 40
0.1556207549116639
 40
0.2578015566582745
 40
0.37381123406637
 40
0.5064024926743702
 40
0.6555644581431032
 40
0.8200792824038519
 40
1.0
 40
1.0
 40
1.0
 40
1.0
 10
2.037411793962776
 20
1.443960910495306
 30
0.0
 10
2.037481246011947
 20
1.443944036899721
 30
0.0
 10
2.03763601316652
 20
1.443906435728737
 30
0.0
 10
2.037897662719695
 20
1.443871300492595
 30
0.0
 10
2.038206376802748
 20
1.443834705861461
 30
0.0
 10
2.03856437350022
 20
1.443809314579116
 30
0.0
 10
2.038970453211156
 20
1.443784560808507
 30
0.0
 10
2.039426731374729
 20
1.443769751625175
 30
0.0
 10
2.039931551176817
 20
1.443762906670596
 30
0.0
 10
2.040283841175555
 20
1.443760866848579
 30
0.0
 10
2.040467864778443
 20
1.44375980131905
 30
0.0
  0
SPLINE
  5
B8
330
1F
100
AcDbEntity
  8
0
  6
Continuous
 62
     7
370
    15
100
AcDbSpline
210
0.0
220
0.0
230
1.0
 70
     8
 71
     3
 72
    19
 73
    15
 74
     0
 42
0.0000000001
 43
0.0000000001
 40
0.0
 40
0.0
 40
0.0
 40
0.0
 40
0.0828758828157524
 40
0.1652730963544962
 40
0.2477177439951411
 40
0.3314686583081259
 40
0.4152058418374494
 40
0.49627781618029
 40
0.5775622622101247
 40
0.658179092048001
 40
0.739703669903891
 40
0.8238244681931298
 40
0.9094920778051211
 40
1.0
 40
1.0
 40
1.0
 40
1.0
 10
2.034091520895947
 20
1.448207863099789
 30
0.0
 10
2.034097560215021
 20
1.448047268093104
 30
0.0
 10
2.034109603971651
 20
1.447727005634206
 30
0.0
 10
2.034184195169361
 20
1.447251158281701
 30
0.0
 10
2.034318600069322
 20
1.446787699037605
 30
0.0
 10
2.034492124047362
 20
1.446334439729991
 30
0.0
 10
2.034721033824983
 20
1.445909285738927
 30
0.0
 10
2.034987293742216
 20
1.445512541327417
 30
0.0
 10
2.035295051598523
 20
1.445154659467922
 30
0.0
 10
2.035640496535807
 20
1.444831916970786
 30
0.0
 10
2.036026703731053
 20
1.444549340786066
 30
0.0
 10
2.036452509550317
 20
1.444310919572273
 30
0.0
 10
2.036916514240521
 20
1.444109976186124
 30
0.0
 10
2.037243704274819
 20
1.444011500907812
 30
0.0
 10
2.037411793962776
 20
1.443960910495306
 30
0.0
  0
SPLINE
  5
B9
330
1F
100
AcDbEntity
  8
0
  6
Continuous
 62
     7
370
    15
100
AcDbSpline
210
0.0
220
0.0
230
1.0
 70
     8
 71
     3
 72
    19
 73
    15
 74
     0
 42
0.0000000001
 43
0.0000000001
 40
0.0
 40
0.0
 40
0.0
 40
0.0
 40
0.0863270700627799
 40
0.1677899186682456
 40
0.2444668546147807
 40
0.3184859233595891
 40
0.392245677720152
 40
0.4699939690691024
 40
0.5538418171814655
 40
0.6442897790951219
 40
0.7368378799834094
 40
0.8261440636828224
 40
0.9136665276725203
 40
1.0
 40
1.0
 40
1.0
 40
1.0
 10
2.037849502169922
 20
1.45276633776161
 30
0.0
 10
2.037664746218367
 20
1.45273724646128
 30
0.0
 10
2.037305644651934
 20
1.452680703051285
 30
0.0
 10
2.036794568371436
 20
1.452536073516393
 30
0.0
 10
2.036332385524062
 20
1.452335712339622
 30
0.0
 10
2.035909878446164
 20
1.452091761453237
 30
0.0
 10
2.035533328487085
 20
1.451778034799078
 30
0.0
 10
2.035183737406823
 20
1.45140463770115
 30
0.0
 10
2.034881715451257
 20
1.450948021406233
 30
0.0
 10
2.034603856747769
 20
1.45044062290246
 30
0.0
 10
2.034380850779518
 20
1.449893391066343
 30
0.0
 10
2.034212137855516
 20
1.44933429094462
 30
0.0
 10
2.034109337319875
 20
1.448771614852208
 30
0.0
 10
2.034097432565258
 20
1.448394921622157
 30
0.0
 10
2.034091520895947
 20
1.448207863099789
 30
0.0
  0
SPLINE
  5
BA
330
1F
100
AcDbEntity
  8
0
  6
Continuous
 62
     7
370
    15
100
AcDbSpline
210
0.0
220
0.0
230
1.0
 70
     8
 71
     3
 72
    15
 73
    11
 74
     0
 42
0.0000000001
 43
0.0000000001
 40
0.0
 40
0.0
 40
0.0
 40
0.0
 40
0.1910785917157202
 40
0.3626045563099717
 40
0.5160987502785597
 40
0.6500380260398399
 40
0.7659767209867913
 40
0.8623740257993889
 40
0.9408420582211753
 40
0.9999999999999998
 40
0.9999999999999998
 40
0.9999999999999998
 40
0.9999999999999998
 10
2.040467864778443
 20
1.45284520410524
 30
0.0
 10
2.040300931506537
 20
1.452845467007224
 30
0.0
 10
2.039984146855526
 20
1.452845965909044
 30
0.0
 10
2.039533256526337
 20
1.452842633435077
 30
0.0
 10
2.039132399051355
 20
1.45283330065435
 30
0.0
 10
2.038780029267508
 20
1.452827416742324
 30
0.0
 10
2.038477764096198
 20
1.45281432712739
 30
0.0
 10
2.03822396594837
 20
1.452803651947975
 30
0.0
 10
2.038019836575735
 20
1.45278992553229
 30
0.0
 10
2.037900708757676
 20
1.452773428808445
 30
0.0
 10
2.037849502169922
 20
1.45276633776161
 30
0.0
  0
LINE
  5
BB
330
1F
100
AcDbEntity
  8
0
  6
Continuous
 62
     7
370
    15
100
AcDbLine
 10
2.052262326468328
 20
1.45284520410524
 30
0.0
 11
2.040467864778443
 21
1.45284520410524
 31
0.0
  0
LINE
  5
BC
330
1F
100
AcDbEntity
  8
0
  6
Continuous
 62
     7
370
    15
100
AcDbLine
 10
2.052262326468328
 20
1.454611810202555
 30
0.0
 11
2.052262326468328
 21
1.45284520410524
 31
0.0
  0
LINE
  5
BD
330
1F
100
AcDbEntity
  8
0
  6
Continuous
 62
     7
370
    15
100
AcDbLine
 10
2.040373225166087
 20
1.454611810202555
 30
0.0
 11
2.052262326468328
 21
1.454611810202555
 31
0.0
  0
SPLINE
  5
BE
330
1F
100
AcDbEntity
  8
0
  6
Continuous
 62
     7
370
    15
100
AcDbSpline
210
0.0
220
0.0
230
1.0
 70
     8
 71
     3
 72
    15
 73
    11
 74
     0
 42
0.0000000001
 43
0.0000000001
 40
0.0
 40
0.0
 40
0.0
 40
0.0
 40
0.0781298651584262
 40
0.1694654174977344
 40
0.2743352908540849
 40
0.3921101633539204
 40
0.5236873298575191
 40
0.6683654211389634
 40
0.8271319021257836
 40
1.0
 40
1.0
 40
1.0
 40
1.0
 10
2.036224855491142
 20
1.454260854973401
 30
0.0
 10
2.036329650623028
 20
1.454289972848397
 30
0.0
 10
2.036556953597898
 20
1.454353130167725
 30
0.0
 10
2.036933143072349
 20
1.454420764012746
 30
0.0
 10
2.037366297839786
 20
1.45447762048992
 30
0.0
 10
2.037856447549393
 20
1.454531082572153
 30
0.0
 10
2.038403972108462
 20
1.454562629017354
 30
0.0
 10
2.039008634177469
 20
1.454590286152879
 30
0.0
 10
2.039671164895614
 20
1.454612005043748
 30
0.0
 10
2.040132663858593
 20
1.454611876964988
 30
0.0
 10
2.040373225166087
 20
1.454611810202555
 30
0.0
  0
LINE
  5
BF
330
1F
100
AcDbEntity
  8
0
  6
Continuous
 62
     7
370
    15
100
AcDbLine
 10
2.041662689884439
 20
1.421298666653191
 30
0.0
 11
2.032577287098249
 21
1.421298666653191
 31
0.0
  0
LINE
  5
C0
330
1F
100
AcDbEntity
  8
0
  6
Continuous
 62
     7
370
    15
100
AcDbLine
 10
2.041662689884439
 20
1.419890902419393
 30
0.0
 11
2.041662689884439
 21
1.421298666653191
 31
0.0
  0
SPLINE
  5
C1
330
1F
100
AcDbEntity
  8
0
  6
Continuous
 62
     7
370
    15
100
AcDbSpline
210
0.0
220
0.0
230
1.0
 70
     8
 71
     3
 72
    15
 73
    11
 74
     0
 42
0.0000000001
 43
0.0000000001
 40
0.0
 40
0.0
 40
0.0
 40
0.0
 40
0.0751731173762157
 40
0.1647462575117997
 40
0.2680168809877789
 40
0.3859118756529511
 40
0.5177894792734002
 40
0.6636909770022878
 40
0.8244132205366465
 40
1.0
 40
1.0
 40
1.0
 40
1.0
 10
2.041986041893323
 20
1.414878946281699
 30
0.0
 10
2.041959815903008
 20
1.415002272119671
 30
0.0
 10
2.04190234012038
 20
1.415272547864106
 30
0.0
 10
2.041838175571196
 20
1.415717670036084
 30
0.0
 10
2.041783408413235
 20
1.416235923050313
 30
0.0
 10
2.041742344647312
 20
1.416826599540276
 30
0.0
 10
2.041707190718955
 20
1.41748916930924
 30
0.0
 10
2.041679248683574
 20
1.418223990779035
 30
0.0
 10
2.04166389517494
 20
1.419032506398717
 30
0.0
 10
2.041663103314431
 20
1.419596461652248
 30
0.0
 10
2.041662689884439
 20
1.419890902419393
 30
0.0
  0
SPLINE
  5
C2
330
1F
100
AcDbEntity
  8
0
  6
Continuous
 62
     7
370
    15
100
AcDbSpline
210
0.0
220
0.0
230
1.0
 70
     8
 71
     3
 72
    23
 73
    19
 74
     0
 42
0.0000000001
 43
0.0000000001
 40
0.0
 40
0.0
 40
0.0
 40
0.0
 40
0.0701188944197147
 40
0.1371923527859707
 40
0.2020161807247498
 40
0.2646314069747437
 40
0.3261165471458156
 40
0.3860103046676402
 40
0.4458118469576802
 40
0.5052976967309606
 40
0.5646332777264883
 40
0.6242826253338392
 40
0.6839020319037471
 40
0.7439527709382636
 40
0.8053877310076334
 40
0.8683880308962727
 40
0.9330840282524738
 40
1.0
 40
1.0
 40
1.0
 40
1.0
 10
2.046982224762291
 20
1.410951402368918
 30
0.0
 10
2.046820369999707
 20
1.410953772586742
 30
0.0
 10
2.046503690224985
 20
1.410958410077998
 30
0.0
 10
2.046040401202552
 20
1.411014069725517
 30
0.0
 10
2.045597665600012
 20
1.411089042681753
 30
0.0
 10
2.045176465091185
 20
1.411204324190904
 30
0.0
 10
2.044779301027795
 20
1.411355312228578
 30
0.0
 10
2.044400103997307
 20
1.411532432885753
 30
0.0
 10
2.044045325190228
 20
1.411746063540251
 30
0.0
 10
2.043713676610129
 20
1.411991535023437
 30
0.0
 10
2.043404846957069
 20
1.412264603608325
 30
0.0
 10
2.04312107420964
 20
1.41256411394661
 30
0.0
 10
2.04286401943786
 20
1.412888856874058
 30
0.0
 10
2.042633106368791
 20
1.413237800339055
 30
0.0
 10
2.042433689723698
 20
1.413614346170531
 30
0.0
 10
2.042255077210056
 20
1.414012783479704
 30
0.0
 10
2.04210507124471
 20
1.414436575473078
 30
0.0
 10
2.04202616201284
 20
1.414729840456067
 30
0.0
 10
2.041986041893323
 20
1.414878946281699
 30
0.0
  0
SPLINE
  5
C3
330
1F
100
AcDbEntity
  8
0
  6
Continuous
 62
     7
370
    15
100
AcDbSpline
210
0.0
220
0.0
230
1.0
 70
     8
 71
     3
 72
    23
 73
    19
 74
     0
 42
0.0000000001
 43
0.0000000001
 40
0.0
 40
0.0
 40
0.0
 40
0.0
 40
0.0624679520043934
 40
0.1234639248648875
 40
0.1833717983676213
 40
0.2431011254066037
 40
0.3020620046996768
 40
0.3616321745127534
 40
0.4221706153210501
 40
0.4832471366200354
 40
0.544854287440116
 40
0.6059696561964941
 40
0.6679553912811651
 40
0.7300422384003323
 40
0.7945949387644077
 40
0.8603755406720072
 40
0.9289225878691841
 40
1.0
 40
1.0
 40
1.0
 40
1.0
 10
2.051966577679715
 20
1.414721213594438
 30
0.0
 10
2.051929334199629
 20
1.414585141654661
 30
0.0
 10
2.051855724835475
 20
1.414316204140148
 30
0.0
 10
2.0517082862627
 20
1.413928688860188
 30
0.0
 10
2.051533488782061
 20
1.413559977313369
 30
0.0
 10
2.051334188048929
 20
1.413208907469529
 30
0.0
 10
2.051102229686827
 20
1.412879413613596
 30
0.0
 10
2.050844951203114
 20
1.412567278007449
 30
0.0
 10
2.050562494141315
 20
1.412270710329808
 30
0.0
 10
2.05024938286567
 20
1.411999784894539
 30
0.0
 10
2.049917161695477
 20
1.411750363248302
 30
0.0
 10
2.049558431884014
 20
1.411536397312874
 30
0.0
 10
2.049181001049346
 20
1.411355410379049
 30
0.0
 10
2.048781003838151
 20
1.411207599177102
 30
0.0
 10
2.048360871327802
 20
1.411095205646402
 30
0.0
 10
2.047919377020371
 20
1.411012165757149
 30
0.0
 10
2.047458037926698
 20
1.410959035805658
 30
0.0
 10
2.047142733865269
 20
1.410953977405036
 30
0.0
 10
2.046982224762291
 20
1.410951402368918
 30
0.0
  0
SPLINE
  5
C4
330
1F
100
AcDbEntity
  8
0
  6
Continuous
 62
     7
370
    15
100
AcDbSpline
210
0.0
220
0.0
230
1.0
 70
     8
 71
     3
 72
    15
 73
    11
 74
     0
 42
0.0000000001
 43
0.0000000001
 40
0.0
 40
0.0
 40
0.0
 40
0.0
 40
0.1769557521312505
 40
0.3390550796425677
 40
0.4863182249420721
 40
0.6187809228353684
 40
0.7356188277673718
 40
0.8387424767201057
 40
0.9264570678763213
 40
1.0
 40
1.0
 40
1.0
 40
1.0
 10
2.052262326468328
 20
1.419204765229811
 30
0.0
 10
2.052262034588458
 20
1.418939237073727
 30
0.0
 10
2.052261475333665
 20
1.418430473334634
 30
0.0
 10
2.052244519507874
 20
1.417700917340771
 30
0.0
 10
2.052221872195767
 20
1.417038320424988
 30
0.0
 10
2.052190477970833
 20
1.416444111308414
 30
0.0
 10
2.052153376788339
 20
1.415916461712876
 30
0.0
 10
2.052101340571368
 20
1.415457759240736
 30
0.0
 10
2.052047008200427
 20
1.415064398406463
 30
0.0
 10
2.051991769693569
 20
1.414828704090116
 30
0.0
 10
2.051966577679715
 20
1.414721213594438
 30
0.0
  0
LINE
  5
C5
330
1F
100
AcDbEntity
  8
0
  6
Continuous
 62
     7
370
    15
100
AcDbLine
 10
2.052262326468328
 20
1.423065272750505
 30
0.0
 11
2.052262326468328
 21
1.419204765229811
 31
0.0
  0
LINE
  5
C6
330
1F
100
AcDbEntity
  8
0
  6
Continuous
 62
     7
370
    15
100
AcDbLine
 10
2.032577287098249
 20
1.423065272750505
 30
0.0
 11
2.052262326468328
 21
1.423065272750505
 31
0.0
  0
LINE
  5
C7
330
1F
100
AcDbEntity
  8
0
  6
Continuous
 62
     7
370
    15
100
AcDbLine
 10
2.032577287098249
 20
1.421298666653191
 30
0.0
 11
2.032577287098249
 21
1.423065272750505
 31
0.0
  0
SPLINE
  5
C8
330
1F
100
AcDbEntity
  8
0
  6
Continuous
 62
     7
370
    15
100
AcDbSpline
210
0.0
220
0.0
230
1.0
 70
     8
 71
     3
 72
    23
 73
    19
 74
     0
 42
0.0000000001
 43
0.0000000001
 40
0.0
 40
0.0
 40
0.0
 40
0.0
 40
0.0611502854746787
 40
0.1203148998353755
 40
0.1781511474811655
 40
0.2351966979029228
 40
0.2926351486644482
 40
0.3509055360381085
 40
0.4101662149080463
 40
0.4714194518785705
 40
0.5334506650941841
 40
0.595418361492532
 40
0.6575567001334387
 40
0.7213407095976053
 40
0.786857339282301
 40
0.8547098923438515
 40
0.9254901602093649
 40
1.0
 40
1.0
 40
1.0
 40
1.0
 10
1.998975154732583
 20
1.426346112645518
 30
0.0
 10
1.998782991187122
 20
1.426351608441933
 30
0.0
 10
1.998404904027843
 20
1.426362421575347
 30
0.0
 10
1.997849460261277
 20
1.426442149319831
 30
0.0
 10
1.997318724733048
 20
1.426577274178501
 30
0.0
 10
1.996808923836904
 20
1.42676294311537
 30
0.0
 10
1.996322943224428
 20
1.427006641277479
 30
0.0
 10
1.995854696396171
 20
1.427296822283035
 30
0.0
 10
1.995416657131569
 20
1.42765000934265
 30
0.0
 10
1.994998408372847
 20
1.428043686316177
 30
0.0
 10
1.994622573882974
 20
1.428489567837308
 30
0.0
 10
1.994287976827564
 20
1.428970569299921
 30
0.0
 10
1.994011542693359
 20
1.429493609087967
 30
0.0
 10
1.993782233825264
 20
1.430050576238326
 30
0.0
 10
1.993604520623889
 20
1.430645171815342
 30
0.0
 10
1.993481143877749
 20
1.431275191201575
 30
0.0
 10
1.993397818905754
 20
1.431940771305986
 30
0.0
 10
1.993390981002112
 20
1.43239752235046
 30
0.0
 10
1.993387474286389
 20
1.432631760232839
 30
0.0
  0
SPLINE
  5
C9
330
1F
100
AcDbEntity
  8
0
  6
Continuous
 62
     7
370
    15
100
AcDbSpline
210
0.0
220
0.0
230
1.0
 70
     8
 71
     3
 72
    19
 73
    15
 74
     0
 42
0.0000000001
 43
0.0000000001
 40
0.0
 40
0.0
 40
0.0
 40
0.0
 40
0.1060252086916216
 40
0.202852488624805
 40
0.2907048037985294
 40
0.3706028751134496
 40
0.4463326566578071
 40
0.5216857600227897
 40
0.5985565357997973
 40
0.6763842233266
 40
0.7557462883250171
 40
0.8349374339089624
 40
0.9166714222480484
 40
1.0
 40
1.0
 40
1.0
 40
1.0
 10
2.004006827456185
 20
1.430135640456946
 30
0.0
 10
2.003921038822909
 20
1.429911978553158
 30
0.0
 10
2.003756903916027
 20
1.429484057926039
 30
0.0
 10
2.00346513637056
 20
1.42889475919225
 30
0.0
 10
2.003151372202322
 20
1.428385002709126
 30
0.0
 10
2.002806912453783
 20
1.427954227385713
 30
0.0
 10
2.002430978405467
 20
1.427591365838695
 30
0.0
 10
2.00203109793022
 20
1.42726550863888
 30
0.0
 10
2.001587584352118
 20
1.426992513363934
 30
0.0
 10
2.001113066413191
 20
1.426757987411504
 30
0.0
 10
2.000610874514741
 20
1.426573417945655
 30
0.0
 10
2.000083305374
 20
1.42644282293767
 30
0.0
 10
1.999536258169282
 20
1.426362578661517
 30
0.0
 10
1.999163389911295
 20
1.426351636552986
 30
0.0
 10
1.998975154732583
 20
1.426346112645518
 30
0.0
  0
SPLINE
  5
CA
330
1F
100
AcDbEntity
  8
0
  6
Continuous
 62
     7
370
    15
100
AcDbSpline
210
0.0
220
0.0
230
1.0
 70
     8
 71
     3
 72
    15
 73
    11
 74
     0
 42
0.0000000001
 43
0.0000000001
 40
0.0
 40
0.0
 40
0.0
 40
0.0
 40
0.1305332798863285
 40
0.2565102048654822
 40
0.3802179000777181
 40
0.5032554306166741
 40
0.6253383287436786
 40
0.7476178527687319
 40
0.8718013049971411
 40
0.9999999999999998
 40
0.9999999999999998
 40
0.9999999999999998
 40
0.9999999999999998
 10
2.008194630302944
 20
1.427860346443217
 30
0.0
 10
2.007977200017272
 20
1.427866376194308
 30
0.0
 10
2.007549929001249
 20
1.427878225223834
 30
0.0
 10
2.00692600454206
 20
1.427995388622684
 30
0.0
 10
2.006329634737923
 20
1.4281698282109
 30
0.0
 10
2.005768171594073
 20
1.42842306295104
 30
0.0
 10
2.005248831129866
 20
1.428748801192751
 30
0.0
 10
2.004774699762548
 20
1.42914078956983
 30
0.0
 10
2.004357267670813
 20
1.429607502974703
 30
0.0
 10
2.004124873277746
 20
1.429957737292908
 30
0.0
 10
2.004006827456185
 20
1.430135640456946
 30
0.0
  0
SPLINE
  5
CB
330
1F
100
AcDbEntity
  8
0
  6
Continuous
 62
     7
370
    15
100
AcDbSpline
210
0.0
220
0.0
230
1.0
 70
     8
 71
     3
 72
    23
 73
    19
 74
     0
 42
0.0000000001
 43
0.0000000001
 40
0.0
 40
0.0
 40
0.0
 40
0.0
 40
0.0625940971873387
 40
0.1213229386347558
 40
0.1766801421977726
 40
0.2283650957096754
 40
0.2768684458368101
 40
0.3218791276660526
 40
0.3640986251098953
 40
0.4033556962427028
 40
0.4779679481633698
 40
0.5505354613647812
 40
0.6235844567403239
 40
0.6981748822642066
 40
0.7733536703408764
 40
0.8472811254977345
 40
0.9228183395566691
 40
1.0
 40
1.0
 40
1.0
 40
1.0
 10
2.013072513656468
 20
1.434114447493086
 30
0.0
 10
2.013071525184017
 20
1.43392643580474
 30
0.0
 10
2.013069609278398
 20
1.433562022360778
 30
0.0
 10
2.013039895379934
 20
1.433032104240256
 30
0.0
 10
2.012999379801314
 20
1.432535766722593
 30
0.0
 10
2.012935093565969
 20
1.432072865865729
 30
0.0
 10
2.012857524515658
 20
1.431643615571066
 30
0.0
 10
2.012763588542147
 20
1.431246722223271
 30
0.0
 10
2.012650952919768
 20
1.430883447913551
 30
0.0
 10
2.012471839976953
 20
1.430449742984382
 30
0.0
 10
2.012205680424929
 20
1.429955251078427
 30
0.0
 10
2.011812381408343
 20
1.429419827047477
 30
0.0
 10
2.011331321435788
 20
1.428961985431283
 30
0.0
 10
2.010788674329914
 20
1.428567236740389
 30
0.0
 10
2.010191735231202
 20
1.428253394672834
 30
0.0
 10
2.009554731919743
 20
1.428026345756547
 30
0.0
 10
2.008885880727844
 20
1.427882600675791
 30
0.0
 10
2.00842669525046
 20
1.427867817581213
 30
0.0
 10
2.008194630302944
 20
1.427860346443217
 30
0.0
  0
LINE
  5
CC
330
1F
100
AcDbEntity
  8
0
  6
Continuous
 62
     7
370
    15
100
AcDbLine
 10
2.013072513656468
 20
1.437955238427872
 30
0.0
 11
2.013072513656468
 21
1.434114447493086
 31
0.0
  0
LINE
  5
CD
330
1F
100
AcDbEntity
  8
0
  6
Continuous
 62
     7
370
    15
100
AcDbLine
 10
1.993387474286389
 20
1.437955238427872
 30
0.0
 11
2.013072513656468
 21
1.437955238427872
 31
0.0
  0
LINE
  5
CE
330
1F
100
AcDbEntity
  8
0
  6
Continuous
 62
     7
370
    15
100
AcDbLine
 10
1.993387474286389
 20
1.432631760232839
 30
0.0
 11
1.993387474286389
 21
1.437955238427872
 31
0.0
  0
CIRCLE
  5
CF
330
1F
100
AcDbEntity
  8
0
  6
Continuous
 62
     7
370
    15
100
AcDbCircle
 10
2.286148715669678
 20
1.066154864636502
 30
0.0
 40
0.0117142857142856
  0
LINE
  5
D0
330
1F
100
AcDbEntity
  8
0
  6
Continuous
 62
     7
370
    15
100
AcDbLine
 10
1.732577287098249
 20
1.637583436065074
 30
0.0
 11
1.732577287098249
 21
1.566154864636502
 31
0.0
  0
SPLINE
  5
D1
330
1F
100
AcDbEntity
  8
0
  6
Continuous
 62
     7
370
    15
100
AcDbSpline
210
0.0
220
0.0
230
1.0
 70
     8
 71
     3
 72
    23
 73
    19
 74
     0
 42
0.0000000001
 43
0.0000000001
 40
0.0
 40
0.0
 40
0.0
 40
0.0
 40
0.0572115432669893
 40
0.1137025660938814
 40
0.1686893406733768
 40
0.2241628359208772
 40
0.278726620041326
 40
0.3338041108232208
 40
0.3892545257721282
 40
0.4454091812951594
 40
0.5032947014112136
 40
0.5642689578498967
 40
0.6279541262014487
 40
0.6950208077673165
 40
0.7653592989350706
 40
0.8396022646025198
 40
0.9175330310454356
 40
1.0
 40
1.0
 40
1.0
 40
1.0
 10
2.032072542499016
 20
1.432726399845195
 30
0.0
 10
2.032075450479209
 20
1.432875073502706
 30
0.0
 10
2.03208122981658
 20
1.433170548426196
 30
0.0
 10
2.032131112446173
 20
1.433606418490462
 30
0.0
 10
2.032204265929086
 20
1.434034284657328
 30
0.0
 10
2.032315798493922
 20
1.43444877455274
 30
0.0
 10
2.032454304225685
 20
1.43485504932821
 30
0.0
 10
2.032623884454836
 20
1.435249487574266
 30
0.0
 10
2.032825761096817
 20
1.435633047598499
 30
0.0
 10
2.033060268525786
 20
1.436006177293006
 30
0.0
 10
2.033330530075363
 20
1.436372392612151
 30
0.0
 10
2.033642856667178
 20
1.436729816075136
 30
0.0
 10
2.033995090998844
 20
1.437082536638389
 30
0.0
 10
2.034390845317795
 20
1.437424088389791
 30
0.0
 10
2.034825891391641
 20
1.437760767019267
 30
0.0
 10
2.035303874480651
 20
1.438086311381913
 30
0.0
 10
2.035822313345431
 20
1.438407350517432
 30
0.0
 10
2.036187132994105
 20
1.438608788107246
 30
0.0
 10
2.03637470154404
 20
1.438712355326722
 30
0.0
  0
SPLINE
  5
D2
330
1F
100
AcDbEntity
  8
0
  6
Continuous
 62
     7
370
    15
100
AcDbSpline
210
0.0
220
0.0
230
1.0
 70
     8
 71
     3
 72
    23
 73
    19
 74
     0
 42
0.0000000001
 43
0.0000000001
 40
0.0
 40
0.0
 40
0.0
 40
0.0
 40
0.0614756615275077
 40
0.1217575072466983
 40
0.1808942726428184
 40
0.2402225344223205
 40
0.3000724973330753
 40
0.3608488559366671
 40
0.4234788206214092
 40
0.4883234230738722
 40
0.5535990415821664
 40
0.6172173047606657
 40
0.67986571295476
 40
0.7422234233041679
 40
0.8046905140399511
 40
0.8682774027859426
 40
0.9330296189554093
 40
1.0
 40
1.0
 40
1.0
 40
1.0
 10
2.037399964011231
 20
1.427103229544368
 30
0.0
 10
2.037223484159063
 20
1.427106927537563
 30
0.0
 10
2.03687395157421
 20
1.427114251711426
 30
0.0
 10
2.036360685690646
 20
1.427198366476666
 30
0.0
 10
2.035862274603039
 20
1.427321760222063
 30
0.0
 10
2.03538442749961
 20
1.427507155588347
 30
0.0
 10
2.034920750391761
 20
1.427735209402422
 30
0.0
 10
2.034475514399284
 20
1.428016888595974
 30
0.0
 10
2.034054840127133
 20
1.428356452682407
 30
0.0
 10
2.033649973385342
 20
1.428733864411745
 30
0.0
 10
2.033284262320885
 20
1.429153294282684
 30
0.0
 10
2.032957174732831
 20
1.42959554294344
 30
0.0
 10
2.032683404476348
 20
1.430063481519154
 30
0.0
 10
2.032463018713649
 20
1.430554845134863
 30
0.0
 10
2.032287921084933
 20
1.431066915667685
 30
0.0
 10
2.032162064568026
 20
1.431600232014669
 30
0.0
 10
2.032084644072775
 20
1.432156279301525
 30
0.0
 10
2.032076621390042
 20
1.432534238097027
 30
0.0
 10
2.032072542499016
 20
1.432726399845195
 30
0.0
  0
LINE
  5
D3
330
1F
100
AcDbEntity
  8
0
  6
Continuous
 62
     7
370
    15
100
AcDbLine
 10
2.050243348071397
 20
1.417698418066476
 30
0.0
 11
2.050243348071397
 21
1.421298666653191
 31
0.0
  0
SPLINE
  5
D4
330
1F
100
AcDbEntity
  8
0
  6
Continuous
 62
     7
370
    15
100
AcDbSpline
210
0.0
220
0.0
230
1.0
 70
     8
 71
     3
 72
    23
 73
    19
 74
     0
 42
0.0000000001
 43
0.0000000001
 40
0.0
 40
0.0
 40
0.0
 40
0.0
 40
0.0700344305736757
 40
0.139219780125913
 40
0.2081697379567565
 40
0.278842072852215
 40
0.349646082802786
 40
0.4184312795452224
 40
0.4876777977030801
 40
0.5574699944624326
 40
0.5953840299933554
 40
0.6380122489940251
 40
0.6859545917814128
 40
0.7382200197599414
 40
0.7961297918046608
 40
0.8585353794764635
 40
0.926667490440916
 40
1.0
 40
1.0
 40
1.0
 40
1.0
 10
2.046974338127928
 20
1.412718008466233
 30
0.0
 10
2.047132585185379
 20
1.412725131791808
 30
0.0
 10
2.047447160750046
 20
1.412739292081429
 30
0.0
 10
2.047908415091304
 20
1.412843896167776
 30
0.0
 10
2.048347125775085
 20
1.413021192708488
 30
0.0
 10
2.048759689979207
 20
1.41326042906229
 30
0.0
 10
2.049132279157452
 20
1.413557806928192
 30
0.0
 10
2.049453105743703
 20
1.413906099903157
 30
0.0
 10
2.049714523073856
 20
1.414298196078116
 30
0.0
 10
2.049882088817573
 20
1.414663118385042
 30
0.0
 10
2.049984569932211
 20
1.414987055792348
 30
0.0
 10
2.05005624270114
 20
1.415268457366016
 30
0.0
 10
2.050113475864648
 20
1.415586175487219
 30
0.0
 10
2.050159816493354
 20
1.415940325659942
 30
0.0
 10
2.050199487495082
 20
1.416328159161019
 30
0.0
 10
2.050226405179317
 20
1.416753009139696
 30
0.0
 10
2.050242161422858
 20
1.417213265832017
 30
0.0
 10
2.050242942945335
 20
1.417532785355939
 30
0.0
 10
2.050243348071397
 20
1.417698418066476
 30
0.0
  0
LINE
  5
D5
330
1F
100
AcDbEntity
  8
0
  6
Continuous
 62
     7
370
    15
100
AcDbLine
 10
2.050243348071397
 20
1.421298666653191
 30
0.0
 11
2.04368166828137
 21
1.421298666653191
 31
0.0
  0
LINE
  5
D6
330
1F
100
AcDbEntity
  8
0
  6
Continuous
 62
     7
370
    15
100
AcDbLine
 10
2.04368166828137
 20
1.421298666653191
 30
0.0
 11
2.043638291792374
 21
1.417852207436554
 31
0.0
  0
SPLINE
  5
D7
330
1F
100
AcDbEntity
  8
0
  6
Continuous
 62
     7
370
    15
100
AcDbSpline
210
0.0
220
0.0
230
1.0
 70
     8
 71
     3
 72
    23
 73
    19
 74
     0
 42
0.0000000001
 43
0.0000000001
 40
0.0
 40
0.0
 40
0.0
 40
0.0
 40
0.0725230069335575
 40
0.1400041697030139
 40
0.2030182249496236
 40
0.2605214593354694
 40
0.3137246436943846
 40
0.3615116154160313
 40
0.4053466078384506
 40
0.4445873704368792
 40
0.5168443183619331
 40
0.5864608351818638
 40
0.6554427559182046
 40
0.7247264870579994
 40
0.7940171675347605
 40
0.8616669889341398
 40
0.9301257456238019
 40
1.0
 40
1.0
 40
1.0
 40
1.0
 10
2.043638291792374
 20
1.417852207436554
 30
0.0
 10
2.043638186558709
 20
1.417683927243035
 30
0.0
 10
2.043637983407289
 20
1.417359065798821
 30
0.0
 10
2.043660705033971
 20
1.416888507139098
 30
0.0
 10
2.043685768509795
 20
1.416453057205004
 30
0.0
 10
2.043725018991617
 20
1.416051770356361
 30
0.0
 10
2.043776735188346
 20
1.415687713247965
 30
0.0
 10
2.043833027279959
 20
1.415356209691814
 30
0.0
 10
2.043909291862245
 20
1.415062112725661
 30
0.0
 10
2.044015630694325
 20
1.414717484932606
 30
0.0
 10
2.044193458900555
 20
1.414334767855193
 30
0.0
 10
2.044458232116317
 20
1.413921176567417
 30
0.0
 10
2.044786466446021
 20
1.413564990167615
 30
0.0
 10
2.045160586714886
 20
1.413258821216113
 30
0.0
 10
2.045578293411305
 20
1.413021541089832
 30
0.0
 10
2.046021708563057
 20
1.412843076182406
 30
0.0
 10
2.046491111182638
 20
1.412739121398806
 30
0.0
 10
2.046812167406244
 20
1.412725093955868
 30
0.0
 10
2.046974338127928
 20
1.412718008466233
 30
0.0
  0
LINE
  5
D8
330
1F
100
AcDbEntity
  8
0
  6
Continuous
 62
     7
370
    15
100
AcDbLine
 10
2.011053535259537
 20
1.45284520410524
 30
0.0
 11
2.00449185546951
 21
1.45284520410524
 31
0.0
  0
LINE
  5
D9
330
1F
100
AcDbEntity
  8
0
  6
Continuous
 62
     7
370
    15
100
AcDbLine
 10
2.00449185546951
 20
1.45284520410524
 30
0.0
 11
2.00446425224924
 21
1.449241012201343
 31
0.0
  0
SPLINE
  5
DA
330
1F
100
AcDbEntity
  8
0
  6
Continuous
 62
     7
370
    15
100
AcDbSpline
210
0.0
220
0.0
230
1.0
 70
     8
 71
     3
 72
    23
 73
    19
 74
     0
 42
0.0000000001
 43
0.0000000001
 40
0.0
 40
0.0
 40
0.0
 40
0.0
 40
0.0716629706079347
 40
0.1389032477582292
 40
0.2011700314998704
 40
0.2591057027619545
 40
0.3122324764340316
 40
0.3606554451105349
 40
0.4050568699320443
 40
0.4450694934880679
 40
0.5187402912085961
 40
0.5894189818156273
 40
0.6584146584613898
 40
0.727587276472125
 40
0.796337205582999
 40
0.8631847808223609
 40
0.9309543709046646
 40
1.0
 40
1.0
 40
1.0
 40
1.0
 10
2.00446425224924
 20
1.449241012201343
 30
0.0
 10
2.004464177802904
 20
1.449072733018007
 30
0.0
 10
2.004464033504703
 20
1.448746560032191
 30
0.0
 10
2.00448649568102
 20
1.448274677768439
 30
0.0
 10
2.004512048676791
 20
1.447835307093736
 30
0.0
 10
2.004551133777104
 20
1.447430128402606
 30
0.0
 10
2.004601505655792
 20
1.447058961290682
 30
0.0
 10
2.00466451367992
 20
1.446721989310197
 30
0.0
 10
2.004737925243665
 20
1.446418668814231
 30
0.0
 10
2.004851533021792
 20
1.446064892934308
 30
0.0
 10
2.005031626604309
 20
1.445669968774707
 30
0.0
 10
2.005293202271771
 20
1.445240238498217
 30
0.0
 10
2.005624336271575
 20
1.444875529986864
 30
0.0
 10
2.005996964873202
 20
1.44456108056184
 30
0.0
 10
2.006415088533663
 20
1.444318874417208
 30
0.0
 10
2.006860148319105
 20
1.444142590838139
 30
0.0
 10
2.00732830188221
 20
1.444031963069194
 30
0.0
 10
2.007649853310196
 20
1.444018810990816
 30
0.0
 10
2.007812128536338
 20
1.444012173618666
 30
0.0
  0
SPLINE
  5
DB
330
1F
100
AcDbEntity
  8
0
  6
Continuous
 62
     7
370
    15
100
AcDbSpline
210
0.0
220
0.0
230
1.0
 70
     8
 71
     3
 72
    23
 73
    19
 74
     0
 42
0.0000000001
 43
0.0000000001
 40
0.0
 40
0.0
 40
0.0
 40
0.0
 40
0.0688000963413589
 40
0.1363366863582797
 40
0.2037570176345468
 40
0.2727871557871953
 40
0.3426223236152579
 40
0.4110890380458393
 40
0.4792782870086715
 40
0.5494030541264995
 40
0.5877387120320618
 40
0.6307249325567066
 40
0.6789470970364402
 40
0.7325586399509266
 40
0.7911545260526204
 40
0.8553130510971941
 40
0.9251013968161892
 40
1.0
 40
1.0
 40
1.0
 40
1.0
 10
2.007812128536338
 20
1.444012173618666
 30
0.0
 10
2.007970477125617
 20
1.44401883139341
 30
0.0
 10
2.008284266249468
 20
1.444032024673584
 30
0.0
 10
2.008742384564618
 20
1.44414280518366
 30
0.0
 10
2.009177856226576
 20
1.444321699510545
 30
0.0
 10
2.009582380855088
 20
1.44457255075908
 30
0.0
 10
2.009952639527175
 20
1.444875666018522
 30
0.0
 10
2.010265063132992
 20
1.445235660460983
 30
0.0
 10
2.010526699693434
 20
1.445634404325081
 30
0.0
 10
2.010692673504208
 20
1.446007352706604
 30
0.0
 10
2.010794633850728
 20
1.446340469445152
 30
0.0
 10
2.010866293941477
 20
1.446629738885501
 30
0.0
 10
2.010924352707466
 20
1.446957830955283
 30
0.0
 10
2.010969492301059
 20
1.447323959367366
 30
0.0
 10
2.01101011277704
 20
1.447727461734842
 30
0.0
 10
2.01103645001773
 20
1.448169442925067
 30
0.0
 10
2.011052368250443
 20
1.448649392546936
 30
0.0
 10
2.011053137203516
 20
1.448982053864217
 30
0.0
 10
2.011053535259537
 20
1.44915425922335
 30
0.0
  0
LINE
  5
DC
330
1F
100
AcDbEntity
  8
0
  6
Continuous
 62
     7
370
    15
100
AcDbLine
 10
2.011053535259537
 20
1.44915425922335
 30
0.0
 11
2.011053535259537
 21
1.45284520410524
 31
0.0
  0
LINE
  5
DD
330
1F
100
AcDbEntity
  8
0
  6
Continuous
 62
     7
370
    15
100
AcDbLine
 10
2.011053535259537
 20
1.436188632330558
 30
0.0
 11
2.004744227769127
 21
1.436188632330558
 31
0.0
  0
LINE
  5
DE
330
1F
100
AcDbEntity
  8
0
  6
Continuous
 62
     7
370
    15
100
AcDbLine
 10
2.004744227769127
 20
1.436188632330558
 30
0.0
 11
2.004744227769127
 21
1.435001693858924
 31
0.0
  0
SPLINE
  5
DF
330
1F
100
AcDbEntity
  8
0
  6
Continuous
 62
     7
370
    15
100
AcDbSpline
210
0.0
220
0.0
230
1.0
 70
     8
 71
     3
 72
    23
 73
    19
 74
     0
 42
0.0000000001
 43
0.0000000001
 40
0.0
 40
0.0
 40
0.0
 40
0.0
 40
0.0722801227080908
 40
0.1396599268706401
 40
0.2027761868316684
 40
0.2605252728813998
 40
0.3136425818657401
 40
0.3621771442118846
 40
0.406131970333472
 40
0.4459539587379127
 40
0.5192247318132044
 40
0.5896904230409108
 40
0.6591729284855918
 40
0.7287158085119455
 40
0.7975481202541794
 40
0.8648544762129118
 40
0.9313836042176415
 40
1.0
 40
1.0
 40
1.0
 40
1.0
 10
2.004744227769127
 20
1.435001693858924
 30
0.0
 10
2.004746458337296
 20
1.434828189510495
 30
0.0
 10
2.004750768249561
 20
1.434492943751281
 30
0.0
 10
2.004763503223788
 20
1.43400616483612
 30
0.0
 10
2.004797600173156
 20
1.43355544875758
 30
0.0
 10
2.004833663322264
 20
1.433139242429459
 30
0.0
 10
2.00488919319232
 20
1.432760335447184
 30
0.0
 10
2.00495714615137
 20
1.432417459333835
 30
0.0
 10
2.005028384348205
 20
1.432107533986961
 30
0.0
 10
2.005149875930213
 20
1.431750284446291
 30
0.0
 10
2.005327607260095
 20
1.431345168203218
 30
0.0
 10
2.005609917608936
 20
1.430916043831488
 30
0.0
 10
2.005937035641841
 20
1.430531593526736
 30
0.0
 10
2.006321448267493
 20
1.430210582368709
 30
0.0
 10
2.006741141692857
 20
1.429945692050505
 30
0.0
 10
2.00719615333101
 20
1.429768915748506
 30
0.0
 10
2.00766871968089
 20
1.429643530640458
 30
0.0
 10
2.007993992291342
 20
1.429632535180645
 30
0.0
 10
2.008159140448311
 20
1.429626952540531
 30
0.0
  0
SPLINE
  5
E0
330
1F
100
AcDbEntity
  8
0
  6
Continuous
 62
     7
370
    15
100
AcDbSpline
210
0.0
220
0.0
230
1.0
 70
     8
 71
     3
 72
    23
 73
    19
 74
     0
 42
0.0000000001
 43
0.0000000001
 40
0.0
 40
0.0
 40
0.0
 40
0.0
 40
0.0569845297675241
 40
0.1117813778042165
 40
0.1641739805867626
 40
0.2158753637654514
 40
0.2665013362248397
 40
0.3175251795236823
 40
0.3694670461018481
 40
0.4229479003111666
 40
0.4792474700285406
 40
0.5387511432471655
 40
0.602560434105607
 40
0.671136904345517
 40
0.7445681839301177
 40
0.8235115864723983
 40
0.9087700949663558
 40
1.0
 40
1.0
 40
1.0
 40
1.0
 10
2.008159140448311
 20
1.429626952540531
 30
0.0
 10
2.008268448214082
 20
1.429629744653599
 30
0.0
 10
2.008482867332964
 20
1.429635221688278
 30
0.0
 10
2.008794237032206
 20
1.429685069215424
 30
0.0
 10
2.009090827655064
 20
1.429757398462095
 30
0.0
 10
2.009365817820871
 20
1.429870398811507
 30
0.0
 10
2.009627023538048
 20
1.43000703959149
 30
0.0
 10
2.009862842911795
 20
1.430184784447676
 30
0.0
 10
2.010086195532644
 20
1.430385518657779
 30
0.0
 10
2.010288880446309
 20
1.430621261448649
 30
0.0
 10
2.010470486922512
 20
1.43089087133999
 30
0.0
 10
2.010630284692156
 20
1.43119691721822
 30
0.0
 10
2.010756337742798
 20
1.431543053430241
 30
0.0
 10
2.010869414039646
 20
1.43192143172615
 30
0.0
 10
2.010947876666297
 20
1.432338107716411
 30
0.0
 10
2.011013481871755
 20
1.432789009907562
 30
0.0
 10
2.01104683081318
 20
1.43327796344024
 30
0.0
 10
2.011051250597031
 20
1.43361623637149
 30
0.0
 10
2.011053535259537
 20
1.433791095484202
 30
0.0
  0
LINE
  5
E1
330
1F
100
AcDbEntity
  8
0
  6
Continuous
 62
     7
370
    15
100
AcDbLine
 10
2.011053535259537
 20
1.433791095484202
 30
0.0
 11
2.011053535259537
 21
1.436188632330558
 31
0.0
  0
LINE
  5
E2
330
1F
100
AcDbEntity
  8
0
  6
Continuous
 62
     7
370
    15
100
AcDbLine
 10
2.002725249372196
 20
1.436188632330558
 30
0.0
 11
1.99540645268332
 21
1.436188632330558
 31
0.0
  0
LINE
  5
E3
330
1F
100
AcDbEntity
  8
0
  6
Continuous
 62
     7
370
    15
100
AcDbLine
 10
1.99540645268332
 20
1.436188632330558
 30
0.0
 11
1.99540645268332
 21
1.433672795968757
 31
0.0
  0
SPLINE
  5
E4
330
1F
100
AcDbEntity
  8
0
  6
Continuous
 62
     7
370
    15
100
AcDbSpline
210
0.0
220
0.0
230
1.0
 70
     8
 71
     3
 72
    23
 73
    19
 74
     0
 42
0.0000000001
 43
0.0000000001
 40
0.0
 40
0.0
 40
0.0
 40
0.0
 40
0.0724888511332085
 40
0.1397127042066308
 40
0.2017571769337906
 40
0.2592472087364336
 40
0.3121452051350224
 40
0.3607035142837044
 40
0.4044621901553464
 40
0.4436125804893632
 40
0.516741517957134
 40
0.5877616981682436
 40
0.6582358959696588
 40
0.7292265111284077
 40
0.7995516117166409
 40
0.8666608637948638
 40
0.9331289099511064
 40
1.0
 40
1.0
 40
1.0
 40
1.0
 10
1.99540645268332
 20
1.433672795968757
 30
0.0
 10
1.995408603454422
 20
1.433492711128121
 30
0.0
 10
1.99541274878218
 20
1.433145621338745
 30
0.0
 10
1.99542642928744
 20
1.432644501444839
 30
0.0
 10
1.995456893739624
 20
1.432181293526298
 30
0.0
 10
1.995506558921619
 20
1.431755731036361
 30
0.0
 10
1.995558165373216
 20
1.431364067865754
 30
0.0
 10
1.995629591197728
 20
1.431010195198628
 30
0.0
 10
1.995710793724203
 20
1.43069357052035
 30
0.0
 10
1.995836458480249
 20
1.43032648283367
 30
0.0
 10
1.99603134766944
 20
1.429912853105233
 30
0.0
 10
1.996327112877702
 20
1.429467415532163
 30
0.0
 10
1.99667483177431
 20
1.429067430877087
 30
0.0
 10
1.99708234551152
 20
1.428731663792853
 30
0.0
 10
1.997522092310597
 20
1.428454400500527
 30
0.0
 10
1.997991772146903
 20
1.428259939575992
 30
0.0
 10
1.998477056491077
 20
1.428134903987951
 30
0.0
 10
1.998808787744322
 20
1.428120128711603
 30
0.0
 10
1.998975154732583
 20
1.428112718742833
 30
0.0
  0
SPLINE
  5
E5
330
1F
100
AcDbEntity
  8
0
  6
Continuous
 62
     7
370
    15
100
AcDbSpline
210
0.0
220
0.0
230
1.0
 70
     8
 71
     3
 72
    19
 73
    15
 74
     0
 42
0.0000000001
 43
0.0000000001
 40
0.0
 40
0.0
 40
0.0
 40
0.0
 40
0.0602919481856717
 40
0.119611381826859
 40
0.1775167682807996
 40
0.2353970385390424
 40
0.2920791661554512
 40
0.3508222149317148
 40
0.4100533390536257
 40
0.4706915744096172
 40
0.5947981233309978
 40
0.7225578854257592
 40
0.8566805731689377
 40
1.0
 40
1.0
 40
1.0
 40
1.0
 10
1.998975154732583
 20
1.428112718742833
 30
0.0
 10
1.999079180228152
 20
1.428114233317373
 30
0.0
 10
1.999285553278696
 20
1.428117238036228
 30
0.0
 10
1.999588595672483
 20
1.428164256827752
 30
0.0
 10
1.999883452761448
 20
1.428229851109303
 30
0.0
 10
2.000165665875393
 20
1.42832483726704
 30
0.0
 10
2.000439827225354
 20
1.42844460711499
 30
0.0
 10
2.000701161350174
 20
1.428594913729892
 30
0.0
 10
2.000955916844219
 20
1.42876848939354
 30
0.0
 10
2.001277615300907
 20
1.429040019086488
 30
0.0
 10
2.001648392723954
 20
1.429434591024358
 30
0.0
 10
2.002011357236615
 20
1.429995403687287
 30
0.0
 10
2.002304093390708
 20
1.430633034079854
 30
0.0
 10
2.002428386862768
 20
1.431095507211419
 30
0.0
 10
2.002492593658486
 20
1.431334408880124
 30
0.0
  0
SPLINE
  5
E6
330
1F
100
AcDbEntity
  8
0
  6
Continuous
 62
     7
370
    15
100
AcDbSpline
210
0.0
220
0.0
230
1.0
 70
     8
 71
     3
 72
    15
 73
    11
 74
     0
 42
0.0000000001
 43
0.0000000001
 40
0.0
 40
0.0
 40
0.0
 40
0.0
 40
0.0793065686032116
 40
0.1719529990629653
 40
0.277056797631589
 40
0.3957951514862004
 40
0.52617682490764
 40
0.6713444223036025
 40
0.829285078351207
 40
1.0
 40
1.0
 40
1.0
 40
1.0
 10
2.002492593658486
 20
1.431334408880124
 30
0.0
 10
2.00251202738285
 20
1.431430185482753
 30
0.0
 10
2.002554163705805
 20
1.431637848912808
 30
0.0
 10
2.00259861385995
 20
1.431976475944782
 30
0.0
 10
2.002638487095292
 20
1.432364363195862
 30
0.0
 10
2.002667206963957
 20
1.432799852767628
 30
0.0
 10
2.002698037241632
 20
1.433284676658184
 30
0.0
 10
2.002709600476031
 20
1.433818679112865
 30
0.0
 10
2.002723714014551
 20
1.434402237650193
 30
0.0
 10
2.002724724494454
 20
1.434807144627266
 30
0.0
 10
2.002725249372196
 20
1.43501746712765
 30
0.0
  0
LINE
  5
E7
330
1F
100
AcDbEntity
  8
0
  6
Continuous
 62
     7
370
    15
100
AcDbLine
 10
2.002725249372196
 20
1.43501746712765
 30
0.0
 11
2.002725249372196
 21
1.436188632330558
 31
0.0
  0
LINE
  5
E8
330
1F
100
AcDbEntity
  8
0
  6
Continuous
 62
     7
370
    15
100
AcDbLine
 10
1.750434429955392
 20
2.457484835164856
 30
0.0
 11
1.750434429955392
 21
2.451770549450571
 31
0.0
  0
LINE
  5
E9
330
1F
100
AcDbEntity
  8
0
  6
Continuous
 62
     7
370
    15
100
AcDbLine
 10
2.214720144241106
 20
2.457484835164856
 30
0.0
 11
1.750434429955392
 21
2.457484835164856
 31
0.0
  0
LINE
  5
EA
330
1F
100
AcDbEntity
  8
0
  6
Continuous
 62
     7
370
    15
100
AcDbLine
 10
2.214720144241106
 20
2.451770549450571
 30
0.0
 11
2.214720144241106
 21
2.457484835164856
 31
0.0
  0
LINE
  5
EB
330
1F
100
AcDbEntity
  8
0
  6
Continuous
 62
     7
370
    15
100
AcDbLine
 10
2.214720144241106
 20
2.451770549450571
 30
0.0
 11
1.750434429955392
 21
2.451770549450571
 31
0.0
  0
LINE
  5
EC
330
1F
100
AcDbEntity
  8
0
  6
Continuous
 62
     7
370
    15
100
AcDbLine
 10
1.732577287098249
 20
2.451770549450571
 30
0.0
 11
1.732577287098249
 21
2.457484835164856
 31
0.0
  0
LINE
  5
ED
330
1F
100
AcDbEntity
  8
0
  6
Continuous
 62
     7
370
    15
100
AcDbLine
 10
1.732577287098249
 20
2.457484835164856
 30
0.0
 11
1.750434429955392
 21
2.457484835164856
 31
0.0
  0
LINE
  5
EE
330
1F
100
AcDbEntity
  8
0
  6
Continuous
 62
     7
370
    15
100
AcDbLine
 10
1.750434429955392
 20
2.451770549450571
 30
0.0
 11
1.732577287098249
 21
2.451770549450571
 31
0.0
  0
LINE
  5
EF
330
1F
100
AcDbEntity
  8
0
  6
Continuous
 62
     7
370
    15
100
AcDbLine
 10
2.232577287098249
 20
2.457484835164856
 30
0.0
 11
2.232577287098249
 21
2.451770549450571
 31
0.0
  0
LINE
  5
F0
330
1F
100
AcDbEntity
  8
0
  6
Continuous
 62
     7
370
    15
100
AcDbLine
 10
2.214720144241106
 20
2.457484835164856
 30
0.0
 11
2.232577287098249
 21
2.457484835164856
 31
0.0
  0
LINE
  5
F1
330
1F
100
AcDbEntity
  8
0
  6
Continuous
 62
     7
370
    15
100
AcDbLine
 10
2.232577287098249
 20
2.451770549450571
 30
0.0
 11
2.214720144241106
 21
2.451770549450571
 31
0.0
  0
LINE
  5
F2
330
1F
100
AcDbEntity
  8
0
  6
Continuous
 62
     7
370
    15
100
AcDbLine
 10
2.250434429955392
 20
2.457484835164857
 30
0.0
 11
2.250434429955392
 21
2.451770549450571
 31
0.0
  0
LINE
  5
F3
330
1F
100
AcDbEntity
  8
0
  6
Continuous
 62
     7
370
    15
100
AcDbLine
 10
2.232577287098249
 20
2.457484835164857
 30
0.0
 11
2.250434429955392
 21
2.457484835164857
 31
0.0
  0
LINE
  5
F4
330
1F
100
AcDbEntity
  8
0
  6
Continuous
 62
     7
370
    15
100
AcDbLine
 10
2.250434429955392
 20
2.451770549450571
 30
0.0
 11
2.232577287098249
 21
2.451770549450571
 31
0.0
  0
LINE
  5
F5
330
1F
100
AcDbEntity
  8
0
  6
Continuous
 62
     7
370
    15
100
AcDbLine
 10
2.321863001383963
 20
2.451770549450571
 30
0.0
 11
2.321863001383963
 21
2.457484835164857
 31
0.0
  0
LINE
  5
F6
330
1F
100
AcDbEntity
  8
0
  6
Continuous
 62
     7
370
    15
100
AcDbLine
 10
2.250434429955392
 20
2.457484835164857
 30
0.0
 11
2.321863001383963
 21
2.457484835164857
 31
0.0
  0
LINE
  5
F7
330
1F
100
AcDbEntity
  8
0
  6
Continuous
 62
     7
370
    15
100
AcDbLine
 10
2.250434429955392
 20
2.451770549450571
 30
0.0
 11
2.321863001383963
 21
2.451770549450571
 31
0.0
  0
LINE
  5
F8
330
1F
100
AcDbEntity
  8
0
  6
Continuous
 62
     7
370
    15
100
AcDbLine
 10
2.339720144241106
 20
2.457484835164857
 30
0.0
 11
2.339720144241106
 21
2.451770549450571
 31
0.0
  0
LINE
  5
F9
330
1F
100
AcDbEntity
  8
0
  6
Continuous
 62
     7
370
    15
100
AcDbLine
 10
2.321863001383963
 20
2.457484835164857
 30
0.0
 11
2.339720144241106
 21
2.457484835164857
 31
0.0
  0
LINE
  5
FA
330
1F
100
AcDbEntity
  8
0
  6
Continuous
 62
     7
370
    15
100
AcDbLine
 10
2.339720144241106
 20
2.451770549450571
 30
0.0
 11
2.321863001383963
 21
2.451770549450571
 31
0.0
  0
LINE
  5
FB
330
1F
100
AcDbEntity
  8
0
  6
Continuous
 62
     7
370
    15
100
AcDbLine
 10
0.7837794100067615
 20
1.566154864636502
 30
0.0
 11
0.7894936957210473
 21
1.566154864636502
 31
0.0
  0
LINE
  5
FC
330
1F
100
AcDbEntity
  8
0
  6
Continuous
 62
     7
370
    15
100
AcDbLine
 10
0.7894936957210473
 20
1.566154864636502
 30
0.0
 11
0.7894936957210473
 21
1.548297721779359
 31
0.0
  0
LINE
  5
FD
330
1F
100
AcDbEntity
  8
0
  6
Continuous
 62
     7
370
    15
100
AcDbLine
 10
0.7894936957210473
 20
1.548297721779359
 30
0.0
 11
0.7837794100067615
 21
1.548297721779359
 31
0.0
  0
LINE
  5
FE
330
1F
100
AcDbEntity
  8
0
  6
Continuous
 62
     7
370
    15
100
AcDbLine
 10
0.7837794100067615
 20
1.548297721779359
 30
0.0
 11
0.7837794100067615
 21
1.566154864636502
 31
0.0
  0
LINE
  5
FF
330
1F
100
AcDbEntity
  8
0
  6
Continuous
 62
     7
370
    15
100
AcDbLine
 10
0.7894936957210473
 20
1.637583436065074
 30
0.0
 11
0.7837794100067615
 21
1.637583436065074
 31
0.0
  0
LINE
  5
100
330
1F
100
AcDbEntity
  8
0
  6
Continuous
 62
     7
370
    15
100
AcDbLine
 10
0.7894936957210473
 20
1.637583436065074
 30
0.0
 11
0.7894936957210473
 21
1.566154864636502
 31
0.0
  0
LINE
  5
101
330
1F
100
AcDbEntity
  8
0
  6
Continuous
 62
     7
370
    15
100
AcDbLine
 10
0.7837794100067615
 20
1.637583436065074
 30
0.0
 11
0.7837794100067615
 21
1.566154864636502
 31
0.0
  0
LINE
  5
102
330
1F
100
AcDbEntity
  8
0
  6
Continuous
 62
     7
370
    15
100
AcDbLine
 10
0.7837794100067615
 20
1.351869150350788
 30
0.0
 11
0.7894936957210473
 21
1.351869150350788
 31
0.0
  0
LINE
  5
103
330
1F
100
AcDbEntity
  8
0
  6
Continuous
 62
     7
370
    15
100
AcDbLine
 10
0.7894936957210473
 20
1.423297721779359
 30
0.0
 11
0.7837794100067615
 21
1.423297721779359
 31
0.0
  0
LINE
  5
104
330
1F
100
AcDbEntity
  8
0
  6
Continuous
 62
     7
370
    15
100
AcDbLine
 10
0.7894936957210473
 20
1.423297721779359
 30
0.0
 11
0.7894936957210473
 21
1.351869150350788
 31
0.0
  0
LINE
  5
105
330
1F
100
AcDbEntity
  8
0
  6
Continuous
 62
     7
370
    15
100
AcDbLine
 10
0.7837794100067615
 20
1.423297721779359
 30
0.0
 11
0.7837794100067615
 21
1.351869150350788
 31
0.0
  0
LINE
  5
106
330
1F
100
AcDbEntity
  8
0
  6
Continuous
 62
     7
370
    15
100
AcDbLine
 10
0.7837794100067615
 20
1.655440578922216
 30
0.0
 11
0.7894936957210473
 21
1.655440578922217
 31
0.0
  0
LINE
  5
107
330
1F
100
AcDbEntity
  8
0
  6
Continuous
 62
     7
370
    15
100
AcDbLine
 10
0.7894936957210473
 20
1.655440578922217
 30
0.0
 11
0.7894936957210473
 21
1.637583436065074
 31
0.0
  0
LINE
  5
108
330
1F
100
AcDbEntity
  8
0
  6
Continuous
 62
     7
370
    15
100
AcDbLine
 10
0.7837794100067615
 20
1.637583436065074
 30
0.0
 11
0.7837794100067615
 21
1.655440578922216
 31
0.0
  0
LINE
  5
109
330
1F
100
AcDbEntity
  8
0
  6
Continuous
 62
     7
370
    15
100
AcDbLine
 10
0.7894936957210473
 20
1.351869150350788
 30
0.0
 11
0.7894936957210473
 21
1.334012007493645
 31
0.0
  0
LINE
  5
10A
330
1F
100
AcDbEntity
  8
0
  6
Continuous
 62
     7
370
    15
100
AcDbLine
 10
0.7894936957210473
 20
1.334012007493645
 30
0.0
 11
0.7837794100067615
 21
1.334012007493645
 31
0.0
  0
LINE
  5
10B
330
1F
100
AcDbEntity
  8
0
  6
Continuous
 62
     7
370
    15
100
AcDbLine
 10
0.7837794100067615
 20
1.334012007493645
 30
0.0
 11
0.7837794100067615
 21
1.351869150350788
 31
0.0
  0
LINE
  5
10C
330
1F
100
AcDbEntity
  8
0
  6
Continuous
 62
     7
370
    15
100
AcDbLine
 10
0.7837794100067615
 20
1.441154864636502
 30
0.0
 11
0.7894936957210473
 21
1.441154864636502
 31
0.0
  0
LINE
  5
10D
330
1F
100
AcDbEntity
  8
0
  6
Continuous
 62
     7
370
    15
100
AcDbLine
 10
0.7894936957210473
 20
1.441154864636502
 30
0.0
 11
0.7894936957210473
 21
1.423297721779359
 31
0.0
  0
LINE
  5
10E
330
1F
100
AcDbEntity
  8
0
  6
Continuous
 62
     7
370
    15
100
AcDbLine
 10
0.7837794100067615
 20
1.423297721779359
 30
0.0
 11
0.7837794100067615
 21
1.441154864636502
 31
0.0
  0
LINE
  5
10F
330
1F
100
AcDbEntity
  8
0
  6
Continuous
 62
     7
370
    15
100
AcDbLine
 10
0.7837794100067615
 20
1.137583436065074
 30
0.0
 11
0.7894936957210473
 21
1.137583436065074
 31
0.0
  0
LINE
  5
110
330
1F
100
AcDbEntity
  8
0
  6
Continuous
 62
     7
370
    15
100
AcDbLine
 10
0.7894936957210473
 20
1.209012007493645
 30
0.0
 11
0.7837794100067615
 21
1.209012007493645
 31
0.0
  0
LINE
  5
111
330
1F
100
AcDbEntity
  8
0
  6
Continuous
 62
     7
370
    15
100
AcDbLine
 10
0.7894936957210473
 20
1.209012007493645
 30
0.0
 11
0.7894936957210473
 21
1.137583436065074
 31
0.0
  0
LINE
  5
112
330
1F
100
AcDbEntity
  8
0
  6
Continuous
 62
     7
370
    15
100
AcDbLine
 10
0.7837794100067615
 20
1.209012007493645
 30
0.0
 11
0.7837794100067615
 21
1.137583436065074
 31
0.0
  0
LINE
  5
113
330
1F
100
AcDbEntity
  8
0
  6
Continuous
 62
     7
370
    15
100
AcDbLine
 10
0.7894936957210473
 20
1.119726293207931
 30
0.0
 11
0.7837794100067615
 21
1.119726293207931
 31
0.0
  0
LINE
  5
114
330
1F
100
AcDbEntity
  8
0
  6
Continuous
 62
     7
370
    15
100
AcDbLine
 10
0.7894936957210473
 20
1.137583436065074
 30
0.0
 11
0.7894936957210473
 21
1.119726293207931
 31
0.0
  0
LINE
  5
115
330
1F
100
AcDbEntity
  8
0
  6
Continuous
 62
     7
370
    15
100
AcDbLine
 10
0.7837794100067615
 20
1.119726293207931
 30
0.0
 11
0.7837794100067615
 21
1.137583436065074
 31
0.0
  0
LINE
  5
116
330
1F
100
AcDbEntity
  8
0
  6
Continuous
 62
     7
370
    15
100
AcDbLine
 10
0.7837794100067615
 20
1.226869150350788
 30
0.0
 11
0.7894936957210473
 21
1.226869150350788
 31
0.0
  0
LINE
  5
117
330
1F
100
AcDbEntity
  8
0
  6
Continuous
 62
     7
370
    15
100
AcDbLine
 10
0.7894936957210473
 20
1.226869150350788
 30
0.0
 11
0.7894936957210473
 21
1.209012007493645
 31
0.0
  0
LINE
  5
118
330
1F
100
AcDbEntity
  8
0
  6
Continuous
 62
     7
370
    15
100
AcDbLine
 10
0.7837794100067615
 20
1.209012007493645
 30
0.0
 11
0.7837794100067615
 21
1.226869150350788
 31
0.0
  0
LINE
  5
119
330
1F
100
AcDbEntity
  8
0
  6
Continuous
 62
     7
370
    15
100
AcDbLine
 10
0.7837794100067615
 20
0.9232977217793603
 30
0.0
 11
0.7894936957210473
 21
0.9232977217793603
 31
0.0
  0
LINE
  5
11A
330
1F
100
AcDbEntity
  8
0
  6
Continuous
 62
     7
370
    15
100
AcDbLine
 10
0.7894936957210473
 20
0.9054405789222171
 30
0.0
 11
0.7837794100067615
 21
0.9054405789222171
 31
0.0
  0
LINE
  5
11B
330
1F
100
AcDbEntity
  8
0
  6
Continuous
 62
     7
370
    15
100
AcDbLine
 10
0.7894936957210473
 20
0.9232977217793603
 30
0.0
 11
0.7894936957210473
 21
0.9054405789222171
 31
0.0
  0
LINE
  5
11C
330
1F
100
AcDbEntity
  8
0
  6
Continuous
 62
     7
370
    15
100
AcDbLine
 10
0.7837794100067615
 20
0.9054405789222171
 30
0.0
 11
0.7837794100067615
 21
0.9232977217793603
 31
0.0
  0
LINE
  5
11D
330
1F
100
AcDbEntity
  8
0
  6
Continuous
 62
     7
370
    15
100
AcDbLine
 10
0.7894936957210473
 20
0.9947262932079313
 30
0.0
 11
0.7837794100067615
 21
0.9947262932079313
 31
0.0
  0
LINE
  5
11E
330
1F
100
AcDbEntity
  8
0
  6
Continuous
 62
     7
370
    15
100
AcDbLine
 10
0.7894936957210473
 20
0.9947262932079313
 30
0.0
 11
0.7894936957210473
 21
0.9232977217793603
 31
0.0
  0
LINE
  5
11F
330
1F
100
AcDbEntity
  8
0
  6
Continuous
 62
     7
370
    15
100
AcDbLine
 10
0.7837794100067615
 20
0.9947262932079313
 30
0.0
 11
0.7837794100067615
 21
0.9232977217793603
 31
0.0
  0
LINE
  5
120
330
1F
100
AcDbEntity
  8
0
  6
Continuous
 62
     7
370
    15
100
AcDbLine
 10
0.7837794100067615
 20
1.012583436065074
 30
0.0
 11
0.7894936957210473
 21
1.012583436065074
 31
0.0
  0
LINE
  5
121
330
1F
100
AcDbEntity
  8
0
  6
Continuous
 62
     7
370
    15
100
AcDbLine
 10
0.7894936957210473
 20
1.012583436065074
 30
0.0
 11
0.7894936957210473
 21
0.9947262932079313
 31
0.0
  0
LINE
  5
122
330
1F
100
AcDbEntity
  8
0
  6
Continuous
 62
     7
370
    15
100
AcDbLine
 10
0.7837794100067615
 20
0.9947262932079313
 30
0.0
 11
0.7837794100067615
 21
1.012583436065074
 31
0.0
  0
LINE
  5
123
330
1F
100
AcDbEntity
  8
0
  6
Continuous
 62
     7
370
    15
100
AcDbLine
 10
0.7837794100067612
 20
1.244726293207931
 30
0.0
 11
0.7894936957210469
 21
1.244726293207931
 31
0.0
  0
LINE
  5
124
330
1F
100
AcDbEntity
  8
0
  6
Continuous
 62
     7
370
    15
100
AcDbLine
 10
0.7894936957210469
 20
1.244726293207931
 30
0.0
 11
0.7894936957210469
 21
1.226869150350788
 31
0.0
  0
LINE
  5
125
330
1F
100
AcDbEntity
  8
0
  6
Continuous
 62
     7
370
    15
100
AcDbLine
 10
0.7837794100067612
 20
1.226869150350788
 30
0.0
 11
0.7837794100067612
 21
1.244726293207931
 31
0.0
  0
LINE
  5
126
330
1F
100
AcDbEntity
  8
0
  6
Continuous
 62
     7
370
    15
100
AcDbLine
 10
0.7837794100067612
 20
1.030440578922216
 30
0.0
 11
0.7894936957210469
 21
1.030440578922216
 31
0.0
  0
LINE
  5
127
330
1F
100
AcDbEntity
  8
0
  6
Continuous
 62
     7
370
    15
100
AcDbLine
 10
0.7894936957210469
 20
1.030440578922216
 30
0.0
 11
0.7894936957210469
 21
1.012583436065073
 31
0.0
  0
LINE
  5
128
330
1F
100
AcDbEntity
  8
0
  6
Continuous
 62
     7
370
    15
100
AcDbLine
 10
0.7837794100067612
 20
1.012583436065073
 30
0.0
 11
0.7837794100067612
 21
1.030440578922216
 31
0.0
  0
LINE
  5
129
330
1F
100
AcDbEntity
  8
0
  6
Continuous
 62
     7
370
    15
100
AcDbLine
 10
0.7837794100067612
 20
1.459012007493645
 30
0.0
 11
0.7894936957210469
 21
1.459012007493645
 31
0.0
  0
LINE
  5
12A
330
1F
100
AcDbEntity
  8
0
  6
Continuous
 62
     7
370
    15
100
AcDbLine
 10
0.7894936957210469
 20
1.459012007493645
 30
0.0
 11
0.7894936957210469
 21
1.441154864636502
 31
0.0
  0
LINE
  5
12B
330
1F
100
AcDbEntity
  8
0
  6
Continuous
 62
     7
370
    15
100
AcDbLine
 10
0.7837794100067612
 20
1.441154864636502
 30
0.0
 11
0.7837794100067612
 21
1.459012007493645
 31
0.0
  0
LINE
  5
12C
330
1F
100
AcDbEntity
  8
0
  6
Continuous
 62
     7
370
    15
100
AcDbLine
 10
0.7894936957210469
 20
1.101869150350788
 30
0.0
 11
0.7837794100067612
 21
1.101869150350788
 31
0.0
  0
LINE
  5
12D
330
1F
100
AcDbEntity
  8
0
  6
Continuous
 62
     7
370
    15
100
AcDbLine
 10
0.7894936957210469
 20
1.119726293207931
 30
0.0
 11
0.7894936957210469
 21
1.101869150350788
 31
0.0
  0
LINE
  5
12E
330
1F
100
AcDbEntity
  8
0
  6
Continuous
 62
     7
370
    15
100
AcDbLine
 10
0.7837794100067612
 20
1.101869150350788
 30
0.0
 11
0.7837794100067612
 21
1.119726293207931
 31
0.0
  0
LINE
  5
12F
330
1F
100
AcDbEntity
  8
0
  6
Continuous
 62
     7
370
    15
100
AcDbLine
 10
0.7894936957210469
 20
1.316154864636502
 30
0.0
 11
0.7837794100067612
 21
1.316154864636502
 31
0.0
  0
LINE
  5
130
330
1F
100
AcDbEntity
  8
0
  6
Continuous
 62
     7
370
    15
100
AcDbLine
 10
0.7894936957210469
 20
1.334012007493645
 30
0.0
 11
0.7894936957210469
 21
1.316154864636502
 31
0.0
  0
LINE
  5
131
330
1F
100
AcDbEntity
  8
0
  6
Continuous
 62
     7
370
    15
100
AcDbLine
 10
0.7837794100067612
 20
1.316154864636502
 30
0.0
 11
0.7837794100067612
 21
1.334012007493645
 31
0.0
  0
LINE
  5
132
330
1F
100
AcDbEntity
  8
0
  6
Continuous
 62
     7
370
    15
100
AcDbLine
 10
0.7894936957210469
 20
1.530440578922216
 30
0.0
 11
0.7837794100067612
 21
1.530440578922216
 31
0.0
  0
LINE
  5
133
330
1F
100
AcDbEntity
  8
0
  6
Continuous
 62
     7
370
    15
100
AcDbLine
 10
0.7894936957210469
 20
1.548297721779359
 30
0.0
 11
0.7894936957210469
 21
1.530440578922216
 31
0.0
  0
LINE
  5
134
330
1F
100
AcDbEntity
  8
0
  6
Continuous
 62
     7
370
    15
100
AcDbLine
 10
0.7837794100067612
 20
1.530440578922216
 30
0.0
 11
0.7837794100067612
 21
1.548297721779359
 31
0.0
  0
LINE
  5
135
330
1F
100
AcDbEntity
  8
0
  6
Continuous
 62
     7
370
    15
100
AcDbLine
 10
0.7894936957210469
 20
0.8875834360650737
 30
0.0
 11
0.7837794100067612
 21
0.8875834360650737
 31
0.0
  0
LINE
  5
136
330
1F
100
AcDbEntity
  8
0
  6
Continuous
 62
     7
370
    15
100
AcDbLine
 10
0.7894936957210469
 20
0.9054405789222165
 30
0.0
 11
0.7894936957210469
 21
0.8875834360650737
 31
0.0
  0
LINE
  5
137
330
1F
100
AcDbEntity
  8
0
  6
Continuous
 62
     7
370
    15
100
AcDbLine
 10
0.7837794100067612
 20
0.8875834360650737
 30
0.0
 11
0.7837794100067612
 21
0.9054405789222165
 31
0.0
  0
LINE
  5
138
330
1F
100
AcDbEntity
  8
0
  6
Continuous
 62
     7
370
    15
100
AcDbLine
 10
0.7894936957210469
 20
1.030440578922216
 30
0.0
 11
0.7894936957210469
 21
1.101869150350788
 31
0.0
  0
LINE
  5
139
330
1F
100
AcDbEntity
  8
0
  6
Continuous
 62
     7
370
    15
100
AcDbLine
 10
0.7837794100067612
 20
1.030440578922216
 30
0.0
 11
0.7837794100067612
 21
1.101869150350788
 31
0.0
  0
LINE
  5
13A
330
1F
100
AcDbEntity
  8
0
  6
Continuous
 62
     7
370
    15
100
AcDbLine
 10
0.7894936957210469
 20
1.459012007493645
 30
0.0
 11
0.7894936957210469
 21
1.530440578922216
 31
0.0
  0
LINE
  5
13B
330
1F
100
AcDbEntity
  8
0
  6
Continuous
 62
     7
370
    15
100
AcDbLine
 10
0.7837794100067612
 20
1.459012007493645
 30
0.0
 11
0.7837794100067612
 21
1.530440578922216
 31
0.0
  0
LINE
  5
13C
330
1F
100
AcDbEntity
  8
0
  6
Continuous
 62
     7
370
    15
100
AcDbLine
 10
0.7894936957210469
 20
1.244726293207931
 30
0.0
 11
0.7894936957210469
 21
1.316154864636502
 31
0.0
  0
LINE
  5
13D
330
1F
100
AcDbEntity
  8
0
  6
Continuous
 62
     7
370
    15
100
AcDbLine
 10
0.7837794100067612
 20
1.244726293207931
 30
0.0
 11
0.7837794100067612
 21
1.316154864636502
 31
0.0
  0
LINE
  5
13E
330
1F
100
AcDbEntity
  8
0
  6
Continuous
 62
     7
370
    15
100
AcDbLine
 10
0.7837794100067612
 20
0.8161548646365025
 30
0.0
 11
0.7894936957210469
 21
0.8161548646365025
 31
0.0
  0
LINE
  5
13F
330
1F
100
AcDbEntity
  8
0
  6
Continuous
 62
     7
370
    15
100
AcDbLine
 10
0.7894936957210468
 20
0.7982977217793598
 30
0.0
 11
0.783779410006761
 21
0.7982977217793598
 31
0.0
  0
LINE
  5
140
330
1F
100
AcDbEntity
  8
0
  6
Continuous
 62
     7
370
    15
100
AcDbLine
 10
0.7894936957210469
 20
0.8161548646365025
 30
0.0
 11
0.7894936957210468
 21
0.7982977217793598
 31
0.0
  0
LINE
  5
141
330
1F
100
AcDbEntity
  8
0
  6
Continuous
 62
     7
370
    15
100
AcDbLine
 10
0.783779410006761
 20
0.7982977217793598
 30
0.0
 11
0.7837794100067612
 21
0.8161548646365025
 31
0.0
  0
LINE
  5
142
330
1F
100
AcDbEntity
  8
0
  6
Continuous
 62
     7
370
    15
100
AcDbLine
 10
0.7894936957210469
 20
0.8161548646365025
 30
0.0
 11
0.7894936957210469
 21
0.8875834360650737
 31
0.0
  0
LINE
  5
143
330
1F
100
AcDbEntity
  8
0
  6
Continuous
 62
     7
370
    15
100
AcDbLine
 10
0.7837794100067612
 20
0.8161548646365025
 30
0.0
 11
0.7837794100067612
 21
0.8875834360650737
 31
0.0
  0
ENDSEC
  0
SECTION
  2
OBJECTS
  0
DICTIONARY
  5
C
330
0
100
AcDbDictionary
281
     1
  3
ACAD_COLOR
350
147
  3
ACAD_GROUP
350
D
  3
ACAD_LAYOUT
350
1A
  3
ACAD_MATERIAL
350
146
  3
ACAD_MLINESTYLE
350
17
  3
ACAD_PLOTSETTINGS
350
19
  3
ACAD_PLOTSTYLENAME
350
E
  3
ACDBHEADERROUNDTRIPXREC
350
165
  3
AcDbVariableDictionary
350
14A
  0
DICTIONARY
  5
147
102
{ACAD_REACTORS
330
C
102
}
330
C
100
AcDbDictionary
281
     1
  0
DICTIONARY
  5
D
102
{ACAD_REACTORS
330
C
102
}
330
C
100
AcDbDictionary
281
     1
  0
DICTIONARY
  5
1A
102
{ACAD_REACTORS
330
C
102
}
330
C
100
AcDbDictionary
281
     1
  3
Layout1
350
1E
  3
Layout2
350
26
  3
Model
350
22
  0
DICTIONARY
  5
146
102
{ACAD_REACTORS
330
C
102
}
330
C
100
AcDbDictionary
281
     1
  0
DICTIONARY
  5
17
102
{ACAD_REACTORS
330
C
102
}
330
C
100
AcDbDictionary
281
     1
  3
Standard
350
18
  0
DICTIONARY
  5
19
102
{ACAD_REACTORS
330
C
102
}
330
C
100
AcDbDictionary
281
     1
  0
ACDBDICTIONARYWDFLT
  5
E
102
{ACAD_REACTORS
330
C
102
}
330
C
100
AcDbDictionary
281
     1
  3
Normal
350
F
100
AcDbDictionaryWithDefault
340
F
  0
DICTIONARY
  5
165
102
{ACAD_REACTORS
330
C
102
}
330
C
100
AcDbDictionary
281
     1
  3
COLORDICT
350
167
  3
MATERIALDICT
350
166
  0
DICTIONARY
  5
14A
102
{ACAD_REACTORS
330
C
102
}
330
C
100
AcDbDictionary
281
     1
  3
DIMASSOC
350
14B
  3
PROJECTNAME
350
14C
  0
LAYOUT
  5
1E
102
{ACAD_XDICTIONARY
360
168
102
}
102
{ACAD_REACTORS
330
1A
102
}
330
1A
100
AcDbPlotSettings
  1

  2
none_device
  4

  6

 40
0.0
 41
0.0
 42
0.0
 43
0.0
 44
0.0
 45
0.0
 46
0.0
 47
0.0
 48
0.0
 49
0.0
140
0.0
141
0.0
142
1.0
143
1.0
 70
   688
 72
     0
 73
     0
 74
     5
  7

 75
    16
147
1.0
148
0.0
149
0.0
100
AcDbLayout
  1
Layout1
 70
     1
 71
     1
 10
0.0
 20
0.0
 11
12.0
 21
9.0
 12
0.0
 22
0.0
 32
0.0
 14
1.000000000000000E+20
 24
1.000000000000000E+20
 34
1.000000000000000E+20
 15
-1.000000000000000E+20
 25
-1.000000000000000E+20
 35
-1.000000000000000E+20
146
0.0
 13
0.0
 23
0.0
 33
0.0
 16
1.0
 26
0.0
 36
0.0
 17
0.0
 27
1.0
 37
0.0
 76
     0
330
1B
  0
LAYOUT
  5
26
102
{ACAD_XDICTIONARY
360
16C
102
}
102
{ACAD_REACTORS
330
1A
102
}
330
1A
100
AcDbPlotSettings
  1

  2
none_device
  4

  6

 40
0.0
 41
0.0
 42
0.0
 43
0.0
 44
0.0
 45
0.0
 46
0.0
 47
0.0
 48
0.0
 49
0.0
140
0.0
141
0.0
142
1.0
143
1.0
 70
   688
 72
     0
 73
     0
 74
     5
  7

 75
    16
147
1.0
148
0.0
149
0.0
100
AcDbLayout
  1
Layout2
 70
     1
 71
     2
 10
0.0
 20
0.0
 11
0.0
 21
0.0
 12
0.0
 22
0.0
 32
0.0
 14
0.0
 24
0.0
 34
0.0
 15
0.0
 25
0.0
 35
0.0
146
0.0
 13
0.0
 23
0.0
 33
0.0
 16
1.0
 26
0.0
 36
0.0
 17
0.0
 27
1.0
 37
0.0
 76
     0
330
23
  0
LAYOUT
  5
22
102
{ACAD_XDICTIONARY
360
16A
102
}
102
{ACAD_REACTORS
330
1A
102
}
330
1A
100
AcDbPlotSettings
  1

  2
none_device
  4

  6

 40
0.0
 41
0.0
 42
0.0
 43
0.0
 44
0.0
 45
0.0
 46
0.0
 47
0.0
 48
0.0
 49
0.0
140
0.0
141
0.0
142
1.0
143
1.0
 70
  1712
 72
     0
 73
     0
 74
     0
  7

 75
     0
147
1.0
148
0.0
149
0.0
100
AcDbLayout
  1
Model
 70
     1
 71
     0
 10
0.0
 20
0.0
 11
0.0
 21
0.0
 12
0.0
 22
0.0
 32
0.0
 14
0.0
 24
0.0
 34
0.0
 15
3.0
 25
3.0
 35
0.0
146
0.0
 13
0.0
 23
0.0
 33
0.0
 16
1.0
 26
0.0
 36
0.0
 17
0.0
 27
1.0
 37
0.0
 76
     0
330
1F
  0
MLINESTYLE
  5
18
102
{ACAD_REACTORS
330
17
102
}
330
17
100
AcDbMlineStyle
  2
STANDARD
 70
     0
  3

 62
   256
 51
90.0
 52
90.0
 71
     2
 49
0.5
 62
   256
  6
BYLAYER
 49
-0.5
 62
   256
  6
BYLAYER
  0
ACDBPLACEHOLDER
  5
F
102
{ACAD_REACTORS
330
E
102
}
330
E
  0
XRECORD
  5
167
102
{ACAD_REACTORS
330
165
102
}
330
165
100
AcDbXrecord
280
     1
340
147
  0
XRECORD
  5
166
102
{ACAD_REACTORS
330
165
102
}
330
165
100
AcDbXrecord
280
     1
340
146
  0
DICTIONARYVAR
  5
14B
102
{ACAD_REACTORS
330
14A
102
}
330
14A
100
DictionaryVariables
280
     0
  1
1
  0
DICTIONARYVAR
  5
14C
102
{ACAD_REACTORS
330
14A
102
}
330
14A
100
DictionaryVariables
280
     0
  1

  0
DICTIONARY
  5
168
330
1E
100
AcDbDictionary
280
     1
281
     1
  3
ACAD_XREC_ROUNDTRIP
360
169
  0
DICTIONARY
  5
16C
330
26
100
AcDbDictionary
280
     1
281
     1
  3
ACAD_XREC_ROUNDTRIP
360
16D
  0
DICTIONARY
  5
16A
330
22
100
AcDbDictionary
280
     1
281
     1
  3
ACAD_XREC_ROUNDTRIP
360
16B
  0
XRECORD
  5
169
102
{ACAD_REACTORS
330
168
102
}
330
168
100
AcDbXrecord
280
     1
102
SHADEPLOT
 70
     0
102
SHADEPLOTRESLEVEL
 70
     2
102
SHADEPLOTCUSTOMDPI
 70
   300
  0
XRECORD
  5
16D
102
{ACAD_REACTORS
330
16C
102
}
330
16C
100
AcDbXrecord
280
     1
102
SHADEPLOT
 70
     0
102
SHADEPLOTRESLEVEL
 70
     2
102
SHADEPLOTCUSTOMDPI
 70
   300
  0
XRECORD
  5
16B
102
{ACAD_REACTORS
330
16A
102
}
330
16A
100
AcDbXrecord
280
     1
102
SHADEPLOT
 70
     0
102
SHADEPLOTRESLEVEL
 70
     2
102
SHADEPLOTCUSTOMDPI
 70
   300
  0
ENDSEC
  0
EOF
