  0
SECTION
  2
HEADER
  9
$ACADVER
  1
AC1014
  9
$ACADMAINTVER
 70
     9
  9
$DWGCODEPAGE
  3
ANSI_1252
  9
$INSBASE
 10
0.0
 20
0.0
 30
0.0
  9
$EXTMIN
 10
0.0005516585352581
 20
0.0009627538977384
 30
-0.0000000000000013
  9
$EXTMAX
 10
18.07776224959851
 20
31.54980475102968
 30
0.0000000000000023
  9
$LIMMIN
 10
0.0
 20
0.0
  9
$LIMMAX
 10
12.0
 20
9.0
  9
$ORTHOMODE
 70
     0
  9
$REGENMODE
 70
     1
  9
$FILLMODE
 70
     1
  9
$QTEXTMODE
 70
     0
  9
$MIRRTEXT
 70
     1
  9
$DRAGMODE
 70
     2
  9
$LTSCALE
 40
1.0
  9
$OSMODE
 70
    37
  9
$ATTMODE
 70
     1
  9
$TEXTSIZE
 40
0.5
  9
$TRACEWID
 40
0.05
  9
$TEXTSTYLE
  7
STANDARD
  9
$CLAYER
  8
0
  9
$CELTYPE
  6
BYLAYER
  9
$CECOLOR
 62
   256
  9
$CELTSCALE
 40
1.0
  9
$DELOBJ
 70
     1
  9
$DISPSILH
 70
     0
  9
$DIMSCALE
 40
1.0
  9
$DIMASZ
 40
0.18
  9
$DIMEXO
 40
0.0625
  9
$DIMDLI
 40
0.38
  9
$DIMRND
 40
0.0
  9
$DIMDLE
 40
0.0
  9
$DIMEXE
 40
0.18
  9
$DIMTP
 40
0.0
  9
$DIMTM
 40
0.0
  9
$DIMTXT
 40
0.18
  9
$DIMCEN
 40
0.09
  9
$DIMTSZ
 40
0.0
  9
$DIMTOL
 70
     0
  9
$DIMLIM
 70
     0
  9
$DIMTIH
 70
     1
  9
$DIMTOH
 70
     1
  9
$DIMSE1
 70
     0
  9
$DIMSE2
 70
     0
  9
$DIMTAD
 70
     0
  9
$DIMZIN
 70
     0
  9
$DIMBLK
  1

  9
$DIMASO
 70
     1
  9
$DIMSHO
 70
     1
  9
$DIMPOST
  1

  9
$DIMAPOST
  1

  9
$DIMALT
 70
     0
  9
$DIMALTD
 70
     2
  9
$DIMALTF
 40
25.4
  9
$DIMLFAC
 40
1.0
  9
$DIMTOFL
 70
     0
  9
$DIMTVP
 40
0.0
  9
$DIMTIX
 70
     0
  9
$DIMSOXD
 70
     0
  9
$DIMSAH
 70
     0
  9
$DIMBLK1
  1

  9
$DIMBLK2
  1

  9
$DIMSTYLE
  2
STANDARD
  9
$DIMCLRD
 70
     0
  9
$DIMCLRE
 70
     0
  9
$DIMCLRT
 70
     0
  9
$DIMTFAC
 40
1.0
  9
$DIMGAP
 40
0.09
  9
$DIMJUST
 70
     0
  9
$DIMSD1
 70
     0
  9
$DIMSD2
 70
     0
  9
$DIMTOLJ
 70
     1
  9
$DIMTZIN
 70
     0
  9
$DIMALTZ
 70
     0
  9
$DIMALTTZ
 70
     0
  9
$DIMFIT
 70
     3
  9
$DIMUPT
 70
     0
  9
$DIMUNIT
 70
     2
  9
$DIMDEC
 70
     4
  9
$DIMTDEC
 70
     4
  9
$DIMALTU
 70
     2
  9
$DIMALTTD
 70
     2
  9
$DIMTXSTY
  7
STANDARD
  9
$DIMAUNIT
 70
     0
  9
$LUNITS
 70
     2
  9
$LUPREC
 70
     4
  9
$SKETCHINC
 40
0.1
  9
$FILLETRAD
 40
0.5
  9
$AUNITS
 70
     0
  9
$AUPREC
 70
     0
  9
$MENU
  1
.
  9
$ELEVATION
 40
0.0
  9
$PELEVATION
 40
0.0
  9
$THICKNESS
 40
0.0
  9
$LIMCHECK
 70
     0
  9
$BLIPMODE
 70
     0
  9
$CHAMFERA
 40
0.5
  9
$CHAMFERB
 40
0.5
  9
$CHAMFERC
 40
1.0
  9
$CHAMFERD
 40
0.0
  9
$SKPOLY
 70
     0
  9
$TDCREATE
 40
2451675.885797453
  9
$TDUPDATE
 40
2452759.746268263
  9
$TDINDWG
 40
0.0241296875
  9
$TDUSRTIMER
 40
0.0241214699
  9
$USRTIMER
 70
     1
  9
$ANGBASE
 50
0.0
  9
$ANGDIR
 70
     0
  9
$PDMODE
 70
     0
  9
$PDSIZE
 40
0.0
  9
$PLINEWID
 40
0.0
  9
$COORDS
 70
     1
  9
$SPLFRAME
 70
     0
  9
$SPLINETYPE
 70
     6
  9
$SPLINESEGS
 70
     8
  9
$ATTDIA
 70
     0
  9
$ATTREQ
 70
     1
  9
$HANDLING
 70
     1
  9
$HANDSEED
  5
D4
  9
$SURFTAB1
 70
     6
  9
$SURFTAB2
 70
     6
  9
$SURFTYPE
 70
     6
  9
$SURFU
 70
     6
  9
$SURFV
 70
     6
  9
$UCSNAME
  2

  9
$UCSORG
 10
0.0
 20
0.0
 30
0.0
  9
$UCSXDIR
 10
1.0
 20
0.0
 30
0.0
  9
$UCSYDIR
 10
0.0
 20
1.0
 30
0.0
  9
$PUCSNAME
  2

  9
$PUCSORG
 10
0.0
 20
0.0
 30
0.0
  9
$PUCSXDIR
 10
1.0
 20
0.0
 30
0.0
  9
$PUCSYDIR
 10
0.0
 20
1.0
 30
0.0
  9
$USERI1
 70
     0
  9
$USERI2
 70
     0
  9
$USERI3
 70
     0
  9
$USERI4
 70
     0
  9
$USERI5
 70
     0
  9
$USERR1
 40
0.0
  9
$USERR2
 40
0.0
  9
$USERR3
 40
0.0
  9
$USERR4
 40
0.0
  9
$USERR5
 40
0.0
  9
$WORLDVIEW
 70
     1
  9
$SHADEDGE
 70
     3
  9
$SHADEDIF
 70
    70
  9
$TILEMODE
 70
     1
  9
$MAXACTVP
 70
    48
  9
$PINSBASE
 10
0.0
 20
0.0
 30
0.0
  9
$PLIMCHECK
 70
     0
  9
$PEXTMIN
 10
1.000000000000000E+20
 20
1.000000000000000E+20
 30
1.000000000000000E+20
  9
$PEXTMAX
 10
-1.000000000000000E+20
 20
-1.000000000000000E+20
 30
-1.000000000000000E+20
  9
$PLIMMIN
 10
0.0
 20
0.0
  9
$PLIMMAX
 10
12.0
 20
9.0
  9
$UNITMODE
 70
     0
  9
$VISRETAIN
 70
     1
  9
$PLINEGEN
 70
     0
  9
$PSLTSCALE
 70
     1
  9
$TREEDEPTH
 70
  3020
  9
$PICKSTYLE
 70
     1
  9
$CMLSTYLE
  2
STANDARD
  9
$CMLJUST
 70
     0
  9
$CMLSCALE
 40
1.0
  9
$PROXYGRAPHICS
 70
     1
  9
$MEASUREMENT
 70
     0
  0
ENDSEC
  0
SECTION
  2
CLASSES
  0
CLASS
  1
ACDBDICTIONARYWDFLT
  2
AcDbDictionaryWithDefault
  3
AutoCAD 2000
 90
        0
280
     1
281
     0
  0
CLASS
  1
ACDBPLACEHOLDER
  2
AcDbPlaceHolder
  3
AutoCAD 2000
 90
        0
280
     1
281
     0
  0
CLASS
  1
LAYOUT
  2
AcDbLayout
  3
AutoCAD 2000
 90
        0
280
     1
281
     0
  0
CLASS
  1
LONG_TRANSACTION
  2
AcDbLongTransaction
  3
AutoCAD 2000
 90
        0
280
     1
281
     0
  0
CLASS
  1
LWPOLYLINE
  2
AcDbPolyline
  3
"AutoCAD"
 90
        0
280
     1
281
     1
  0
CLASS
  1
HATCH
  2
AcDbHatch
  3
"ACAD_SEDONA"
 90
        0
280
     1
281
     1
  0
CLASS
  1
XRECORD
  2
AcDbXrecord
  3
"<Built In>"
 90
        0
280
     0
281
     0
  0
CLASS
  1
LONG_TRANSACTION
  2
AcDbLongTransaction
  3
AutoCAD 2000
 90
        0
280
     1
281
     0
  0
CLASS
  1
LWPOLYLINE
  2
AcDbPolyline
  3
"AutoCAD"
 90
        0
280
     1
281
     1
  0
CLASS
  1
HATCH
  2
AcDbHatch
  3
"ACAD_SEDONA"
 90
        0
280
     1
281
     1
  0
CLASS
  1
XRECORD
  2
AcDbXrecord
  3
"<Built In>"
 90
        0
280
     0
281
     0
  0
CLASS
  1
LONG_TRANSACTION
  2
AcDbLongTransaction
  3
AutoCAD 2000
 90
        0
280
     1
281
     0
  0
CLASS
  1
LWPOLYLINE
  2
AcDbPolyline
  3
"AutoCAD"
 90
        0
280
     1
281
     1
  0
CLASS
  1
HATCH
  2
AcDbHatch
  3
"ACAD_SEDONA"
 90
        0
280
     1
281
     1
  0
CLASS
  1
XRECORD
  2
AcDbXrecord
  3
"<Built In>"
 90
        0
280
     0
281
     0
  0
CLASS
  1
DICTIONARYVAR
  2
AcDbDictionaryVar
  3
"AutoCAD"
 90
        0
280
     0
281
     0
  0
CLASS
  1
LONG_TRANSACTION
  2
AcDbLongTransaction
  3
AutoCAD 2000
 90
        0
280
     0
281
     0
  0
CLASS
  1
LWPOLYLINE
  2
AcDbPolyline
  3
"AutoCAD"
 90
        0
280
     0
281
     1
  0
CLASS
  1
HATCH
  2
AcDbHatch
  3
"ACAD_SEDONA"
 90
        0
280
     0
281
     1
  0
CLASS
  1
XRECORD
  2
AcDbXrecord
  3
"<Built In>"
 90
        0
280
     0
281
     0
  0
CLASS
  1
LONG_TRANSACTION
  2
AcDbLongTransaction
  3
AutoCAD 2000
 90
        0
280
     0
281
     0
  0
CLASS
  1
LWPOLYLINE
  2
AcDbPolyline
  3
"AutoCAD"
 90
        0
280
     0
281
     1
  0
CLASS
  1
HATCH
  2
AcDbHatch
  3
"ACAD_SEDONA"
 90
        0
280
     0
281
     1
  0
CLASS
  1
XRECORD
  2
AcDbXrecord
  3
"<Built In>"
 90
        0
280
     0
281
     0
  0
ENDSEC
  0
SECTION
  2
TABLES
  0
TABLE
  2
VPORT
  5
B4
100
AcDbSymbolTable
 70
     1
  0
VPORT
  5
D0
100
AcDbSymbolTableRecord
100
AcDbViewportTableRecord
  2
*ACTIVE
 70
     0
 10
0.0
 20
0.0
 11
1.0
 21
1.0
 12
9.039570862976562
 22
16.16467062495307
 13
0.0
 23
0.0
 14
0.5
 24
0.5
 15
0.5
 25
0.5
 16
0.0
 26
0.0
 36
1.0
 17
0.0
 27
0.0
 37
0.0
 40
32.55980521010004
 41
1.457627118644067
 42
50.0
 43
0.0
 44
0.0
 50
0.0
 51
0.0
 71
     0
 72
   100
 73
     1
 74
     3
 75
     0
 76
     0
 77
     0
 78
     0
  0
ENDTAB
  0
TABLE
  2
LTYPE
  5
AD
100
AcDbSymbolTable
 70
     2
  0
LTYPE
  5
AE
102
{ACAD_XDICTIONARY
360
AF
102
}
100
AcDbSymbolTableRecord
100
AcDbLinetypeTableRecord
  2
BYBLOCK
 70
     0
  3

 72
    65
 73
     0
 40
0.0
  0
LTYPE
  5
B0
102
{ACAD_XDICTIONARY
360
B1
102
}
100
AcDbSymbolTableRecord
100
AcDbLinetypeTableRecord
  2
BYLAYER
 70
     0
  3

 72
    65
 73
     0
 40
0.0
  0
LTYPE
  5
5
102
{ACAD_XDICTIONARY
360
6
102
}
100
AcDbSymbolTableRecord
100
AcDbLinetypeTableRecord
  2
CONTINUOUS
 70
     0
  3
Solid line
 72
    65
 73
     0
 40
0.0
  0
LTYPE
  5
79
100
AcDbSymbolTableRecord
100
AcDbLinetypeTableRecord
  2
HIDDEN
 70
     0
  3
Hidden __ __ __ __ __ __ __ __ __ __ __ __ __ _
 72
    65
 73
     2
 40
0.375
 49
0.25
 74
     0
 49
-0.125
 74
     0
  0
ENDTAB
  0
TABLE
  2
LAYER
  5
AB
100
AcDbSymbolTable
 70
     5
  0
LAYER
  5
5D
100
AcDbSymbolTableRecord
100
AcDbLayerTableRecord
  2
0
 70
     0
 62
     7
  6
CONTINUOUS
  0
LAYER
  5
9
100
AcDbSymbolTableRecord
100
AcDbLayerTableRecord
  2
USP-GEO
 70
     0
 62
     7
  6
CONTINUOUS
  0
LAYER
  5
D
100
AcDbSymbolTableRecord
100
AcDbLayerTableRecord
  2
USP-TXT
 70
     0
 62
     7
  6
CONTINUOUS
  0
LAYER
  5
78
100
AcDbSymbolTableRecord
100
AcDbLayerTableRecord
  2
USP-HID
 70
     0
 62
     7
  6
HIDDEN
  0
LAYER
  5
4
100
AcDbSymbolTableRecord
100
AcDbLayerTableRecord
  2
USP
 70
     0
 62
     7
  6
CONTINUOUS
  0
ENDTAB
  0
TABLE
  2
STYLE
  5
AC
100
AcDbSymbolTable
 70
     1
  0
STYLE
  5
E
102
{ACAD_XDICTIONARY
360
F
102
}
100
AcDbSymbolTableRecord
100
AcDbTextStyleTableRecord
  2
STANDARD
 70
     0
 40
0.0
 41
1.0
 50
0.0
 71
     0
 42
0.5
  3
txt
  4

  0
ENDTAB
  0
TABLE
  2
VIEW
  5
B2
100
AcDbSymbolTable
 70
     0
  0
ENDTAB
  0
TABLE
  2
UCS
  5
B3
100
AcDbSymbolTable
 70
     0
  0
ENDTAB
  0
TABLE
  2
APPID
  5
B6
100
AcDbSymbolTable
 70
     1
  0
APPID
  5
B7
100
AcDbSymbolTableRecord
100
AcDbRegAppTableRecord
  2
ACAD
 70
     0
  0
ENDTAB
  0
TABLE
  2
DIMSTYLE
  5
B8
100
AcDbSymbolTable
 70
     1
  0
DIMSTYLE
105
C1
102
{ACAD_XDICTIONARY
360
C2
102
}
100
AcDbSymbolTableRecord
100
AcDbDimStyleTableRecord
  2
STANDARD
 70
     0
  3

  4

  5

  6

  7

 40
1.0
 41
0.18
 42
0.0625
 43
0.38
 44
0.18
 45
0.0
 46
0.0
 47
0.0
 48
0.0
140
0.18
141
0.09
142
0.0
143
25.4
144
1.0
145
0.0
146
1.0
147
0.09
 71
     0
 72
     0
 73
     1
 74
     1
 75
     0
 76
     0
 77
     0
 78
     0
170
     0
171
     2
172
     0
173
     0
174
     0
175
     0
176
     0
177
     0
178
     0
270
     2
271
     4
272
     4
273
     2
274
     2
340
E
275
     0
280
     0
281
     0
282
     0
283
     1
284
     0
285
     0
286
     0
287
     3
288
     0
  0
ENDTAB
  0
TABLE
  2
BLOCK_RECORD
  5
1
100
AcDbSymbolTable
 70
     2
  0
BLOCK_RECORD
  5
2
102
{ACAD_XDICTIONARY
360
A2
102
}
100
AcDbSymbolTableRecord
100
AcDbBlockTableRecord
  2
*MODEL_SPACE
  0
BLOCK_RECORD
  5
A6
102
{ACAD_XDICTIONARY
360
A7
102
}
100
AcDbSymbolTableRecord
100
AcDbBlockTableRecord
  2
*PAPER_SPACE
  0
BLOCK_RECORD
  5
7
100
AcDbSymbolTableRecord
100
AcDbBlockTableRecord
  2
MTW30_F
  0
BLOCK_RECORD
  5
60
100
AcDbSymbolTableRecord
100
AcDbBlockTableRecord
  2
MTW30_S
  0
ENDTAB
  0
ENDSEC
  0
SECTION
  2
BLOCKS
  0
BLOCK
  5
A4
100
AcDbEntity
  8
0
100
AcDbBlockBegin
  2
*MODEL_SPACE
 70
     0
 10
0.0
 20
0.0
 30
0.0
  3
*MODEL_SPACE
  1

  0
ENDBLK
  5
A5
100
AcDbEntity
  8
0
100
AcDbBlockEnd
  0
BLOCK
  5
A9
100
AcDbEntity
 67
     1
  8
0
100
AcDbBlockBegin
  2
*PAPER_SPACE
 70
     0
 10
0.0
 20
0.0
 30
0.0
  3
*PAPER_SPACE
  1

  0
ENDBLK
  5
AA
100
AcDbEntity
 67
     1
  8
0
100
AcDbBlockEnd
  0
BLOCK
  5
5C
100
AcDbEntity
  8
0
100
AcDbBlockBegin
  2
MTW30_F
 70
     0
 10
0.0
 20
0.0
 30
0.0
  3
MTW30_F
  1

  0
CIRCLE
  5
8
100
AcDbEntity
  8
USP-GEO
100
AcDbCircle
 10
1.00000000000003
 20
10.68750000000002
 30
-0.0000000000000013
 40
0.078
  0
LINE
  5
A
100
AcDbEntity
  8
USP-GEO
100
AcDbLine
 10
0.0
 20
0.1767766952966525
 30
0.0
 11
0.0000000000000302
 21
14.90000000000004
 31
-0.0000000000000018
210
1.0
220
-0.0000000000000002
230
0.0
  0
LINE
  5
B
100
AcDbEntity
  8
USP-GEO
100
AcDbLine
 10
1.250000000000055
 20
14.90000000000004
 30
-0.0000000000000018
 11
1.249999999999911
 21
0.1767766952966596
 31
0.0
210
1.0
220
-0.0000000000000002
230
0.0
  0
TEXT
  5
C
100
AcDbEntity
  8
USP-TXT
100
AcDbText
 10
-3.916666666666629
 20
-1.548841997131908
 30
0.0
 40
0.5
  1
MTW30 - FRONT VIEW
 72
     1
 11
0.6250000000000373
 21
-1.548841997131908
 31
0.0
100
AcDbText
  0
CIRCLE
  5
10
100
AcDbEntity
  8
USP-GEO
100
AcDbCircle
 10
0.6250000000000285
 20
0.5015580160703781
 30
-0.0000000000000001
 40
0.15625
  0
LINE
  5
11
100
AcDbEntity
  8
USP-GEO
100
AcDbLine
 10
1.073223304703383
 20
0.0000000000000213
 30
0.0
 11
0.1767766952966916
 21
0.0000000000000213
 31
0.0
210
1.0
220
-0.0000000000000002
230
0.0
  0
LINE
  5
12
100
AcDbEntity
  8
USP-GEO
100
AcDbLine
 10
0.176776695296688
 20
0.0000000000000142
 30
0.0
 11
0.0000000000000142
 21
0.1767766952966667
 31
0.0
210
1.0
220
-0.0000000000000002
230
0.0
  0
CIRCLE
  5
13
100
AcDbEntity
  8
USP-GEO
100
AcDbCircle
 10
0.2500000000000284
 20
0.3140580160703852
 30
0.0
 40
0.078
  0
CIRCLE
  5
14
100
AcDbEntity
  8
USP-GEO
100
AcDbCircle
 10
0.3750000000000249
 20
1.314058016070376
 30
-0.0000000000000002
 40
0.078
  0
LINE
  5
15
100
AcDbEntity
  8
USP-GEO
100
AcDbLine
 10
1.250000000000024
 20
0.1767766952966596
 30
0.0
 11
1.0732233047034
 21
0.0
 31
0.0
210
1.0
220
-0.0000000000000002
230
0.0
  0
CIRCLE
  5
16
100
AcDbEntity
  8
USP-GEO
100
AcDbCircle
 10
1.000000000000024
 20
0.6890580160703781
 30
-0.0000000000000001
 40
0.078
  0
CIRCLE
  5
17
100
AcDbEntity
  8
USP-GEO
100
AcDbCircle
 10
0.2500000000000284
 20
2.314058016070376
 30
-0.0000000000000003
 40
0.078
  0
CIRCLE
  5
18
100
AcDbEntity
  8
USP-GEO
100
AcDbCircle
 10
0.3750000000000249
 20
3.314058016070383
 30
-0.0000000000000004
 40
0.078
  0
CIRCLE
  5
19
100
AcDbEntity
  8
USP-GEO
100
AcDbCircle
 10
0.2500000000000266
 20
4.314058016070383
 30
-0.0000000000000005
 40
0.078
  0
CIRCLE
  5
1A
100
AcDbEntity
  8
USP-GEO
100
AcDbCircle
 10
0.8750000000000213
 20
1.689058016070383
 30
-0.0000000000000002
 40
0.078
  0
CIRCLE
  5
1B
100
AcDbEntity
  8
USP-GEO
100
AcDbCircle
 10
1.000000000000024
 20
2.689058016070383
 30
-0.0000000000000003
 40
0.078
  0
CIRCLE
  5
1C
100
AcDbEntity
  8
USP-GEO
100
AcDbCircle
 10
0.8750000000000284
 20
3.689058016070376
 30
-0.0000000000000005
 40
0.078
  0
CIRCLE
  5
1D
100
AcDbEntity
  8
USP-GEO
100
AcDbCircle
 10
0.3750000000000249
 20
5.314058016070385
 30
-0.0000000000000007
 40
0.078
  0
CIRCLE
  5
1E
100
AcDbEntity
  8
USP-GEO
100
AcDbCircle
 10
0.2500000000000302
 20
6.314058016070378
 30
-0.0000000000000008
 40
0.078
  0
CIRCLE
  5
1F
100
AcDbEntity
  8
USP-GEO
100
AcDbCircle
 10
0.3750000000000266
 20
7.314058016070378
 30
-0.0000000000000009
 40
0.078
  0
CIRCLE
  5
20
100
AcDbEntity
  8
USP-GEO
100
AcDbCircle
 10
1.00000000000003
 20
4.689058016070376
 30
-0.0000000000000006
 40
0.078
  0
CIRCLE
  5
21
100
AcDbEntity
  8
USP-GEO
100
AcDbCircle
 10
0.8750000000000301
 20
5.689058016070385
 30
-0.0000000000000007
 40
0.078
  0
CIRCLE
  5
22
100
AcDbEntity
  8
USP-GEO
100
AcDbCircle
 10
1.000000000000026
 20
6.689058016070385
 30
-0.0000000000000008
 40
0.078
  0
CIRCLE
  5
23
100
AcDbEntity
  8
USP-GEO
100
AcDbCircle
 10
0.250000000000032
 20
8.312500000000021
 30
-0.000000000000001
 40
0.078
  0
CIRCLE
  5
24
100
AcDbEntity
  8
USP-GEO
100
AcDbCircle
 10
0.3750000000000266
 20
9.312500000000021
 30
-0.0000000000000011
 40
0.078
  0
CIRCLE
  5
25
100
AcDbEntity
  8
USP-GEO
100
AcDbCircle
 10
0.2500000000000266
 20
10.31250000000002
 30
-0.0000000000000013
 40
0.078
  0
CIRCLE
  5
26
100
AcDbEntity
  8
USP-GEO
100
AcDbCircle
 10
0.8750000000000301
 20
7.689058016070384
 30
-0.0000000000000009
 40
0.078
  0
CIRCLE
  5
27
100
AcDbEntity
  8
USP-GEO
100
AcDbCircle
 10
1.000000000000028
 20
8.687500000000014
 30
-0.0000000000000011
 40
0.078
  0
CIRCLE
  5
28
100
AcDbEntity
  8
USP-GEO
100
AcDbCircle
 10
0.8750000000000266
 20
9.687500000000021
 30
-0.0000000000000012
 40
0.078
  0
LINE
  5
29
100
AcDbEntity
  8
USP-GEO
100
AcDbLine
 10
1.18750000000003
 20
15.03750000000003
 30
-0.0000000000000018
 11
1.18750000000003
 21
14.96250000000005
 31
-0.0000000000000018
210
1.0
220
-0.0000000000000002
230
0.0
  0
LINE
  5
2A
100
AcDbEntity
  8
USP-GEO
100
AcDbLine
 10
0.0625000000000267
 20
14.96250000000005
 30
-0.0000000000000018
 11
0.0625000000000267
 21
15.03750000000004
 31
-0.0000000000000018
210
1.0
220
-0.0000000000000002
230
0.0
  0
LINE
  5
2B
100
AcDbEntity
  8
USP-GEO
100
AcDbLine
 10
1.406250000000058
 20
24.90000000000001
 30
-0.000000000000003
 11
1.406250000000058
 21
21.5506881429761
 31
-0.0000000000000026
210
1.0
220
-0.0000000000000002
230
0.0
  0
LINE
  5
2C
100
AcDbEntity
  8
USP-GEO
100
AcDbLine
 10
1.466050000000057
 20
24.90000000000001
 30
-0.000000000000003
 11
1.466050000000056
 21
21.5506881429761
 31
-0.0000000000000026
210
1.0
220
-0.0000000000000002
230
0.0
  0
CIRCLE
  5
2D
100
AcDbEntity
  8
USP-GEO
100
AcDbCircle
 10
1.000000000000046
 20
16.68750000000001
 30
-0.000000000000002
 40
0.078
  0
LINE
  5
2E
100
AcDbEntity
  8
USP-GEO
100
AcDbLine
 10
0.0000000000000338
 20
15.10000000000004
 30
-0.0000000000000018
 11
0.0000000000000053
 21
18.44931185702392
 31
-0.0000000000000023
210
1.0
220
-0.0000000000000002
230
0.0
  0
LINE
  5
2F
100
AcDbEntity
  8
USP-GEO
100
AcDbLine
 10
1.25
 20
18.44931185702386
 30
-0.0000000000000023
 11
1.250000000000055
 21
15.10000000000004
 31
-0.0000000000000018
210
1.0
220
-0.0000000000000002
230
0.0
  0
ARC
  5
30
100
AcDbEntity
  8
USP-GEO
100
AcDbCircle
 10
0.000000000000032
 20
15.03750000000003
 30
-0.0000000000000018
 40
0.0625
100
AcDbArc
 50
0.0000000000048472
 51
90.00000000000245
  0
CIRCLE
  5
31
100
AcDbEntity
  8
USP-GEO
100
AcDbCircle
 10
0.3750000000000462
 20
15.31250000000002
 30
-0.0000000000000019
 40
0.078
  0
CIRCLE
  5
32
100
AcDbEntity
  8
USP-GEO
100
AcDbCircle
 10
0.2500000000000444
 20
16.31250000000002
 30
-0.000000000000002
 40
0.078
  0
ARC
  5
33
100
AcDbEntity
  8
USP-GEO
100
AcDbCircle
 10
1.250000000000031
 20
15.03750000000004
 30
-0.0000000000000018
 40
0.0625
100
AcDbArc
 50
90.00000000000406
 51
180.0000000000016
  0
CIRCLE
  5
34
100
AcDbEntity
  8
USP-GEO
100
AcDbCircle
 10
0.8750000000000444
 20
15.68750000000002
 30
-0.0000000000000019
 40
0.078
  0
LINE
  5
35
100
AcDbEntity
  8
USP-GEO
100
AcDbLine
 10
1.406250000000053
 20
21.02589289600488
 30
-0.0000000000000026
 11
1.406250000000053
 21
19.01465461636445
 31
-0.0000000000000023
210
1.0
220
-0.0000000000000002
230
0.0
  0
LINE
  5
36
100
AcDbEntity
  8
USP-GEO
100
AcDbLine
 10
1.466050000000059
 20
21.02589289600487
 30
-0.0000000000000026
 11
1.466050000000059
 21
19.01465461636445
 31
-0.0000000000000023
210
1.0
220
-0.0000000000000002
230
0.0
  0
LINE
  5
37
100
AcDbEntity
  8
USP-GEO
100
AcDbLine
 10
0.1487715061416193
 20
18.97410710399515
 30
-0.0000000000000023
 11
1.388730338931218
 21
20.98534538363556
 31
-0.0000000000000026
210
1.0
220
-0.0000000000000002
230
0.0
  0
CIRCLE
  5
38
100
AcDbEntity
  8
USP-GEO
100
AcDbCircle
 10
0.3750000000000444
 20
17.31250000000002
 30
-0.0000000000000021
 40
0.078
  0
ARC
  5
39
100
AcDbEntity
  8
USP-GEO
100
AcDbCircle
 10
0.9999999999999964
 20
18.44931185702392
 30
-0.0000000000000023
 40
1.0
100
AcDbArc
 50
148.3455395962817
 51
180.0000000000001
  0
ARC
  5
3A
100
AcDbEntity
  8
USP-GEO
100
AcDbCircle
 10
2.25
 20
18.44931185702386
 30
-0.0000000000000023
 40
1.0
100
AcDbArc
 50
148.3455395962819
 51
180.0
  0
LINE
  5
3B
100
AcDbEntity
  8
USP-GEO
100
AcDbLine
 10
1.466050000000027
 20
18.99642324404119
 30
-0.0000000000000023
 11
1.466050000000027
 21
19.01465461636445
 31
-0.0000000000000023
210
1.0
220
-0.0000000000000002
230
0.0
  0
LINE
  5
3C
100
AcDbEntity
  8
USP-GEO
100
AcDbLine
 10
1.40625000000006
 20
19.01465461636445
 30
-0.0000000000000023
 11
1.40625000000006
 21
18.99642324404119
 31
-0.0000000000000023
210
1.0
220
-0.0000000000000002
230
0.0
  0
LINE
  5
3D
100
AcDbEntity
  8
USP-GEO
100
AcDbLine
 10
1.412529744160494
 20
18.99642324404119
 30
-0.0000000000000023
 11
1.398771506141628
 21
18.97410710399508
 31
-0.0000000000000023
210
1.0
220
-0.0000000000000002
230
0.0
  0
LINE
  5
3E
100
AcDbEntity
  8
USP-GEO
100
AcDbLine
 10
1.412529744160496
 20
18.99642324404119
 30
-0.0000000000000023
 11
1.406250000000056
 21
18.99642324404119
 31
-0.0000000000000023
210
1.0
220
-0.0000000000000002
230
0.0
  0
SPLINE
  5
3F
100
AcDbEntity
  8
USP-GEO
100
AcDbSpline
210
0.0
220
0.0000000000000001
230
1.0
 70
     8
 71
     3
 72
    14
 73
    10
 74
     0
 42
0.0000001
 43
0.0000001
 40
0.056081910929908
 40
0.056081910929908
 40
0.056081910929908
 40
0.056081910929908
 40
0.0605804826739382
 40
0.0605804826739382
 40
0.0751819597935267
 40
0.0751819597935267
 40
0.0897834369131152
 40
0.0897834369131152
 40
0.0919140398685064
 40
0.0919140398685064
 40
0.0919140398685064
 40
0.0919140398685064
 10
1.455864128092192
 20
18.98623737213333
 30
-0.0000000000000023
 10
1.456755259664497
 20
18.98623737213333
 30
-0.0000000000000023
 10
1.457573952305715
 20
18.98628215418128
 30
-0.0000000000000023
 10
1.460701342905611
 20
18.98664942120165
 30
-0.0000000000000023
 10
1.462703392443273
 20
18.9874577951296
 30
-0.0000000000000023
 10
1.465295151034716
 20
18.99047415162432
 30
-0.0000000000000023
 10
1.465899503716524
 20
18.99269408147609
 30
-0.0000000000000023
 10
1.466041257788887
 20
18.99563979614192
 30
-0.0000000000000023
 10
1.466050000000056
 20
18.9960260520155
 30
-0.0000000000000023
 10
1.466050000000059
 20
18.99642324404119
 30
-0.0000000000000023
  0
LINE
  5
40
100
AcDbEntity
  8
USP-GEO
100
AcDbLine
 10
1.406250000000058
 20
18.98623737213333
 30
-0.0000000000000023
 11
1.455864128092192
 21
18.98623737213333
 31
-0.0000000000000023
210
1.0
220
-0.0000000000000002
230
0.0
  0
LINE
  5
41
100
AcDbEntity
  8
USP-GEO
100
AcDbLine
 10
1.406250000000058
 20
21.5506881429761
 30
-0.0000000000000026
 11
1.406250000000058
 21
21.02589289600488
 31
-0.0000000000000026
210
1.0
220
-0.0000000000000002
230
0.0
  0
LINE
  5
42
100
AcDbEntity
  8
USP-GEO
100
AcDbLine
 10
1.466050000000057
 20
21.5506881429761
 30
-0.0000000000000026
 11
1.466050000000057
 21
21.02589289600487
 31
-0.0000000000000026
210
1.0
220
-0.0000000000000002
230
0.0
  0
ARC
  5
43
100
AcDbEntity
  8
USP-GEO
100
AcDbCircle
 10
1.439633802863953
 20
20.95396262786668
 30
-0.0000000000000026
 40
0.0598
100
AcDbArc
 50
123.9353827527165
 51
148.3455395962833
  0
LINE
  5
44
100
AcDbEntity
  8
USP-GEO
100
AcDbLine
 10
1.406250000000058
 20
29.82322330470342
 30
-0.0000000000000037
 11
1.406250000000058
 21
25.09999999999999
 31
-0.0000000000000031
210
1.0
220
-0.0000000000000002
230
0.0
  0
LINE
  5
45
100
AcDbEntity
  8
USP-GEO
100
AcDbLine
 10
1.466050000000059
 20
29.82322330470342
 30
-0.0000000000000037
 11
1.466050000000057
 21
25.09999999999999
 31
-0.0000000000000031
210
1.0
220
-0.0000000000000002
230
0.0
  0
LINE
  5
46
100
AcDbEntity
  8
USP-GEO
100
AcDbLine
 10
1.406250000000058
 20
25.0375
 30
-0.0000000000000031
 11
1.406250000000058
 21
24.96250000000001
 31
-0.0000000000000031
210
1.0
220
-0.0000000000000002
230
0.0
  0
LINE
  5
47
100
AcDbEntity
  8
USP-GEO
100
AcDbLine
 10
1.466050000000061
 20
24.9625
 30
-0.0000000000000031
 11
1.466050000000061
 21
25.0375
 31
-0.0000000000000031
210
1.0
220
-0.0000000000000002
230
0.0
  0
LINE
  5
48
100
AcDbEntity
  8
USP-GEO
100
AcDbLine
 10
1.406250000000055
 20
24.96250000000001
 30
-0.0000000000000031
 11
1.406250000000055
 21
24.90000000000001
 31
-0.000000000000003
210
1.0
220
-0.0000000000000002
230
0.0
  0
LINE
  5
49
100
AcDbEntity
  8
USP-GEO
100
AcDbLine
 10
1.466050000000057
 20
24.90000000000001
 30
-0.000000000000003
 11
1.466050000000057
 21
24.9625
 31
-0.0000000000000031
210
1.0
220
-0.0000000000000002
230
0.0
  0
LINE
  5
4A
100
AcDbEntity
  8
USP-GEO
100
AcDbLine
 10
1.466050000000057
 20
24.90000000000001
 30
-0.000000000000003
 11
1.406250000000058
 21
24.90000000000001
 31
-0.000000000000003
210
1.0
220
-0.0000000000000002
230
0.0
  0
LINE
  5
4B
100
AcDbEntity
  8
USP-GEO
100
AcDbLine
 10
1.406250000000058
 20
25.09999999999999
 30
-0.0000000000000031
 11
1.406250000000058
 21
25.0375
 31
-0.0000000000000031
210
1.0
220
-0.0000000000000002
230
0.0
  0
LINE
  5
4C
100
AcDbEntity
  8
USP-GEO
100
AcDbLine
 10
1.466050000000061
 20
25.0375
 30
-0.0000000000000031
 11
1.466050000000061
 21
25.09999999999999
 31
-0.0000000000000031
210
1.0
220
-0.0000000000000002
230
0.0
  0
LINE
  5
4D
100
AcDbEntity
  8
USP-GEO
100
AcDbLine
 10
1.466050000000057
 20
25.09999999999999
 30
-0.0000000000000031
 11
1.406250000000058
 21
25.09999999999999
 31
-0.0000000000000031
210
1.0
220
-0.0000000000000002
230
0.0
  0
LINE
  5
4E
100
AcDbEntity
  8
USP-GEO
100
AcDbLine
 10
1.406250000000058
 20
30.00000000000003
 30
-0.0000000000000037
 11
1.406250000000058
 21
29.82322330470342
 31
-0.0000000000000037
210
1.0
220
-0.0000000000000002
230
0.0
  0
LINE
  5
4F
100
AcDbEntity
  8
USP-GEO
100
AcDbLine
 10
1.466050000000059
 20
29.82322330470342
 30
-0.0000000000000037
 11
1.466050000000059
 21
30.00000000000003
 31
-0.0000000000000037
210
1.0
220
-0.0000000000000002
230
0.0
  0
LINE
  5
50
100
AcDbEntity
  8
USP-GEO
100
AcDbLine
 10
1.466050000000059
 20
30.00000000000003
 30
-0.0000000000000037
 11
1.406250000000062
 21
30.00000000000003
 31
-0.0000000000000037
210
1.0
220
-0.0000000000000002
230
0.0
  0
LINE
  5
51
100
AcDbEntity
  8
USP-GEO
100
AcDbLine
 10
1.466050000000059
 20
29.82322330470342
 30
-0.0000000000000037
 11
1.406250000000058
 21
29.82322330470342
 31
-0.0000000000000037
210
1.0
220
-0.0000000000000002
230
0.0
  0
CIRCLE
  5
52
100
AcDbEntity
  8
USP-GEO
100
AcDbCircle
 10
0.8750000000000284
 20
13.68750000000002
 30
-0.0000000000000017
 40
0.078
  0
CIRCLE
  5
53
100
AcDbEntity
  8
USP-GEO
100
AcDbCircle
 10
0.3750000000000284
 20
11.31250000000002
 30
-0.0000000000000014
 40
0.078
  0
CIRCLE
  5
54
100
AcDbEntity
  8
USP-GEO
100
AcDbCircle
 10
0.250000000000032
 20
12.31250000000001
 30
-0.0000000000000015
 40
0.078
  0
CIRCLE
  5
55
100
AcDbEntity
  8
USP-GEO
100
AcDbCircle
 10
0.3750000000000284
 20
13.31250000000002
 30
-0.0000000000000016
 40
0.078
  0
CIRCLE
  5
56
100
AcDbEntity
  8
USP-GEO
100
AcDbCircle
 10
0.8750000000000337
 20
11.68750000000002
 30
-0.0000000000000014
 40
0.078
  0
CIRCLE
  5
57
100
AcDbEntity
  8
USP-GEO
100
AcDbCircle
 10
1.00000000000003
 20
12.68750000000002
 30
-0.0000000000000016
 40
0.078
  0
CIRCLE
  5
58
100
AcDbEntity
  8
USP-GEO
100
AcDbCircle
 10
0.2500000000000266
 20
14.31250000000001
 30
-0.0000000000000018
 40
0.078
  0
ARC
  5
59
100
AcDbEntity
  8
USP-GEO
100
AcDbCircle
 10
0.0000000000000302
 20
14.96250000000005
 30
-0.0000000000000018
 40
0.0625
100
AcDbArc
 50
270.0000000000024
 51
359.9999999999983
  0
CIRCLE
  5
5A
100
AcDbEntity
  8
USP-GEO
100
AcDbCircle
 10
1.000000000000031
 20
14.68750000000002
 30
-0.0000000000000018
 40
0.078
  0
ARC
  5
5B
100
AcDbEntity
  8
USP-GEO
100
AcDbCircle
 10
1.250000000000028
 20
14.96250000000005
 30
-0.0000000000000018
 40
0.0625
100
AcDbArc
 50
180.0000000000016
 51
270.0000000000268
  0
ENDBLK
  5
5E
100
AcDbEntity
  8
0
100
AcDbBlockEnd
  0
BLOCK
  5
A0
100
AcDbEntity
  8
0
100
AcDbBlockBegin
  2
MTW30_S
 70
     0
 10
0.0
 20
0.0
 30
0.0
  3
MTW30_S
  1

  0
TEXT
  5
61
100
AcDbEntity
  8
USP-TXT
100
AcDbText
 10
-3.583333333333328
 20
-1.548841975543311
 30
0.0000000000000023
 40
0.5
  1
MTW30 - SIDE VIEW
 72
     1
 11
0.6250000000000071
 21
-1.548841975543311
 31
0.0000000000000023
100
AcDbText
  0
LINE
  5
62
100
AcDbEntity
  8
USP-GEO
100
AcDbLine
 10
1.466049999999995
 20
14.90000000000005
 30
0.0
 11
1.466049999999995
 21
0.1767766952966596
 31
0.0
  0
LINE
  5
63
100
AcDbEntity
  8
USP-GEO
100
AcDbLine
 10
1.40625
 20
14.90000000000005
 30
0.0
 11
1.40625
 21
0.1767766952966596
 31
0.0
  0
LINE
  5
64
100
AcDbEntity
  8
USP-GEO
100
AcDbLine
 10
1.466050000000002
 20
0.1767766952966596
 30
0.0
 11
1.466050000000002
 21
0.0
 31
0.0
  0
LINE
  5
65
100
AcDbEntity
  8
USP-GEO
100
AcDbLine
 10
1.40625
 20
0.1767766952966596
 30
0.0
 11
1.40625
 21
0.0
 31
0.0
  0
LINE
  5
66
100
AcDbEntity
  8
USP-GEO
100
AcDbLine
 10
1.466050000000002
 20
0.0000000000000142
 30
0.0
 11
1.40625
 21
0.0000000000000142
 31
0.0
  0
LINE
  5
67
100
AcDbEntity
  8
USP-GEO
100
AcDbLine
 10
1.466050000000002
 20
0.1767766952966596
 30
0.0
 11
1.40625
 21
0.1767766952966596
 31
0.0
  0
CIRCLE
  5
68
100
AcDbEntity
  8
USP-GEO
100
AcDbCircle
 10
0.3750000000000213
 20
22.68750000000003
 30
0.0
 40
0.078
  0
LINE
  5
69
100
AcDbEntity
  8
USP-GEO
100
AcDbLine
 10
0.0
 20
24.9
 30
0.0
 11
0.0
 21
21.5506881429761
 31
0.0
  0
LINE
  5
6A
100
AcDbEntity
  8
USP-GEO
100
AcDbLine
 10
1.25
 20
24.90000000000001
 30
0.0
 11
1.25
 21
21.5506881429761
 31
0.0
  0
LINE
  5
6B
100
AcDbEntity
  8
USP-GEO
100
AcDbLine
 10
1.466050000000002
 20
18.44931185702385
 30
0.0
 11
1.466050000000002
 21
15.10000000000004
 31
0.0
  0
LINE
  5
6C
100
AcDbEntity
  8
USP-GEO
100
AcDbLine
 10
1.406250000000007
 20
18.44931185702386
 30
0.0
 11
1.40625
 21
15.10000000000004
 31
0.0
  0
LINE
  5
6D
100
AcDbEntity
  8
USP-GEO
100
AcDbLine
 10
1.466049999999995
 20
14.90000000000005
 30
0.0
 11
1.40625
 21
14.90000000000005
 31
0.0
  0
LINE
  5
6E
100
AcDbEntity
  8
USP-GEO
100
AcDbLine
 10
1.466049999999995
 20
15.10000000000004
 30
0.0
 11
1.40625
 21
15.10000000000004
 31
0.0
  0
LINE
  5
6F
100
AcDbEntity
  8
USP-GEO
100
AcDbLine
 10
1.40625
 20
14.96250000000005
 30
0.0
 11
1.40625
 21
14.90000000000005
 31
0.0
  0
LINE
  5
70
100
AcDbEntity
  8
USP-GEO
100
AcDbLine
 10
1.40625
 20
15.03750000000003
 30
0.0
 11
1.40625
 21
14.96250000000005
 31
0.0
  0
LINE
  5
71
100
AcDbEntity
  8
USP-GEO
100
AcDbLine
 10
1.40625
 20
15.10000000000004
 30
0.0
 11
1.40625
 21
15.03750000000003
 31
0.0
  0
LINE
  5
72
100
AcDbEntity
  8
USP-GEO
100
AcDbLine
 10
1.466050000000002
 20
14.90000000000005
 30
0.0
 11
1.466050000000002
 21
14.96250000000005
 31
0.0
  0
LINE
  5
73
100
AcDbEntity
  8
USP-GEO
100
AcDbLine
 10
1.466050000000002
 20
15.03750000000004
 30
0.0
 11
1.466050000000002
 21
14.96250000000005
 31
0.0
  0
LINE
  5
74
100
AcDbEntity
  8
USP-GEO
100
AcDbLine
 10
1.466050000000002
 20
15.03750000000004
 30
0.0
 11
1.466050000000002
 21
15.10000000000004
 31
0.0
  0
LINE
  5
75
100
AcDbEntity
  8
USP-GEO
100
AcDbLine
 10
0.148771506141621
 20
21.02589289600487
 30
0.0
 11
1.388730338931196
 21
19.01465461636445
 31
0.0
  0
LINE
  5
76
100
AcDbEntity
  8
USP-GEO
100
AcDbLine
 10
1.466050000000002
 20
18.98623737213333
 30
0.0
 11
1.466050000000002
 21
21.00357675595882
 31
0.0
  0
LINE
  5
77
100
AcDbEntity
  8
USP-HID
100
AcDbLine
 10
1.388730338931196
 20
19.01465461636445
 30
0.0
 11
1.388730338931196
 21
21.04253996486029
 31
0.0
  0
LINE
  5
7A
100
AcDbEntity
  8
USP-GEO
100
AcDbLine
 10
1.466050000000002
 20
18.44931185702385
 30
0.0
 11
1.466050000000002
 21
18.97410710399509
 31
0.0
  0
LINE
  5
7B
100
AcDbEntity
  8
USP-GEO
100
AcDbLine
 10
1.406250000000007
 20
18.97410710399509
 30
0.0
 11
1.406250000000007
 21
18.44931185702386
 31
0.0
  0
SPLINE
  5
7C
100
AcDbEntity
  8
USP-GEO
100
AcDbSpline
210
0.0
220
0.0
230
1.0
 70
     8
 71
     3
 72
    14
 73
    10
 74
     0
 42
0.0000001
 43
0.0000001
 40
0.056081910929908
 40
0.056081910929908
 40
0.056081910929908
 40
0.056081910929908
 40
0.0605804826739382
 40
0.0605804826739382
 40
0.0751819597935267
 40
0.0751819597935267
 40
0.0897834369131152
 40
0.0897834369131152
 40
0.0919140398685064
 40
0.0919140398685064
 40
0.0919140398685064
 40
0.0919140398685064
 10
1.43963380286393
 20
18.98623737213333
 30
0.0
 10
1.438309426604106
 20
18.98623737213333
 30
0.0
 10
1.43697674745627
 20
18.98628215418128
 30
0.0
 10
1.431443286078881
 20
18.98664942120165
 30
0.0
 10
1.426596159955145
 20
18.9874577951296
 30
0.0
 10
1.416956158066078
 20
18.99047415162432
 30
0.0
 10
1.412170968407309
 20
18.99269408147609
 30
0.0
 10
1.407437088841994
 20
18.99563979614192
 30
0.0
 10
1.406840296321846
 20
18.9960260520155
 30
0.0
 10
1.406250000000007
 20
18.99642324404119
 30
0.0
  0
LINE
  5
7D
100
AcDbEntity
  8
USP-GEO
100
AcDbLine
 10
1.406250000000007
 20
18.99642324404119
 30
0.0
 11
1.406250000000007
 21
18.97410710399508
 31
0.0
  0
ARC
  5
7E
100
AcDbEntity
  8
USP-GEO
100
AcDbCircle
 10
1.43963380286393
 20
19.04603737213333
 30
0.0
 40
0.0598
100
AcDbArc
 50
211.6544604037174
 51
236.0646172472519
  0
LINE
  5
7F
100
AcDbEntity
  8
USP-GEO
100
AcDbLine
 10
1.43963380286393
 20
18.98623737213333
 30
0.0
 11
1.466050000000002
 21
18.98623737213333
 31
0.0
  0
LINE
  5
80
100
AcDbEntity
  8
USP-GEO
100
AcDbLine
 10
1.466050000000009
 20
18.98623737213333
 30
0.0
 11
1.466050000000009
 21
18.97410710399508
 31
0.0
  0
ARC
  5
81
100
AcDbEntity
  8
USP-GEO
100
AcDbCircle
 10
1.000000000000007
 20
21.5506881429761
 30
0.0
 40
1.0
100
AcDbArc
 50
179.9999999999998
 51
211.6544604037178
  0
ARC
  5
82
100
AcDbEntity
  8
USP-GEO
100
AcDbCircle
 10
2.250000000000007
 20
21.5506881429761
 30
0.0
 40
1.0
100
AcDbArc
 50
179.9999999999998
 51
211.6544604037174
  0
LINE
  5
83
100
AcDbEntity
  8
USP-GEO
100
AcDbLine
 10
1.455864128092137
 20
21.01376262786668
 30
0.0
 11
1.40625
 21
21.01376262786668
 31
0.0
  0
LINE
  5
84
100
AcDbEntity
  8
USP-GEO
100
AcDbLine
 10
1.398771506141628
 20
21.02589289600488
 30
0.0
 11
1.406250000000021
 21
21.01376262786669
 31
0.0
  0
SPLINE
  5
85
100
AcDbEntity
  8
USP-GEO
100
AcDbSpline
210
0.0
220
0.0
230
-1.0
 70
     8
 71
     3
 72
    14
 73
    10
 74
     0
 42
0.0000001
 43
0.0000001
 40
0.0560819109299075
 40
0.0560819109299075
 40
0.0560819109299075
 40
0.0560819109299075
 40
0.0605804826739378
 40
0.0605804826739378
 40
0.0751819597935262
 40
0.0751819597935262
 40
0.0897834369131147
 40
0.0897834369131147
 40
0.0919140398685074
 40
0.0919140398685074
 40
0.0919140398685074
 40
0.0919140398685074
 10
1.455864128092137
 20
21.01376262786668
 30
0.0
 10
1.45675525966444
 20
21.01376262786668
 30
0.0
 10
1.457573952305665
 20
21.01371784581873
 30
0.0
 10
1.460701342905558
 20
21.01335057879837
 30
0.0
 10
1.462703392443216
 20
21.01254220487041
 30
0.0
 10
1.465295151034666
 20
21.00952584837569
 30
0.0
 10
1.465899503716471
 20
21.00730591852392
 30
0.0
 10
1.466041257788837
 20
21.0043602038581
 30
0.0
 10
1.466050000000002
 20
21.00397394798451
 30
0.0
 10
1.466050000000002
 20
21.00357675595882
 30
0.0
  0
LINE
  5
86
100
AcDbEntity
  8
USP-GEO
100
AcDbLine
 10
0.0000000000000071
 20
29.82322330470342
 30
0.0
 11
0.0000000000000071
 21
25.09999999999999
 31
0.0
  0
LINE
  5
87
100
AcDbEntity
  8
USP-GEO
100
AcDbLine
 10
1.250000000000007
 20
29.82322330470339
 30
0.0
 11
1.250000000000007
 21
25.09999999999999
 31
0.0
  0
CIRCLE
  5
88
100
AcDbEntity
  8
USP-GEO
100
AcDbCircle
 10
0.25
 20
25.68750000000003
 30
0.0
 40
0.078
  0
CIRCLE
  5
89
100
AcDbEntity
  8
USP-GEO
100
AcDbCircle
 10
0.2500000000000213
 20
23.68750000000003
 30
0.0
 40
0.078
  0
LINE
  5
8A
100
AcDbEntity
  8
USP-GEO
100
AcDbLine
 10
0.0625000000000071
 20
24.9625
 30
0.0
 11
0.0625000000000071
 21
25.0375
 31
0.0
  0
ARC
  5
8B
100
AcDbEntity
  8
USP-GEO
100
AcDbCircle
 10
0.0
 20
24.96250000000001
 30
0.0
 40
0.0625
100
AcDbArc
 50
270.0
 51
359.9999999999983
  0
CIRCLE
  5
8C
100
AcDbEntity
  8
USP-GEO
100
AcDbCircle
 10
0.3750000000000213
 20
24.68750000000003
 30
0.0
 40
0.078
  0
ARC
  5
8D
100
AcDbEntity
  8
USP-GEO
100
AcDbCircle
 10
0.0000000000000071
 20
25.0375
 30
0.0
 40
0.0625
100
AcDbArc
 50
0.0000000000024299
 51
90.0
  0
CIRCLE
  5
8E
100
AcDbEntity
  8
USP-GEO
100
AcDbCircle
 10
0.8750000000000142
 20
24.31250000000003
 30
0.0
 40
0.078
  0
CIRCLE
  5
8F
100
AcDbEntity
  8
USP-GEO
100
AcDbCircle
 10
1.000000000000021
 20
23.31250000000003
 30
0.0
 40
0.078
  0
CIRCLE
  5
90
100
AcDbEntity
  8
USP-GEO
100
AcDbCircle
 10
1.0
 20
25.31250000000003
 30
0.0
 40
0.078
  0
LINE
  5
91
100
AcDbEntity
  8
USP-GEO
100
AcDbLine
 10
1.187500000000007
 20
24.9625
 30
0.0
 11
1.187500000000007
 21
25.03749999999999
 31
0.0
  0
ARC
  5
92
100
AcDbEntity
  8
USP-GEO
100
AcDbCircle
 10
1.250000000000007
 20
24.96250000000001
 30
0.0
 40
0.0625
100
AcDbArc
 50
180.0
 51
269.9999999999967
  0
ARC
  5
93
100
AcDbEntity
  8
USP-GEO
100
AcDbCircle
 10
1.250000000000007
 20
25.0375
 30
0.0
 40
0.0625
100
AcDbArc
 50
90.0
 51
180.0000000000016
  0
CIRCLE
  5
94
100
AcDbEntity
  8
USP-GEO
100
AcDbCircle
 10
0.375
 20
26.68750000000003
 30
0.0
 40
0.078
  0
CIRCLE
  5
95
100
AcDbEntity
  8
USP-GEO
100
AcDbCircle
 10
0.25
 20
27.68750000000003
 30
0.0
 40
0.078
  0
CIRCLE
  5
96
100
AcDbEntity
  8
USP-GEO
100
AcDbCircle
 10
0.375
 20
28.68750000000003
 30
0.0
 40
0.078
  0
CIRCLE
  5
97
100
AcDbEntity
  8
USP-GEO
100
AcDbCircle
 10
1.0
 20
27.31250000000003
 30
0.0
 40
0.078
  0
CIRCLE
  5
98
100
AcDbEntity
  8
USP-GEO
100
AcDbCircle
 10
0.8750000000000071
 20
26.31250000000003
 30
0.0
 40
0.078
  0
CIRCLE
  5
99
100
AcDbEntity
  8
USP-GEO
100
AcDbCircle
 10
0.8750000000000071
 20
28.31250000000003
 30
0.0
 40
0.078
  0
CIRCLE
  5
9A
100
AcDbEntity
  8
USP-GEO
100
AcDbCircle
 10
0.6250000000000071
 20
29.50000000000003
 30
0.0
 40
0.15625
  0
LINE
  5
9B
100
AcDbEntity
  8
USP-GEO
100
AcDbLine
 10
1.073223304703368
 20
30.00000000000003
 30
0.0
 11
0.1767766952966454
 21
30.00000000000003
 31
0.0
  0
CIRCLE
  5
9C
100
AcDbEntity
  8
USP-GEO
100
AcDbCircle
 10
0.2500000000000071
 20
29.68750000000003
 30
0.0
 40
0.078
  0
LINE
  5
9D
100
AcDbEntity
  8
USP-GEO
100
AcDbLine
 10
0.0000000000000071
 20
29.82322330470342
 30
0.0
 11
0.1767766952966454
 21
30.00000000000003
 31
0.0
  0
LINE
  5
9E
100
AcDbEntity
  8
USP-GEO
100
AcDbLine
 10
1.250000000000007
 20
29.82322330470339
 30
0.0
 11
1.073223304703368
 21
30.00000000000003
 31
0.0
  0
CIRCLE
  5
9F
100
AcDbEntity
  8
USP-GEO
100
AcDbCircle
 10
1.0
 20
29.31250000000003
 30
0.0
 40
0.078
  0
ENDBLK
  5
A1
100
AcDbEntity
  8
0
100
AcDbBlockEnd
  0
ENDSEC
  0
SECTION
  2
ENTITIES
  0
INSERT
  5
3
100
AcDbEntity
  8
USP
100
AcDbBlockReference
  2
MTW30_F
 10
3.917218325201887
 20
1.549804751029647
 30
0.0000000000000023
  0
INSERT
  5
5F
100
AcDbEntity
  8
USP
100
AcDbBlockReference
  2
MTW30_S
 10
13.24442891626517
 20
1.549804729441049
 30
0.0
  0
ENDSEC
  0
SECTION
  2
OBJECTS
  0
DICTIONARY
  5
BD
102
{ACAD_XDICTIONARY
360
BE
102
}
100
AcDbDictionary
  3
ACAD_GROUP
350
BA
  3
ACAD_MLINESTYLE
350
BB
  0
DICTIONARY
  5
AF
100
AcDbDictionary
280
     1
  0
DICTIONARY
  5
B1
100
AcDbDictionary
280
     1
  0
DICTIONARY
  5
6
100
AcDbDictionary
280
     1
  0
DICTIONARY
  5
F
100
AcDbDictionary
280
     1
  0
DICTIONARY
  5
C2
100
AcDbDictionary
280
     1
  0
DICTIONARY
  5
A2
100
AcDbDictionary
280
     1
  3
ACAD_LAYOUTSELFREF
360
A3
  0
DICTIONARY
  5
A7
100
AcDbDictionary
280
     1
  3
ACAD_LAYOUTSELFREF
360
A8
  0
DICTIONARY
  5
BE
100
AcDbDictionary
280
     1
  3
ACAD_XREC_ROUNDTRIP
360
BF
  0
DICTIONARY
  5
BA
102
{ACAD_REACTORS
330
BD
102
}
100
AcDbDictionary
  0
DICTIONARY
  5
BB
102
{ACAD_XDICTIONARY
360
BC
102
}
102
{ACAD_REACTORS
330
BD
102
}
100
AcDbDictionary
  3
STANDARD
350
C0
  0
XRECORD
  5
A3
102
{ACAD_REACTORS
330
A2
102
}
100
AcDbXrecord
340
2
  0
XRECORD
  5
A8
102
{ACAD_REACTORS
330
A7
102
}
100
AcDbXrecord
340
A8
  0
XRECORD
  5
BF
102
{ACAD_REACTORS
330
BE
102
}
100
AcDbXrecord
102
EXTNAMES
  1
ACDBVARIABLEDICTIONARY
  2
AcDbVariableDictionary
  0
DICTIONARY
  5
BC
100
AcDbDictionary
280
     1
  0
MLINESTYLE
  5
C0
102
{ACAD_REACTORS
330
BB
102
}
100
AcDbMlineStyle
  2
STANDARD
 70
     0
  3

 62
   256
 51
90.0
 52
90.0
 71
     2
 49
0.5
 62
   256
  6
BYLAYER
 49
-0.5
 62
   256
  6
BYLAYER
  0
ENDSEC
  0
EOF
