  0
SECTION
  2
HEADER
  9
$ACADVER
  1
AC1014
  9
$ACADMAINTVER
 70
     9
  9
$DWGCODEPAGE
  3
ANSI_1252
  9
$INSBASE
 10
0.0
 20
0.0
 30
0.0
  9
$EXTMIN
 10
0.0009984112508619
 20
0.00006793079001
 30
0.0
  9
$EXTMAX
 10
26.03262328267656
 20
8.197626481132768
 30
0.0
  9
$LIMMIN
 10
0.0
 20
0.0
  9
$LIMMAX
 10
12.0
 20
9.0
  9
$ORTHOMODE
 70
     0
  9
$REGENMODE
 70
     1
  9
$FILLMODE
 70
     1
  9
$QTEXTMODE
 70
     0
  9
$MIRRTEXT
 70
     0
  9
$DRAGMODE
 70
     2
  9
$LTSCALE
 40
1.5
  9
$OSMODE
 70
    37
  9
$ATTMODE
 70
     1
  9
$TEXTSIZE
 40
0.375
  9
$TRACEWID
 40
0.05
  9
$TEXTSTYLE
  7
STANDARD
  9
$CLAYER
  8
0
  9
$CELTYPE
  6
BYLAYER
  9
$CECOLOR
 62
   256
  9
$CELTSCALE
 40
1.0
  9
$DELOBJ
 70
     1
  9
$DISPSILH
 70
     1
  9
$DIMSCALE
 40
6.0
  9
$DIMASZ
 40
0.125
  9
$DIMEXO
 40
0.0625
  9
$DIMDLI
 40
0.37890625
  9
$DIMRND
 40
0.0
  9
$DIMDLE
 40
0.0
  9
$DIMEXE
 40
0.09375
  9
$DIMTP
 40
0.0
  9
$DIMTM
 40
0.0
  9
$DIMTXT
 40
0.109375
  9
$DIMCEN
 40
0.0
  9
$DIMTSZ
 40
0.0
  9
$DIMTOL
 70
     0
  9
$DIMLIM
 70
     0
  9
$DIMTIH
 70
     1
  9
$DIMTOH
 70
     1
  9
$DIMSE1
 70
     0
  9
$DIMSE2
 70
     0
  9
$DIMTAD
 70
     0
  9
$DIMZIN
 70
     8
  9
$DIMBLK
  1

  9
$DIMASO
 70
     1
  9
$DIMSHO
 70
     1
  9
$DIMPOST
  1

  9
$DIMAPOST
  1

  9
$DIMALT
 70
     0
  9
$DIMALTD
 70
     2
  9
$DIMALTF
 40
25.4
  9
$DIMLFAC
 40
1.0
  9
$DIMTOFL
 70
     0
  9
$DIMTVP
 40
0.0
  9
$DIMTIX
 70
     0
  9
$DIMSOXD
 70
     0
  9
$DIMSAH
 70
     0
  9
$DIMBLK1
  1

  9
$DIMBLK2
  1

  9
$DIMSTYLE
  2
STANDARD
  9
$DIMCLRD
 70
     0
  9
$DIMCLRE
 70
     0
  9
$DIMCLRT
 70
   256
  9
$DIMTFAC
 40
1.0
  9
$DIMGAP
 40
0.08984375
  9
$DIMJUST
 70
     0
  9
$DIMSD1
 70
     0
  9
$DIMSD2
 70
     0
  9
$DIMTOLJ
 70
     1
  9
$DIMTZIN
 70
     0
  9
$DIMALTZ
 70
     0
  9
$DIMALTTZ
 70
     0
  9
$DIMFIT
 70
     3
  9
$DIMUPT
 70
     1
  9
$DIMUNIT
 70
     7
  9
$DIMDEC
 70
     4
  9
$DIMTDEC
 70
     4
  9
$DIMALTU
 70
     2
  9
$DIMALTTD
 70
     2
  9
$DIMTXSTY
  7
STANDARD
  9
$DIMAUNIT
 70
     0
  9
$LUNITS
 70
     5
  9
$LUPREC
 70
     6
  9
$SKETCHINC
 40
0.1
  9
$FILLETRAD
 40
0.0
  9
$AUNITS
 70
     0
  9
$AUPREC
 70
     1
  9
$MENU
  1
CUSTOM
  9
$ELEVATION
 40
0.0
  9
$PELEVATION
 40
0.0
  9
$THICKNESS
 40
0.0
  9
$LIMCHECK
 70
     0
  9
$BLIPMODE
 70
     0
  9
$CHAMFERA
 40
0.0
  9
$CHAMFERB
 40
0.0
  9
$CHAMFERC
 40
0.0
  9
$CHAMFERD
 40
0.0
  9
$SKPOLY
 70
     0
  9
$TDCREATE
 40
2451263.663231366
  9
$TDUPDATE
 40
2452759.746249085
  9
$TDINDWG
 40
0.1196878356
  9
$TDUSRTIMER
 40
0.1196878356
  9
$USRTIMER
 70
     1
  9
$ANGBASE
 50
0.0
  9
$ANGDIR
 70
     0
  9
$PDMODE
 70
     0
  9
$PDSIZE
 40
0.0
  9
$PLINEWID
 40
0.0
  9
$COORDS
 70
     1
  9
$SPLFRAME
 70
     0
  9
$SPLINETYPE
 70
     6
  9
$SPLINESEGS
 70
     8
  9
$ATTDIA
 70
     0
  9
$ATTREQ
 70
     1
  9
$HANDLING
 70
     1
  9
$HANDSEED
  5
E1
  9
$SURFTAB1
 70
     6
  9
$SURFTAB2
 70
     6
  9
$SURFTYPE
 70
     6
  9
$SURFU
 70
     6
  9
$SURFV
 70
     6
  9
$UCSNAME
  2

  9
$UCSORG
 10
0.0
 20
0.0
 30
0.0
  9
$UCSXDIR
 10
1.0
 20
0.0
 30
0.0
  9
$UCSYDIR
 10
0.0
 20
1.0
 30
0.0
  9
$PUCSNAME
  2

  9
$PUCSORG
 10
0.0
 20
0.0
 30
0.0
  9
$PUCSXDIR
 10
1.0
 20
0.0
 30
0.0
  9
$PUCSYDIR
 10
0.0
 20
1.0
 30
0.0
  9
$USERI1
 70
     0
  9
$USERI2
 70
     0
  9
$USERI3
 70
     0
  9
$USERI4
 70
     0
  9
$USERI5
 70
     0
  9
$USERR1
 40
0.0
  9
$USERR2
 40
0.0
  9
$USERR3
 40
0.0
  9
$USERR4
 40
0.0
  9
$USERR5
 40
0.0
  9
$WORLDVIEW
 70
     1
  9
$SHADEDGE
 70
     3
  9
$SHADEDIF
 70
    70
  9
$TILEMODE
 70
     1
  9
$MAXACTVP
 70
    16
  9
$PINSBASE
 10
0.0
 20
0.0
 30
0.0
  9
$PLIMCHECK
 70
     0
  9
$PEXTMIN
 10
1.052083323321005
 20
0.7937500251559762
 30
0.0
  9
$PEXTMAX
 10
9.468749909889039
 20
7.143750226403783
 30
0.0
  9
$PLIMMIN
 10
-0.2145830289585384
 20
-0.2812499887361301
  9
$PLIMMAX
 10
10.78541673074557
 20
8.218749770967978
  9
$UNITMODE
 70
     0
  9
$VISRETAIN
 70
     0
  9
$PLINEGEN
 70
     0
  9
$PSLTSCALE
 70
     0
  9
$TREEDEPTH
 70
  3020
  9
$PICKSTYLE
 70
     1
  9
$CMLSTYLE
  2
STANDARD
  9
$CMLJUST
 70
     0
  9
$CMLSCALE
 40
1.0
  9
$PROXYGRAPHICS
 70
     1
  9
$MEASUREMENT
 70
     0
  0
ENDSEC
  0
SECTION
  2
CLASSES
  0
CLASS
  1
ACDBDICTIONARYWDFLT
  2
AcDbDictionaryWithDefault
  3
AutoCAD 2000
 90
        0
280
     0
281
     0
  0
CLASS
  1
ACDBPLACEHOLDER
  2
AcDbPlaceHolder
  3
AutoCAD 2000
 90
        0
280
     0
281
     0
  0
CLASS
  1
LAYOUT
  2
AcDbLayout
  3
AutoCAD 2000
 90
        0
280
     0
281
     0
  0
CLASS
  1
DICTIONARYVAR
  2
AcDbDictionaryVar
  3
"AutoCAD"
 90
        0
280
     0
281
     0
  0
CLASS
  1
LONG_TRANSACTION
  2
AcDbLongTransaction
  3
AutoCAD 2000
 90
        0
280
     0
281
     0
  0
CLASS
  1
LWPOLYLINE
  2
AcDbPolyline
  3
"AutoCAD"
 90
        0
280
     0
281
     1
  0
CLASS
  1
HATCH
  2
AcDbHatch
  3
"ACAD_SEDONA"
 90
        0
280
     0
281
     1
  0
CLASS
  1
XRECORD
  2
AcDbXrecord
  3
"<Built In>"
 90
        0
280
     0
281
     0
  0
CLASS
  1
LONG_TRANSACTION
  2
AcDbLongTransaction
  3
AutoCAD 2000
 90
        0
280
     0
281
     0
  0
CLASS
  1
LWPOLYLINE
  2
AcDbPolyline
  3
"AutoCAD"
 90
        0
280
     0
281
     1
  0
CLASS
  1
HATCH
  2
AcDbHatch
  3
"ACAD_SEDONA"
 90
        0
280
     0
281
     1
  0
CLASS
  1
XRECORD
  2
AcDbXrecord
  3
"<Built In>"
 90
        0
280
     0
281
     0
  0
ENDSEC
  0
SECTION
  2
TABLES
  0
TABLE
  2
VPORT
  5
C3
100
AcDbSymbolTable
 70
     1
  0
VPORT
  5
DD
100
AcDbSymbolTableRecord
100
AcDbViewportTableRecord
  2
*ACTIVE
 70
     0
 10
0.0
 20
0.0
 11
1.0
 21
1.0
 12
-10.0787258282698
 22
14.58314441603777
 13
0.0
 23
0.0
 14
1.0
 24
1.0
 15
0.0
 25
0.0
 16
0.0
 26
0.0
 36
1.0
 17
23.09603071721725
 27
-10.27010416511325
 37
-10.44050274849355
 40
17.94813861238161
 41
1.457627118644067
 42
50.0
 43
10.55307667737539
 44
10.55307667737539
 50
0.0
 51
0.0
 71
     0
 72
   100
 73
     1
 74
     1
 75
     0
 76
     0
 77
     0
 78
     0
  0
ENDTAB
  0
TABLE
  2
LTYPE
  5
BE
100
AcDbSymbolTable
 70
     1
  0
LTYPE
  5
BF
100
AcDbSymbolTableRecord
100
AcDbLinetypeTableRecord
  2
BYBLOCK
 70
     0
  3

 72
    65
 73
     0
 40
0.0
  0
LTYPE
  5
C0
100
AcDbSymbolTableRecord
100
AcDbLinetypeTableRecord
  2
BYLAYER
 70
     0
  3

 72
    65
 73
     0
 40
0.0
  0
LTYPE
  5
5
100
AcDbSymbolTableRecord
100
AcDbLinetypeTableRecord
  2
CONTINUOUS
 70
     0
  3
Solid line
 72
    65
 73
     0
 40
0.0
  0
ENDTAB
  0
TABLE
  2
LAYER
  5
BC
100
AcDbSymbolTable
 70
     4
  0
LAYER
  5
46
100
AcDbSymbolTableRecord
100
AcDbLayerTableRecord
  2
0
 70
     0
 62
     7
  6
CONTINUOUS
  0
LAYER
  5
B
100
AcDbSymbolTableRecord
100
AcDbLayerTableRecord
  2
USP-GEO
 70
     0
 62
     7
  6
CONTINUOUS
  0
LAYER
  5
8
100
AcDbSymbolTableRecord
100
AcDbLayerTableRecord
  2
USP-TXT
 70
     0
 62
     7
  6
CONTINUOUS
  0
LAYER
  5
4
100
AcDbSymbolTableRecord
100
AcDbLayerTableRecord
  2
USP
 70
     0
 62
     7
  6
CONTINUOUS
  0
ENDTAB
  0
TABLE
  2
STYLE
  5
BD
100
AcDbSymbolTable
 70
     1
  0
STYLE
  5
9
100
AcDbSymbolTableRecord
100
AcDbTextStyleTableRecord
  2
STANDARD
 70
     0
 40
0.0
 41
1.0
 50
0.0
 71
     0
 42
0.375
  3
txt
  4

  0
ENDTAB
  0
TABLE
  2
VIEW
  5
C1
100
AcDbSymbolTable
 70
     0
  0
ENDTAB
  0
TABLE
  2
UCS
  5
C2
100
AcDbSymbolTable
 70
     0
  0
ENDTAB
  0
TABLE
  2
APPID
  5
C5
100
AcDbSymbolTable
 70
     1
  0
APPID
  5
B7
100
AcDbSymbolTableRecord
100
AcDbRegAppTableRecord
  2
ACAD
 70
     0
  0
ENDTAB
  0
TABLE
  2
DIMSTYLE
  5
C6
100
AcDbSymbolTable
 70
     1
  0
DIMSTYLE
105
CE
100
AcDbSymbolTableRecord
100
AcDbDimStyleTableRecord
  2
STANDARD
 70
     0
  3

  4

  5

  6

  7

 40
1.0
 41
0.18
 42
0.0625
 43
0.38
 44
0.18
 45
0.0
 46
0.0
 47
0.0
 48
0.0
140
0.18
141
0.09
142
0.0
143
25.4
144
1.0
145
0.0
146
1.0
147
0.09
 71
     0
 72
     0
 73
     1
 74
     1
 75
     0
 76
     0
 77
     0
 78
     0
170
     0
171
     2
172
     0
173
     0
174
     0
175
     0
176
     0
177
     0
178
     0
270
     2
271
     4
272
     4
273
     2
274
     2
340
9
275
     0
280
     0
281
     0
282
     0
283
     1
284
     0
285
     0
286
     0
287
     3
288
     0
  0
ENDTAB
  0
TABLE
  2
BLOCK_RECORD
  5
1
100
AcDbSymbolTable
 70
     3
  0
BLOCK_RECORD
  5
2
102
{ACAD_XDICTIONARY
360
AE
102
}
100
AcDbSymbolTableRecord
100
AcDbBlockTableRecord
  2
*MODEL_SPACE
  0
BLOCK_RECORD
  5
B2
102
{ACAD_XDICTIONARY
360
B8
102
}
100
AcDbSymbolTableRecord
100
AcDbBlockTableRecord
  2
*PAPER_SPACE
  0
BLOCK_RECORD
  5
6
100
AcDbSymbolTableRecord
100
AcDbBlockTableRecord
  2
MTW18_F
  0
BLOCK_RECORD
  5
49
100
AcDbSymbolTableRecord
100
AcDbBlockTableRecord
  2
MTW18_T
  0
BLOCK_RECORD
  5
87
100
AcDbSymbolTableRecord
100
AcDbBlockTableRecord
  2
MTW18_S
  0
ENDTAB
  0
ENDSEC
  0
SECTION
  2
BLOCKS
  0
BLOCK
  5
B0
100
AcDbEntity
  8
0
100
AcDbBlockBegin
  2
*MODEL_SPACE
 70
     0
 10
0.0
 20
0.0
 30
0.0
  3
*MODEL_SPACE
  1

  0
ENDBLK
  5
B1
100
AcDbEntity
  8
0
100
AcDbBlockEnd
  0
BLOCK
  5
BA
100
AcDbEntity
 67
     1
  8
0
100
AcDbBlockBegin
  2
*PAPER_SPACE
 70
     0
 10
0.0
 20
0.0
 30
0.0
  3
*PAPER_SPACE
  1

  0
ENDBLK
  5
BB
100
AcDbEntity
 67
     1
  8
0
100
AcDbBlockEnd
  0
BLOCK
  5
45
100
AcDbEntity
  8
0
100
AcDbBlockBegin
  2
MTW18_F
 70
     0
 10
0.0
 20
0.0
 30
0.0
  3
MTW18_F
  1

  0
TEXT
  5
7
100
AcDbEntity
  8
USP-TXT
100
AcDbText
 10
6.017492203082268
 20
-1.807174970064169
 30
0.0
 40
0.328125
  1
MTW18 - FRONT VIEW
 72
     1
 11
8.970617203082268
 21
-1.807174970064169
 31
0.0
100
AcDbText
  0
CIRCLE
  5
A
100
AcDbEntity
  8
USP-GEO
100
AcDbCircle
 10
11.69999999999995
 20
0.2500000000000071
 30
0.0
 40
0.082
  0
LINE
  5
C
100
AcDbEntity
  8
USP-GEO
100
AcDbLine
 10
17.82322330470334
 20
0.0000000000000071
 30
0.0
 11
11.1875
 21
0.0000000000000107
 31
0.0
  0
LINE
  5
D
100
AcDbEntity
  8
USP-GEO
100
AcDbLine
 10
11.1875
 20
1.249999999999996
 30
0.0
 11
17.82322330470331
 21
1.249999999999995
 31
0.0
  0
LINE
  5
E
100
AcDbEntity
  8
USP-GEO
100
AcDbLine
 10
0.176776695296623
 20
1.375000000000016
 30
0.0
 11
6.812500000000002
 21
1.375000000000005
 31
0.0
  0
LINE
  5
F
100
AcDbEntity
  8
USP-GEO
100
AcDbLine
 10
6.812500000000002
 20
1.427000000000004
 30
0.0
 11
0.176776695296623
 21
1.427000000000016
 31
0.0
  0
LINE
  5
10
100
AcDbEntity
  8
USP-GEO
100
AcDbLine
 10
-0.0000000000000011
 20
1.427000000000003
 30
0.0
 11
-0.0000000000000008
 21
1.374999999999973
 31
0.0
  0
LINE
  5
11
100
AcDbEntity
  8
USP-GEO
100
AcDbLine
 10
0.0000000000000009
 20
1.375000000000001
 30
0.0
 11
0.1767766952966239
 21
1.375000000000001
 31
0.0
  0
LINE
  5
12
100
AcDbEntity
  8
USP-GEO
100
AcDbLine
 10
0.176776695296623
 20
1.427000000000003
 30
0.0
 11
0.1767766952966233
 21
1.374999999999971
 31
0.0
  0
LINE
  5
13
100
AcDbEntity
  8
USP-GEO
100
AcDbLine
 10
0.176776695296623
 20
1.427000000000003
 30
0.0
 11
0.0
 21
1.427000000000003
 31
0.0
  0
LINE
  5
14
100
AcDbEntity
  8
USP-GEO
100
AcDbLine
 10
8.024889099536812
 20
1.375000000000002
 30
0.0
 11
9.975110900424771
 21
1.375
 31
0.0
  0
LINE
  5
15
100
AcDbEntity
  8
USP-GEO
100
AcDbLine
 10
9.975110900424771
 20
1.426999999999999
 30
0.0
 11
8.02488909953681
 21
1.427000000000002
 31
0.0
  0
LINE
  5
16
100
AcDbEntity
  8
USP-GEO
100
AcDbLine
 10
9.975110900424771
 20
0.148829374833058
 30
0.0
 11
8.024889099536812
 21
1.351170625190651
 31
0.0
  0
LINE
  5
17
100
AcDbEntity
  8
USP-GEO
100
AcDbLine
 10
6.937500000000002
 20
1.375000000000005
 30
0.0
 11
7.500000000000002
 21
1.375000000000005
 31
0.0
  0
LINE
  5
18
100
AcDbEntity
  8
USP-GEO
100
AcDbLine
 10
7.500000000000002
 20
1.427000000000004
 30
0.0
 11
6.937500000000002
 21
1.427000000000004
 31
0.0
  0
LINE
  5
19
100
AcDbEntity
  8
USP-GEO
100
AcDbLine
 10
6.812500000000002
 20
1.427000000000003
 30
0.0
 11
6.812500000000002
 21
1.375000000000003
 31
0.0
  0
LINE
  5
1A
100
AcDbEntity
  8
USP-GEO
100
AcDbLine
 10
6.812500000000009
 20
1.375000000000007
 30
0.0
 11
6.937500000000009
 21
1.375000000000007
 31
0.0
  0
LINE
  5
1B
100
AcDbEntity
  8
USP-GEO
100
AcDbLine
 10
6.937500000000006
 20
1.427000000000006
 30
0.0
 11
6.812500000000006
 21
1.427000000000006
 31
0.0
  0
LINE
  5
1C
100
AcDbEntity
  8
USP-GEO
100
AcDbLine
 10
6.937500000000002
 20
1.427000000000001
 30
0.0
 11
6.937500000000002
 21
1.375000000000001
 31
0.0
  0
LINE
  5
1D
100
AcDbEntity
  8
USP-GEO
100
AcDbLine
 10
7.500000000000002
 20
1.375000000000004
 30
0.0
 11
8.02488909953681
 21
1.375000000000004
 31
0.0
  0
LINE
  5
1E
100
AcDbEntity
  8
USP-GEO
100
AcDbLine
 10
7.500000000000002
 20
1.427000000000004
 30
0.0
 11
8.024889099536808
 21
1.427000000000004
 31
0.0
  0
LINE
  5
1F
100
AcDbEntity
  8
USP-GEO
100
AcDbLine
 10
7.500000000000002
 20
1.427000000000004
 30
0.0
 11
7.500000000000002
 21
1.375000000000005
 31
0.0
  0
ARC
  5
20
100
AcDbEntity
  8
USP-GEO
100
AcDbCircle
 10
8.036122918275919
 20
1.405138783004749
 30
0.0
 40
0.052
100
AcDbArc
 50
215.4218498623937
 51
239.3613090150238
  0
ARC
  5
21
100
AcDbEntity
  8
USP-GEO
100
AcDbCircle
 10
7.500000000000002
 20
0.5
 30
0.0
 40
1.0
100
AcDbArc
 50
58.33922221061307
 51
59.36130901502363
  0
LINE
  5
22
100
AcDbEntity
  8
USP-GEO
100
AcDbLine
 10
8.024889099536808
 20
1.427000000000003
 30
0.0
 11
8.024889099536808
 21
1.375000000000003
 31
0.0
  0
LINE
  5
23
100
AcDbEntity
  8
USP-GEO
100
AcDbLine
 10
11.0625
 20
0.0000000000000124
 30
0.0
 11
10.5
 21
0.0000000000000124
 31
0.0
  0
ARC
  5
24
100
AcDbEntity
  8
USP-GEO
100
AcDbCircle
 10
10.5
 20
1.0
 30
0.0
 40
1.0
100
AcDbArc
 50
238.3392222080259
 51
269.9999999999997
  0
ARC
  5
25
100
AcDbEntity
  8
USP-GEO
100
AcDbCircle
 10
11.125
 20
0.0000000000000142
 30
0.0
 40
0.0625
100
AcDbArc
 50
0.0
 51
180.0000000000016
  0
LINE
  5
26
100
AcDbEntity
  8
USP-GEO
100
AcDbLine
 10
10.5
 20
1.25
 30
0.0
 11
11.0625
 21
1.25
 31
0.0
  0
ARC
  5
27
100
AcDbEntity
  8
USP-GEO
100
AcDbCircle
 10
10.5
 20
2.250000000000001
 30
0.0
 40
1.0
100
AcDbArc
 50
242.5784641023366
 51
270.0000000000002
  0
LINE
  5
28
100
AcDbEntity
  8
USP-GEO
100
AcDbLine
 10
9.990377454110324
 20
1.375
 30
0.0
 11
10.00625223669715
 21
1.375
 31
0.0
  0
LINE
  5
29
100
AcDbEntity
  8
USP-GEO
100
AcDbLine
 10
9.975110900424766
 20
1.375
 30
0.0
 11
9.990377454110324
 21
1.375
 31
0.0
  0
ARC
  5
2A
100
AcDbEntity
  8
USP-GEO
100
AcDbCircle
 10
10.06787708172406
 20
1.406214610519544
 30
0.0
 40
0.052
100
AcDbArc
 50
180.0000000000019
 51
242.8819156845027
  0
SPLINE
  5
2B
100
AcDbEntity
  8
USP-GEO
100
AcDbSpline
210
0.0
220
0.0
230
-1.0
 70
     8
 71
     3
 72
    20
 73
    16
 74
     0
 42
0.0000001
 43
0.0000001
 40
0.065553952005415
 40
0.065553952005415
 40
0.065553952005415
 40
0.065553952005415
 40
0.0733809879263543
 40
0.0733809879263543
 40
0.0733809879263543
 40
0.0847958082704539
 40
0.0847958082704539
 40
0.0847958082704539
 40
0.1007765567521933
 40
0.1007765567521933
 40
0.1007765567521933
 40
0.1231496046266284
 40
0.1231496046266284
 40
0.1231496046266284
 40
0.1304550896468521
 40
0.1304550896468521
 40
0.1304550896468521
 40
0.1304550896468521
 10
10.00625223669737
 20
1.416353331170814
 30
0.0
 10
10.0069797001752
 20
1.415565570361035
 30
0.0
 10
10.00767498455185
 20
1.414817588516084
 30
0.0
 10
10.00833352016194
 20
1.414112938926038
 30
0.0
 10
10.00929391765538
 20
1.413085289563344
 30
0.0
 10
10.01017594163286
 20
1.412150008541733
 30
0.0
 10
10.01096844898059
 20
1.411314794469564
 30
0.0
 10
10.01207795926741
 20
1.410145494768531
 30
0.0
 10
10.01300942085024
 20
1.409174804226253
 30
0.0
 10
10.01375854538444
 20
1.40839798105423
 30
0.0
 10
10.01480731973232
 20
1.407310428613399
 30
0.0
 10
10.01548415602946
 20
1.406617317623648
 30
0.0
 10
10.01574807127336
 20
1.406346799071965
 30
0.0
 10
10.01583424767953
 20
1.406258466483663
 30
0.0
 10
10.01587708172406
 20
1.406214610519548
 30
0.0
 10
10.01587708172406
 20
1.406214610519542
 30
0.0
  0
SPLINE
  5
2C
100
AcDbEntity
  8
USP-GEO
100
AcDbSpline
210
0.0
220
0.0
230
-1.0
 70
     8
 71
     3
 72
    12
 73
     8
 74
     0
 42
0.0000001
 43
0.0000001
 40
0.0
 40
0.0
 40
0.0
 40
0.0
 40
0.0196268480160634
 40
0.0196268480160634
 40
0.0435618951481583
 40
0.0435618951481583
 40
0.0661741207439531
 40
0.0661741207439531
 40
0.0661741207439531
 40
0.0661741207439531
 10
10.00625223669715
 20
1.416353331171062
 30
0.0
 10
10.00625223669715
 20
1.40981104849904
 30
0.0
 10
10.00751321042667
 20
1.403209138746632
 30
0.0
 10
10.01238179636604
 20
1.389482317356637
 30
0.0
 10
10.01650077397453
 20
1.382399927907357
 30
0.0
 10
10.02675772881127
 20
1.370623538825732
 30
0.0
 10
10.03273773994826
 20
1.365848743273403
 30
0.0
 10
10.03946653965184
 20
1.36235765541534
 30
0.0
  0
SPLINE
  5
2D
100
AcDbEntity
  8
USP-GEO
100
AcDbSpline
210
0.0
220
0.0
230
-1.0
 70
     8
 71
     3
 72
    14
 73
    10
 74
     0
 42
0.0000001
 43
0.0000001
 40
0.0474419666514962
 40
0.0474419666514962
 40
0.0474419666514962
 40
0.0474419666514962
 40
0.0523925356555837
 40
0.0523925356555837
 40
0.0649580475525351
 40
0.0649580475525351
 40
0.0775235594494866
 40
0.0775235594494866
 40
0.0801084536668116
 40
0.0801084536668116
 40
0.0801084536668116
 40
0.0801084536668116
 10
10.01587708172406
 20
1.41737515497309
 30
0.0
 10
10.01587708172405
 20
1.418404196422642
 30
0.0
 10
10.01581493309955
 20
1.419336812591264
 30
0.0
 10
10.0153907043012
 20
1.422225081098607
 30
0.0
 10
10.01462933653101
 20
1.423968224002571
 30
0.0
 10
10.01191547362231
 20
1.426254238364563
 30
0.0
 10
10.00995277549598
 20
1.426810015325862
 30
0.0
 10
10.00723579629418
 20
1.426985679460436
 30
0.0
 10
10.00675324444793
 20
1.426999999999999
 30
0.0
 10
10.00625223669715
 20
1.426999999999999
 30
0.0
  0
LINE
  5
2E
100
AcDbEntity
  8
USP-GEO
100
AcDbLine
 10
10.01587708172406
 20
1.406214610519542
 30
0.0
 11
10.01587708172406
 21
1.41737515497309
 31
0.0
  0
LINE
  5
2F
100
AcDbEntity
  8
USP-GEO
100
AcDbLine
 10
10.00625223669715
 20
1.426999999999999
 30
0.0
 11
9.990377454110324
 21
1.426999999999999
 31
0.0
  0
LINE
  5
30
100
AcDbEntity
  8
USP-GEO
100
AcDbLine
 10
9.990377454110324
 20
1.426999999999999
 30
0.0
 11
9.990377454110324
 21
1.375
 31
0.0
  0
LINE
  5
31
100
AcDbEntity
  8
USP-GEO
100
AcDbLine
 10
10.00625223669715
 20
1.374999999999998
 30
0.0
 11
10.00625223669715
 21
1.416353331170814
 31
0.0
  0
LINE
  5
32
100
AcDbEntity
  8
USP-GEO
100
AcDbLine
 10
9.990377454110324
 20
1.427
 30
0.0
 11
9.975110900424766
 21
1.427
 31
0.0
  0
LINE
  5
33
100
AcDbEntity
  8
USP-GEO
100
AcDbLine
 10
9.975110900424771
 20
1.426999999999999
 30
0.0
 11
9.975110900424771
 21
1.375
 31
0.0
  0
ARC
  5
34
100
AcDbEntity
  8
USP-GEO
100
AcDbCircle
 10
11.125
 20
1.25
 30
0.0
 40
0.0625
100
AcDbArc
 50
180.0
 51
359.9999999999975
  0
CIRCLE
  5
35
100
AcDbEntity
  8
USP-GEO
100
AcDbCircle
 10
15.32499999999994
 20
0.999999999999968
 30
0.0
 40
0.082
  0
CIRCLE
  5
36
100
AcDbEntity
  8
USP-GEO
100
AcDbCircle
 10
12.69999999999994
 20
0.3750000000000071
 30
0.0
 40
0.082
  0
CIRCLE
  5
37
100
AcDbEntity
  8
USP-GEO
100
AcDbCircle
 10
13.69999999999995
 20
0.2499999999999964
 30
0.0
 40
0.082
  0
CIRCLE
  5
38
100
AcDbEntity
  8
USP-GEO
100
AcDbCircle
 10
14.69999999999994
 20
0.3749999999999929
 30
0.0
 40
0.082
  0
CIRCLE
  5
39
100
AcDbEntity
  8
USP-GEO
100
AcDbCircle
 10
12.32499999999994
 20
0.8749999999999964
 30
0.0
 40
0.082
  0
CIRCLE
  5
3A
100
AcDbEntity
  8
USP-GEO
100
AcDbCircle
 10
13.32499999999995
 20
0.9999999999999751
 30
0.0
 40
0.082
  0
CIRCLE
  5
3B
100
AcDbEntity
  8
USP-GEO
100
AcDbCircle
 10
14.32499999999994
 20
0.8749999999999893
 30
0.0
 40
0.082
  0
CIRCLE
  5
3C
100
AcDbEntity
  8
USP-GEO
100
AcDbCircle
 10
17.37499999999996
 20
0.6249999999999858
 30
0.0
 40
0.156
  0
LINE
  5
3D
100
AcDbEntity
  8
USP-GEO
100
AcDbLine
 10
17.99999999999995
 20
1.073223304703356
 30
0.0
 11
17.99999999999995
 21
0.1767766952966294
 31
0.0
  0
CIRCLE
  5
3E
100
AcDbEntity
  8
USP-GEO
100
AcDbCircle
 10
15.69999999999995
 20
0.2499999999999822
 30
0.0
 40
0.082
  0
CIRCLE
  5
3F
100
AcDbEntity
  8
USP-GEO
100
AcDbCircle
 10
16.69999999999995
 20
0.3749999999999858
 30
0.0
 40
0.082
  0
LINE
  5
40
100
AcDbEntity
  8
USP-GEO
100
AcDbLine
 10
17.99999999999995
 20
0.1767766952966294
 30
0.0
 11
17.82322330470334
 21
0.0000000000000062
 31
0.0
  0
CIRCLE
  5
41
100
AcDbEntity
  8
USP-GEO
100
AcDbCircle
 10
17.69999999999995
 20
0.2499999999999751
 30
0.0
 40
0.082
  0
CIRCLE
  5
42
100
AcDbEntity
  8
USP-GEO
100
AcDbCircle
 10
16.32499999999994
 20
0.8749999999999786
 30
0.0
 40
0.082
  0
LINE
  5
43
100
AcDbEntity
  8
USP-GEO
100
AcDbLine
 10
17.82322330470331
 20
1.249999999999992
 30
0.0
 11
17.99999999999995
 21
1.073223304703355
 31
0.0
  0
CIRCLE
  5
44
100
AcDbEntity
  8
USP-GEO
100
AcDbCircle
 10
17.32499999999995
 20
0.999999999999984
 30
0.0
 40
0.082
  0
ENDBLK
  5
47
100
AcDbEntity
  8
0
100
AcDbBlockEnd
  0
BLOCK
  5
84
100
AcDbEntity
  8
0
100
AcDbBlockBegin
  2
MTW18_T
 70
     0
 10
0.0
 20
0.0
 30
0.0
  3
MTW18_T
  1

  0
LINE
  5
4A
100
AcDbEntity
  8
USP-GEO
100
AcDbLine
 10
17.82322330470331
 20
1.42700000000002
 30
0.0
 11
11.1875
 21
1.426999999999999
 31
0.0
  0
LINE
  5
4B
100
AcDbEntity
  8
USP-GEO
100
AcDbLine
 10
11.1875
 20
1.375
 30
0.0
 11
17.82322330470331
 21
1.375000000000002
 31
0.0
  0
CIRCLE
  5
4C
100
AcDbEntity
  8
USP-GEO
100
AcDbCircle
 10
0.624999999999999
 20
0.6250000000000194
 30
0.0
 40
0.156
  0
LINE
  5
4D
100
AcDbEntity
  8
USP-GEO
100
AcDbLine
 10
-0.0000000000000011
 20
0.1767766952966434
 30
0.0
 11
-0.0000000000000012
 21
1.073223304703353
 31
0.0
  0
LINE
  5
4E
100
AcDbEntity
  8
USP-GEO
100
AcDbLine
 10
9.975110900424771
 20
1.351170625166949
 30
0.0
 11
8.02488909953681
 21
0.1488293748093548
 31
0.0
  0
LINE
  5
4F
100
AcDbEntity
  8
USP-GEO
100
AcDbLine
 10
6.812500000000002
 20
0.000000000000002
 30
0.0
 11
0.176776695296623
 21
0.0
 31
0.0
  0
LINE
  5
50
100
AcDbEntity
  8
USP-GEO
100
AcDbLine
 10
0.176776695296623
 20
0.0000000000000051
 30
0.0
 11
0.0
 21
0.1767766952966446
 31
0.0
  0
CIRCLE
  5
51
100
AcDbEntity
  8
USP-GEO
100
AcDbCircle
 10
0.6750000000000121
 20
0.2500000000000206
 30
0.0
 40
0.082
  0
CIRCLE
  5
52
100
AcDbEntity
  8
USP-GEO
100
AcDbCircle
 10
2.67500000000001
 20
0.2500000000000344
 30
0.0
 40
0.082
  0
CIRCLE
  5
53
100
AcDbEntity
  8
USP-GEO
100
AcDbCircle
 10
1.67500000000001
 20
0.3750000000000189
 30
0.0
 40
0.082
  0
CIRCLE
  5
54
100
AcDbEntity
  8
USP-GEO
100
AcDbCircle
 10
3.675000000000008
 20
0.3750000000000335
 30
0.0
 40
0.082
  0
TEXT
  5
55
100
AcDbEntity
  8
USP-TXT
100
AcDbText
 10
6.345617203082268
 20
-1.814330586472214
 30
0.0
 40
0.328125
  1
MTW18 - TOP VIEW
 72
     1
 11
8.970617203082268
 21
-1.814330586472214
 31
0.0
100
AcDbText
  0
CIRCLE
  5
56
100
AcDbEntity
  8
USP-GEO
100
AcDbCircle
 10
4.67500000000001
 20
0.2500000000000482
 30
0.0
 40
0.082
  0
CIRCLE
  5
57
100
AcDbEntity
  8
USP-GEO
100
AcDbCircle
 10
5.675000000000006
 20
0.3750000000000464
 30
0.0
 40
0.082
  0
LINE
  5
58
100
AcDbEntity
  8
USP-GEO
100
AcDbLine
 10
7.500000000000002
 20
0.0000000000000047
 30
0.0
 11
6.937500000000002
 21
0.0000000000000045
 31
0.0
  0
ARC
  5
59
100
AcDbEntity
  8
USP-GEO
100
AcDbCircle
 10
6.875000000000006
 20
0.0000000000000056
 30
0.0
 40
0.0625
100
AcDbArc
 50
359.9999999999975
 51
179.9999999999999
  0
ARC
  5
5A
100
AcDbEntity
  8
USP-GEO
100
AcDbCircle
 10
7.500000000000002
 20
1.000000000000005
 30
0.0
 40
1.0
100
AcDbArc
 50
270.0
 51
301.6607777893869
  0
LINE
  5
5B
100
AcDbEntity
  8
USP-GEO
100
AcDbLine
 10
6.812500000000002
 20
1.249999999999993
 30
0.0
 11
0.1767766952966372
 21
1.249999999999997
 31
0.0
  0
CIRCLE
  5
5C
100
AcDbEntity
  8
USP-GEO
100
AcDbCircle
 10
0.300000000000012
 20
1.000000000000019
 30
0.0
 40
0.082
  0
LINE
  5
5D
100
AcDbEntity
  8
USP-GEO
100
AcDbLine
 10
0.1767766952966372
 20
1.249999999999991
 30
0.0
 11
-0.000000000000001
 21
1.073223304703353
 31
0.0
  0
CIRCLE
  5
5E
100
AcDbEntity
  8
USP-GEO
100
AcDbCircle
 10
1.300000000000008
 20
0.8750000000000179
 30
0.0
 40
0.082
  0
CIRCLE
  5
5F
100
AcDbEntity
  8
USP-GEO
100
AcDbCircle
 10
2.30000000000001
 20
1.000000000000019
 30
0.0
 40
0.082
  0
CIRCLE
  5
60
100
AcDbEntity
  8
USP-GEO
100
AcDbCircle
 10
3.300000000000006
 20
0.8750000000000312
 30
0.0
 40
0.082
  0
CIRCLE
  5
61
100
AcDbEntity
  8
USP-GEO
100
AcDbCircle
 10
4.300000000000008
 20
1.000000000000033
 30
0.0
 40
0.082
  0
LINE
  5
62
100
AcDbEntity
  8
USP-GEO
100
AcDbLine
 10
7.97371195638428
 20
1.375
 30
0.0
 11
10.00625223669715
 21
1.375000000000001
 31
0.0
  0
LINE
  5
63
100
AcDbEntity
  8
USP-GEO
100
AcDbLine
 10
10.0262880436157
 20
1.427
 30
0.0
 11
7.993747763302837
 21
1.426999999999999
 31
0.0
  0
CIRCLE
  5
64
100
AcDbEntity
  8
USP-GEO
100
AcDbCircle
 10
6.300000000000005
 20
1.000000000000046
 30
0.0
 40
0.082
  0
CIRCLE
  5
65
100
AcDbEntity
  8
USP-GEO
100
AcDbCircle
 10
5.300000000000003
 20
0.8750000000000419
 30
0.0
 40
0.082
  0
LINE
  5
66
100
AcDbEntity
  8
USP-GEO
100
AcDbLine
 10
7.500000000000002
 20
1.249999999999992
 30
0.0
 11
6.937500000000002
 21
1.249999999999992
 31
0.0
  0
ARC
  5
67
100
AcDbEntity
  8
USP-GEO
100
AcDbCircle
 10
6.875000000000002
 20
1.249999999999991
 30
0.0
 40
0.0625
100
AcDbArc
 50
179.9999999999999
 51
0.0000000000016284
  0
ARC
  5
68
100
AcDbEntity
  8
USP-GEO
100
AcDbCircle
 10
7.500000000000002
 20
2.250000000000006
 30
0.0
 40
1.0
100
AcDbArc
 50
270.0
 51
297.1180843154951
  0
SPLINE
  5
69
100
AcDbEntity
  8
USP-GEO
100
AcDbSpline
210
0.0
220
0.0
230
1.0
 70
     8
 71
     3
 72
    14
 73
    10
 74
     0
 42
0.0000001
 43
0.0000001
 40
0.4307552342338307
 40
0.4307552342338307
 40
0.4307552342338307
 40
0.4307552342338307
 40
0.4340793322409914
 40
0.4340793322409914
 40
0.4465199591113184
 40
0.4465199591113184
 40
0.4589605859816454
 40
0.4589605859816454
 40
0.4649196541048639
 40
0.4649196541048639
 40
0.4649196541048639
 40
0.4649196541048639
 10
7.97371195638428
 20
1.375000000010657
 30
0.0
 10
7.974380390932874
 20
1.375890594173485
 30
0.0
 10
7.975018421828838
 20
1.376800308770333
 30
0.0
 10
7.977894554548117
 20
1.381192204974438
 30
0.0
 10
7.979886862577518
 20
1.385213536700901
 30
0.0
 10
7.982684849311278
 20
1.393333207462631
 30
0.0
 10
7.983500547670867
 20
1.397424362423846
 30
0.0
 10
7.984033647959566
 20
1.40271565999806
 30
0.0
 10
7.984122918275921
 20
1.40449229603379
 30
0.0
 10
7.984122918275921
 20
1.406214610519537
 30
0.0
  0
ARC
  5
6A
100
AcDbEntity
  8
USP-GEO
100
AcDbCircle
 10
7.932122918275918
 20
1.406214610519536
 30
0.0
 40
0.052
100
AcDbArc
 50
297.1180843155011
 51
323.1099766138953
  0
SPLINE
  5
6B
100
AcDbEntity
  8
USP-GEO
100
AcDbSpline
210
0.0
220
0.0
230
-1.0
 70
     8
 71
     3
 72
    14
 73
    10
 74
     0
 42
0.0000001
 43
0.0000001
 40
0.0474419666514839
 40
0.0474419666514839
 40
0.0474419666514839
 40
0.0474419666514839
 40
0.0523925356555811
 40
0.0523925356555811
 40
0.0649580475525314
 40
0.0649580475525314
 40
0.0775235594494817
 40
0.0775235594494817
 40
0.0801084536668132
 40
0.0801084536668132
 40
0.0801084536668132
 40
0.0801084536668132
 10
7.984122918275921
 20
1.417375154973081
 30
0.0
 10
7.984122918275924
 20
1.418404196422639
 30
0.0
 10
7.984185066900436
 20
1.419336812591262
 30
0.0
 10
7.984609295698773
 20
1.422225081098606
 30
0.0
 10
7.985370663468969
 20
1.423968224002569
 30
0.0
 10
7.988084526377671
 20
1.426254238364563
 30
0.0
 10
7.990047224504006
 20
1.426810015325859
 30
0.0
 10
7.992764203705799
 20
1.426985679460436
 30
0.0
 10
7.993246755552045
 20
1.426999999999998
 30
0.0
 10
7.993747763302837
 20
1.426999999999999
 30
0.0
  0
LINE
  5
6C
100
AcDbEntity
  8
USP-GEO
100
AcDbLine
 10
7.984122918275917
 20
1.417375154973079
 30
0.0
 11
7.984122918275917
 21
1.406214610519536
 31
0.0
  0
LINE
  5
6D
100
AcDbEntity
  8
USP-GEO
100
AcDbLine
 10
10.5
 20
1.375
 30
0.0
 11
11.0625
 21
1.375000000000001
 31
0.0
  0
LINE
  5
6E
100
AcDbEntity
  8
USP-GEO
100
AcDbLine
 10
11.0625
 20
1.426999999999999
 30
0.0
 11
10.5
 21
1.426999999999999
 31
0.0
  0
LINE
  5
6F
100
AcDbEntity
  8
USP-GEO
100
AcDbLine
 10
10.03946654250256
 20
1.375
 30
0.0
 11
10.5
 21
1.375
 31
0.0
  0
LINE
  5
70
100
AcDbEntity
  8
USP-GEO
100
AcDbLine
 10
10.5
 20
1.427
 30
0.0
 11
10.04417413683972
 21
1.427
 31
0.0
  0
SPLINE
  5
71
100
AcDbEntity
  8
USP-GEO
100
AcDbSpline
210
0.0
220
0.0
230
-1.0
 70
     8
 71
     3
 72
    14
 73
    10
 74
     0
 42
0.0000001
 43
0.0000001
 40
0.1752198625318914
 40
0.1752198625318914
 40
0.1752198625318914
 40
0.1752198625318914
 40
0.1785439605390575
 40
0.1785439605390575
 40
0.1909845874093837
 40
0.1909845874093837
 40
0.2034252142797099
 40
0.2034252142797099
 40
0.2093842824029358
 40
0.2093842824029358
 40
0.2093842824029358
 40
0.2093842824029358
 10
10.0262880436157
 20
1.426999999999999
 30
0.0
 10
10.02561960906711
 20
1.426999999999816
 30
0.0
 10
10.02498157817115
 20
1.426977099196131
 30
0.0
 10
10.02210544545187
 20
1.426746514122973
 30
0.0
 10
10.02011313742246
 20
1.426161596208928
 30
0.0
 10
10.0173151506887
 20
1.423843820632671
 30
0.0
 10
10.01649945232911
 20
1.422097925918168
 30
0.0
 10
10.01596635204041
 20
1.419042683748724
 30
0.0
 10
10.01587708172405
 20
1.417881719497201
 30
0.0
 10
10.01587708172406
 20
1.416589038100356
 30
0.0
  0
LINE
  5
72
100
AcDbEntity
  8
USP-GEO
100
AcDbLine
 10
10.04417413683972
 20
1.405138783004737
 30
0.0
 11
10.01587708172406
 21
1.405138783004737
 31
0.0
  0
LINE
  5
73
100
AcDbEntity
  8
USP-GEO
100
AcDbLine
 10
10.04417413683972
 20
1.405138783004737
 30
0.0
 11
10.04417413683972
 21
1.427
 31
0.0
  0
LINE
  5
74
100
AcDbEntity
  8
USP-GEO
100
AcDbLine
 10
10.04417413683972
 20
1.427000000000001
 30
0.0
 11
10.0262880436157
 21
1.427000000000001
 31
0.0
  0
SPLINE
  5
75
100
AcDbEntity
  8
USP-GEO
100
AcDbSpline
210
0.0000000000000267
220
1.0
230
0.0
 70
    24
 71
     3
 72
    12
 73
     8
 74
     0
 42
0.0000001
 43
0.0000001
 40
0.0
 40
0.0
 40
0.0
 40
0.0
 40
0.0196268480160634
 40
0.0196268480160634
 40
0.0435618951481583
 40
0.0435618951481583
 40
0.0661741207439531
 40
0.0661741207439531
 40
0.0661741207439531
 40
0.0661741207439531
 10
10.00625223669715
 20
1.375000000000001
 30
0.0
 10
10.00625223669715
 20
1.375
 30
0.0
 10
10.00751321042667
 20
1.375000000000001
 30
0.0
 10
10.01238179636604
 20
1.375000000000001
 30
0.0
 10
10.01650077397453
 20
1.375000000000001
 30
0.0
 10
10.02675772881127
 20
1.375
 30
0.0
 10
10.03273773994826
 20
1.375000000000001
 30
0.0
 10
10.03946653965184
 20
1.375
 30
0.0
  0
SPLINE
  5
76
100
AcDbEntity
  8
USP-GEO
100
AcDbSpline
210
0.0
220
0.0
230
1.0
 70
     8
 71
     3
 72
    14
 73
    10
 74
     0
 42
0.0000001
 43
0.0000001
 40
0.0999837542221443
 40
0.0999837542221443
 40
0.0999837542221443
 40
0.0999837542221443
 40
0.1007765567521933
 40
0.1007765567521933
 40
0.1007765567521933
 40
0.1231496046266284
 40
0.1231496046266284
 40
0.1231496046266284
 40
0.1304550896468521
 40
0.1304550896468521
 40
0.1304550896468521
 40
0.1304550896468521
 10
10.03946654250256
 20
1.375000004462638
 30
0.0
 10
10.03954685350352
 20
1.375251449548996
 30
0.0
 10
10.03962624592167
 20
1.375503460171598
 30
0.0
 10
10.03970465089116
 20
1.375755823106312
 30
0.0
 10
10.04191725500062
 20
1.382877556206423
 30
0.0
 10
10.04334517967813
 20
1.390338186189392
 30
0.0
 10
10.0439019628931
 20
1.397817459852055
 30
0.0
 10
10.04408376965717
 20
1.400259671660272
 30
0.0
 10
10.04417413683972
 20
1.40270362133133
 30
0.0
 10
10.04417413683972
 20
1.405138783004737
 30
0.0
  0
SPLINE
  5
77
100
AcDbEntity
  8
USP-GEO
100
AcDbSpline
210
0.0
220
0.0
230
1.0
 70
     8
 71
     3
 72
    14
 73
    10
 74
     0
 42
0.0000001
 43
0.0000001
 40
0.0474419666514962
 40
0.0474419666514962
 40
0.0474419666514962
 40
0.0474419666514962
 40
0.0523925356555837
 40
0.0523925356555837
 40
0.0649580475525351
 40
0.0649580475525351
 40
0.0775235594494866
 40
0.0775235594494866
 40
0.0801084536668116
 40
0.0801084536668116
 40
0.0801084536668116
 40
0.0801084536668116
 10
10.01587708172406
 20
1.405138783004739
 30
0.0
 10
10.01587708172405
 20
1.4036919498366
 30
0.0
 10
10.01581493309955
 20
1.402220503287681
 30
0.0
 10
10.0153907043012
 20
1.397163994778431
 30
0.0
 10
10.01462933653101
 20
1.393011940015871
 30
0.0
 10
10.01191547362231
 20
1.384763193414381
 30
0.0
 10
10.00995277549598
 20
1.38067344461704
 30
0.0
 10
10.00723579629418
 20
1.376420089071286
 30
0.0
 10
10.00675324444793
 20
1.375704417330955
 30
0.0
 10
10.00625223669715
 20
1.375
 30
0.0
  0
LINE
  5
78
100
AcDbEntity
  8
USP-GEO
100
AcDbLine
 10
10.01587708172406
 20
1.405138783004738
 30
0.0
 11
10.01587708172406
 21
1.416589038100357
 31
0.0
  0
ARC
  5
79
100
AcDbEntity
  8
USP-GEO
100
AcDbCircle
 10
9.963877081724062
 20
1.405138783004739
 30
0.0
 40
0.052
100
AcDbArc
 50
300.6386909849771
 51
324.5781501376214
  0
ARC
  5
7A
100
AcDbEntity
  8
USP-GEO
100
AcDbCircle
 10
10.5
 20
0.5000000000000064
 30
0.0
 40
1.0
100
AcDbArc
 50
120.6386909849778
 51
121.6607777919736
  0
LINE
  5
7B
100
AcDbEntity
  8
USP-GEO
100
AcDbLine
 10
10.5
 20
1.426999999999999
 30
0.0
 11
10.5
 21
1.375000000000001
 31
0.0
  0
LINE
  5
7C
100
AcDbEntity
  8
USP-GEO
100
AcDbLine
 10
11.0625
 20
1.375
 30
0.0
 11
11.18750000000001
 21
1.375
 31
0.0
  0
LINE
  5
7D
100
AcDbEntity
  8
USP-GEO
100
AcDbLine
 10
11.1875
 20
1.426999999999998
 30
0.0
 11
11.1875
 21
1.374999999999999
 31
0.0
  0
LINE
  5
7E
100
AcDbEntity
  8
USP-GEO
100
AcDbLine
 10
11.18750000000001
 20
1.427000000000001
 30
0.0
 11
11.0625
 21
1.427000000000001
 31
0.0
  0
LINE
  5
7F
100
AcDbEntity
  8
USP-GEO
100
AcDbLine
 10
11.0625
 20
1.426999999999999
 30
0.0
 11
11.0625
 21
1.375000000000001
 31
0.0
  0
LINE
  5
80
100
AcDbEntity
  8
USP-GEO
100
AcDbLine
 10
17.99999999999995
 20
1.427000000000001
 30
0.0
 11
17.82322330470331
 21
1.427
 31
0.0
  0
LINE
  5
81
100
AcDbEntity
  8
USP-GEO
100
AcDbLine
 10
17.82322330470331
 20
1.375000000000003
 30
0.0
 11
17.99999999999995
 21
1.375000000000004
 31
0.0
  0
LINE
  5
82
100
AcDbEntity
  8
USP-GEO
100
AcDbLine
 10
17.82322330470331
 20
1.375000000000003
 30
0.0
 11
17.82322330470331
 21
1.427000000000066
 31
0.0
  0
LINE
  5
83
100
AcDbEntity
  8
USP-GEO
100
AcDbLine
 10
17.99999999999995
 20
1.375000000000003
 30
0.0
 11
17.99999999999995
 21
1.427000000000069
 31
0.0
  0
ENDBLK
  5
85
100
AcDbEntity
  8
0
100
AcDbBlockEnd
  0
BLOCK
  5
AC
100
AcDbEntity
  8
0
100
AcDbBlockBegin
  2
MTW18_S
 70
     0
 10
0.0
 20
0.0
 30
0.0
  3
MTW18_S
  1

  0
TEXT
  5
88
100
AcDbEntity
  8
USP-TXT
100
AcDbText
 10
-1.715805326372176
 20
-1.807174970064175
 30
0.0
 40
0.328125
  1
MTW18 - SIDE VIEW
 72
     1
 11
1.018569673627823
 21
-1.807174970064175
 31
0.0
100
AcDbText
  0
LINE
  5
89
100
AcDbEntity
  8
USP-GEO
100
AcDbLine
 10
0.1488293748093525
 20
1.374999999999996
 30
0.0
 11
1.351170625166947
 21
1.374999999999993
 31
0.0
  0
LINE
  5
8A
100
AcDbEntity
  8
USP-GEO
100
AcDbLine
 10
1.351170625166947
 20
1.426999999999993
 30
0.0
 11
0.1488293748093525
 21
1.426999999999996
 31
0.0
  0
LINE
  5
8B
100
AcDbEntity
  8
USP-GEO
100
AcDbLine
 10
0.0000000000000036
 20
1.374999999999998
 30
0.0
 11
0.1488293748093561
 21
1.374999999999998
 31
0.0
  0
LINE
  5
8C
100
AcDbEntity
  8
USP-GEO
100
AcDbLine
 10
0.0000000000000036
 20
1.426999999999997
 30
0.0
 11
0.1488293748093525
 21
1.426999999999997
 31
0.0
  0
LINE
  5
8D
100
AcDbEntity
  8
USP-GEO
100
AcDbLine
 10
0.0000000000000036
 20
1.426999999999998
 30
0.0
 11
0.0000000000000036
 21
1.374999999999999
 31
0.0
  0
LINE
  5
8E
100
AcDbEntity
  8
USP-GEO
100
AcDbLine
 10
0.1488293748093525
 20
1.426999999999996
 30
0.0
 11
0.1488293748093525
 21
1.374999999999997
 31
0.0
  0
LINE
  5
8F
100
AcDbEntity
  8
USP-GEO
100
AcDbLine
 10
1.426999999999996
 20
0.176776695296625
 30
0.0
 11
1.426999999999999
 21
1.073223304703348
 31
0.0
  0
LINE
  5
90
100
AcDbEntity
  8
USP-GEO
100
AcDbLine
 10
1.375000000000003
 20
1.07322330470335
 30
0.0
 11
1.375
 21
0.1767766952966232
 31
0.0
  0
LINE
  5
91
100
AcDbEntity
  8
USP-GEO
100
AcDbLine
 10
1.375
 20
0.0000000000000009
 30
0.0
 11
1.42700000000007
 21
0.0000000000000009
 31
0.0
  0
LINE
  5
92
100
AcDbEntity
  8
USP-GEO
100
AcDbLine
 10
1.375
 20
0.1767766952966232
 30
0.0
 11
1.42700000000007
 21
0.1767766952966232
 31
0.0
  0
LINE
  5
93
100
AcDbEntity
  8
USP-GEO
100
AcDbLine
 10
1.375
 20
0.1767766952966232
 30
0.0
 11
1.375
 21
0.0
 31
0.0
  0
LINE
  5
94
100
AcDbEntity
  8
USP-GEO
100
AcDbLine
 10
1.426999999999996
 20
0.0000000000000009
 30
0.0
 11
1.426999999999996
 21
0.176776695296625
 31
0.0
  0
LINE
  5
95
100
AcDbEntity
  8
USP-GEO
100
AcDbLine
 10
1.426999999999999
 20
1.07322330470335
 30
0.0
 11
1.426999999999999
 21
1.249999999999987
 31
0.0
  0
LINE
  5
96
100
AcDbEntity
  8
USP-GEO
100
AcDbLine
 10
1.375000000000003
 20
1.249999999999986
 30
0.0
 11
1.375000000000003
 21
1.073223304703349
 31
0.0
  0
LINE
  5
97
100
AcDbEntity
  8
USP-GEO
100
AcDbLine
 10
1.375000000000003
 20
1.07322330470335
 30
0.0
 11
1.427000000000067
 21
1.07322330470335
 31
0.0
  0
SPLINE
  5
98
100
AcDbEntity
  8
USP-GEO
100
AcDbSpline
210
0.0
220
0.0
230
1.0
 70
     8
 71
     3
 72
    20
 73
    16
 74
     0
 42
0.0000001
 43
0.0000001
 40
0.065553952005415
 40
0.065553952005415
 40
0.065553952005415
 40
0.065553952005415
 40
0.0733809879263543
 40
0.0733809879263543
 40
0.0733809879263543
 40
0.0847958082704539
 40
0.0847958082704539
 40
0.0847958082704539
 40
0.1007765567521933
 40
0.1007765567521933
 40
0.1007765567521933
 40
0.1231496046266284
 40
0.1231496046266284
 40
0.1231496046266284
 40
0.1304550896468521
 40
0.1304550896468521
 40
0.1304550896468521
 40
0.1304550896468521
 10
1.375000000000159
 20
1.416353331170808
 30
0.0
 10
1.376022814279224
 20
1.415565570361029
 30
0.0
 10
1.37707893074236
 20
1.414817588516078
 30
0.0
 10
1.378164256476587
 20
1.414112938926032
 30
0.0
 10
1.379747077661527
 20
1.413085289563338
 30
0.0
 10
1.38139205459138
 20
1.412150008541726
 30
0.0
 10
1.383084234042883
 20
1.411314794469558
 30
0.0
 10
1.385453285274987
 20
1.410145494768525
 30
0.0
 10
1.387903826948342
 20
1.409174804226247
 30
0.0
 10
1.390447303055523
 20
1.408397981054224
 30
0.0
 10
1.39400816960558
 20
1.407310428613393
 30
0.0
 10
1.397738484597063
 20
1.406617317623642
 30
0.0
 10
1.401478121428397
 20
1.406346799071958
 30
0.0
 10
1.402699227332504
 20
1.406258466483657
 30
0.0
 10
1.403921202168035
 20
1.406214610519541
 30
0.0
 10
1.405138783004737
 20
1.406214610519536
 30
0.0
  0
SPLINE
  5
99
100
AcDbEntity
  8
USP-GEO
100
AcDbSpline
210
0.0
220
0.0
230
1.0
 70
     8
 71
     3
 72
    14
 73
    10
 74
     0
 42
0.0000001
 43
0.0000001
 40
0.0999837542221443
 40
0.0999837542221443
 40
0.0999837542221443
 40
0.0999837542221443
 40
0.1007765567521933
 40
0.1007765567521933
 40
0.1007765567521933
 40
0.1231496046266284
 40
0.1231496046266284
 40
0.1231496046266284
 40
0.1304550896468521
 40
0.1304550896468521
 40
0.1304550896468521
 40
0.1304550896468521
 10
1.375000004462634
 20
1.362357653936304
 30
0.0
 10
1.375251449548994
 20
1.362315986362376
 30
0.0
 10
1.375503460171596
 20
1.362274809214157
 30
0.0
 10
1.37575582310631
 20
1.362234157230193
 30
0.0
 10
1.382877556206423
 20
1.361086950014128
 30
0.0
 10
1.390338186189389
 20
1.360355820278102
 30
0.0
 10
1.397817459852053
 20
1.360070463156076
 30
0.0
 10
1.400259671660272
 20
1.359977285320312
 30
0.0
 10
1.402703621331326
 20
1.35993102375479
 30
0.0
 10
1.405138783004737
 20
1.35993102375479
 30
0.0
  0
SPLINE
  5
9A
100
AcDbEntity
  8
USP-GEO
100
AcDbSpline
210
0.0
220
0.0
230
-1.0
 70
     8
 71
     3
 72
    14
 73
    10
 74
     0
 42
0.0000001
 43
0.0000001
 40
0.0474419666514962
 40
0.0474419666514962
 40
0.0474419666514962
 40
0.0474419666514962
 40
0.0523925356555837
 40
0.0523925356555837
 40
0.0649580475525351
 40
0.0649580475525351
 40
0.0775235594494866
 40
0.0775235594494866
 40
0.0801084536668116
 40
0.0801084536668116
 40
0.0801084536668116
 40
0.0801084536668116
 10
1.405138783004737
 20
1.417375154973083
 30
0.0
 10
1.403691949836598
 20
1.418404196422636
 30
0.0
 10
1.402220503287679
 20
1.419336812591258
 30
0.0
 10
1.397163994778431
 20
1.422225081098601
 30
0.0
 10
1.393011940015867
 20
1.423968224002565
 30
0.0
 10
1.384763193414379
 20
1.426254238364557
 30
0.0
 10
1.380673444617038
 20
1.426810015325856
 30
0.0
 10
1.376420089071284
 20
1.42698567946043
 30
0.0
 10
1.375704417330954
 20
1.426999999999993
 30
0.0
 10
1.375
 20
1.426999999999993
 30
0.0
  0
LINE
  5
9B
100
AcDbEntity
  8
USP-GEO
100
AcDbLine
 10
1.375000000000003
 20
1.249999999999986
 30
0.0
 11
1.427000000000063
 21
1.249999999999986
 31
0.0
  0
LINE
  5
9C
100
AcDbEntity
  8
USP-GEO
100
AcDbLine
 10
1.360398082704122
 20
1.374999999999993
 30
0.0
 11
1.375
 21
1.374999999999993
 31
0.0
  0
LINE
  5
9D
100
AcDbEntity
  8
USP-GEO
100
AcDbLine
 10
1.351170625166954
 20
1.374999999999994
 30
0.0
 11
1.360398082704122
 21
1.374999999999994
 31
0.0
  0
SPLINE
  5
9E
100
AcDbEntity
  8
USP-GEO
100
AcDbSpline
210
-1.0
220
0.0
230
0.0
 70
    24
 71
     3
 72
    12
 73
     8
 74
     0
 42
0.0000001
 43
0.0000001
 40
0.0
 40
0.0
 40
0.0
 40
0.0
 40
0.0196268480160634
 40
0.0196268480160634
 40
0.0435618951481583
 40
0.0435618951481583
 40
0.0661741207439531
 40
0.0661741207439531
 40
0.0661741207439531
 40
0.0661741207439531
 10
1.375
 20
1.416353331171056
 30
0.0
 10
1.375
 20
1.409811048499034
 30
0.0
 10
1.375
 20
1.403209138746626
 30
0.0
 10
1.375
 20
1.389482317356631
 30
0.0
 10
1.375
 20
1.382399927907351
 30
0.0
 10
1.375
 20
1.370623538825726
 30
0.0
 10
1.375
 20
1.365848743273397
 30
0.0
 10
1.375
 20
1.362357655415334
 30
0.0
  0
LINE
  5
9F
100
AcDbEntity
  8
USP-GEO
100
AcDbLine
 10
1.375
 20
1.362357653936306
 30
0.0
 11
1.375
 21
1.249999999999995
 31
0.0
  0
LINE
  5
A0
100
AcDbEntity
  8
USP-GEO
100
AcDbLine
 10
1.375
 20
1.426999999999993
 30
0.0
 11
1.360398082704122
 21
1.426999999999993
 31
0.0
  0
LINE
  5
A1
100
AcDbEntity
  8
USP-GEO
100
AcDbLine
 10
1.360398082704122
 20
1.426999999999993
 30
0.0
 11
1.360398082704122
 21
1.374999999999993
 31
0.0
  0
LINE
  5
A2
100
AcDbEntity
  8
USP-GEO
100
AcDbLine
 10
1.360398082704122
 20
1.426999999999994
 30
0.0
 11
1.351170625166954
 21
1.426999999999994
 31
0.0
  0
LINE
  5
A3
100
AcDbEntity
  8
USP-GEO
100
AcDbLine
 10
1.351170625166947
 20
1.426999999999993
 30
0.0
 11
1.351170625166947
 21
1.374999999999993
 31
0.0
  0
SPLINE
  5
A4
100
AcDbEntity
  8
USP-GEO
100
AcDbSpline
210
0.0
220
0.0
230
1.0
 70
     8
 71
     3
 72
    14
 73
    10
 74
     0
 42
0.0000001
 43
0.0000001
 40
0.1752198625318914
 40
0.1752198625318914
 40
0.1752198625318914
 40
0.1752198625318914
 40
0.1785439605390575
 40
0.1785439605390575
 40
0.1909845874093837
 40
0.1909845874093837
 40
0.2034252142797099
 40
0.2034252142797099
 40
0.2093842824029358
 40
0.2093842824029358
 40
0.2093842824029358
 40
0.2093842824029358
 10
1.426999999999999
 20
1.37500000001065
 30
0.0
 10
1.426999999999814
 20
1.375890594173481
 30
0.0
 10
1.426977099196129
 20
1.376800308770332
 30
0.0
 10
1.426746514122971
 20
1.381192204974436
 30
0.0
 10
1.426161596208928
 20
1.385213536700894
 30
0.0
 10
1.423843820632669
 20
1.393333207462627
 30
0.0
 10
1.422097925918166
 20
1.397424362423842
 30
0.0
 10
1.41904268374872
 20
1.402715659998055
 30
0.0
 10
1.417881719497199
 20
1.404492296033789
 30
0.0
 10
1.416589038100354
 20
1.406214610519541
 30
0.0
  0
LINE
  5
A5
100
AcDbEntity
  8
USP-GEO
100
AcDbLine
 10
1.416589038100354
 20
1.40621461051954
 30
0.0
 11
1.405138783004737
 21
1.40621461051954
 31
0.0
  0
LINE
  5
A6
100
AcDbEntity
  8
USP-GEO
100
AcDbLine
 10
1.405138783004737
 20
1.359931023754788
 30
0.0
 11
1.405138783004737
 21
1.406214610519536
 31
0.0
  0
LINE
  5
A7
100
AcDbEntity
  8
USP-GEO
100
AcDbLine
 10
1.405138783004737
 20
1.359931023754792
 30
0.0
 11
1.426999999999999
 21
1.359931023754792
 31
0.0
  0
LINE
  5
A8
100
AcDbEntity
  8
USP-GEO
100
AcDbLine
 10
1.426999999999999
 20
1.35993102375479
 30
0.0
 11
1.426999999999999
 21
1.37500000001065
 31
0.0
  0
LINE
  5
A9
100
AcDbEntity
  8
USP-GEO
100
AcDbLine
 10
1.426999999999999
 20
1.249999999999992
 30
0.0
 11
1.426999999999999
 21
1.359931023754787
 31
0.0
  0
ARC
  5
AA
100
AcDbEntity
  8
USP-GEO
100
AcDbCircle
 10
1.375
 20
1.374999999999992
 30
0.0
 40
0.052
100
AcDbArc
 50
36.89002340080448
 51
54.57815013762536
  0
LINE
  5
AB
100
AcDbEntity
  8
USP-GEO
100
AcDbLine
 10
1.405138783004737
 20
1.406214610519536
 30
0.0
 11
1.405138783004737
 21
1.417375154973083
 31
0.0
  0
ENDBLK
  5
AD
100
AcDbEntity
  8
0
100
AcDbBlockEnd
  0
ENDSEC
  0
SECTION
  2
ENTITIES
  0
INSERT
  5
3
100
AcDbEntity
  8
USP
100
AcDbBlockReference
  2
MTW18_F
 10
0.0009984112508629
 20
1.807242900854179
 30
0.0
  0
INSERT
  5
48
100
AcDbEntity
  8
USP
100
AcDbBlockReference
  2
MTW18_T
 10
0.0009984112508647
 20
6.770626481132698
 30
0.0
  0
INSERT
  5
86
100
AcDbEntity
  8
USP
100
AcDbBlockReference
  2
MTW18_S
 10
22.27967860904874
 20
1.807242900854186
 30
0.0
  0
VIEWPORT
  5
B3
102
{ACAD_XDICTIONARY
360
B4
102
}
100
AcDbEntity
 67
     1
  8
0
100
AcDbViewport
 10
5.285416850893516
 20
3.968749891115924
 30
0.0
 40
13.50573247017707
 41
8.992999745766947
 68
    -1
 69
     1
1001
ACAD
1000
MVIEW
1002
{
1070
    16
1010
0.0
1020
0.0
1030
0.0
1010
0.0
1020
0.0
1030
1.0
1040
0.0
1040
8.992999745766947
1040
5.285416850893516
1040
3.968749891115924
1040
50.0
1040
0.0
1040
0.0
1070
     0
1070
   100
1070
     1
1070
     1
1070
     0
1070
     0
1070
     0
1070
     0
1040
0.0
1040
0.0
1040
0.0
1040
0.5
1040
0.5
1040
0.5
1040
0.5
1070
     0
1002
{
1002
}
1002
}
  0
ENDSEC
  0
SECTION
  2
OBJECTS
  0
DICTIONARY
  5
CA
102
{ACAD_XDICTIONARY
360
CB
102
}
100
AcDbDictionary
  3
ACAD_GROUP
350
C8
  3
ACAD_MLINESTYLE
350
C9
  0
DICTIONARY
  5
AE
100
AcDbDictionary
280
     1
  3
ACAD_LAYOUTSELFREF
360
AF
  0
DICTIONARY
  5
B8
100
AcDbDictionary
280
     1
  3
ACAD_LAYOUTSELFREF
360
B9
  0
DICTIONARY
  5
B4
100
AcDbDictionary
280
     1
  3
ACAD_XREC_ROUNDTRIP
360
B5
  0
DICTIONARY
  5
CB
100
AcDbDictionary
280
     1
  3
ACAD_XREC_ROUNDTRIP
360
CC
  0
DICTIONARY
  5
C8
102
{ACAD_REACTORS
330
CA
102
}
100
AcDbDictionary
  0
DICTIONARY
  5
C9
102
{ACAD_REACTORS
330
CA
102
}
100
AcDbDictionary
  3
STANDARD
350
CD
  0
XRECORD
  5
AF
102
{ACAD_REACTORS
330
AE
102
}
100
AcDbXrecord
340
18
  0
XRECORD
  5
B9
102
{ACAD_REACTORS
330
B8
102
}
100
AcDbXrecord
340
15
  0
XRECORD
  5
B5
102
{ACAD_REACTORS
330
B4
102
}
100
AcDbXrecord
102
UCS
 74
     0
 71
     1
 10
0.0
 20
0.0
 30
0.0
 10
1.0
 20
0.0
 30
0.0
 10
0.0
 20
1.0
 30
0.0
146
0.0
 79
     0
102
VIEW
281
     0
102
NEWVIEWCONTROL
280
     4
  0
XRECORD
  5
CC
102
{ACAD_REACTORS
330
CB
102
}
100
AcDbXrecord
102
EXTNAMES
  1
ACDBVARIABLEDICTIONARY
  2
AcDbVariableDictionary
  0
MLINESTYLE
  5
CD
102
{ACAD_REACTORS
330
C9
102
}
100
AcDbMlineStyle
  2
STANDARD
 70
     0
  3

 62
     0
 51
90.0
 52
90.0
 71
     2
 49
0.5
 62
   256
  6
BYLAYER
 49
-0.5
 62
   256
  6
BYLAYER
  0
ENDSEC
  0
EOF
