  0
SECTION
  2
HEADER
  9
$ACADVER
  1
AC1014
  9
$ACADMAINTVER
 70
     9
  9
$DWGCODEPAGE
  3
ANSI_1252
  9
$INSBASE
 10
0.0
 20
0.0
 30
0.0
  9
$EXTMIN
 10
0.0109692554154315
 20
0.0005231298565462
 30
0.0
  9
$EXTMAX
 10
52.2428960764116
 20
7.221140049935065
 30
4.196879291630274
  9
$LIMMIN
 10
0.0
 20
0.0
  9
$LIMMAX
 10
12.0
 20
9.0
  9
$ORTHOMODE
 70
     1
  9
$REGENMODE
 70
     1
  9
$FILLMODE
 70
     1
  9
$QTEXTMODE
 70
     0
  9
$MIRRTEXT
 70
     0
  9
$DRAGMODE
 70
     2
  9
$LTSCALE
 40
1.5
  9
$OSMODE
 70
     0
  9
$ATTMODE
 70
     1
  9
$TEXTSIZE
 40
0.75
  9
$TRACEWID
 40
0.05
  9
$TEXTSTYLE
  7
STANDARD
  9
$CLAYER
  8
USP
  9
$CELTYPE
  6
BYLAYER
  9
$CECOLOR
 62
   256
  9
$CELTSCALE
 40
1.0
  9
$DELOBJ
 70
     1
  9
$DISPSILH
 70
     1
  9
$DIMSCALE
 40
3.0
  9
$DIMASZ
 40
0.125
  9
$DIMEXO
 40
0.0625
  9
$DIMDLI
 40
0.37890625
  9
$DIMRND
 40
0.0
  9
$DIMDLE
 40
0.0
  9
$DIMEXE
 40
0.09375
  9
$DIMTP
 40
0.0
  9
$DIMTM
 40
0.0
  9
$DIMTXT
 40
0.109375
  9
$DIMCEN
 40
0.0
  9
$DIMTSZ
 40
0.0
  9
$DIMTOL
 70
     0
  9
$DIMLIM
 70
     0
  9
$DIMTIH
 70
     1
  9
$DIMTOH
 70
     1
  9
$DIMSE1
 70
     0
  9
$DIMSE2
 70
     0
  9
$DIMTAD
 70
     0
  9
$DIMZIN
 70
     8
  9
$DIMBLK
  1

  9
$DIMASO
 70
     1
  9
$DIMSHO
 70
     1
  9
$DIMPOST
  1

  9
$DIMAPOST
  1

  9
$DIMALT
 70
     0
  9
$DIMALTD
 70
     2
  9
$DIMALTF
 40
25.4
  9
$DIMLFAC
 40
1.0
  9
$DIMTOFL
 70
     0
  9
$DIMTVP
 40
0.0
  9
$DIMTIX
 70
     0
  9
$DIMSOXD
 70
     0
  9
$DIMSAH
 70
     0
  9
$DIMBLK1
  1

  9
$DIMBLK2
  1

  9
$DIMSTYLE
  2
STANDARD
  9
$DIMCLRD
 70
     0
  9
$DIMCLRE
 70
     0
  9
$DIMCLRT
 70
   256
  9
$DIMTFAC
 40
1.0
  9
$DIMGAP
 40
0.08984375
  9
$DIMJUST
 70
     0
  9
$DIMSD1
 70
     0
  9
$DIMSD2
 70
     0
  9
$DIMTOLJ
 70
     1
  9
$DIMTZIN
 70
     0
  9
$DIMALTZ
 70
     0
  9
$DIMALTTZ
 70
     0
  9
$DIMFIT
 70
     3
  9
$DIMUPT
 70
     1
  9
$DIMUNIT
 70
     7
  9
$DIMDEC
 70
     4
  9
$DIMTDEC
 70
     4
  9
$DIMALTU
 70
     2
  9
$DIMALTTD
 70
     2
  9
$DIMTXSTY
  7
STANDARD
  9
$DIMAUNIT
 70
     0
  9
$LUNITS
 70
     5
  9
$LUPREC
 70
     6
  9
$SKETCHINC
 40
0.1
  9
$FILLETRAD
 40
0.0
  9
$AUNITS
 70
     0
  9
$AUPREC
 70
     1
  9
$MENU
  1
CUSTOM
  9
$ELEVATION
 40
0.0
  9
$PELEVATION
 40
0.0
  9
$THICKNESS
 40
0.0
  9
$LIMCHECK
 70
     0
  9
$BLIPMODE
 70
     0
  9
$CHAMFERA
 40
0.0
  9
$CHAMFERB
 40
0.0
  9
$CHAMFERC
 40
0.0
  9
$CHAMFERD
 40
0.0
  9
$SKPOLY
 70
     0
  9
$TDCREATE
 40
2451263.663231366
  9
$TDUPDATE
 40
2452768.666144386
  9
$TDINDWG
 40
0.6199386111
  9
$TDUSRTIMER
 40
0.6199386111
  9
$USRTIMER
 70
     1
  9
$ANGBASE
 50
0.0
  9
$ANGDIR
 70
     0
  9
$PDMODE
 70
     0
  9
$PDSIZE
 40
0.0
  9
$PLINEWID
 40
0.0
  9
$COORDS
 70
     2
  9
$SPLFRAME
 70
     0
  9
$SPLINETYPE
 70
     6
  9
$SPLINESEGS
 70
     8
  9
$ATTDIA
 70
     0
  9
$ATTREQ
 70
     0
  9
$HANDLING
 70
     1
  9
$HANDSEED
  5
1DE
  9
$SURFTAB1
 70
     6
  9
$SURFTAB2
 70
     6
  9
$SURFTYPE
 70
     6
  9
$SURFU
 70
     6
  9
$SURFV
 70
     6
  9
$UCSNAME
  2

  9
$UCSORG
 10
0.0
 20
0.0
 30
0.0
  9
$UCSXDIR
 10
1.0
 20
0.0
 30
0.0
  9
$UCSYDIR
 10
0.0
 20
1.0
 30
0.0
  9
$PUCSNAME
  2

  9
$PUCSORG
 10
0.0
 20
0.0
 30
0.0
  9
$PUCSXDIR
 10
1.0
 20
0.0
 30
0.0
  9
$PUCSYDIR
 10
0.0
 20
1.0
 30
0.0
  9
$USERI1
 70
     0
  9
$USERI2
 70
     0
  9
$USERI3
 70
     0
  9
$USERI4
 70
     0
  9
$USERI5
 70
     0
  9
$USERR1
 40
0.0
  9
$USERR2
 40
0.0
  9
$USERR3
 40
0.0
  9
$USERR4
 40
0.0
  9
$USERR5
 40
0.0
  9
$WORLDVIEW
 70
     1
  9
$SHADEDGE
 70
     3
  9
$SHADEDIF
 70
    70
  9
$TILEMODE
 70
     1
  9
$MAXACTVP
 70
    16
  9
$PINSBASE
 10
0.0
 20
0.0
 30
0.0
  9
$PLIMCHECK
 70
     0
  9
$PEXTMIN
 10
1.000000000000000E+20
 20
1.000000000000000E+20
 30
1.000000000000000E+20
  9
$PEXTMAX
 10
-1.000000000000000E+20
 20
-1.000000000000000E+20
 30
-1.000000000000000E+20
  9
$PLIMMIN
 10
0.0
 20
0.0
  9
$PLIMMAX
 10
12.0
 20
9.0
  9
$UNITMODE
 70
     0
  9
$VISRETAIN
 70
     0
  9
$PLINEGEN
 70
     0
  9
$PSLTSCALE
 70
     0
  9
$TREEDEPTH
 70
  3020
  9
$PICKSTYLE
 70
     0
  9
$CMLSTYLE
  2
STANDARD
  9
$CMLJUST
 70
     0
  9
$CMLSCALE
 40
1.0
  9
$PROXYGRAPHICS
 70
     1
  9
$MEASUREMENT
 70
     0
  0
ENDSEC
  0
SECTION
  2
CLASSES
  0
CLASS
  1
ACDBDICTIONARYWDFLT
  2
AcDbDictionaryWithDefault
  3
AutoCAD 2000
 90
        0
280
     0
281
     0
  0
CLASS
  1
ACDBPLACEHOLDER
  2
AcDbPlaceHolder
  3
AutoCAD 2000
 90
        0
280
     0
281
     0
  0
CLASS
  1
LAYOUT
  2
AcDbLayout
  3
AutoCAD 2000
 90
        0
280
     0
281
     0
  0
CLASS
  1
DICTIONARYVAR
  2
AcDbDictionaryVar
  3
"AutoCAD"
 90
        0
280
     0
281
     0
  0
CLASS
  1
LONG_TRANSACTION
  2
AcDbLongTransaction
  3
AutoCAD 2000
 90
        0
280
     0
281
     0
  0
CLASS
  1
LWPOLYLINE
  2
AcDbPolyline
  3
"AutoCAD"
 90
        0
280
     0
281
     1
  0
CLASS
  1
HATCH
  2
AcDbHatch
  3
"ACAD_SEDONA"
 90
        0
280
     0
281
     1
  0
CLASS
  1
XRECORD
  2
AcDbXrecord
  3
"<Built In>"
 90
        0
280
     0
281
     0
  0
CLASS
  1
LONG_TRANSACTION
  2
AcDbLongTransaction
  3
AutoCAD 2000
 90
        0
280
     0
281
     0
  0
CLASS
  1
LWPOLYLINE
  2
AcDbPolyline
  3
"AutoCAD"
 90
        0
280
     0
281
     1
  0
CLASS
  1
HATCH
  2
AcDbHatch
  3
"ACAD_SEDONA"
 90
        0
280
     0
281
     1
  0
CLASS
  1
XRECORD
  2
AcDbXrecord
  3
"<Built In>"
 90
        0
280
     0
281
     0
  0
ENDSEC
  0
SECTION
  2
TABLES
  0
TABLE
  2
VPORT
  5
1CE
100
AcDbSymbolTable
 70
     1
  0
VPORT
  5
1CF
100
AcDbSymbolTableRecord
100
AcDbViewportTableRecord
  2
*ACTIVE
 70
     0
 10
0.0
 20
0.0
 11
1.0
 21
1.0
 12
8.432822523379392
 22
-2.305762642556686
 13
0.0
 23
0.0
 14
1.0
 24
1.0
 15
0.0
 25
0.0
 16
0.0
 26
0.0
 36
1.0
 17
18.06596660309899
 27
8.119903606830565
 37
5.823974399722915
 40
50.33392999350486
 41
1.457627118644067
 42
50.0
 43
10.55307667737539
 44
10.55307667737539
 50
0.0
 51
0.0
 71
     0
 72
   100
 73
     1
 74
     1
 75
     0
 76
     0
 77
     0
 78
     0
  0
ENDTAB
  0
TABLE
  2
LTYPE
  5
1C9
100
AcDbSymbolTable
 70
     1
  0
LTYPE
  5
1CA
100
AcDbSymbolTableRecord
100
AcDbLinetypeTableRecord
  2
BYBLOCK
 70
     0
  3

 72
    65
 73
     0
 40
0.0
  0
LTYPE
  5
1CB
100
AcDbSymbolTableRecord
100
AcDbLinetypeTableRecord
  2
BYLAYER
 70
     0
  3

 72
    65
 73
     0
 40
0.0
  0
LTYPE
  5
5
100
AcDbSymbolTableRecord
100
AcDbLinetypeTableRecord
  2
CONTINUOUS
 70
     0
  3
Solid line
 72
    65
 73
     0
 40
0.0
  0
ENDTAB
  0
TABLE
  2
LAYER
  5
1C7
100
AcDbSymbolTable
 70
     4
  0
LAYER
  5
1BC
100
AcDbSymbolTableRecord
100
AcDbLayerTableRecord
  2
0
 70
     0
 62
     7
  6
CONTINUOUS
  0
LAYER
  5
D
102
{ACAD_XDICTIONARY
360
E
102
}
100
AcDbSymbolTableRecord
100
AcDbLayerTableRecord
  2
USP-GEO
 70
     0
 62
     7
  6
CONTINUOUS
  0
LAYER
  5
8
102
{ACAD_XDICTIONARY
360
9
102
}
100
AcDbSymbolTableRecord
100
AcDbLayerTableRecord
  2
USP-TXT
 70
     0
 62
     7
  6
CONTINUOUS
  0
LAYER
  5
4
100
AcDbSymbolTableRecord
100
AcDbLayerTableRecord
  2
USP
 70
     0
 62
     7
  6
CONTINUOUS
  0
ENDTAB
  0
TABLE
  2
STYLE
  5
1C8
100
AcDbSymbolTable
 70
     1
  0
STYLE
  5
B
100
AcDbSymbolTableRecord
100
AcDbTextStyleTableRecord
  2
STANDARD
 70
     0
 40
0.0
 41
1.0
 50
0.0
 71
     0
 42
0.75
  3
txt
  4

  0
ENDTAB
  0
TABLE
  2
VIEW
  5
1CC
100
AcDbSymbolTable
 70
     0
  0
ENDTAB
  0
TABLE
  2
UCS
  5
1CD
100
AcDbSymbolTable
 70
     0
  0
ENDTAB
  0
TABLE
  2
APPID
  5
1D0
100
AcDbSymbolTable
 70
     1
  0
APPID
  5
1D1
100
AcDbSymbolTableRecord
100
AcDbRegAppTableRecord
  2
ACAD
 70
     0
  0
ENDTAB
  0
TABLE
  2
DIMSTYLE
  5
1D2
100
AcDbSymbolTable
 70
     1
  0
DIMSTYLE
105
1DA
100
AcDbSymbolTableRecord
100
AcDbDimStyleTableRecord
  2
STANDARD
 70
     0
  3

  4

  5

  6

  7

 40
1.0
 41
0.18
 42
0.0625
 43
0.38
 44
0.18
 45
0.0
 46
0.0
 47
0.0
 48
0.0
140
0.18
141
0.09
142
0.0
143
25.4
144
1.0
145
0.0
146
1.0
147
0.09
 71
     0
 72
     0
 73
     1
 74
     1
 75
     0
 76
     0
 77
     0
 78
     0
170
     0
171
     2
172
     0
173
     0
174
     0
175
     0
176
     0
177
     0
178
     0
270
     2
271
     4
272
     4
273
     2
274
     2
340
B
275
     0
280
     0
281
     0
282
     0
283
     1
284
     0
285
     0
286
     0
287
     3
288
     0
  0
ENDTAB
  0
TABLE
  2
BLOCK_RECORD
  5
1
100
AcDbSymbolTable
 70
     1
  0
BLOCK_RECORD
  5
2
102
{ACAD_XDICTIONARY
360
1BE
102
}
100
AcDbSymbolTableRecord
100
AcDbBlockTableRecord
  2
*MODEL_SPACE
  0
BLOCK_RECORD
  5
1C2
102
{ACAD_XDICTIONARY
360
1C3
102
}
100
AcDbSymbolTableRecord
100
AcDbBlockTableRecord
  2
*PAPER_SPACE
  0
BLOCK_RECORD
  5
6
100
AcDbSymbolTableRecord
100
AcDbBlockTableRecord
  2
MSTC52_F
  0
ENDTAB
  0
ENDSEC
  0
SECTION
  2
BLOCKS
  0
BLOCK
  5
1C0
100
AcDbEntity
  8
0
100
AcDbBlockBegin
  2
*MODEL_SPACE
 70
     0
 10
0.0
 20
0.0
 30
0.0
  3
*MODEL_SPACE
  1

  0
ENDBLK
  5
1C1
100
AcDbEntity
  8
0
100
AcDbBlockEnd
  0
BLOCK
  5
1C5
100
AcDbEntity
 67
     1
  8
0
100
AcDbBlockBegin
  2
*PAPER_SPACE
 70
     0
 10
0.0
 20
0.0
 30
0.0
  3
*PAPER_SPACE
  1

  0
ENDBLK
  5
1C6
100
AcDbEntity
 67
     1
  8
0
100
AcDbBlockEnd
  0
BLOCK
  5
1BB
100
AcDbEntity
  8
0
100
AcDbBlockBegin
  2
MSTC52_F
 70
     0
 10
0.0
 20
0.0
 30
0.0
  3
MSTC52_F
  1

  0
TEXT
  5
7
100
AcDbEntity
  8
USP-TXT
100
AcDbText
 10
21.36596341049808
 20
-4.230625747187541
 30
4.196879291630274
 40
0.5
  1
MSTC52 - FRONT VIEW
 72
     1
 11
26.11596341049808
 21
-4.230625747187541
 31
4.196879291630274
100
AcDbText
  0
LWPOLYLINE
  5
C
100
AcDbEntity
  8
USP-GEO
100
AcDbPolyline
 90
        2
 70
   128
 43
0.0
 10
0.232296761489865
 20
0.0
 10
51.9996300595063
 20
0.0
  0
LWPOLYLINE
  5
10
100
AcDbEntity
  8
USP-GEO
100
AcDbPolyline
 90
        2
 70
   128
 43
0.0
 10
0.232296761489865
 20
2.989991172890977
 10
51.9996300595063
 20
2.989991172890977
  0
ARC
  5
11
100
AcDbEntity
  8
USP-GEO
100
AcDbCircle
 10
26.1156251663894
 20
2.422348083383877
 30
0.0
 40
0.0859
100
AcDbArc
 50
260.0835386819998
 51
1.249185856095847
  0
ARC
  5
12
100
AcDbEntity
  8
USP-GEO
100
AcDbCircle
 10
26.1156251663894
 20
2.500548083383879
 30
0.0
 40
0.0859
100
AcDbArc
 50
353.2248912895429
 51
100.7996143884975
  0
ARC
  5
13
100
AcDbEntity
  8
USP-GEO
100
AcDbCircle
 10
26.1156251663894
 20
0.922348083383877
 30
0.0
 40
0.0859
100
AcDbArc
 50
259.5597730041698
 51
4.647323569483565
  0
ARC
  5
14
100
AcDbEntity
  8
USP-GEO
100
AcDbCircle
 10
26.1156251663894
 20
1.000548083383879
 30
0.0
 40
0.0859
100
AcDbArc
 50
356.6052720151008
 51
100.2405159388312
  0
LWPOLYLINE
  5
15
100
AcDbEntity
  8
USP-GEO
100
AcDbPolyline
 90
        2
 70
   128
 43
0.0
 10
0.0
 20
2.756035148819043
 10
0.0
 20
0.2654820131312743
  0
LWPOLYLINE
  5
16
100
AcDbEntity
  8
USP-GEO
100
AcDbPolyline
 90
        2
 70
   128
 43
0.0
 10
0.232296761489865
 20
0.0
 10
0.0
 20
0.2654820131312743
  0
ARC
  5
17
100
AcDbEntity
  8
USP-GEO
100
AcDbCircle
 10
0.6156251663894395
 20
0.5787480833838892
 30
0.0
 40
0.0859
100
AcDbArc
 50
102.1499253549427
 51
189.7837590658052
  0
ARC
  5
18
100
AcDbEntity
  8
USP-GEO
100
AcDbCircle
 10
0.6156251663894395
 20
0.5787480833838892
 30
0.0
 40
0.0859
100
AcDbArc
 50
349.8157746921849
 51
102.1499253549427
  0
ARC
  5
19
100
AcDbEntity
  8
USP-GEO
100
AcDbCircle
 10
0.6156251663894395
 20
0.5005480833838867
 30
0.0
 40
0.0859
100
AcDbArc
 50
255.182099597699
 51
358.048260666405
  0
ARC
  5
1A
100
AcDbEntity
  8
USP-GEO
100
AcDbCircle
 10
0.6156251663894395
 20
0.5005480833838867
 30
0.0
 40
0.0859
100
AcDbArc
 50
181.8735059479362
 51
255.182099597699
  0
LWPOLYLINE
  5
1B
100
AcDbEntity
  8
USP-GEO
100
AcDbPolyline
 90
        2
 70
   128
 43
0.0
 10
0.5309640262625488
 20
0.5641492779039581
 10
0.5309640262625488
 20
0.4977787746211409
  0
LWPOLYLINE
  5
1C
100
AcDbEntity
  8
USP-GEO
100
AcDbPolyline
 90
        2
 70
   128
 43
0.0
 10
0.6968902844695954
 20
0.5641492779039581
 10
0.6968902844695954
 20
0.4977787746211409
  0
LWPOLYLINE
  5
1D
100
AcDbEntity
  8
USP-GEO
100
AcDbPolyline
 90
        2
 70
   128
 43
0.0
 10
0.6968902844695954
 20
2.092330115990856
 10
0.6968902844695954
 20
1.992774361066629
  0
LWPOLYLINE
  5
1E
100
AcDbEntity
  8
USP-GEO
100
AcDbPolyline
 90
        2
 70
   128
 43
0.0
 10
0.5309640262625488
 20
2.092330115990856
 10
0.5309640262625488
 20
1.992774361066629
  0
ARC
  5
1F
100
AcDbEntity
  8
USP-GEO
100
AcDbCircle
 10
0.6156251663894395
 20
2.000548083383886
 30
0.0
 40
0.0859
100
AcDbArc
 50
256.1423898613619
 51
354.5357819324816
  0
ARC
  5
20
100
AcDbEntity
  8
USP-GEO
100
AcDbCircle
 10
0.6156251663894395
 20
2.000548083383886
 30
0.0
 40
0.0859
100
AcDbArc
 50
185.2462796517219
 51
256.1423898613619
  0
ARC
  5
21
100
AcDbEntity
  8
USP-GEO
100
AcDbCircle
 10
0.6156251663894395
 20
2.078748083383885
 30
0.0
 40
0.0859
100
AcDbArc
 50
9.488282488680987
 51
102.8857421434001
  0
ARC
  5
22
100
AcDbEntity
  8
USP-GEO
100
AcDbCircle
 10
0.6156251663894395
 20
2.078748083383885
 30
0.0
 40
0.0859
100
AcDbArc
 50
102.8857421434001
 51
170.8858041507019
  0
LWPOLYLINE
  5
23
100
AcDbEntity
  8
USP-GEO
100
AcDbPolyline
 90
        2
 70
   128
 43
0.0
 10
0.232296761489865
 20
2.989991172890977
 10
0.0
 20
2.756035148819043
  0
LWPOLYLINE
  5
24
100
AcDbEntity
  8
USP-GEO
100
AcDbPolyline
 90
        2
 70
   128
 43
0.0
 10
2.025959612708037
 20
0.9955575492422799
 10
2.025959612708037
 20
0.9291870459594608
  0
LWPOLYLINE
  5
25
100
AcDbEntity
  8
USP-GEO
100
AcDbPolyline
 90
        2
 70
   128
 43
0.0
 10
2.191885870915084
 20
0.9955575492422799
 10
2.191885870915084
 20
0.9291870459594608
  0
LWPOLYLINE
  5
26
100
AcDbEntity
  8
USP-GEO
100
AcDbPolyline
 90
        2
 70
   128
 43
0.0
 10
5.014291523016945
 20
0.9955575492422799
 10
5.014291523016945
 20
0.9291870459594608
  0
LWPOLYLINE
  5
27
100
AcDbEntity
  8
USP-GEO
100
AcDbPolyline
 90
        2
 70
   128
 43
0.0
 10
5.180217781223992
 20
0.9955575492422799
 10
5.180217781223992
 20
0.9291870459594608
  0
ARC
  5
28
100
AcDbEntity
  8
USP-GEO
100
AcDbCircle
 10
3.615625166389432
 20
0.5787480833838857
 30
0.0
 40
0.0859
100
AcDbArc
 50
348.15328697267
 51
87.82504588293186
  0
ARC
  5
29
100
AcDbEntity
  8
USP-GEO
100
AcDbCircle
 10
3.615625166389432
 20
0.5005480833838832
 30
0.0
 40
0.0859
100
AcDbArc
 50
272.6718650432067
 51
357.7213676046131
  0
ARC
  5
2A
100
AcDbEntity
  8
USP-GEO
100
AcDbCircle
 10
3.615625166389432
 20
0.5787480833838857
 30
0.0
 40
0.0859
100
AcDbArc
 50
87.82504588293186
 51
188.617664402262
  0
ARC
  5
2B
100
AcDbEntity
  8
USP-GEO
100
AcDbCircle
 10
3.615625166389432
 20
0.5005480833838867
 30
0.0
 40
0.0859
100
AcDbArc
 50
181.6467069691232
 51
272.6718650432066
  0
LWPOLYLINE
  5
2C
100
AcDbEntity
  8
USP-GEO
100
AcDbPolyline
 90
        2
 70
   128
 43
0.0
 10
3.519295936571456
 20
0.5641492779039581
 10
3.519295936571456
 20
0.4977787746211409
  0
ARC
  5
2D
100
AcDbEntity
  8
USP-GEO
100
AcDbCircle
 10
2.115625166389439
 20
0.9223480833838841
 30
0.0
 40
0.0859
100
AcDbArc
 50
276.0887787056572
 51
5.124504107946574
  0
ARC
  5
2E
100
AcDbEntity
  8
USP-GEO
100
AcDbCircle
 10
2.115625166389439
 20
0.9223480833838841
 30
0.0
 40
0.0859
100
AcDbArc
 50
175.6383864332158
 51
276.0887787056572
  0
LWPOLYLINE
  5
2F
100
AcDbEntity
  8
USP-GEO
100
AcDbPolyline
 90
        2
 70
   128
 43
0.0
 10
3.685222194778502
 20
0.5641492779039581
 10
3.685222194778502
 20
0.4977787746211409
  0
ARC
  5
30
100
AcDbEntity
  8
USP-GEO
100
AcDbCircle
 10
5.115625166389432
 20
0.9223480833838841
 30
0.0
 40
0.0859
100
AcDbArc
 50
268.901460895818
 51
6.04386806795756
  0
ARC
  5
31
100
AcDbEntity
  8
USP-GEO
100
AcDbCircle
 10
5.115625166389432
 20
0.9223480833838841
 30
0.0
 40
0.0859
100
AcDbArc
 50
176.1389882870074
 51
268.901460895818
  0
ARC
  5
32
100
AcDbEntity
  8
USP-GEO
100
AcDbCircle
 10
2.115625166389439
 20
1.000548083383886
 30
0.0
 40
0.0859
100
AcDbArc
 50
356.2558775005882
 51
84.02936800972375
  0
ARC
  5
33
100
AcDbEntity
  8
USP-GEO
100
AcDbCircle
 10
2.115625166389432
 20
1.000548083383886
 30
0.0
 40
0.0859
100
AcDbArc
 50
84.02936800971948
 51
183.1856362758491
  0
ARC
  5
34
100
AcDbEntity
  8
USP-GEO
100
AcDbCircle
 10
5.115625166389432
 20
1.000548083383886
 30
0.0
 40
0.0859
100
AcDbArc
 50
355.5820085588278
 51
91.07707150976208
  0
ARC
  5
35
100
AcDbEntity
  8
USP-GEO
100
AcDbCircle
 10
5.115625166389432
 20
1.000548083383886
 30
0.0
 40
0.0859
100
AcDbArc
 50
91.07707150976208
 51
182.8194555943397
  0
LWPOLYLINE
  5
36
100
AcDbEntity
  8
USP-GEO
100
AcDbPolyline
 90
        2
 70
   128
 43
0.0
 10
8.03580868496726
 20
0.9955575492422799
 10
8.03580868496726
 20
0.9291870459594608
  0
LWPOLYLINE
  5
37
100
AcDbEntity
  8
USP-GEO
100
AcDbPolyline
 90
        2
 70
   128
 43
0.0
 10
8.201734943174308
 20
0.9955575492422799
 10
8.201734943174308
 20
0.9291870459594608
  0
ARC
  5
38
100
AcDbEntity
  8
USP-GEO
100
AcDbCircle
 10
6.615625166389425
 20
0.5787480833838857
 30
0.0
 40
0.0859
100
AcDbArc
 50
95.67444627547134
 51
187.6984343700999
  0
ARC
  5
39
100
AcDbEntity
  8
USP-GEO
100
AcDbCircle
 10
6.615625166389432
 20
0.5787480833838857
 30
0.0
 40
0.0859
100
AcDbArc
 50
350.8971327068773
 51
95.6744462754761
  0
ARC
  5
3A
100
AcDbEntity
  8
USP-GEO
100
AcDbCircle
 10
6.615625166389425
 20
0.5005480833838867
 30
0.0
 40
0.0859
100
AcDbArc
 50
181.4688785046979
 51
263.0389749957176
  0
ARC
  5
3B
100
AcDbEntity
  8
USP-GEO
100
AcDbCircle
 10
6.615625166389425
 20
0.5005480833838832
 30
0.0
 40
0.0859
100
AcDbArc
 50
263.0389749957172
 51
358.2590980409363
  0
LWPOLYLINE
  5
3C
100
AcDbEntity
  8
USP-GEO
100
AcDbPolyline
 90
        2
 70
   128
 43
0.0
 10
6.706739356728819
 20
0.5641492779039581
 10
6.706739356728819
 20
0.4977787746211409
  0
LWPOLYLINE
  5
3D
100
AcDbEntity
  8
USP-GEO
100
AcDbPolyline
 90
        2
 70
   128
 43
0.0
 10
6.507627846880363
 20
0.5641492779039581
 10
6.507627846880363
 20
0.4977787746211409
  0
ARC
  5
3E
100
AcDbEntity
  8
USP-GEO
100
AcDbCircle
 10
9.615625166389424
 20
0.5787480833838857
 30
0.0
 40
0.0859
100
AcDbArc
 50
102.2528529632392
 51
189.5818234773986
  0
ARC
  5
3F
100
AcDbEntity
  8
USP-GEO
100
AcDbCircle
 10
9.615625166389424
 20
0.5787480833838857
 30
0.0
 40
0.0859
100
AcDbArc
 50
349.7961356935184
 51
102.2528529632392
  0
ARC
  5
40
100
AcDbEntity
  8
USP-GEO
100
AcDbCircle
 10
9.615625166389424
 20
0.5005480833838867
 30
0.0
 40
0.0859
100
AcDbArc
 50
181.8341259628843
 51
255.0584415645507
  0
ARC
  5
41
100
AcDbEntity
  8
USP-GEO
100
AcDbCircle
 10
9.615625166389424
 20
0.5005480833838832
 30
0.0
 40
0.0859
100
AcDbArc
 50
255.05844156455
 51
358.0444192685989
  0
LWPOLYLINE
  5
42
100
AcDbEntity
  8
USP-GEO
100
AcDbPolyline
 90
        2
 70
   128
 43
0.0
 10
9.696730529619797
 20
0.5641492779039581
 10
9.696730529619797
 20
0.4977787746211409
  0
LWPOLYLINE
  5
43
100
AcDbEntity
  8
USP-GEO
100
AcDbPolyline
 90
        2
 70
   128
 43
0.0
 10
9.529145008830679
 20
0.5641492779039581
 10
9.529145008830679
 20
0.4977787746211409
  0
ARC
  5
44
100
AcDbEntity
  8
USP-GEO
100
AcDbCircle
 10
8.115625166389431
 20
0.9223480833838841
 30
0.0
 40
0.0859
100
AcDbArc
 50
175.1026535254455
 51
261.7483761183923
  0
ARC
  5
45
100
AcDbEntity
  8
USP-GEO
100
AcDbCircle
 10
8.115625166389431
 20
0.9223480833838841
 30
0.0
 40
0.0859
100
AcDbArc
 50
261.7483761183923
 51
4.540981576753394
  0
ARC
  5
46
100
AcDbEntity
  8
USP-GEO
100
AcDbCircle
 10
8.115625166389424
 20
1.000548083383886
 30
0.0
 40
0.0859
100
AcDbArc
 50
98.0924900513258
 51
183.5777673722549
  0
ARC
  5
47
100
AcDbEntity
  8
USP-GEO
100
AcDbCircle
 10
8.115625166389431
 20
1.000548083383886
 30
0.0
 40
0.0859
100
AcDbArc
 50
356.6831054510573
 51
98.09249005133004
  0
ARC
  5
48
100
AcDbEntity
  8
USP-GEO
100
AcDbCircle
 10
2.115625166389439
 20
2.422348083383884
 30
0.0
 40
0.0859
100
AcDbArc
 50
178.8278971277888
 51
275.7791323362853
  0
ARC
  5
49
100
AcDbEntity
  8
USP-GEO
100
AcDbCircle
 10
2.115625166389439
 20
2.422348083383884
 30
0.0
 40
0.0859
100
AcDbArc
 50
275.7791323362853
 51
1.378057646522749
  0
ARC
  5
4A
100
AcDbEntity
  8
USP-GEO
100
AcDbCircle
 10
5.115625166389432
 20
2.422348083383884
 30
0.0
 40
0.0859
100
AcDbArc
 50
178.9628278302061
 51
268.9577055811759
  0
ARC
  5
4B
100
AcDbEntity
  8
USP-GEO
100
AcDbCircle
 10
5.115625166389432
 20
2.422348083383884
 30
0.0
 40
0.0859
100
AcDbArc
 50
268.9577055811759
 51
1.626868130504096
  0
ARC
  5
4C
100
AcDbEntity
  8
USP-GEO
100
AcDbCircle
 10
3.615625166389432
 20
2.078748083383885
 30
0.0
 40
0.0859
100
AcDbArc
 50
11.04262512153294
 51
87.68905374577371
  0
ARC
  5
4D
100
AcDbEntity
  8
USP-GEO
100
AcDbCircle
 10
3.615625166389432
 20
2.000548083383886
 30
0.0
 40
0.0859
100
AcDbArc
 50
272.4917612545608
 51
353.6266971236734
  0
LWPOLYLINE
  5
4E
100
AcDbEntity
  8
USP-GEO
100
AcDbPolyline
 90
        2
 70
   128
 43
0.0
 10
3.519295936571456
 20
2.092330115990856
 10
3.519295936571456
 20
1.992774361066629
  0
ARC
  5
4F
100
AcDbEntity
  8
USP-GEO
100
AcDbCircle
 10
3.615625166389432
 20
2.000548083383886
 30
0.0
 40
0.0859
100
AcDbArc
 50
184.6137435329778
 51
272.4917612545608
  0
ARC
  5
50
100
AcDbEntity
  8
USP-GEO
100
AcDbCircle
 10
3.615625166389432
 20
2.078748083383885
 30
0.0
 40
0.0859
100
AcDbArc
 50
87.68905374577371
 51
171.9744297142033
  0
LWPOLYLINE
  5
51
100
AcDbEntity
  8
USP-GEO
100
AcDbPolyline
 90
        2
 70
   128
 43
0.0
 10
3.685222194778502
 20
2.092330115990856
 10
3.685222194778502
 20
1.992774361066629
  0
ARC
  5
52
100
AcDbEntity
  8
USP-GEO
100
AcDbCircle
 10
2.115625166389432
 20
2.500548083383886
 30
0.0
 40
0.0859
100
AcDbArc
 50
83.69835918815477
 51
186.3604578242806
  0
ARC
  5
53
100
AcDbEntity
  8
USP-GEO
100
AcDbCircle
 10
2.115625166389439
 20
2.500548083383886
 30
0.0
 40
0.0859
100
AcDbArc
 50
352.5332094763106
 51
83.69835918815926
  0
LWPOLYLINE
  5
54
100
AcDbEntity
  8
USP-GEO
100
AcDbPolyline
 90
        2
 70
   128
 43
0.0
 10
2.025959612708037
 20
2.490553135687768
 10
2.025959612708037
 20
2.424182632404949
  0
LWPOLYLINE
  5
55
100
AcDbEntity
  8
USP-GEO
100
AcDbPolyline
 90
        2
 70
   128
 43
0.0
 10
2.191885870915084
 20
2.490553135687768
 10
2.191885870915084
 20
2.424182632404949
  0
ARC
  5
56
100
AcDbEntity
  8
USP-GEO
100
AcDbCircle
 10
5.115625166389432
 20
2.500548083383886
 30
0.0
 40
0.0859
100
AcDbArc
 50
91.13723993947081
 51
185.6330944439323
  0
ARC
  5
57
100
AcDbEntity
  8
USP-GEO
100
AcDbCircle
 10
5.115625166389432
 20
2.500548083383886
 30
0.0
 40
0.0859
100
AcDbArc
 50
351.2039133317971
 51
91.13723993947081
  0
LWPOLYLINE
  5
58
100
AcDbEntity
  8
USP-GEO
100
AcDbPolyline
 90
        2
 70
   128
 43
0.0
 10
5.180217781223992
 20
2.490553135687768
 10
5.180217781223992
 20
2.424182632404949
  0
LWPOLYLINE
  5
59
100
AcDbEntity
  8
USP-GEO
100
AcDbPolyline
 90
        2
 70
   128
 43
0.0
 10
5.014291523016945
 20
2.490553135687768
 10
5.014291523016945
 20
2.424182632404949
  0
ARC
  5
5A
100
AcDbEntity
  8
USP-GEO
100
AcDbCircle
 10
8.115625166389431
 20
2.422348083383884
 30
0.0
 40
0.0859
100
AcDbArc
 50
178.6833118886652
 51
262.165564878695
  0
ARC
  5
5B
100
AcDbEntity
  8
USP-GEO
100
AcDbCircle
 10
8.115625166389431
 20
2.422348083383884
 30
0.0
 40
0.0859
100
AcDbArc
 50
262.165564878695
 51
1.220488790872006
  0
LWPOLYLINE
  5
5C
100
AcDbEntity
  8
USP-GEO
100
AcDbPolyline
 90
        2
 70
   128
 43
0.0
 10
6.507627846880363
 20
2.092330115990856
 10
6.507627846880363
 20
1.992774361066629
  0
LWPOLYLINE
  5
5D
100
AcDbEntity
  8
USP-GEO
100
AcDbPolyline
 90
        2
 70
   128
 43
0.0
 10
6.706739356728819
 20
2.092330115990856
 10
6.706739356728819
 20
1.992774361066629
  0
ARC
  5
5E
100
AcDbEntity
  8
USP-GEO
100
AcDbCircle
 10
6.615625166389425
 20
2.000548083383886
 30
0.0
 40
0.0859
100
AcDbArc
 50
263.5046556610731
 51
355.1234220932577
  0
ARC
  5
5F
100
AcDbEntity
  8
USP-GEO
100
AcDbCircle
 10
6.615625166389425
 20
2.000548083383886
 30
0.0
 40
0.0859
100
AcDbArc
 50
184.1170894178802
 51
263.5046556610731
  0
ARC
  5
60
100
AcDbEntity
  8
USP-GEO
100
AcDbCircle
 10
6.615625166389425
 20
2.078748083383885
 30
0.0
 40
0.0859
100
AcDbArc
 50
96.02708476088551
 51
172.8319614922816
  0
ARC
  5
61
100
AcDbEntity
  8
USP-GEO
100
AcDbCircle
 10
6.615625166389432
 20
2.078748083383885
 30
0.0
 40
0.0859
100
AcDbArc
 50
8.47842466713293
 51
96.02708476089054
  0
LWPOLYLINE
  5
62
100
AcDbEntity
  8
USP-GEO
100
AcDbPolyline
 90
        2
 70
   128
 43
0.0
 10
9.529145008830679
 20
2.092330115990856
 10
9.529145008830679
 20
1.992774361066629
  0
LWPOLYLINE
  5
63
100
AcDbEntity
  8
USP-GEO
100
AcDbPolyline
 90
        2
 70
   128
 43
0.0
 10
9.696730529619797
 20
2.092330115990856
 10
9.696730529619797
 20
1.992774361066629
  0
ARC
  5
64
100
AcDbEntity
  8
USP-GEO
100
AcDbCircle
 10
9.615625166389424
 20
2.000548083383886
 30
0.0
 40
0.0859
100
AcDbArc
 50
256.0260777883295
 51
354.5250842866198
  0
ARC
  5
65
100
AcDbEntity
  8
USP-GEO
100
AcDbCircle
 10
9.615625166389424
 20
2.000548083383886
 30
0.0
 40
0.0859
100
AcDbArc
 50
185.1365263727134
 51
256.0260777883295
  0
ARC
  5
66
100
AcDbEntity
  8
USP-GEO
100
AcDbCircle
 10
9.615625166389424
 20
2.078748083383885
 30
0.0
 40
0.0859
100
AcDbArc
 50
102.9944851288221
 51
171.07439267875
  0
ARC
  5
67
100
AcDbEntity
  8
USP-GEO
100
AcDbCircle
 10
9.615625166389424
 20
2.078748083383885
 30
0.0
 40
0.0859
100
AcDbArc
 50
9.506630945373636
 51
102.9944851288221
  0
ARC
  5
68
100
AcDbEntity
  8
USP-GEO
100
AcDbCircle
 10
8.115625166389424
 20
2.500548083383886
 30
0.0
 40
0.0859
100
AcDbArc
 50
98.53818400092329
 51
187.1376589017412
  0
ARC
  5
69
100
AcDbEntity
  8
USP-GEO
100
AcDbCircle
 10
8.115625166389431
 20
2.500548083383886
 30
0.0
 40
0.0859
100
AcDbArc
 50
353.3791826276957
 51
98.53818400092778
  0
LWPOLYLINE
  5
6A
100
AcDbEntity
  8
USP-GEO
100
AcDbPolyline
 90
        2
 70
   128
 43
0.0
 10
8.03580868496726
 20
2.490553135687768
 10
8.03580868496726
 20
2.424182632404949
  0
LWPOLYLINE
  5
6B
100
AcDbEntity
  8
USP-GEO
100
AcDbPolyline
 90
        2
 70
   128
 43
0.0
 10
8.201734943174308
 20
2.490553135687768
 10
8.201734943174308
 20
2.424182632404949
  0
LWPOLYLINE
  5
6C
100
AcDbEntity
  8
USP-GEO
100
AcDbPolyline
 90
        2
 70
   128
 43
0.0
 10
11.02414059527616
 20
0.9955575492422799
 10
11.02414059527616
 20
0.9291870459594608
  0
LWPOLYLINE
  5
6D
100
AcDbEntity
  8
USP-GEO
100
AcDbPolyline
 90
        2
 70
   128
 43
0.0
 10
11.19006685348321
 20
0.9955575492422799
 10
11.19006685348321
 20
0.9291870459594608
  0
ARC
  5
6E
100
AcDbEntity
  8
USP-GEO
100
AcDbCircle
 10
11.11562516638942
 20
0.9223480833838841
 30
0.0
 40
0.0859
100
AcDbArc
 50
274.9751711137356
 51
5.249032567102349
  0
ARC
  5
6F
100
AcDbEntity
  8
USP-GEO
100
AcDbCircle
 10
11.11562516638942
 20
0.9223480833838841
 30
0.0
 40
0.0859
100
AcDbArc
 50
175.7247850324526
 51
274.9751711137356
  0
ARC
  5
70
100
AcDbEntity
  8
USP-GEO
100
AcDbCircle
 10
12.61562516638941
 20
0.5787480833838857
 30
0.0
 40
0.0859
100
AcDbArc
 50
87.93263845243997
 51
188.6036100001783
  0
ARC
  5
71
100
AcDbEntity
  8
USP-GEO
100
AcDbCircle
 10
12.61562516638942
 20
0.5787480833838857
 30
0.0
 40
0.0859
100
AcDbArc
 50
348.1268039235617
 51
87.93263845244474
  0
ARC
  5
72
100
AcDbEntity
  8
USP-GEO
100
AcDbCircle
 10
12.61562516638941
 20
0.5005480833838832
 30
0.0
 40
0.0859
100
AcDbArc
 50
181.6439820472806
 51
272.5397507880883
  0
ARC
  5
73
100
AcDbEntity
  8
USP-GEO
100
AcDbCircle
 10
12.61562516638941
 20
0.5005480833838832
 30
0.0
 40
0.0859
100
AcDbArc
 50
272.5397507880883
 51
357.716130683229
  0
LWPOLYLINE
  5
74
100
AcDbEntity
  8
USP-GEO
100
AcDbPolyline
 90
        2
 70
   128
 43
0.0
 10
12.51913618172165
 20
0.5641492779039581
 10
12.51913618172165
 20
0.4977787746211409
  0
LWPOLYLINE
  5
75
100
AcDbEntity
  8
USP-GEO
100
AcDbPolyline
 90
        2
 70
   128
 43
0.0
 10
12.6850624399287
 20
0.5641492779039581
 10
12.6850624399287
 20
0.4977787746211409
  0
ARC
  5
76
100
AcDbEntity
  8
USP-GEO
100
AcDbCircle
 10
11.11562516638942
 20
1.000548083383886
 30
0.0
 40
0.0859
100
AcDbArc
 50
85.12160260056232
 51
183.1224218380683
  0
ARC
  5
77
100
AcDbEntity
  8
USP-GEO
100
AcDbCircle
 10
11.11562516638942
 20
1.000548083383886
 30
0.0
 40
0.0859
100
AcDbArc
 50
356.1646579321483
 51
85.12160260056232
  0
LWPOLYLINE
  5
78
100
AcDbEntity
  8
USP-GEO
100
AcDbPolyline
 90
        2
 70
   128
 43
0.0
 10
14.01247250558507
 20
0.9955575492422799
 10
14.01247250558507
 20
0.9291870459594608
  0
LWPOLYLINE
  5
79
100
AcDbEntity
  8
USP-GEO
100
AcDbPolyline
 90
        2
 70
   128
 43
0.0
 10
14.21158401543353
 20
0.9955575492422799
 10
14.21158401543353
 20
0.9291870459594608
  0
LWPOLYLINE
  5
7A
100
AcDbEntity
  8
USP-GEO
100
AcDbPolyline
 90
        2
 70
   128
 43
0.0
 10
17.03398966753539
 20
0.9955575492422799
 10
17.03398966753539
 20
0.9291870459594608
  0
LWPOLYLINE
  5
7B
100
AcDbEntity
  8
USP-GEO
100
AcDbPolyline
 90
        2
 70
   128
 43
0.0
 10
17.19991592574243
 20
0.9955575492422799
 10
17.19991592574243
 20
0.9291870459594608
  0
ARC
  5
7C
100
AcDbEntity
  8
USP-GEO
100
AcDbCircle
 10
15.61562516638941
 20
0.5787480833838821
 30
0.0
 40
0.0859
100
AcDbArc
 50
350.8814125662485
 51
95.78111329907525
  0
ARC
  5
7D
100
AcDbEntity
  8
USP-GEO
100
AcDbCircle
 10
15.61562516638941
 20
0.5787480833838821
 30
0.0
 40
0.0859
100
AcDbArc
 50
95.7811132990705
 51
191.0189681752545
  0
ARC
  5
7E
100
AcDbEntity
  8
USP-GEO
100
AcDbCircle
 10
15.61562516638941
 20
0.5005480833838796
 30
0.0
 40
0.0859
100
AcDbArc
 50
262.9085680272718
 51
358.256042159879
  0
ARC
  5
7F
100
AcDbEntity
  8
USP-GEO
100
AcDbCircle
 10
15.61562516638941
 20
0.5005480833838796
 30
0.0
 40
0.0859
100
AcDbArc
 50
182.1154294206403
 51
262.9085680272718
  0
LWPOLYLINE
  5
80
100
AcDbEntity
  8
USP-GEO
100
AcDbPolyline
 90
        2
 70
   128
 43
0.0
 10
15.54065334367197
 20
0.5641492779039581
 10
15.54065334367197
 20
0.4977787746211409
  0
LWPOLYLINE
  5
81
100
AcDbEntity
  8
USP-GEO
100
AcDbPolyline
 90
        2
 70
   128
 43
0.0
 10
15.70657960187902
 20
0.5641492779039581
 10
15.70657960187902
 20
0.4977787746211409
  0
ARC
  5
82
100
AcDbEntity
  8
USP-GEO
100
AcDbCircle
 10
14.11562516638941
 20
0.9223480833838806
 30
0.0
 40
0.0859
100
AcDbArc
 50
176.2068737056176
 51
267.7783503302717
  0
ARC
  5
83
100
AcDbEntity
  8
USP-GEO
100
AcDbCircle
 10
14.11562516638941
 20
0.9223480833838806
 30
0.0
 40
0.0859
100
AcDbArc
 50
267.7783503302717
 51
4.07656271212064
  0
ARC
  5
84
100
AcDbEntity
  8
USP-GEO
100
AcDbCircle
 10
17.11562516638941
 20
0.9223480833838806
 30
0.0
 40
0.0859
100
AcDbArc
 50
175.2112638975463
 51
260.6506339739476
  0
ARC
  5
85
100
AcDbEntity
  8
USP-GEO
100
AcDbCircle
 10
17.11562516638941
 20
0.9223480833838806
 30
0.0
 40
0.0859
100
AcDbArc
 50
260.6506339739476
 51
4.638554047844911
  0
ARC
  5
86
100
AcDbEntity
  8
USP-GEO
100
AcDbCircle
 10
14.11562516638941
 20
1.000548083383879
 30
0.0
 40
0.0859
100
AcDbArc
 50
92.17826622302844
 51
182.769814793082
  0
ARC
  5
87
100
AcDbEntity
  8
USP-GEO
100
AcDbCircle
 10
14.11562516638941
 20
1.000548083383879
 30
0.0
 40
0.0859
100
AcDbArc
 50
357.0228991858403
 51
92.17826622302844
  0
ARC
  5
88
100
AcDbEntity
  8
USP-GEO
100
AcDbCircle
 10
17.11562516638941
 20
1.000548083383879
 30
0.0
 40
0.0859
100
AcDbArc
 50
99.16975242217302
 51
183.4982471133268
  0
ARC
  5
89
100
AcDbEntity
  8
USP-GEO
100
AcDbCircle
 10
17.11562516638941
 20
1.000548083383879
 30
0.0
 40
0.0859
100
AcDbArc
 50
356.6116909813146
 51
99.16975242217727
  0
ARC
  5
8A
100
AcDbEntity
  8
USP-GEO
100
AcDbCircle
 10
11.11562516638942
 20
2.422348083383884
 30
0.0
 40
0.0859
100
AcDbArc
 50
178.8511961208338
 51
274.7215697313851
  0
ARC
  5
8B
100
AcDbEntity
  8
USP-GEO
100
AcDbCircle
 10
11.11562516638942
 20
2.422348083383884
 30
0.0
 40
0.0859
100
AcDbArc
 50
274.7215697313851
 51
1.41171766506892
  0
LWPOLYLINE
  5
8C
100
AcDbEntity
  8
USP-GEO
100
AcDbPolyline
 90
        2
 70
   128
 43
0.0
 10
12.51913618172165
 20
2.092330115990856
 10
12.51913618172165
 20
1.992774361066629
  0
LWPOLYLINE
  5
8D
100
AcDbEntity
  8
USP-GEO
100
AcDbPolyline
 90
        2
 70
   128
 43
0.0
 10
12.6850624399287
 20
2.092330115990856
 10
12.6850624399287
 20
1.992774361066629
  0
ARC
  5
8E
100
AcDbEntity
  8
USP-GEO
100
AcDbCircle
 10
12.61562516638941
 20
2.000548083383883
 30
0.0
 40
0.0859
100
AcDbArc
 50
272.3685309072217
 51
353.6121550856625
  0
ARC
  5
8F
100
AcDbEntity
  8
USP-GEO
100
AcDbCircle
 10
12.61562516638941
 20
2.000548083383883
 30
0.0
 40
0.0859
100
AcDbArc
 50
184.6061375491501
 51
272.3685309072217
  0
ARC
  5
90
100
AcDbEntity
  8
USP-GEO
100
AcDbCircle
 10
12.61562516638941
 20
2.078748083383882
 30
0.0
 40
0.0859
100
AcDbArc
 50
87.8033605613144
 51
171.9875447844199
  0
ARC
  5
91
100
AcDbEntity
  8
USP-GEO
100
AcDbCircle
 10
12.61562516638942
 20
2.078748083383882
 30
0.0
 40
0.0859
100
AcDbArc
 50
11.06740440309984
 51
87.80336056131949
  0
ARC
  5
92
100
AcDbEntity
  8
USP-GEO
100
AcDbCircle
 10
11.11562516638942
 20
2.500548083383883
 30
0.0
 40
0.0859
100
AcDbArc
 50
352.3528887476067
 51
84.85043819742804
  0
ARC
  5
93
100
AcDbEntity
  8
USP-GEO
100
AcDbCircle
 10
11.11562516638942
 20
2.500548083383883
 30
0.0
 40
0.0859
100
AcDbArc
 50
84.85043819742804
 51
186.2349968080302
  0
LWPOLYLINE
  5
94
100
AcDbEntity
  8
USP-GEO
100
AcDbPolyline
 90
        2
 70
   128
 43
0.0
 10
11.02414059527616
 20
2.490553135687768
 10
11.02414059527616
 20
2.424182632404949
  0
LWPOLYLINE
  5
95
100
AcDbEntity
  8
USP-GEO
100
AcDbPolyline
 90
        2
 70
   128
 43
0.0
 10
11.19006685348321
 20
2.490553135687768
 10
11.19006685348321
 20
2.424182632404949
  0
ARC
  5
96
100
AcDbEntity
  8
USP-GEO
100
AcDbCircle
 10
14.11562516638941
 20
2.42234808338388
 30
0.0
 40
0.0859
100
AcDbArc
 50
178.9811136694213
 51
267.8920181177939
  0
ARC
  5
97
100
AcDbEntity
  8
USP-GEO
100
AcDbCircle
 10
14.11562516638941
 20
2.42234808338388
 30
0.0
 40
0.0859
100
AcDbArc
 50
267.8920181177939
 51
1.095251911639267
  0
ARC
  5
98
100
AcDbEntity
  8
USP-GEO
100
AcDbCircle
 10
17.11562516638941
 20
2.42234808338388
 30
0.0
 40
0.0859
100
AcDbArc
 50
178.7126405933764
 51
261.1215975365408
  0
ARC
  5
99
100
AcDbEntity
  8
USP-GEO
100
AcDbCircle
 10
17.11562516638941
 20
2.42234808338388
 30
0.0
 40
0.0859
100
AcDbArc
 50
261.1215975365408
 51
1.246819043349913
  0
LWPOLYLINE
  5
9A
100
AcDbEntity
  8
USP-GEO
100
AcDbPolyline
 90
        2
 70
   128
 43
0.0
 10
15.54065334367197
 20
2.092330115990856
 10
15.54065334367197
 20
1.992774361066629
  0
LWPOLYLINE
  5
9B
100
AcDbEntity
  8
USP-GEO
100
AcDbPolyline
 90
        2
 70
   128
 43
0.0
 10
15.70657960187902
 20
2.092330115990856
 10
15.70657960187902
 20
1.992774361066629
  0
ARC
  5
9C
100
AcDbEntity
  8
USP-GEO
100
AcDbCircle
 10
15.61562516638941
 20
2.000548083383879
 30
0.0
 40
0.0859
100
AcDbArc
 50
263.382812787356
 51
355.1148981528484
  0
ARC
  5
9D
100
AcDbEntity
  8
USP-GEO
100
AcDbCircle
 10
15.61562516638941
 20
2.000548083383879
 30
0.0
 40
0.0859
100
AcDbArc
 50
185.9197637708467
 51
263.382812787356
  0
ARC
  5
9E
100
AcDbEntity
  8
USP-GEO
100
AcDbCircle
 10
15.61562516638941
 20
2.078748083383878
 30
0.0
 40
0.0859
100
AcDbArc
 50
8.493099402986635
 51
96.14028275156783
  0
ARC
  5
9F
100
AcDbEntity
  8
USP-GEO
100
AcDbCircle
 10
15.61562516638941
 20
2.078748083383878
 30
0.0
 40
0.0859
100
AcDbArc
 50
96.14028275156281
 51
169.7315605192644
  0
ARC
  5
A0
100
AcDbEntity
  8
USP-GEO
100
AcDbCircle
 10
14.11562516638941
 20
2.500548083383879
 30
0.0
 40
0.0859
100
AcDbArc
 50
92.29985455071625
 51
185.53438138694
  0
ARC
  5
A1
100
AcDbEntity
  8
USP-GEO
100
AcDbCircle
 10
14.11562516638941
 20
2.500548083383879
 30
0.0
 40
0.0859
100
AcDbArc
 50
354.0535892554891
 51
92.29985455071625
  0
LWPOLYLINE
  5
A2
100
AcDbEntity
  8
USP-GEO
100
AcDbPolyline
 90
        2
 70
   128
 43
0.0
 10
14.01247250558507
 20
2.490553135687768
 10
14.01247250558507
 20
2.424182632404949
  0
LWPOLYLINE
  5
A3
100
AcDbEntity
  8
USP-GEO
100
AcDbPolyline
 90
        2
 70
   128
 43
0.0
 10
14.21158401543353
 20
2.490553135687768
 10
14.21158401543353
 20
2.424182632404949
  0
ARC
  5
A4
100
AcDbEntity
  8
USP-GEO
100
AcDbCircle
 10
17.11562516638941
 20
2.500548083383879
 30
0.0
 40
0.0859
100
AcDbArc
 50
99.67270197482662
 51
186.9802028475178
  0
ARC
  5
A5
100
AcDbEntity
  8
USP-GEO
100
AcDbCircle
 10
17.11562516638941
 20
2.500548083383879
 30
0.0
 40
0.0859
100
AcDbArc
 50
353.2376130102267
 51
99.67270197483106
  0
LWPOLYLINE
  5
A6
100
AcDbEntity
  8
USP-GEO
100
AcDbPolyline
 90
        2
 70
   128
 43
0.0
 10
17.03398966753539
 20
2.490553135687768
 10
17.03398966753539
 20
2.424182632404949
  0
LWPOLYLINE
  5
A7
100
AcDbEntity
  8
USP-GEO
100
AcDbPolyline
 90
        2
 70
   128
 43
0.0
 10
17.19991592574243
 20
2.490553135687768
 10
17.19991592574243
 20
2.424182632404949
  0
LWPOLYLINE
  5
A8
100
AcDbEntity
  8
USP-GEO
100
AcDbPolyline
 90
        2
 70
   128
 43
0.0
 10
20.02232157784429
 20
0.9955575492422799
 10
20.02232157784429
 20
0.9291870459594608
  0
LWPOLYLINE
  5
A9
100
AcDbEntity
  8
USP-GEO
100
AcDbPolyline
 90
        2
 70
   128
 43
0.0
 10
20.18824783605134
 20
0.9955575492422799
 10
20.18824783605134
 20
0.9291870459594608
  0
ARC
  5
AA
100
AcDbEntity
  8
USP-GEO
100
AcDbCircle
 10
18.61562516638941
 20
0.5787480833838821
 30
0.0
 40
0.0859
100
AcDbArc
 50
81.35562449143177
 51
189.5644822990808
  0
ARC
  5
AB
100
AcDbEntity
  8
USP-GEO
100
AcDbCircle
 10
18.61562516638941
 20
0.5787480833838821
 30
0.0
 40
0.0859
100
AcDbArc
 50
349.5671194671903
 51
81.35562449143646
  0
ARC
  5
AC
100
AcDbEntity
  8
USP-GEO
100
AcDbCircle
 10
18.61562516638941
 20
0.5005480833838796
 30
0.0
 40
0.0859
100
AcDbArc
 50
181.8307463318236
 51
280.5813263448834
  0
ARC
  5
AD
100
AcDbEntity
  8
USP-GEO
100
AcDbCircle
 10
18.61562516638941
 20
0.5005480833838796
 30
0.0
 40
0.0859
100
AcDbArc
 50
280.5813263448834
 51
357.9995896361901
  0
LWPOLYLINE
  5
AE
100
AcDbEntity
  8
USP-GEO
100
AcDbPolyline
 90
        2
 70
   128
 43
0.0
 10
18.69491151218793
 20
0.5641492779039581
 10
18.69491151218793
 20
0.4977787746211409
  0
LWPOLYLINE
  5
AF
100
AcDbEntity
  8
USP-GEO
100
AcDbPolyline
 90
        2
 70
   128
 43
0.0
 10
18.52898525398088
 20
0.5641492779039581
 10
18.52898525398088
 20
0.4977787746211409
  0
ARC
  5
B0
100
AcDbEntity
  8
USP-GEO
100
AcDbCircle
 10
21.6156251663894
 20
0.5787480833838785
 30
0.0
 40
0.0859
100
AcDbArc
 50
347.8168216664521
 51
89.15856405450659
  0
ARC
  5
B1
100
AcDbEntity
  8
USP-GEO
100
AcDbCircle
 10
21.6156251663894
 20
0.5787480833838785
 30
0.0
 40
0.0859
100
AcDbArc
 50
89.15856405450659
 51
188.4467329844844
  0
ARC
  5
B2
100
AcDbEntity
  8
USP-GEO
100
AcDbCircle
 10
21.6156251663894
 20
0.5005480833838761
 30
0.0
 40
0.0859
100
AcDbArc
 50
271.0338936264822
 51
357.6547593873288
  0
ARC
  5
B3
100
AcDbEntity
  8
USP-GEO
100
AcDbCircle
 10
21.6156251663894
 20
0.5005480833838796
 30
0.0
 40
0.0859
100
AcDbArc
 50
181.613579270987
 51
271.0338936264822
  0
LWPOLYLINE
  5
B4
100
AcDbEntity
  8
USP-GEO
100
AcDbPolyline
 90
        2
 70
   128
 43
0.0
 10
21.51731716428979
 20
0.5641492779039581
 10
21.51731716428979
 20
0.4977787746211409
  0
LWPOLYLINE
  5
B5
100
AcDbEntity
  8
USP-GEO
100
AcDbPolyline
 90
        2
 70
   128
 43
0.0
 10
21.68324342249683
 20
0.5641492779039581
 10
21.68324342249683
 20
0.4977787746211409
  0
ARC
  5
B6
100
AcDbEntity
  8
USP-GEO
100
AcDbCircle
 10
20.11562516638941
 20
0.9223480833838806
 30
0.0
 40
0.0859
100
AcDbArc
 50
273.857782861888
 51
5.37974575485119
  0
ARC
  5
B7
100
AcDbEntity
  8
USP-GEO
100
AcDbCircle
 10
20.11562516638941
 20
0.9223480833838806
 30
0.0
 40
0.0859
100
AcDbArc
 50
175.807833195074
 51
273.857782861888
  0
ARC
  5
B8
100
AcDbEntity
  8
USP-GEO
100
AcDbCircle
 10
20.1156251663894
 20
1.000548083383879
 30
0.0
 40
0.0859
100
AcDbArc
 50
86.21740258595401
 51
183.0616650452231
  0
ARC
  5
B9
100
AcDbEntity
  8
USP-GEO
100
AcDbCircle
 10
20.11562516638941
 20
1.000548083383879
 30
0.0
 40
0.0859
100
AcDbArc
 50
356.0688896801237
 51
86.21740258595831
  0
LWPOLYLINE
  5
BA
100
AcDbEntity
  8
USP-GEO
100
AcDbPolyline
 90
        2
 70
   128
 43
0.0
 10
23.04383873979461
 20
0.9955575492422799
 10
23.04383873979461
 20
0.9291870459594608
  0
LWPOLYLINE
  5
BB
100
AcDbEntity
  8
USP-GEO
100
AcDbPolyline
 90
        2
 70
   128
 43
0.0
 10
23.20976499800166
 20
0.9955575492422799
 10
23.20976499800166
 20
0.9291870459594608
  0
LWPOLYLINE
  5
BC
100
AcDbEntity
  8
USP-GEO
100
AcDbPolyline
 90
        2
 70
   128
 43
0.0
 10
26.03217065010352
 20
0.9955575492422799
 10
26.03217065010352
 20
0.9291870459594608
  0
ARC
  5
BD
100
AcDbEntity
  8
USP-GEO
100
AcDbCircle
 10
23.1156251663894
 20
0.922348083383877
 30
0.0
 40
0.0859
100
AcDbArc
 50
174.5579594493061
 51
266.656945091426
  0
ARC
  5
BE
100
AcDbEntity
  8
USP-GEO
100
AcDbCircle
 10
23.1156251663894
 20
0.922348083383877
 30
0.0
 40
0.0859
100
AcDbArc
 50
266.656945091426
 51
4.15505883979491
  0
ARC
  5
BF
100
AcDbEntity
  8
USP-GEO
100
AcDbCircle
 10
24.6156251663894
 20
0.5787480833838785
 30
0.0
 40
0.0859
100
AcDbArc
 50
96.99264846265334
 51
190.7641210958673
  0
ARC
  5
C0
100
AcDbEntity
  8
USP-GEO
100
AcDbCircle
 10
24.6156251663894
 20
0.5787480833838785
 30
0.0
 40
0.0859
100
AcDbArc
 50
350.6985470456276
 51
96.99264846265334
  0
ARC
  5
C1
100
AcDbEntity
  8
USP-GEO
100
AcDbCircle
 10
24.6156251663894
 20
0.5005480833838796
 30
0.0
 40
0.0859
100
AcDbArc
 50
182.0653631621307
 51
261.4292302231712
  0
ARC
  5
C2
100
AcDbEntity
  8
USP-GEO
100
AcDbCircle
 10
24.6156251663894
 20
0.5005480833838761
 30
0.0
 40
0.0859
100
AcDbArc
 50
261.4292302231708
 51
358.2204752608545
  0
LWPOLYLINE
  5
C3
100
AcDbEntity
  8
USP-GEO
100
AcDbPolyline
 90
        2
 70
   128
 43
0.0
 10
24.5388343262401
 20
0.5641492779039581
 10
24.5388343262401
 20
0.4977787746211409
  0
LWPOLYLINE
  5
C4
100
AcDbEntity
  8
USP-GEO
100
AcDbPolyline
 90
        2
 70
   128
 43
0.0
 10
24.70476058444715
 20
0.5641492779039581
 10
24.70476058444715
 20
0.4977787746211409
  0
ARC
  5
C5
100
AcDbEntity
  8
USP-GEO
100
AcDbCircle
 10
26.1156251663894
 20
0.922348083383877
 30
0.0
 40
0.0859
100
AcDbArc
 50
175.3151719080647
 51
259.5597730041698
  0
ARC
  5
C6
100
AcDbEntity
  8
USP-GEO
100
AcDbCircle
 10
23.1156251663894
 20
1.000548083383879
 30
0.0
 40
0.0859
100
AcDbArc
 50
93.2778534569322
 51
183.9767578996156
  0
ARC
  5
C7
100
AcDbEntity
  8
USP-GEO
100
AcDbCircle
 10
23.1156251663894
 20
1.000548083383879
 30
0.0
 40
0.0859
100
AcDbArc
 50
356.9654806343281
 51
93.2778534569322
  0
ARC
  5
C8
100
AcDbEntity
  8
USP-GEO
100
AcDbCircle
 10
26.1156251663894
 20
1.000548083383879
 30
0.0
 40
0.0859
100
AcDbArc
 50
100.2405159388312
 51
183.4221807526601
  0
ARC
  5
C9
100
AcDbEntity
  8
USP-GEO
100
AcDbCircle
 10
20.11562516638941
 20
2.42234808338388
 30
0.0
 40
0.0859
100
AcDbArc
 50
178.8735870123352
 51
273.6607730928505
  0
ARC
  5
CA
100
AcDbEntity
  8
USP-GEO
100
AcDbCircle
 10
20.11562516638941
 20
2.42234808338388
 30
0.0
 40
0.0859
100
AcDbArc
 50
273.6607730928505
 51
1.447062833780939
  0
LWPOLYLINE
  5
CB
100
AcDbEntity
  8
USP-GEO
100
AcDbPolyline
 90
        2
 70
   128
 43
0.0
 10
18.52898525398088
 20
2.092330115990856
 10
18.52898525398088
 20
1.992774361066629
  0
LWPOLYLINE
  5
CC
100
AcDbEntity
  8
USP-GEO
100
AcDbPolyline
 90
        2
 70
   128
 43
0.0
 10
18.69491151218793
 20
2.092330115990856
 10
18.69491151218793
 20
1.992774361066629
  0
ARC
  5
CD
100
AcDbEntity
  8
USP-GEO
100
AcDbCircle
 10
18.61562516638941
 20
2.000548083383879
 30
0.0
 40
0.0859
100
AcDbArc
 50
279.8817036959898
 51
354.4002661628701
  0
ARC
  5
CE
100
AcDbEntity
  8
USP-GEO
100
AcDbCircle
 10
18.61562516638941
 20
2.000548083383879
 30
0.0
 40
0.0859
100
AcDbArc
 50
185.1271056865414
 51
279.8817036959898
  0
ARC
  5
CF
100
AcDbEntity
  8
USP-GEO
100
AcDbCircle
 10
18.61562516638941
 20
2.078748083383878
 30
0.0
 40
0.0859
100
AcDbArc
 50
80.82349434299008
 51
171.0905862995983
  0
ARC
  5
D0
100
AcDbEntity
  8
USP-GEO
100
AcDbCircle
 10
18.61562516638941
 20
2.078748083383878
 30
0.0
 40
0.0859
100
AcDbArc
 50
9.720619780735754
 51
80.82349434299503
  0
LWPOLYLINE
  5
D1
100
AcDbEntity
  8
USP-GEO
100
AcDbPolyline
 90
        2
 70
   128
 43
0.0
 10
21.51731716428979
 20
2.092330115990856
 10
21.51731716428979
 20
1.992774361066629
  0
LWPOLYLINE
  5
D2
100
AcDbEntity
  8
USP-GEO
100
AcDbPolyline
 90
        2
 70
   128
 43
0.0
 10
21.68324342249683
 20
2.092330115990856
 10
21.68324342249683
 20
1.992774361066629
  0
ARC
  5
D3
100
AcDbEntity
  8
USP-GEO
100
AcDbCircle
 10
21.6156251663894
 20
2.000548083383879
 30
0.0
 40
0.0859
100
AcDbArc
 50
184.5212657162468
 51
270.964123940917
  0
ARC
  5
D4
100
AcDbEntity
  8
USP-GEO
100
AcDbCircle
 10
21.6156251663894
 20
2.000548083383879
 30
0.0
 40
0.0859
100
AcDbArc
 50
270.964123940917
 51
353.4417915627528
  0
ARC
  5
D5
100
AcDbEntity
  8
USP-GEO
100
AcDbCircle
 10
21.6156251663894
 20
2.078748083383878
 30
0.0
 40
0.0859
100
AcDbArc
 50
89.10590493668687
 51
172.1339281950512
  0
ARC
  5
D6
100
AcDbEntity
  8
USP-GEO
100
AcDbCircle
 10
21.6156251663894
 20
2.078748083383878
 30
0.0
 40
0.0859
100
AcDbArc
 50
11.35749090534746
 51
89.10590493668687
  0
ARC
  5
D7
100
AcDbEntity
  8
USP-GEO
100
AcDbCircle
 10
20.11562516638941
 20
2.500548083383879
 30
0.0
 40
0.0859
100
AcDbArc
 50
352.1636988026366
 51
86.0067071581324
  0
ARC
  5
D8
100
AcDbEntity
  8
USP-GEO
100
AcDbCircle
 10
20.1156251663894
 20
2.500548083383879
 30
0.0
 40
0.0859
100
AcDbArc
 50
86.00670715812787
 51
186.1143710843748
  0
LWPOLYLINE
  5
D9
100
AcDbEntity
  8
USP-GEO
100
AcDbPolyline
 90
        2
 70
   128
 43
0.0
 10
20.02232157784429
 20
2.490553135687768
 10
20.02232157784429
 20
2.424182632404949
  0
LWPOLYLINE
  5
DA
100
AcDbEntity
  8
USP-GEO
100
AcDbPolyline
 90
        2
 70
   128
 43
0.0
 10
20.18824783605134
 20
2.490553135687768
 10
20.18824783605134
 20
2.424182632404949
  0
ARC
  5
DB
100
AcDbEntity
  8
USP-GEO
100
AcDbCircle
 10
23.1156251663894
 20
2.422348083383877
 30
0.0
 40
0.0859
100
AcDbArc
 50
178.5360875641601
 51
266.8277876664634
  0
ARC
  5
DC
100
AcDbEntity
  8
USP-GEO
100
AcDbCircle
 10
23.1156251663894
 20
2.422348083383877
 30
0.0
 40
0.0859
100
AcDbArc
 50
266.8277876664634
 51
1.116409617501619
  0
ARC
  5
DD
100
AcDbEntity
  8
USP-GEO
100
AcDbCircle
 10
26.1156251663894
 20
2.422348083383877
 30
0.0
 40
0.0859
100
AcDbArc
 50
178.7406914026062
 51
260.0835386819998
  0
LWPOLYLINE
  5
DE
100
AcDbEntity
  8
USP-GEO
100
AcDbPolyline
 90
        2
 70
   128
 43
0.0
 10
24.5388343262401
 20
2.092330115990856
 10
24.5388343262401
 20
1.992774361066629
  0
LWPOLYLINE
  5
DF
100
AcDbEntity
  8
USP-GEO
100
AcDbPolyline
 90
        2
 70
   128
 43
0.0
 10
24.70476058444715
 20
2.092330115990856
 10
24.70476058444715
 20
1.992774361066629
  0
ARC
  5
E0
100
AcDbEntity
  8
USP-GEO
100
AcDbCircle
 10
24.6156251663894
 20
2.000548083383879
 30
0.0
 40
0.0859
100
AcDbArc
 50
185.7804977085381
 51
261.9999655110938
  0
ARC
  5
E1
100
AcDbEntity
  8
USP-GEO
100
AcDbCircle
 10
24.6156251663894
 20
2.000548083383879
 30
0.0
 40
0.0859
100
AcDbArc
 50
261.9999655110938
 51
355.0157033977191
  0
ARC
  5
E2
100
AcDbEntity
  8
USP-GEO
100
AcDbCircle
 10
24.6156251663894
 20
2.078748083383878
 30
0.0
 40
0.0859
100
AcDbArc
 50
97.42559129907899
 51
169.969801694777
  0
ARC
  5
E3
100
AcDbEntity
  8
USP-GEO
100
AcDbCircle
 10
24.6156251663894
 20
2.078748083383878
 30
0.0
 40
0.0859
100
AcDbArc
 50
8.663816750850232
 51
97.42559129907899
  0
ARC
  5
E4
100
AcDbEntity
  8
USP-GEO
100
AcDbCircle
 10
23.1156251663894
 20
2.500548083383879
 30
0.0
 40
0.0859
100
AcDbArc
 50
93.46057758807972
 51
187.9264328752497
  0
LWPOLYLINE
  5
E5
100
AcDbEntity
  8
USP-GEO
100
AcDbPolyline
 90
        2
 70
   128
 43
0.0
 10
23.04383873979461
 20
2.490553135687768
 10
23.04383873979461
 20
2.424182632404949
  0
ARC
  5
E6
100
AcDbEntity
  8
USP-GEO
100
AcDbCircle
 10
23.1156251663894
 20
2.500548083383879
 30
0.0
 40
0.0859
100
AcDbArc
 50
353.9395367990014
 51
93.46057758807972
  0
LWPOLYLINE
  5
E7
100
AcDbEntity
  8
USP-GEO
100
AcDbPolyline
 90
        2
 70
   128
 43
0.0
 10
23.20976499800166
 20
2.490553135687768
 10
23.20976499800166
 20
2.424182632404949
  0
ARC
  5
E8
100
AcDbEntity
  8
USP-GEO
100
AcDbCircle
 10
26.1156251663894
 20
2.500548083383879
 30
0.0
 40
0.0859
100
AcDbArc
 50
100.7996143884975
 51
186.8295115529356
  0
LWPOLYLINE
  5
E9
100
AcDbEntity
  8
USP-GEO
100
AcDbPolyline
 90
        2
 70
   128
 43
0.0
 10
26.03217065010352
 20
2.490553135687768
 10
26.03217065010352
 20
2.424182632404949
  0
LWPOLYLINE
  5
EA
100
AcDbEntity
  8
USP-GEO
100
AcDbPolyline
 90
        2
 70
   128
 43
0.0
 10
52.23192682099616
 20
2.756035148819043
 10
52.23192682099616
 20
0.2654820131312743
  0
LWPOLYLINE
  5
EB
100
AcDbEntity
  8
USP-GEO
100
AcDbPolyline
 90
        2
 70
   128
 43
0.0
 10
52.23192682099616
 20
0.2654820131312743
 10
51.9996300595063
 20
0.0
  0
LWPOLYLINE
  5
EC
100
AcDbEntity
  8
USP-GEO
100
AcDbPolyline
 90
        2
 70
   128
 43
0.0
 10
26.19975617089264
 20
0.9955575492422799
 10
26.19975617089264
 20
0.9291870459594608
  0
LWPOLYLINE
  5
ED
100
AcDbEntity
  8
USP-GEO
100
AcDbPolyline
 90
        2
 70
   128
 43
0.0
 10
29.18808808120155
 20
0.9955575492422799
 10
29.18808808120155
 20
0.9291870459594608
  0
LWPOLYLINE
  5
EE
100
AcDbEntity
  8
USP-GEO
100
AcDbPolyline
 90
        2
 70
   128
 43
0.0
 10
29.0221618229945
 20
0.9955575492422799
 10
29.0221618229945
 20
0.9291870459594608
  0
ARC
  5
EF
100
AcDbEntity
  8
USP-GEO
100
AcDbCircle
 10
27.61562516638939
 20
0.5787480833838785
 30
0.0
 40
0.0859
100
AcDbArc
 50
82.55832449898417
 51
189.3713284575725
  0
ARC
  5
F0
100
AcDbEntity
  8
USP-GEO
100
AcDbCircle
 10
27.6156251663894
 20
0.5787480833838785
 30
0.0
 40
0.0859
100
AcDbArc
 50
349.3277089340042
 51
82.55832449898887
  0
ARC
  5
F1
100
AcDbEntity
  8
USP-GEO
100
AcDbCircle
 10
27.61562516638939
 20
0.5005480833838796
 30
0.0
 40
0.0859
100
AcDbArc
 50
181.7931247748521
 51
279.1181148455673
  0
ARC
  5
F2
100
AcDbEntity
  8
USP-GEO
100
AcDbCircle
 10
27.61562516638939
 20
0.5005480833838761
 30
0.0
 40
0.0859
100
AcDbArc
 50
279.1181148455678
 51
357.9526573327036
  0
LWPOLYLINE
  5
F3
100
AcDbEntity
  8
USP-GEO
100
AcDbPolyline
 90
        2
 70
   128
 43
0.0
 10
27.52716623654901
 20
0.5641492779039581
 10
27.52716623654901
 20
0.4977787746211409
  0
LWPOLYLINE
  5
F4
100
AcDbEntity
  8
USP-GEO
100
AcDbPolyline
 90
        2
 70
   128
 43
0.0
 10
27.69309249475606
 20
0.5641492779039581
 10
27.69309249475606
 20
0.4977787746211409
  0
ARC
  5
F5
100
AcDbEntity
  8
USP-GEO
100
AcDbCircle
 10
29.11562516638939
 20
0.922348083383877
 30
0.0
 40
0.0859
100
AcDbArc
 50
273.7594954847025
 51
5.391536358519849
  0
ARC
  5
F6
100
AcDbEntity
  8
USP-GEO
100
AcDbCircle
 10
29.11562516638939
 20
0.922348083383877
 30
0.0
 40
0.0859
100
AcDbArc
 50
175.8149732931006
 51
273.7594954847025
  0
ARC
  5
F7
100
AcDbEntity
  8
USP-GEO
100
AcDbCircle
 10
29.11562516638939
 20
1.000548083383876
 30
0.0
 40
0.0859
100
AcDbArc
 50
356.0602502483637
 51
86.31378524237556
  0
ARC
  5
F8
100
AcDbEntity
  8
USP-GEO
100
AcDbCircle
 10
29.11562516638939
 20
1.000548083383876
 30
0.0
 40
0.0859
100
AcDbArc
 50
86.31378524237556
 51
183.0564417390057
  0
LWPOLYLINE
  5
F9
100
AcDbEntity
  8
USP-GEO
100
AcDbPolyline
 90
        2
 70
   128
 43
0.0
 10
32.20960524315187
 20
0.9955575492422799
 10
32.20960524315187
 20
0.9291870459594608
  0
LWPOLYLINE
  5
FA
100
AcDbEntity
  8
USP-GEO
100
AcDbPolyline
 90
        2
 70
   128
 43
0.0
 10
32.04367898494481
 20
0.9955575492422799
 10
32.04367898494481
 20
0.9291870459594608
  0
ARC
  5
FB
100
AcDbEntity
  8
USP-GEO
100
AcDbCircle
 10
30.61562516638939
 20
0.5787480833838785
 30
0.0
 40
0.0859
100
AcDbArc
 50
351.6101699794471
 51
90.38526051021174
  0
ARC
  5
FC
100
AcDbEntity
  8
USP-GEO
100
AcDbCircle
 10
30.61562516638939
 20
0.5787480833838785
 30
0.0
 40
0.0859
100
AcDbArc
 50
90.38526051020694
 51
188.2954351429235
  0
ARC
  5
FD
100
AcDbEntity
  8
USP-GEO
100
AcDbCircle
 10
30.61562516638939
 20
0.5005480833838761
 30
0.0
 40
0.0859
100
AcDbArc
 50
269.526606954623
 51
358.3974426193471
  0
ARC
  5
FE
100
AcDbEntity
  8
USP-GEO
100
AcDbCircle
 10
30.61562516638939
 20
0.5005480833838761
 30
0.0
 40
0.0859
100
AcDbArc
 50
181.5842802949745
 51
269.526606954623
  0
LWPOLYLINE
  5
FF
100
AcDbEntity
  8
USP-GEO
100
AcDbPolyline
 90
        2
 70
   128
 43
0.0
 10
30.51549814685792
 20
0.5641492779039581
 10
30.51549814685792
 20
0.4977787746211409
  0
LWPOLYLINE
  5
100
100
AcDbEntity
  8
USP-GEO
100
AcDbPolyline
 90
        2
 70
   128
 43
0.0
 10
30.71460965670637
 20
0.5641492779039581
 10
30.71460965670637
 20
0.4977787746211409
  0
ARC
  5
101
100
AcDbEntity
  8
USP-GEO
100
AcDbCircle
 10
32.11562516638939
 20
0.922348083383877
 30
0.0
 40
0.0859
100
AcDbArc
 50
266.5585677816284
 51
4.162097140695089
  0
ARC
  5
102
100
AcDbEntity
  8
USP-GEO
100
AcDbCircle
 10
32.11562516638939
 20
0.922348083383877
 30
0.0
 40
0.0859
100
AcDbArc
 50
174.5699710698891
 51
266.5585677816284
  0
ARC
  5
103
100
AcDbEntity
  8
USP-GEO
100
AcDbCircle
 10
33.61562516638939
 20
0.578748083383875
 30
0.0
 40
0.0859
100
AcDbArc
 50
350.5082655688651
 51
98.19793260055886
  0
ARC
  5
104
100
AcDbEntity
  8
USP-GEO
100
AcDbCircle
 10
33.61562516638938
 20
0.578748083383875
 30
0.0
 40
0.0859
100
AcDbArc
 50
98.1979326005495
 51
190.5206658974296
  0
ARC
  5
105
100
AcDbEntity
  8
USP-GEO
100
AcDbCircle
 10
33.61562516638938
 20
0.5005480833838725
 30
0.0
 40
0.0859
100
AcDbArc
 50
259.9613141975549
 51
358.1834279273631
  0
ARC
  5
106
100
AcDbEntity
  8
USP-GEO
100
AcDbCircle
 10
33.61562516638938
 20
0.5005480833838725
 30
0.0
 40
0.0859
100
AcDbArc
 50
182.0176110103231
 51
259.9613141975549
  0
LWPOLYLINE
  5
107
100
AcDbEntity
  8
USP-GEO
100
AcDbPolyline
 90
        2
 70
   128
 43
0.0
 10
33.53701530880823
 20
0.5641492779039581
 10
33.53701530880823
 20
0.4977787746211409
  0
LWPOLYLINE
  5
108
100
AcDbEntity
  8
USP-GEO
100
AcDbPolyline
 90
        2
 70
   128
 43
0.0
 10
33.70294156701528
 20
0.5641492779039581
 10
33.70294156701528
 20
0.4977787746211409
  0
ARC
  5
109
100
AcDbEntity
  8
USP-GEO
100
AcDbCircle
 10
32.11562516638939
 20
1.000548083383876
 30
0.0
 40
0.0859
100
AcDbArc
 50
356.9603319808754
 51
93.37432090071764
  0
ARC
  5
10A
100
AcDbEntity
  8
USP-GEO
100
AcDbCircle
 10
32.11562516638939
 20
1.000548083383876
 30
0.0
 40
0.0859
100
AcDbArc
 50
93.37432090071764
 51
183.9679558378509
  0
ARC
  5
10B
100
AcDbEntity
  8
USP-GEO
100
AcDbCircle
 10
29.11562516638939
 20
2.422348083383877
 30
0.0
 40
0.0859
100
AcDbArc
 50
273.5674780400919
 51
1.450251729617225
  0
ARC
  5
10C
100
AcDbEntity
  8
USP-GEO
100
AcDbCircle
 10
29.11562516638939
 20
2.422348083383877
 30
0.0
 40
0.0859
100
AcDbArc
 50
178.875511870639
 51
273.5674780400919
  0
LWPOLYLINE
  5
10D
100
AcDbEntity
  8
USP-GEO
100
AcDbPolyline
 90
        2
 70
   128
 43
0.0
 10
27.52716623654901
 20
2.092330115990856
 10
27.52716623654901
 20
1.992774361066629
  0
LWPOLYLINE
  5
10E
100
AcDbEntity
  8
USP-GEO
100
AcDbPolyline
 90
        2
 70
   128
 43
0.0
 10
27.69309249475606
 20
2.092330115990856
 10
27.69309249475606
 20
1.992774361066629
  0
ARC
  5
10F
100
AcDbEntity
  8
USP-GEO
100
AcDbCircle
 10
27.61562516638939
 20
2.000548083383879
 30
0.0
 40
0.0859
100
AcDbArc
 50
278.5120153075812
 51
354.2696434375586
  0
ARC
  5
110
100
AcDbEntity
  8
USP-GEO
100
AcDbCircle
 10
27.61562516638939
 20
2.000548083383879
 30
0.0
 40
0.0859
100
AcDbArc
 50
185.0222197186517
 51
278.5120153075812
  0
ARC
  5
111
100
AcDbEntity
  8
USP-GEO
100
AcDbCircle
 10
27.6156251663894
 20
2.078748083383878
 30
0.0
 40
0.0859
100
AcDbArc
 50
9.944364879826808
 51
82.09824656605809
  0
ARC
  5
112
100
AcDbEntity
  8
USP-GEO
100
AcDbCircle
 10
27.61562516638939
 20
2.078748083383878
 30
0.0
 40
0.0859
100
AcDbArc
 50
82.09824656605309
 51
171.2709435663013
  0
LWPOLYLINE
  5
113
100
AcDbEntity
  8
USP-GEO
100
AcDbPolyline
 90
        2
 70
   128
 43
0.0
 10
26.19975617089264
 20
2.490553135687768
 10
26.19975617089264
 20
2.424182632404949
  0
ARC
  5
114
100
AcDbEntity
  8
USP-GEO
100
AcDbCircle
 10
29.11562516638939
 20
2.500548083383879
 30
0.0
 40
0.0859
100
AcDbArc
 50
352.1466378964092
 51
86.10842584204632
  0
ARC
  5
115
100
AcDbEntity
  8
USP-GEO
100
AcDbCircle
 10
29.11562516638939
 20
2.500548083383879
 30
0.0
 40
0.0859
100
AcDbArc
 50
86.10842584204632
 51
186.1039988891821
  0
LWPOLYLINE
  5
116
100
AcDbEntity
  8
USP-GEO
100
AcDbPolyline
 90
        2
 70
   128
 43
0.0
 10
29.0221618229945
 20
2.490553135687768
 10
29.0221618229945
 20
2.424182632404949
  0
LWPOLYLINE
  5
117
100
AcDbEntity
  8
USP-GEO
100
AcDbPolyline
 90
        2
 70
   128
 43
0.0
 10
29.18808808120155
 20
2.490553135687768
 10
29.18808808120155
 20
2.424182632404949
  0
ARC
  5
118
100
AcDbEntity
  8
USP-GEO
100
AcDbCircle
 10
32.11562516638939
 20
2.422348083383877
 30
0.0
 40
0.0859
100
AcDbArc
 50
266.7344157415469
 51
1.118306898312708
  0
ARC
  5
119
100
AcDbEntity
  8
USP-GEO
100
AcDbCircle
 10
32.11562516638939
 20
2.422348083383877
 30
0.0
 40
0.0859
100
AcDbArc
 50
178.5393367384501
 51
266.7344157415469
  0
LWPOLYLINE
  5
11A
100
AcDbEntity
  8
USP-GEO
100
AcDbPolyline
 90
        2
 70
   128
 43
0.0
 10
30.51549814685792
 20
2.092330115990856
 10
30.51549814685792
 20
1.992774361066629
  0
LWPOLYLINE
  5
11B
100
AcDbEntity
  8
USP-GEO
100
AcDbPolyline
 90
        2
 70
   128
 43
0.0
 10
30.71460965670637
 20
2.092330115990856
 10
30.71460965670637
 20
1.992774361066629
  0
ARC
  5
11C
100
AcDbEntity
  8
USP-GEO
100
AcDbCircle
 10
30.61562516638939
 20
2.000548083383876
 30
0.0
 40
0.0859
100
AcDbArc
 50
269.5585576211627
 51
355.5095070923742
  0
ARC
  5
11D
100
AcDbEntity
  8
USP-GEO
100
AcDbCircle
 10
30.61562516638939
 20
2.000548083383876
 30
0.0
 40
0.0859
100
AcDbArc
 50
184.4394588125023
 51
269.5585576211627
  0
ARC
  5
11E
100
AcDbEntity
  8
USP-GEO
100
AcDbCircle
 10
30.61562516638939
 20
2.078748083383874
 30
0.0
 40
0.0859
100
AcDbArc
 50
7.812979013166108
 51
90.40937405726408
  0
ARC
  5
11F
100
AcDbEntity
  8
USP-GEO
100
AcDbCircle
 10
30.61562516638939
 20
2.078748083383874
 30
0.0
 40
0.0859
100
AcDbArc
 50
90.40937405725898
 51
172.275090747254
  0
LWPOLYLINE
  5
120
100
AcDbEntity
  8
USP-GEO
100
AcDbPolyline
 90
        2
 70
   128
 43
0.0
 10
33.70294156701528
 20
2.092330115990856
 10
33.70294156701528
 20
1.992774361066629
  0
LWPOLYLINE
  5
121
100
AcDbEntity
  8
USP-GEO
100
AcDbPolyline
 90
        2
 70
   128
 43
0.0
 10
33.53701530880823
 20
2.092330115990856
 10
33.53701530880823
 20
1.992774361066629
  0
ARC
  5
122
100
AcDbEntity
  8
USP-GEO
100
AcDbCircle
 10
33.61562516638938
 20
2.000548083383872
 30
0.0
 40
0.0859
100
AcDbArc
 50
185.6476129218427
 51
260.6264344760394
  0
ARC
  5
123
100
AcDbEntity
  8
USP-GEO
100
AcDbCircle
 10
33.61562516638938
 20
2.000548083383872
 30
0.0
 40
0.0859
100
AcDbArc
 50
260.6264344760394
 51
354.9124075481058
  0
ARC
  5
124
100
AcDbEntity
  8
USP-GEO
100
AcDbCircle
 10
33.61562516638939
 20
2.078748083383871
 30
0.0
 40
0.0859
100
AcDbArc
 50
8.841482300825061
 51
98.70342903889991
  0
ARC
  5
125
100
AcDbEntity
  8
USP-GEO
100
AcDbCircle
 10
33.61562516638938
 20
2.078748083383871
 30
0.0
 40
0.0859
100
AcDbArc
 50
98.70342903888998
 51
170.1973442193341
  0
ARC
  5
126
100
AcDbEntity
  8
USP-GEO
100
AcDbCircle
 10
32.11562516638939
 20
2.500548083383876
 30
0.0
 40
0.0859
100
AcDbArc
 50
353.9293116032026
 51
93.56239599420757
  0
ARC
  5
127
100
AcDbEntity
  8
USP-GEO
100
AcDbCircle
 10
32.11562516638939
 20
2.500548083383876
 30
0.0
 40
0.0859
100
AcDbArc
 50
93.56239599420757
 51
187.9090553866889
  0
LWPOLYLINE
  5
128
100
AcDbEntity
  8
USP-GEO
100
AcDbPolyline
 90
        2
 70
   128
 43
0.0
 10
32.20960524315187
 20
2.490553135687768
 10
32.20960524315187
 20
2.424182632404949
  0
LWPOLYLINE
  5
129
100
AcDbEntity
  8
USP-GEO
100
AcDbPolyline
 90
        2
 70
   128
 43
0.0
 10
32.04367898494481
 20
2.490553135687768
 10
32.04367898494481
 20
2.424182632404949
  0
LWPOLYLINE
  5
12A
100
AcDbEntity
  8
USP-GEO
100
AcDbPolyline
 90
        2
 70
   128
 43
0.0
 10
35.03201089525372
 20
0.9955575492422799
 10
35.03201089525372
 20
0.9291870459594608
  0
LWPOLYLINE
  5
12B
100
AcDbEntity
  8
USP-GEO
100
AcDbPolyline
 90
        2
 70
   128
 43
0.0
 10
35.19793715346077
 20
0.9955575492422799
 10
35.19793715346077
 20
0.9291870459594608
  0
LWPOLYLINE
  5
12C
100
AcDbEntity
  8
USP-GEO
100
AcDbPolyline
 90
        2
 70
   128
 43
0.0
 10
38.02034280556263
 20
0.9955575492422799
 10
38.02034280556263
 20
0.9291870459594608
  0
LWPOLYLINE
  5
12D
100
AcDbEntity
  8
USP-GEO
100
AcDbPolyline
 90
        2
 70
   128
 43
0.0
 10
38.21945431541108
 20
0.9955575492422799
 10
38.21945431541108
 20
0.9291870459594608
  0
ARC
  5
12E
100
AcDbEntity
  8
USP-GEO
100
AcDbCircle
 10
35.11562516638937
 20
0.9223480833838735
 30
0.0
 40
0.0859
100
AcDbArc
 50
279.7558973212995
 51
4.74956024854698
  0
ARC
  5
12F
100
AcDbEntity
  8
USP-GEO
100
AcDbCircle
 10
35.11562516638937
 20
0.9223480833838735
 30
0.0
 40
0.0859
100
AcDbArc
 50
175.3240830922116
 51
279.7558973212995
  0
ARC
  5
130
100
AcDbEntity
  8
USP-GEO
100
AcDbCircle
 10
36.61562516638937
 20
0.578748083383875
 30
0.0
 40
0.0859
100
AcDbArc
 50
83.76765499267387
 51
189.185755975183
  0
ARC
  5
131
100
AcDbEntity
  8
USP-GEO
100
AcDbCircle
 10
36.61562516638938
 20
0.578748083383875
 30
0.0
 40
0.0859
100
AcDbArc
 50
349.0771889764039
 51
83.76765499267859
  0
ARC
  5
132
100
AcDbEntity
  8
USP-GEO
100
AcDbCircle
 10
36.61562516638937
 20
0.5005480833838725
 30
0.0
 40
0.0859
100
AcDbArc
 50
181.7570178423282
 51
277.642812102708
  0
ARC
  5
133
100
AcDbEntity
  8
USP-GEO
100
AcDbCircle
 10
36.61562516638937
 20
0.5005480833838725
 30
0.0
 40
0.0859
100
AcDbArc
 50
277.642812102708
 51
357.9034709389015
  0
LWPOLYLINE
  5
134
100
AcDbEntity
  8
USP-GEO
100
AcDbPolyline
 90
        2
 70
   128
 43
0.0
 10
36.52534721911715
 20
0.5641492779039581
 10
36.52534721911715
 20
0.4977787746211409
  0
LWPOLYLINE
  5
135
100
AcDbEntity
  8
USP-GEO
100
AcDbPolyline
 90
        2
 70
   128
 43
0.0
 10
36.69127347732418
 20
0.5641492779039581
 10
36.69127347732418
 20
0.4977787746211409
  0
ARC
  5
136
100
AcDbEntity
  8
USP-GEO
100
AcDbCircle
 10
38.11562516638938
 20
0.9223480833838699
 30
0.0
 40
0.0859
100
AcDbArc
 50
272.6389425117089
 51
3.768484012807761
  0
ARC
  5
137
100
AcDbEntity
  8
USP-GEO
100
AcDbCircle
 10
38.11562516638938
 20
0.9223480833838699
 30
0.0
 40
0.0859
100
AcDbArc
 50
175.8945930162802
 51
272.6389425117089
  0
ARC
  5
138
100
AcDbEntity
  8
USP-GEO
100
AcDbCircle
 10
35.11562516638937
 20
1.000548083383872
 30
0.0
 40
0.0859
100
AcDbArc
 50
356.5304330113547
 51
80.43123712950572
  0
ARC
  5
139
100
AcDbEntity
  8
USP-GEO
100
AcDbCircle
 10
35.11562516638937
 20
1.000548083383872
 30
0.0
 40
0.0859
100
AcDbArc
 50
80.43123712950572
 51
183.4156577709397
  0
ARC
  5
13A
100
AcDbEntity
  8
USP-GEO
100
AcDbCircle
 10
38.11562516638938
 20
1.000548083383872
 30
0.0
 40
0.0859
100
AcDbArc
 50
357.2482038228416
 51
87.41256904054825
  0
ARC
  5
13B
100
AcDbEntity
  8
USP-GEO
100
AcDbCircle
 10
38.11562516638938
 20
1.000548083383872
 30
0.0
 40
0.0859
100
AcDbArc
 50
87.41256904054825
 51
182.9981992840276
  0
LWPOLYLINE
  5
13C
100
AcDbEntity
  8
USP-GEO
100
AcDbPolyline
 90
        2
 70
   128
 43
0.0
 10
41.20778622571999
 20
0.9955575492422799
 10
41.20778622571999
 20
0.9291870459594608
  0
LWPOLYLINE
  5
13D
100
AcDbEntity
  8
USP-GEO
100
AcDbPolyline
 90
        2
 70
   128
 43
0.0
 10
41.04185996751295
 20
0.9955575492422799
 10
41.04185996751295
 20
0.9291870459594608
  0
ARC
  5
13E
100
AcDbEntity
  8
USP-GEO
100
AcDbCircle
 10
39.61562516638938
 20
0.578748083383875
 30
0.0
 40
0.0859
100
AcDbArc
 50
351.4554030857784
 51
91.61160392206438
  0
ARC
  5
13F
100
AcDbEntity
  8
USP-GEO
100
AcDbCircle
 10
39.61562516638936
 20
0.578748083383875
 30
0.0
 40
0.0859
100
AcDbArc
 50
91.61160392205479
 51
191.9866450231813
  0
ARC
  5
140
100
AcDbEntity
  8
USP-GEO
100
AcDbCircle
 10
39.61562516638936
 20
0.5005480833838725
 30
0.0
 40
0.0859
100
AcDbArc
 50
268.0199750988685
 51
358.3674575156294
  0
ARC
  5
141
100
AcDbEntity
  8
USP-GEO
100
AcDbCircle
 10
39.61562516638936
 20
0.5005480833838725
 30
0.0
 40
0.0859
100
AcDbArc
 50
182.3063145291433
 51
268.0199750988685
  0
LWPOLYLINE
  5
142
100
AcDbEntity
  8
USP-GEO
100
AcDbPolyline
 90
        2
 70
   128
 43
0.0
 10
39.54686438106746
 20
0.5641492779039581
 10
39.54686438106746
 20
0.4977787746211409
  0
LWPOLYLINE
  5
143
100
AcDbEntity
  8
USP-GEO
100
AcDbPolyline
 90
        2
 70
   128
 43
0.0
 10
39.7127906392745
 20
0.5641492779039581
 10
39.7127906392745
 20
0.4977787746211409
  0
ARC
  5
144
100
AcDbEntity
  8
USP-GEO
100
AcDbCircle
 10
41.11562516638936
 20
0.9223480833838699
 30
0.0
 40
0.0859
100
AcDbArc
 50
174.7031020180694
 51
265.4399855635828
  0
ARC
  5
145
100
AcDbEntity
  8
USP-GEO
100
AcDbCircle
 10
41.11562516638936
 20
0.9223480833838699
 30
0.0
 40
0.0859
100
AcDbArc
 50
265.4399855635828
 51
4.243948759369045
  0
ARC
  5
146
100
AcDbEntity
  8
USP-GEO
100
AcDbCircle
 10
41.11562516638936
 20
1.000548083383872
 30
0.0
 40
0.0859
100
AcDbArc
 50
356.9004527658412
 51
94.47124667671863
  0
ARC
  5
147
100
AcDbEntity
  8
USP-GEO
100
AcDbCircle
 10
41.11562516638936
 20
1.000548083383872
 30
0.0
 40
0.0859
100
AcDbArc
 50
94.47124667671863
 51
183.8704089235838
  0
ARC
  5
148
100
AcDbEntity
  8
USP-GEO
100
AcDbCircle
 10
35.11562516638937
 20
2.422348083383873
 30
0.0
 40
0.0859
100
AcDbArc
 50
279.2651780541815
 51
1.276782648280346
  0
ARC
  5
149
100
AcDbEntity
  8
USP-GEO
100
AcDbCircle
 10
35.11562516638937
 20
2.422348083383873
 30
0.0
 40
0.0859
100
AcDbArc
 50
178.7430966864614
 51
279.2651780541815
  0
ARC
  5
14A
100
AcDbEntity
  8
USP-GEO
100
AcDbCircle
 10
38.11562516638938
 20
2.422348083383873
 30
0.0
 40
0.0859
100
AcDbArc
 50
272.5039759205068
 51
1.012249266540742
  0
ARC
  5
14B
100
AcDbEntity
  8
USP-GEO
100
AcDbCircle
 10
38.11562516638938
 20
2.422348083383873
 30
0.0
 40
0.0859
100
AcDbArc
 50
178.8969739043551
 51
272.5039759205068
  0
LWPOLYLINE
  5
14C
100
AcDbEntity
  8
USP-GEO
100
AcDbPolyline
 90
        2
 70
   128
 43
0.0
 10
36.52534721911715
 20
2.092330115990856
 10
36.52534721911715
 20
1.992774361066629
  0
LWPOLYLINE
  5
14D
100
AcDbEntity
  8
USP-GEO
100
AcDbPolyline
 90
        2
 70
   128
 43
0.0
 10
36.69127347732418
 20
2.092330115990856
 10
36.69127347732418
 20
1.992774361066629
  0
ARC
  5
14E
100
AcDbEntity
  8
USP-GEO
100
AcDbCircle
 10
36.61562516638937
 20
2.000548083383872
 30
0.0
 40
0.0859
100
AcDbArc
 50
184.9215287089917
 51
277.1324571446402
  0
ARC
  5
14F
100
AcDbEntity
  8
USP-GEO
100
AcDbCircle
 10
36.61562516638937
 20
2.000548083383872
 30
0.0
 40
0.0859
100
AcDbArc
 50
277.1324571446402
 51
354.1328030194136
  0
ARC
  5
150
100
AcDbEntity
  8
USP-GEO
100
AcDbCircle
 10
36.61562516638937
 20
2.078748083383871
 30
0.0
 40
0.0859
100
AcDbArc
 50
83.38091912018027
 51
171.444196911222
  0
ARC
  5
151
100
AcDbEntity
  8
USP-GEO
100
AcDbCircle
 10
36.61562516638938
 20
2.078748083383871
 30
0.0
 40
0.0859
100
AcDbArc
 50
10.17854170834598
 51
83.3809191201853
  0
ARC
  5
152
100
AcDbEntity
  8
USP-GEO
100
AcDbCircle
 10
35.11562516638937
 20
2.500548083383872
 30
0.0
 40
0.0859
100
AcDbArc
 50
353.0766054860292
 51
79.90727093708047
  0
ARC
  5
153
100
AcDbEntity
  8
USP-GEO
100
AcDbCircle
 10
35.11562516638937
 20
2.500548083383872
 30
0.0
 40
0.0859
100
AcDbArc
 50
79.90727093708047
 51
186.816585868624
  0
LWPOLYLINE
  5
154
100
AcDbEntity
  8
USP-GEO
100
AcDbPolyline
 90
        2
 70
   128
 43
0.0
 10
35.03201089525372
 20
2.490553135687768
 10
35.03201089525372
 20
2.424182632404949
  0
LWPOLYLINE
  5
155
100
AcDbEntity
  8
USP-GEO
100
AcDbPolyline
 90
        2
 70
   128
 43
0.0
 10
35.19793715346077
 20
2.490553135687768
 10
35.19793715346077
 20
2.424182632404949
  0
ARC
  5
156
100
AcDbEntity
  8
USP-GEO
100
AcDbCircle
 10
38.11562516638938
 20
2.500548083383872
 30
0.0
 40
0.0859
100
AcDbArc
 50
354.5014556041729
 51
87.26820368754379
  0
ARC
  5
157
100
AcDbEntity
  8
USP-GEO
100
AcDbCircle
 10
38.11562516638938
 20
2.500548083383872
 30
0.0
 40
0.0859
100
AcDbArc
 50
87.26820368754379
 51
185.9883235166786
  0
LWPOLYLINE
  5
158
100
AcDbEntity
  8
USP-GEO
100
AcDbPolyline
 90
        2
 70
   128
 43
0.0
 10
38.02034280556263
 20
2.490553135687768
 10
38.02034280556263
 20
2.424182632404949
  0
LWPOLYLINE
  5
159
100
AcDbEntity
  8
USP-GEO
100
AcDbPolyline
 90
        2
 70
   128
 43
0.0
 10
38.21945431541108
 20
2.490553135687768
 10
38.21945431541108
 20
2.424182632404949
  0
ARC
  5
15A
100
AcDbEntity
  8
USP-GEO
100
AcDbCircle
 10
41.11562516638936
 20
2.422348083383869
 30
0.0
 40
0.0859
100
AcDbArc
 50
265.6725982174306
 51
1.140373569118871
  0
ARC
  5
15B
100
AcDbEntity
  8
USP-GEO
100
AcDbCircle
 10
41.11562516638936
 20
2.422348083383869
 30
0.0
 40
0.0859
100
AcDbArc
 50
178.575341021369
 51
265.6725982174306
  0
LWPOLYLINE
  5
15C
100
AcDbEntity
  8
USP-GEO
100
AcDbPolyline
 90
        2
 70
   128
 43
0.0
 10
39.54686438106746
 20
2.092330115990856
 10
39.54686438106746
 20
1.992774361066629
  0
LWPOLYLINE
  5
15D
100
AcDbEntity
  8
USP-GEO
100
AcDbPolyline
 90
        2
 70
   128
 43
0.0
 10
39.7127906392745
 20
2.092330115990856
 10
39.7127906392745
 20
1.992774361066629
  0
ARC
  5
15E
100
AcDbEntity
  8
USP-GEO
100
AcDbCircle
 10
39.61562516638936
 20
2.000548083383872
 30
0.0
 40
0.0859
100
AcDbArc
 50
186.4501632637193
 51
268.1535223311429
  0
ARC
  5
15F
100
AcDbEntity
  8
USP-GEO
100
AcDbCircle
 10
39.61562516638936
 20
2.000548083383872
 30
0.0
 40
0.0859
100
AcDbArc
 50
268.1535223311429
 51
355.4257948688018
  0
ARC
  5
160
100
AcDbEntity
  8
USP-GEO
100
AcDbCircle
 10
39.61562516638938
 20
2.078748083383871
 30
0.0
 40
0.0859
100
AcDbArc
 50
7.957387692393853
 51
91.7124196344602
  0
ARC
  5
161
100
AcDbEntity
  8
USP-GEO
100
AcDbCircle
 10
39.61562516638936
 20
2.078748083383871
 30
0.0
 40
0.0859
100
AcDbArc
 50
91.71241963445002
 51
168.8264382302989
  0
ARC
  5
162
100
AcDbEntity
  8
USP-GEO
100
AcDbCircle
 10
41.11562516638936
 20
2.500548083383872
 30
0.0
 40
0.0859
100
AcDbArc
 50
94.71998859869042
 51
187.7164004525178
  0
ARC
  5
163
100
AcDbEntity
  8
USP-GEO
100
AcDbCircle
 10
41.11562516638936
 20
2.500548083383872
 30
0.0
 40
0.0859
100
AcDbArc
 50
353.8104132931661
 51
94.71998859869042
  0
LWPOLYLINE
  5
164
100
AcDbEntity
  8
USP-GEO
100
AcDbPolyline
 90
        2
 70
   128
 43
0.0
 10
41.20778622571999
 20
2.490553135687768
 10
41.20778622571999
 20
2.424182632404949
  0
LWPOLYLINE
  5
165
100
AcDbEntity
  8
USP-GEO
100
AcDbPolyline
 90
        2
 70
   128
 43
0.0
 10
41.04185996751295
 20
2.490553135687768
 10
41.04185996751295
 20
2.424182632404949
  0
LWPOLYLINE
  5
166
100
AcDbEntity
  8
USP-GEO
100
AcDbPolyline
 90
        2
 70
   128
 43
0.0
 10
44.1961181360289
 20
0.9955575492422799
 10
44.1961181360289
 20
0.9291870459594608
  0
LWPOLYLINE
  5
167
100
AcDbEntity
  8
USP-GEO
100
AcDbPolyline
 90
        2
 70
   128
 43
0.0
 10
44.03019187782186
 20
0.9955575492422799
 10
44.03019187782186
 20
0.9291870459594608
  0
ARC
  5
168
100
AcDbEntity
  8
USP-GEO
100
AcDbCircle
 10
42.61562516638936
 20
0.5787480833838714
 30
0.0
 40
0.0859
100
AcDbArc
 50
350.4911849989182
 51
99.39595637833775
  0
ARC
  5
169
100
AcDbEntity
  8
USP-GEO
100
AcDbCircle
 10
42.61562516638936
 20
0.5787480833838714
 30
0.0
 40
0.0859
100
AcDbArc
 50
99.39595637833775
 51
190.2878636697645
  0
ARC
  5
16A
100
AcDbEntity
  8
USP-GEO
100
AcDbCircle
 10
42.61562516638936
 20
0.500548083383869
 30
0.0
 40
0.0859
100
AcDbArc
 50
258.5065906140461
 51
358.1801004562312
  0
ARC
  5
16B
100
AcDbEntity
  8
USP-GEO
100
AcDbCircle
 10
42.61562516638936
 20
0.5005480833838725
 30
0.0
 40
0.0859
100
AcDbArc
 50
181.9720162112071
 51
258.5065906140466
  0
LWPOLYLINE
  5
16C
100
AcDbEntity
  8
USP-GEO
100
AcDbPolyline
 90
        2
 70
   128
 43
0.0
 10
42.70278181216548
 20
0.5641492779039581
 10
42.70278181216548
 20
0.4977787746211409
  0
LWPOLYLINE
  5
16D
100
AcDbEntity
  8
USP-GEO
100
AcDbPolyline
 90
        2
 70
   128
 43
0.0
 10
42.53519629137636
 20
0.5641492779039581
 10
42.53519629137636
 20
0.4977787746211409
  0
ARC
  5
16E
100
AcDbEntity
  8
USP-GEO
100
AcDbCircle
 10
44.11562516638936
 20
0.9223480833838699
 30
0.0
 40
0.0859
100
AcDbArc
 50
175.4232136379848
 51
278.6606284523005
  0
ARC
  5
16F
100
AcDbEntity
  8
USP-GEO
100
AcDbCircle
 10
44.11562516638936
 20
0.9223480833838699
 30
0.0
 40
0.0859
100
AcDbArc
 50
278.6606284523005
 51
4.856385310237422
  0
ARC
  5
170
100
AcDbEntity
  8
USP-GEO
100
AcDbCircle
 10
45.61562516638936
 20
0.5787480833838714
 30
0.0
 40
0.0859
100
AcDbArc
 50
349.0546309852364
 51
83.87414691902355
  0
ARC
  5
171
100
AcDbEntity
  8
USP-GEO
100
AcDbCircle
 10
45.61562516638935
 20
0.5787480833838714
 30
0.0
 40
0.0859
100
AcDbArc
 50
83.87414691901406
 51
189.1698055776701
  0
ARC
  5
172
100
AcDbEntity
  8
USP-GEO
100
AcDbCircle
 10
45.61562516638935
 20
0.500548083383869
 30
0.0
 40
0.0859
100
AcDbArc
 50
277.5127264508525
 51
357.8990380702781
  0
ARC
  5
173
100
AcDbEntity
  8
USP-GEO
100
AcDbCircle
 10
45.61562516638935
 20
0.5005480833838725
 30
0.0
 40
0.0859
100
AcDbArc
 50
181.7539160756918
 51
277.5127264508522
  0
LWPOLYLINE
  5
174
100
AcDbEntity
  8
USP-GEO
100
AcDbPolyline
 90
        2
 70
   128
 43
0.0
 10
45.6911137224744
 20
0.5641492779039581
 10
45.6911137224744
 20
0.4977787746211409
  0
LWPOLYLINE
  5
175
100
AcDbEntity
  8
USP-GEO
100
AcDbPolyline
 90
        2
 70
   128
 43
0.0
 10
45.52518746426734
 20
0.5641492779039581
 10
45.52518746426734
 20
0.4977787746211409
  0
ARC
  5
176
100
AcDbEntity
  8
USP-GEO
100
AcDbCircle
 10
44.11562516638936
 20
1.000548083383872
 30
0.0
 40
0.0859
100
AcDbArc
 50
356.4522241859137
 51
81.50616399576616
  0
ARC
  5
177
100
AcDbEntity
  8
USP-GEO
100
AcDbCircle
 10
44.11562516638936
 20
1.000548083383872
 30
0.0
 40
0.0859
100
AcDbArc
 50
81.50616399576616
 51
183.3430994479244
  0
LWPOLYLINE
  5
178
100
AcDbEntity
  8
USP-GEO
100
AcDbPolyline
 90
        2
 70
   128
 43
0.0
 10
47.21763529797921
 20
0.9955575492422799
 10
47.21763529797921
 20
0.9291870459594608
  0
LWPOLYLINE
  5
179
100
AcDbEntity
  8
USP-GEO
100
AcDbPolyline
 90
        2
 70
   128
 43
0.0
 10
47.01852378813076
 20
0.9955575492422799
 10
47.01852378813076
 20
0.9291870459594608
  0
LWPOLYLINE
  5
17A
100
AcDbEntity
  8
USP-GEO
100
AcDbPolyline
 90
        2
 70
   128
 43
0.0
 10
50.20596720828812
 20
0.9955575492422799
 10
50.20596720828812
 20
0.9291870459594608
  0
LWPOLYLINE
  5
17B
100
AcDbEntity
  8
USP-GEO
100
AcDbPolyline
 90
        2
 70
   128
 43
0.0
 10
50.04004095008108
 20
0.9955575492422799
 10
50.04004095008108
 20
0.9291870459594608
  0
ARC
  5
17C
100
AcDbEntity
  8
USP-GEO
100
AcDbCircle
 10
48.61562516638935
 20
0.5005480833838725
 30
0.0
 40
0.0859
100
AcDbArc
 50
182.3009743439271
 51
267.8877559648645
  0
ARC
  5
17D
100
AcDbEntity
  8
USP-GEO
100
AcDbCircle
 10
48.61562516638935
 20
0.5787480833838714
 30
0.0
 40
0.0859
100
AcDbArc
 50
91.71925308506143
 51
191.9596614354773
  0
LWPOLYLINE
  5
17E
100
AcDbEntity
  8
USP-GEO
100
AcDbPolyline
 90
        2
 70
   128
 43
0.0
 10
48.54670462621766
 20
0.5641492779039581
 10
48.54670462621766
 20
0.4977787746211409
  0
ARC
  5
17F
100
AcDbEntity
  8
USP-GEO
100
AcDbCircle
 10
47.11562516638934
 20
0.9223480833838699
 30
0.0
 40
0.0859
100
AcDbArc
 50
175.9712446863984
 51
271.5163659847691
  0
ARC
  5
180
100
AcDbEntity
  8
USP-GEO
100
AcDbCircle
 10
47.11562516638934
 20
0.9223480833838699
 30
0.0
 40
0.0859
100
AcDbArc
 50
271.5163659847691
 51
3.835483788276083
  0
ARC
  5
181
100
AcDbEntity
  8
USP-GEO
100
AcDbCircle
 10
48.61562516638935
 20
0.5787480833838714
 30
0.0
 40
0.0859
100
AcDbArc
 50
351.4415395467168
 51
91.71925308506143
  0
ARC
  5
182
100
AcDbEntity
  8
USP-GEO
100
AcDbCircle
 10
48.61562516638935
 20
0.500548083383869
 30
0.0
 40
0.0859
100
AcDbArc
 50
267.8877559648644
 51
358.3647704050246
  0
LWPOLYLINE
  5
183
100
AcDbEntity
  8
USP-GEO
100
AcDbPolyline
 90
        2
 70
   128
 43
0.0
 10
48.71263088442471
 20
0.5641492779039581
 10
48.71263088442471
 20
0.4977787746211409
  0
ARC
  5
184
100
AcDbEntity
  8
USP-GEO
100
AcDbCircle
 10
50.11562516638935
 20
0.9223480833838699
 30
0.0
 40
0.0859
100
AcDbArc
 50
174.8298784086998
 51
264.3248755069106
  0
ARC
  5
185
100
AcDbEntity
  8
USP-GEO
100
AcDbCircle
 10
50.11562516638935
 20
0.9223480833838699
 30
0.0
 40
0.0859
100
AcDbArc
 50
264.3248755069106
 51
4.329078089935557
  0
ARC
  5
186
100
AcDbEntity
  8
USP-GEO
100
AcDbCircle
 10
47.11562516638934
 20
1.000548083383872
 30
0.0
 40
0.0859
100
AcDbArc
 50
88.51326037729252
 51
182.9421331019471
  0
ARC
  5
187
100
AcDbEntity
  8
USP-GEO
100
AcDbCircle
 10
47.11562516638934
 20
1.000548083383872
 30
0.0
 40
0.0859
100
AcDbArc
 50
357.1992119769017
 51
88.51326037729252
  0
ARC
  5
188
100
AcDbEntity
  8
USP-GEO
100
AcDbCircle
 10
50.11562516638935
 20
1.000548083383872
 30
0.0
 40
0.0859
100
AcDbArc
 50
95.56489829527258
 51
183.7775362690928
  0
ARC
  5
189
100
AcDbEntity
  8
USP-GEO
100
AcDbCircle
 10
50.11562516638935
 20
1.000548083383872
 30
0.0
 40
0.0859
100
AcDbArc
 50
356.838169434016
 51
95.56489829527258
  0
ARC
  5
18A
100
AcDbEntity
  8
USP-GEO
100
AcDbCircle
 10
44.11562516638936
 20
2.422348083383869
 30
0.0
 40
0.0859
100
AcDbArc
 50
278.2233335451821
 51
1.305626097193947
  0
ARC
  5
18B
100
AcDbEntity
  8
USP-GEO
100
AcDbCircle
 10
44.11562516638936
 20
2.422348083383869
 30
0.0
 40
0.0859
100
AcDbArc
 50
178.7698499448888
 51
278.2233335451821
  0
LWPOLYLINE
  5
18C
100
AcDbEntity
  8
USP-GEO
100
AcDbPolyline
 90
        2
 70
   128
 43
0.0
 10
42.70278181216548
 20
2.092330115990856
 10
42.70278181216548
 20
1.992774361066629
  0
LWPOLYLINE
  5
18D
100
AcDbEntity
  8
USP-GEO
100
AcDbPolyline
 90
        2
 70
   128
 43
0.0
 10
42.53519629137636
 20
2.092330115990856
 10
42.53519629137636
 20
1.992774361066629
  0
ARC
  5
18E
100
AcDbEntity
  8
USP-GEO
100
AcDbCircle
 10
42.61562516638936
 20
2.000548083383872
 30
0.0
 40
0.0859
100
AcDbArc
 50
259.2636869442423
 51
354.9031312570857
  0
ARC
  5
18F
100
AcDbEntity
  8
USP-GEO
100
AcDbCircle
 10
42.61562516638936
 20
2.000548083383872
 30
0.0
 40
0.0859
100
AcDbArc
 50
185.5206819781493
 51
259.2636869442423
  0
ARC
  5
190
100
AcDbEntity
  8
USP-GEO
100
AcDbCircle
 10
42.61562516638936
 20
2.078748083383871
 30
0.0
 40
0.0859
100
AcDbArc
 50
8.857431664533923
 51
99.97260197713899
  0
ARC
  5
191
100
AcDbEntity
  8
USP-GEO
100
AcDbCircle
 10
42.61562516638936
 20
2.078748083383871
 30
0.0
 40
0.0859
100
AcDbArc
 50
99.97260197713899
 51
170.4148862120826
  0
LWPOLYLINE
  5
192
100
AcDbEntity
  8
USP-GEO
100
AcDbPolyline
 90
        2
 70
   128
 43
0.0
 10
45.6911137224744
 20
2.092330115990856
 10
45.6911137224744
 20
1.992774361066629
  0
LWPOLYLINE
  5
193
100
AcDbEntity
  8
USP-GEO
100
AcDbPolyline
 90
        2
 70
   128
 43
0.0
 10
45.52518746426734
 20
2.092330115990856
 10
45.52518746426734
 20
1.992774361066629
  0
ARC
  5
194
100
AcDbEntity
  8
USP-GEO
100
AcDbCircle
 10
45.61562516638935
 20
2.000548083383872
 30
0.0
 40
0.0859
100
AcDbArc
 50
277.0108759208117
 51
354.1204732860886
  0
ARC
  5
195
100
AcDbEntity
  8
USP-GEO
100
AcDbCircle
 10
45.61562516638935
 20
2.000548083383872
 30
0.0
 40
0.0859
100
AcDbArc
 50
184.9128775984076
 51
277.0108759208117
  0
ARC
  5
196
100
AcDbEntity
  8
USP-GEO
100
AcDbCircle
 10
45.61562516638936
 20
2.078748083383871
 30
0.0
 40
0.0859
100
AcDbArc
 50
10.19963059687595
 51
83.49390761665148
  0
ARC
  5
197
100
AcDbEntity
  8
USP-GEO
100
AcDbCircle
 10
45.61562516638935
 20
2.078748083383871
 30
0.0
 40
0.0859
100
AcDbArc
 50
83.49390761664142
 51
171.459087329327
  0
ARC
  5
198
100
AcDbEntity
  8
USP-GEO
100
AcDbCircle
 10
44.11562516638936
 20
2.500548083383872
 30
0.0
 40
0.0859
100
AcDbArc
 50
81.03905450519508
 51
186.6727721990947
  0
ARC
  5
199
100
AcDbEntity
  8
USP-GEO
100
AcDbCircle
 10
44.11562516638936
 20
2.500548083383872
 30
0.0
 40
0.0859
100
AcDbArc
 50
352.9217172031756
 51
81.03905450519508
  0
LWPOLYLINE
  5
19A
100
AcDbEntity
  8
USP-GEO
100
AcDbPolyline
 90
        2
 70
   128
 43
0.0
 10
44.1961181360289
 20
2.490553135687768
 10
44.1961181360289
 20
2.424182632404949
  0
LWPOLYLINE
  5
19B
100
AcDbEntity
  8
USP-GEO
100
AcDbPolyline
 90
        2
 70
   128
 43
0.0
 10
44.03019187782186
 20
2.490553135687768
 10
44.03019187782186
 20
2.424182632404949
  0
ARC
  5
19C
100
AcDbEntity
  8
USP-GEO
100
AcDbCircle
 10
47.11562516638934
 20
2.422348083383869
 30
0.0
 40
0.0859
100
AcDbArc
 50
271.4387446862978
 51
1.030295568473535
  0
ARC
  5
19D
100
AcDbEntity
  8
USP-GEO
100
AcDbCircle
 10
47.11562516638934
 20
2.422348083383869
 30
0.0
 40
0.0859
100
AcDbArc
 50
178.9176321263321
 51
271.4387446862978
  0
ARC
  5
19E
100
AcDbEntity
  8
USP-GEO
100
AcDbCircle
 10
50.11562516638935
 20
2.422348083383869
 30
0.0
 40
0.0859
100
AcDbArc
 50
264.613750121405
 51
1.163328496041028
  0
ARC
  5
19F
100
AcDbEntity
  8
USP-GEO
100
AcDbCircle
 10
50.11562516638935
 20
2.422348083383869
 30
0.0
 40
0.0859
100
AcDbArc
 50
178.6096133847043
 51
264.613750121405
  0
ARC
  5
1A0
100
AcDbEntity
  8
USP-GEO
100
AcDbCircle
 10
48.61562516638935
 20
2.078748083383871
 30
0.0
 40
0.0859
100
AcDbArc
 50
91.82679433006171
 51
168.8516885742807
  0
ARC
  5
1A1
100
AcDbEntity
  8
USP-GEO
100
AcDbCircle
 10
48.61562516638935
 20
2.000548083383872
 30
0.0
 40
0.0859
100
AcDbArc
 50
186.4353376319283
 51
268.0302069032868
  0
LWPOLYLINE
  5
1A2
100
AcDbEntity
  8
USP-GEO
100
AcDbPolyline
 90
        2
 70
   128
 43
0.0
 10
48.54670462621766
 20
2.092330115990856
 10
48.54670462621766
 20
1.992774361066629
  0
LWPOLYLINE
  5
1A3
100
AcDbEntity
  8
USP-GEO
100
AcDbPolyline
 90
        2
 70
   128
 43
0.0
 10
48.71263088442471
 20
2.092330115990856
 10
48.71263088442471
 20
1.992774361066629
  0
ARC
  5
1A4
100
AcDbEntity
  8
USP-GEO
100
AcDbCircle
 10
48.61562516638935
 20
2.000548083383872
 30
0.0
 40
0.0859
100
AcDbArc
 50
268.0302069032868
 51
355.4182938391916
  0
ARC
  5
1A5
100
AcDbEntity
  8
USP-GEO
100
AcDbCircle
 10
48.61562516638935
 20
2.078748083383871
 30
0.0
 40
0.0859
100
AcDbArc
 50
7.970324124956992
 51
91.82679433006171
  0
ARC
  5
1A6
100
AcDbEntity
  8
USP-GEO
100
AcDbCircle
 10
47.11562516638934
 20
2.500548083383872
 30
0.0
 40
0.0859
100
AcDbArc
 50
88.43022589093468
 51
185.8769357721489
  0
ARC
  5
1A7
100
AcDbEntity
  8
USP-GEO
100
AcDbCircle
 10
47.11562516638934
 20
2.500548083383872
 30
0.0
 40
0.0859
100
AcDbArc
 50
354.4040239715473
 51
88.43022589093468
  0
LWPOLYLINE
  5
1A8
100
AcDbEntity
  8
USP-GEO
100
AcDbPolyline
 90
        2
 70
   128
 43
0.0
 10
47.01852378813076
 20
2.490553135687768
 10
47.01852378813076
 20
2.424182632404949
  0
LWPOLYLINE
  5
1A9
100
AcDbEntity
  8
USP-GEO
100
AcDbPolyline
 90
        2
 70
   128
 43
0.0
 10
47.21763529797921
 20
2.490553135687768
 10
47.21763529797921
 20
2.424182632404949
  0
ARC
  5
1AA
100
AcDbEntity
  8
USP-GEO
100
AcDbCircle
 10
50.11562516638935
 20
2.500548083383872
 30
0.0
 40
0.0859
100
AcDbArc
 50
95.87373248666109
 51
187.5328551378021
  0
ARC
  5
1AB
100
AcDbEntity
  8
USP-GEO
100
AcDbCircle
 10
50.11562516638935
 20
2.500548083383872
 30
0.0
 40
0.0859
100
AcDbArc
 50
353.6867837812008
 51
95.87373248666109
  0
LWPOLYLINE
  5
1AC
100
AcDbEntity
  8
USP-GEO
100
AcDbPolyline
 90
        2
 70
   128
 43
0.0
 10
50.04004095008108
 20
2.490553135687768
 10
50.04004095008108
 20
2.424182632404949
  0
LWPOLYLINE
  5
1AD
100
AcDbEntity
  8
USP-GEO
100
AcDbPolyline
 90
        2
 70
   128
 43
0.0
 10
50.20596720828812
 20
2.490553135687768
 10
50.20596720828812
 20
2.424182632404949
  0
ARC
  5
1AE
100
AcDbEntity
  8
USP-GEO
100
AcDbCircle
 10
51.61562516638935
 20
0.578748083383875
 30
0.0
 40
0.0859
100
AcDbArc
 50
350.2923172107475
 51
77.41477609384459
  0
ARC
  5
1AF
100
AcDbEntity
  8
USP-GEO
100
AcDbCircle
 10
51.61562516638934
 20
0.578748083383875
 30
0.0
 40
0.0859
100
AcDbArc
 50
77.41477609383546
 51
190.2679037950891
  0
ARC
  5
1B0
100
AcDbEntity
  8
USP-GEO
100
AcDbCircle
 10
51.61562516638934
 20
0.5005480833838725
 30
0.0
 40
0.0859
100
AcDbArc
 50
181.9681100627556
 51
285.3405562868285
  0
LWPOLYLINE
  5
1B1
100
AcDbEntity
  8
USP-GEO
100
AcDbPolyline
 90
        2
 70
   128
 43
0.0
 10
51.53503653652657
 20
0.5641492779039581
 10
51.53503653652657
 20
0.4977787746211409
  0
ARC
  5
1B2
100
AcDbEntity
  8
USP-GEO
100
AcDbCircle
 10
51.61562516638934
 20
0.5005480833838725
 30
0.0
 40
0.0859
100
AcDbArc
 50
285.3405562868285
 51
358.1413352446509
  0
LWPOLYLINE
  5
1B3
100
AcDbEntity
  8
USP-GEO
100
AcDbPolyline
 90
        2
 70
   128
 43
0.0
 10
51.70096279473361
 20
0.5641492779039581
 10
51.70096279473361
 20
0.4977787746211409
  0
LWPOLYLINE
  5
1B4
100
AcDbEntity
  8
USP-GEO
100
AcDbPolyline
 90
        2
 70
   128
 43
0.0
 10
51.70096279473361
 20
2.092330115990856
 10
51.70096279473361
 20
1.992774361066629
  0
LWPOLYLINE
  5
1B5
100
AcDbEntity
  8
USP-GEO
100
AcDbPolyline
 90
        2
 70
   128
 43
0.0
 10
51.53503653652657
 20
2.092330115990856
 10
51.53503653652657
 20
1.992774361066629
  0
ARC
  5
1B6
100
AcDbEntity
  8
USP-GEO
100
AcDbCircle
 10
51.61562516638934
 20
2.000548083383872
 30
0.0
 40
0.0859
100
AcDbArc
 50
185.5098054669295
 51
284.3493302894538
  0
ARC
  5
1B7
100
AcDbEntity
  8
USP-GEO
100
AcDbCircle
 10
51.61562516638934
 20
2.000548083383872
 30
0.0
 40
0.0859
100
AcDbArc
 50
284.3493302894538
 51
354.7950793114119
  0
ARC
  5
1B8
100
AcDbEntity
  8
USP-GEO
100
AcDbCircle
 10
51.61562516638934
 20
2.078748083383871
 30
0.0
 40
0.0859
100
AcDbArc
 50
76.65443649475385
 51
170.4335357476006
  0
ARC
  5
1B9
100
AcDbEntity
  8
USP-GEO
100
AcDbCircle
 10
51.61562516638935
 20
2.078748083383871
 30
0.0
 40
0.0859
100
AcDbArc
 50
9.043144387303689
 51
76.6544364947635
  0
LWPOLYLINE
  5
1BA
100
AcDbEntity
  8
USP-GEO
100
AcDbPolyline
 90
        2
 70
   128
 43
0.0
 10
51.9996300595063
 20
2.989991172890977
 10
52.23192682099616
 20
2.756035148819043
  0
ENDBLK
  5
1BD
100
AcDbEntity
  8
0
100
AcDbBlockEnd
  0
ENDSEC
  0
SECTION
  2
ENTITIES
  0
INSERT
  5
3
100
AcDbEntity
  8
USP
100
AcDbBlockReference
  2
MSTC52_F
 10
0.0109692554154315
 20
4.231148877044088
 30
0.0
  0
ENDSEC
  0
SECTION
  2
OBJECTS
  0
DICTIONARY
  5
1D6
102
{ACAD_XDICTIONARY
360
1D7
102
}
100
AcDbDictionary
  3
ACAD_GROUP
350
1D4
  3
ACAD_MLINESTYLE
350
1D5
  0
DICTIONARY
  5
E
100
AcDbDictionary
280
     1
  3
ACAD_XREC_ROUNDTRIP
360
F
  0
DICTIONARY
  5
9
100
AcDbDictionary
280
     1
  3
ACAD_XREC_ROUNDTRIP
360
A
  0
DICTIONARY
  5
1BE
100
AcDbDictionary
280
     1
  3
ACAD_LAYOUTSELFREF
360
1BF
  0
DICTIONARY
  5
1C3
100
AcDbDictionary
280
     1
  3
ACAD_LAYOUTSELFREF
360
1C4
  0
DICTIONARY
  5
1D7
100
AcDbDictionary
280
     1
  3
ACAD_XREC_ROUNDTRIP
360
1D8
  0
DICTIONARY
  5
1D4
102
{ACAD_REACTORS
330
1D6
102
}
100
AcDbDictionary
  0
DICTIONARY
  5
1D5
102
{ACAD_REACTORS
330
1D6
102
}
100
AcDbDictionary
  3
STANDARD
350
1D9
  0
XRECORD
  5
F
102
{ACAD_REACTORS
330
E
102
}
100
AcDbXrecord
102
EXTNAMES
  1
USP-GEO
  2
USP-Geo
  0
XRECORD
  5
A
102
{ACAD_REACTORS
330
9
102
}
100
AcDbXrecord
102
EXTNAMES
  1
USP-TXT
  2
USP-Txt
  0
XRECORD
  5
1BF
102
{ACAD_REACTORS
330
1BE
102
}
100
AcDbXrecord
340
18
  0
XRECORD
  5
1C4
102
{ACAD_REACTORS
330
1C3
102
}
100
AcDbXrecord
340
15
  0
XRECORD
  5
1D8
102
{ACAD_REACTORS
330
1D7
102
}
100
AcDbXrecord
102
EXTNAMES
  1
ACDBVARIABLEDICTIONARY
  2
AcDbVariableDictionary
  0
MLINESTYLE
  5
1D9
102
{ACAD_REACTORS
330
1D5
102
}
100
AcDbMlineStyle
  2
STANDARD
 70
     0
  3

 62
     0
 51
90.0
 52
90.0
 71
     2
 49
0.5
 62
   256
  6
BYLAYER
 49
-0.5
 62
   256
  6
BYLAYER
  0
ENDSEC
  0
EOF
