  0
SECTION
  2
HEADER
  9
$ACADVER
  1
AC1014
  9
$ACADMAINTVER
 70
     9
  9
$DWGCODEPAGE
  3
ANSI_1252
  9
$INSBASE
 10
0.0
 20
0.0
 30
0.0
  9
$EXTMIN
 10
0.0079476531411304
 20
0.0007501934052918
 30
0.0
  9
$EXTMAX
 10
40.24341082988783
 20
6.21614752183385
 30
4.196879291630274
  9
$LIMMIN
 10
0.0
 20
0.0
  9
$LIMMAX
 10
12.0
 20
9.0
  9
$ORTHOMODE
 70
     1
  9
$REGENMODE
 70
     1
  9
$FILLMODE
 70
     1
  9
$QTEXTMODE
 70
     0
  9
$MIRRTEXT
 70
     0
  9
$DRAGMODE
 70
     2
  9
$LTSCALE
 40
1.5
  9
$OSMODE
 70
     0
  9
$ATTMODE
 70
     1
  9
$TEXTSIZE
 40
0.75
  9
$TRACEWID
 40
0.05
  9
$TEXTSTYLE
  7
STANDARD
  9
$CLAYER
  8
USP
  9
$CELTYPE
  6
BYLAYER
  9
$CECOLOR
 62
   256
  9
$CELTSCALE
 40
1.0
  9
$DELOBJ
 70
     1
  9
$DISPSILH
 70
     1
  9
$DIMSCALE
 40
3.0
  9
$DIMASZ
 40
0.125
  9
$DIMEXO
 40
0.0625
  9
$DIMDLI
 40
0.37890625
  9
$DIMRND
 40
0.0
  9
$DIMDLE
 40
0.0
  9
$DIMEXE
 40
0.09375
  9
$DIMTP
 40
0.0
  9
$DIMTM
 40
0.0
  9
$DIMTXT
 40
0.109375
  9
$DIMCEN
 40
0.0
  9
$DIMTSZ
 40
0.0
  9
$DIMTOL
 70
     0
  9
$DIMLIM
 70
     0
  9
$DIMTIH
 70
     1
  9
$DIMTOH
 70
     1
  9
$DIMSE1
 70
     0
  9
$DIMSE2
 70
     0
  9
$DIMTAD
 70
     0
  9
$DIMZIN
 70
     8
  9
$DIMBLK
  1

  9
$DIMASO
 70
     1
  9
$DIMSHO
 70
     1
  9
$DIMPOST
  1

  9
$DIMAPOST
  1

  9
$DIMALT
 70
     0
  9
$DIMALTD
 70
     2
  9
$DIMALTF
 40
25.4
  9
$DIMLFAC
 40
1.0
  9
$DIMTOFL
 70
     0
  9
$DIMTVP
 40
0.0
  9
$DIMTIX
 70
     0
  9
$DIMSOXD
 70
     0
  9
$DIMSAH
 70
     0
  9
$DIMBLK1
  1

  9
$DIMBLK2
  1

  9
$DIMSTYLE
  2
STANDARD
  9
$DIMCLRD
 70
     0
  9
$DIMCLRE
 70
     0
  9
$DIMCLRT
 70
   256
  9
$DIMTFAC
 40
1.0
  9
$DIMGAP
 40
0.08984375
  9
$DIMJUST
 70
     0
  9
$DIMSD1
 70
     0
  9
$DIMSD2
 70
     0
  9
$DIMTOLJ
 70
     1
  9
$DIMTZIN
 70
     0
  9
$DIMALTZ
 70
     0
  9
$DIMALTTZ
 70
     0
  9
$DIMFIT
 70
     3
  9
$DIMUPT
 70
     1
  9
$DIMUNIT
 70
     7
  9
$DIMDEC
 70
     4
  9
$DIMTDEC
 70
     4
  9
$DIMALTU
 70
     2
  9
$DIMALTTD
 70
     2
  9
$DIMTXSTY
  7
STANDARD
  9
$DIMAUNIT
 70
     0
  9
$LUNITS
 70
     5
  9
$LUPREC
 70
     6
  9
$SKETCHINC
 40
0.1
  9
$FILLETRAD
 40
0.0
  9
$AUNITS
 70
     0
  9
$AUPREC
 70
     1
  9
$MENU
  1
CUSTOM
  9
$ELEVATION
 40
0.0
  9
$PELEVATION
 40
0.0
  9
$THICKNESS
 40
0.0
  9
$LIMCHECK
 70
     0
  9
$BLIPMODE
 70
     0
  9
$CHAMFERA
 40
0.0
  9
$CHAMFERB
 40
0.0
  9
$CHAMFERC
 40
0.0
  9
$CHAMFERD
 40
0.0
  9
$SKPOLY
 70
     0
  9
$TDCREATE
 40
2451263.663231366
  9
$TDUPDATE
 40
2452768.665912361
  9
$TDINDWG
 40
0.6184216667
  9
$TDUSRTIMER
 40
0.6184216667
  9
$USRTIMER
 70
     1
  9
$ANGBASE
 50
0.0
  9
$ANGDIR
 70
     0
  9
$PDMODE
 70
     0
  9
$PDSIZE
 40
0.0
  9
$PLINEWID
 40
0.0
  9
$COORDS
 70
     2
  9
$SPLFRAME
 70
     0
  9
$SPLINETYPE
 70
     6
  9
$SPLINESEGS
 70
     8
  9
$ATTDIA
 70
     0
  9
$ATTREQ
 70
     0
  9
$HANDLING
 70
     1
  9
$HANDSEED
  5
17E
  9
$SURFTAB1
 70
     6
  9
$SURFTAB2
 70
     6
  9
$SURFTYPE
 70
     6
  9
$SURFU
 70
     6
  9
$SURFV
 70
     6
  9
$UCSNAME
  2

  9
$UCSORG
 10
0.0
 20
0.0
 30
0.0
  9
$UCSXDIR
 10
1.0
 20
0.0
 30
0.0
  9
$UCSYDIR
 10
0.0
 20
1.0
 30
0.0
  9
$PUCSNAME
  2

  9
$PUCSORG
 10
0.0
 20
0.0
 30
0.0
  9
$PUCSXDIR
 10
1.0
 20
0.0
 30
0.0
  9
$PUCSYDIR
 10
0.0
 20
1.0
 30
0.0
  9
$USERI1
 70
     0
  9
$USERI2
 70
     0
  9
$USERI3
 70
     0
  9
$USERI4
 70
     0
  9
$USERI5
 70
     0
  9
$USERR1
 40
0.0
  9
$USERR2
 40
0.0
  9
$USERR3
 40
0.0
  9
$USERR4
 40
0.0
  9
$USERR5
 40
0.0
  9
$WORLDVIEW
 70
     1
  9
$SHADEDGE
 70
     3
  9
$SHADEDIF
 70
    70
  9
$TILEMODE
 70
     1
  9
$MAXACTVP
 70
    16
  9
$PINSBASE
 10
0.0
 20
0.0
 30
0.0
  9
$PLIMCHECK
 70
     0
  9
$PEXTMIN
 10
1.000000000000000E+20
 20
1.000000000000000E+20
 30
1.000000000000000E+20
  9
$PEXTMAX
 10
-1.000000000000000E+20
 20
-1.000000000000000E+20
 30
-1.000000000000000E+20
  9
$PLIMMIN
 10
0.0
 20
0.0
  9
$PLIMMAX
 10
12.0
 20
9.0
  9
$UNITMODE
 70
     0
  9
$VISRETAIN
 70
     0
  9
$PLINEGEN
 70
     0
  9
$PSLTSCALE
 70
     0
  9
$TREEDEPTH
 70
  3020
  9
$PICKSTYLE
 70
     0
  9
$CMLSTYLE
  2
STANDARD
  9
$CMLJUST
 70
     0
  9
$CMLSCALE
 40
1.0
  9
$PROXYGRAPHICS
 70
     1
  9
$MEASUREMENT
 70
     0
  0
ENDSEC
  0
SECTION
  2
CLASSES
  0
CLASS
  1
ACDBDICTIONARYWDFLT
  2
AcDbDictionaryWithDefault
  3
AutoCAD 2000
 90
        0
280
     0
281
     0
  0
CLASS
  1
ACDBPLACEHOLDER
  2
AcDbPlaceHolder
  3
AutoCAD 2000
 90
        0
280
     0
281
     0
  0
CLASS
  1
LAYOUT
  2
AcDbLayout
  3
AutoCAD 2000
 90
        0
280
     0
281
     0
  0
CLASS
  1
DICTIONARYVAR
  2
AcDbDictionaryVar
  3
"AutoCAD"
 90
        0
280
     0
281
     0
  0
CLASS
  1
LONG_TRANSACTION
  2
AcDbLongTransaction
  3
AutoCAD 2000
 90
        0
280
     0
281
     0
  0
CLASS
  1
LWPOLYLINE
  2
AcDbPolyline
  3
"AutoCAD"
 90
        0
280
     0
281
     1
  0
CLASS
  1
HATCH
  2
AcDbHatch
  3
"ACAD_SEDONA"
 90
        0
280
     0
281
     1
  0
CLASS
  1
XRECORD
  2
AcDbXrecord
  3
"<Built In>"
 90
        0
280
     0
281
     0
  0
CLASS
  1
LONG_TRANSACTION
  2
AcDbLongTransaction
  3
AutoCAD 2000
 90
        0
280
     0
281
     0
  0
CLASS
  1
LWPOLYLINE
  2
AcDbPolyline
  3
"AutoCAD"
 90
        0
280
     0
281
     1
  0
CLASS
  1
HATCH
  2
AcDbHatch
  3
"ACAD_SEDONA"
 90
        0
280
     0
281
     1
  0
CLASS
  1
XRECORD
  2
AcDbXrecord
  3
"<Built In>"
 90
        0
280
     0
281
     0
  0
ENDSEC
  0
SECTION
  2
TABLES
  0
TABLE
  2
VPORT
  5
16E
100
AcDbSymbolTable
 70
     1
  0
VPORT
  5
16F
100
AcDbSymbolTableRecord
100
AcDbViewportTableRecord
  2
*ACTIVE
 70
     0
 10
0.0
 20
0.0
 11
1.0
 21
1.0
 12
3.625209429482833
 22
-8.788225565676601
 13
0.0
 23
0.0
 14
1.0
 24
1.0
 15
0.0
 25
0.0
 16
0.0
 26
0.0
 36
1.0
 17
18.06596660309899
 27
8.119903606830565
 37
5.823974399722915
 40
38.77339044752044
 41
1.457627118644067
 42
50.0
 43
10.55307667737539
 44
10.55307667737539
 50
0.0
 51
0.0
 71
     0
 72
   100
 73
     1
 74
     1
 75
     0
 76
     0
 77
     0
 78
     0
  0
ENDTAB
  0
TABLE
  2
LTYPE
  5
169
100
AcDbSymbolTable
 70
     1
  0
LTYPE
  5
16A
100
AcDbSymbolTableRecord
100
AcDbLinetypeTableRecord
  2
BYBLOCK
 70
     0
  3

 72
    65
 73
     0
 40
0.0
  0
LTYPE
  5
16B
100
AcDbSymbolTableRecord
100
AcDbLinetypeTableRecord
  2
BYLAYER
 70
     0
  3

 72
    65
 73
     0
 40
0.0
  0
LTYPE
  5
5
100
AcDbSymbolTableRecord
100
AcDbLinetypeTableRecord
  2
CONTINUOUS
 70
     0
  3
Solid line
 72
    65
 73
     0
 40
0.0
  0
ENDTAB
  0
TABLE
  2
LAYER
  5
167
100
AcDbSymbolTable
 70
     4
  0
LAYER
  5
15C
100
AcDbSymbolTableRecord
100
AcDbLayerTableRecord
  2
0
 70
     0
 62
     7
  6
CONTINUOUS
  0
LAYER
  5
D
102
{ACAD_XDICTIONARY
360
E
102
}
100
AcDbSymbolTableRecord
100
AcDbLayerTableRecord
  2
USP-GEO
 70
     0
 62
     7
  6
CONTINUOUS
  0
LAYER
  5
8
102
{ACAD_XDICTIONARY
360
9
102
}
100
AcDbSymbolTableRecord
100
AcDbLayerTableRecord
  2
USP-TXT
 70
     0
 62
     7
  6
CONTINUOUS
  0
LAYER
  5
4
100
AcDbSymbolTableRecord
100
AcDbLayerTableRecord
  2
USP
 70
     0
 62
     7
  6
CONTINUOUS
  0
ENDTAB
  0
TABLE
  2
STYLE
  5
168
100
AcDbSymbolTable
 70
     1
  0
STYLE
  5
B
100
AcDbSymbolTableRecord
100
AcDbTextStyleTableRecord
  2
STANDARD
 70
     0
 40
0.0
 41
1.0
 50
0.0
 71
     0
 42
0.75
  3
txt
  4

  0
ENDTAB
  0
TABLE
  2
VIEW
  5
16C
100
AcDbSymbolTable
 70
     0
  0
ENDTAB
  0
TABLE
  2
UCS
  5
16D
100
AcDbSymbolTable
 70
     0
  0
ENDTAB
  0
TABLE
  2
APPID
  5
170
100
AcDbSymbolTable
 70
     1
  0
APPID
  5
171
100
AcDbSymbolTableRecord
100
AcDbRegAppTableRecord
  2
ACAD
 70
     0
  0
ENDTAB
  0
TABLE
  2
DIMSTYLE
  5
172
100
AcDbSymbolTable
 70
     1
  0
DIMSTYLE
105
17A
100
AcDbSymbolTableRecord
100
AcDbDimStyleTableRecord
  2
STANDARD
 70
     0
  3

  4

  5

  6

  7

 40
1.0
 41
0.18
 42
0.0625
 43
0.38
 44
0.18
 45
0.0
 46
0.0
 47
0.0
 48
0.0
140
0.18
141
0.09
142
0.0
143
25.4
144
1.0
145
0.0
146
1.0
147
0.09
 71
     0
 72
     0
 73
     1
 74
     1
 75
     0
 76
     0
 77
     0
 78
     0
170
     0
171
     2
172
     0
173
     0
174
     0
175
     0
176
     0
177
     0
178
     0
270
     2
271
     4
272
     4
273
     2
274
     2
340
B
275
     0
280
     0
281
     0
282
     0
283
     1
284
     0
285
     0
286
     0
287
     3
288
     0
  0
ENDTAB
  0
TABLE
  2
BLOCK_RECORD
  5
1
100
AcDbSymbolTable
 70
     1
  0
BLOCK_RECORD
  5
2
102
{ACAD_XDICTIONARY
360
15E
102
}
100
AcDbSymbolTableRecord
100
AcDbBlockTableRecord
  2
*MODEL_SPACE
  0
BLOCK_RECORD
  5
162
102
{ACAD_XDICTIONARY
360
163
102
}
100
AcDbSymbolTableRecord
100
AcDbBlockTableRecord
  2
*PAPER_SPACE
  0
BLOCK_RECORD
  5
6
100
AcDbSymbolTableRecord
100
AcDbBlockTableRecord
  2
MSTC40_F
  0
ENDTAB
  0
ENDSEC
  0
SECTION
  2
BLOCKS
  0
BLOCK
  5
160
100
AcDbEntity
  8
0
100
AcDbBlockBegin
  2
*MODEL_SPACE
 70
     0
 10
0.0
 20
0.0
 30
0.0
  3
*MODEL_SPACE
  1

  0
ENDBLK
  5
161
100
AcDbEntity
  8
0
100
AcDbBlockEnd
  0
BLOCK
  5
165
100
AcDbEntity
 67
     1
  8
0
100
AcDbBlockBegin
  2
*PAPER_SPACE
 70
     0
 10
0.0
 20
0.0
 30
0.0
  3
*PAPER_SPACE
  1

  0
ENDBLK
  5
166
100
AcDbEntity
 67
     1
  8
0
100
AcDbBlockEnd
  0
BLOCK
  5
15B
100
AcDbEntity
  8
0
100
AcDbBlockBegin
  2
MSTC40_F
 70
     0
 10
0.0
 20
0.0
 30
0.0
  3
MSTC40_F
  1

  0
TEXT
  5
7
100
AcDbEntity
  8
USP-TXT
100
AcDbText
 10
15.40939825504002
 20
-3.221926927210578
 30
4.196879291630274
 40
0.5
  1
MSTC40 - FRONT VIEW
 72
     1
 11
20.11773158837335
 21
-3.221926927210578
 31
4.196879291630274
100
AcDbText
  0
LWPOLYLINE
  5
C
100
AcDbEntity
  8
USP-GEO
100
AcDbPolyline
 90
        2
 70
   128
 43
0.0
 10
40.00539286409972
 20
0.0
 10
0.2300703126469839
 20
0.0
  0
LWPOLYLINE
  5
10
100
AcDbEntity
  8
USP-GEO
100
AcDbPolyline
 90
        2
 70
   128
 43
0.0
 10
40.00539286409972
 20
2.99347040121798
 10
0.2300703126469839
 20
2.99347040121798
  0
ARC
  5
11
100
AcDbEntity
  8
USP-GEO
100
AcDbCircle
 10
20.11810234696397
 20
0.4895117700743974
 30
0.0
 40
0.0859
100
AcDbArc
 50
260.2780291134714
 51
357.5703313092215
  0
ARC
  5
12
100
AcDbEntity
  8
USP-GEO
100
AcDbCircle
 10
20.11810234696397
 20
0.5677117700743981
 30
0.0
 40
0.0859
100
AcDbArc
 50
356.6088261146412
 51
98.09740428982083
  0
ARC
  5
13
100
AcDbEntity
  8
USP-GEO
100
AcDbCircle
 10
20.11810234696397
 20
2.067711770074398
 30
0.0
 40
0.0859
100
AcDbArc
 50
2.679089102056951
 51
99.67581629339351
  0
ARC
  5
14
100
AcDbEntity
  8
USP-GEO
100
AcDbCircle
 10
20.11810234696397
 20
1.989511770074397
 30
0.0
 40
0.0859
100
AcDbArc
 50
259.0044967232245
 51
3.640150932106807
  0
LWPOLYLINE
  5
15
100
AcDbEntity
  8
USP-GEO
100
AcDbPolyline
 90
        2
 70
   128
 43
0.0
 10
0.0
 20
0.2300703126469834
 10
0.0
 20
2.737836720499108
  0
LWPOLYLINE
  5
16
100
AcDbEntity
  8
USP-GEO
100
AcDbPolyline
 90
        2
 70
   128
 43
0.0
 10
0.2300703126469839
 20
0.0
 10
0.0
 20
0.2300703126469834
  0
LWPOLYLINE
  5
17
100
AcDbEntity
  8
USP-GEO
100
AcDbPolyline
 90
        2
 70
   128
 43
0.0
 10
0.5368307295096291
 20
0.9202812505879354
 10
0.5368307295096291
 20
0.9969713548035965
  0
LWPOLYLINE
  5
18
100
AcDbEntity
  8
USP-GEO
100
AcDbPolyline
 90
        2
 70
   128
 43
0.0
 10
0.6902109379409519
 20
0.9202812505879354
 10
0.6902109379409519
 20
0.9969713548035965
  0
ARC
  5
19
100
AcDbEntity
  8
USP-GEO
100
AcDbCircle
 10
0.6181023469640115
 20
0.9113117700743984
 30
0.0
 40
0.0859
100
AcDbArc
 50
267.1882569730052
 51
7.090517225969989
  0
ARC
  5
1A
100
AcDbEntity
  8
USP-GEO
100
AcDbCircle
 10
0.6181023469640044
 20
0.9113117700743984
 30
0.0
 40
0.0859
100
AcDbArc
 50
173.7020822608127
 51
267.1882569730095
  0
ARC
  5
1B
100
AcDbEntity
  8
USP-GEO
100
AcDbCircle
 10
0.6181023469640115
 20
0.9895117700743973
 30
0.0
 40
0.0859
100
AcDbArc
 50
93.11638062984505
 51
174.7557520385515
  0
ARC
  5
1C
100
AcDbEntity
  8
USP-GEO
100
AcDbCircle
 10
0.6181023469640115
 20
0.9895117700743973
 30
0.0
 40
0.0859
100
AcDbArc
 50
5.906200325837763
 51
93.11638062984505
  0
ARC
  5
1D
100
AcDbEntity
  8
USP-GEO
100
AcDbCircle
 10
2.118102346964004
 20
0.5677117700743981
 30
0.0
 40
0.0859
100
AcDbArc
 50
356.2726067377834
 51
87.08536997691304
  0
ARC
  5
1E
100
AcDbEntity
  8
USP-GEO
100
AcDbCircle
 10
2.118102346964004
 20
0.5677117700743981
 30
0.0
 40
0.0859
100
AcDbArc
 50
87.08536997691304
 51
183.1276555471532
  0
ARC
  5
1F
100
AcDbEntity
  8
USP-GEO
100
AcDbCircle
 10
2.118102346964004
 20
0.4895117700743974
 30
0.0
 40
0.0859
100
AcDbArc
 50
182.2406756884915
 51
273.5084455470958
  0
LWPOLYLINE
  5
20
100
AcDbEntity
  8
USP-GEO
100
AcDbPolyline
 90
        2
 70
   128
 43
0.0
 10
2.020784246082675
 20
0.4857039933658545
 10
2.020784246082675
 20
0.5623940975815156
  0
ARC
  5
21
100
AcDbEntity
  8
USP-GEO
100
AcDbCircle
 10
2.118102346964004
 20
0.4895117700743974
 30
0.0
 40
0.0859
100
AcDbArc
 50
273.5084455470958
 51
357.329124493722
  0
LWPOLYLINE
  5
22
100
AcDbEntity
  8
USP-GEO
100
AcDbPolyline
 90
        2
 70
   128
 43
0.0
 10
2.199727822585885
 20
0.4857039933658545
 10
2.199727822585885
 20
0.5623940975815156
  0
LWPOLYLINE
  5
23
100
AcDbEntity
  8
USP-GEO
100
AcDbPolyline
 90
        2
 70
   128
 43
0.0
 10
3.709244707230818
 20
0.9202812505879354
 10
3.709244707230818
 20
0.9969713548035965
  0
LWPOLYLINE
  5
24
100
AcDbEntity
  8
USP-GEO
100
AcDbPolyline
 90
        2
 70
   128
 43
0.0
 10
3.530301130727609
 20
0.9202812505879354
 10
3.530301130727609
 20
0.9969713548035965
  0
ARC
  5
25
100
AcDbEntity
  8
USP-GEO
100
AcDbCircle
 10
3.618102346963997
 20
0.9113117700743984
 30
0.0
 40
0.0859
100
AcDbArc
 50
174.1670881109356
 51
263.2074674630237
  0
ARC
  5
26
100
AcDbEntity
  8
USP-GEO
100
AcDbCircle
 10
3.618102346964004
 20
0.9113117700743984
 30
0.0
 40
0.0859
100
AcDbArc
 50
263.2074674630194
 51
5.620480844420677
  0
ARC
  5
27
100
AcDbEntity
  8
USP-GEO
100
AcDbCircle
 10
3.618102346964004
 20
0.9895117700743973
 30
0.0
 40
0.0859
100
AcDbArc
 50
4.678968093939369
 51
97.52181425780428
  0
ARC
  5
28
100
AcDbEntity
  8
USP-GEO
100
AcDbCircle
 10
3.618102346964004
 20
0.9895117700743973
 30
0.0
 40
0.0859
100
AcDbArc
 50
97.52181425780428
 51
175.143816757624
  0
ARC
  5
29
100
AcDbEntity
  8
USP-GEO
100
AcDbCircle
 10
5.118102346963997
 20
0.5677117700743981
 30
0.0
 40
0.0859
100
AcDbArc
 50
355.879650149705
 51
91.69728843378978
  0
ARC
  5
2A
100
AcDbEntity
  8
USP-GEO
100
AcDbCircle
 10
5.118102346963997
 20
0.5677117700743981
 30
0.0
 40
0.0859
100
AcDbArc
 50
91.69728843378978
 51
183.8237577145442
  0
ARC
  5
2B
100
AcDbEntity
  8
USP-GEO
100
AcDbCircle
 10
5.118102346963997
 20
0.4895117700743974
 30
0.0
 40
0.0859
100
AcDbArc
 50
267.9563889527209
 51
357.0470996514734
  0
ARC
  5
2C
100
AcDbEntity
  8
USP-GEO
100
AcDbCircle
 10
5.118102346963997
 20
0.4895117700743974
 30
0.0
 40
0.0859
100
AcDbArc
 50
182.7400244141595
 51
267.9563889527209
  0
LWPOLYLINE
  5
2D
100
AcDbEntity
  8
USP-GEO
100
AcDbPolyline
 90
        2
 70
   128
 43
0.0
 10
5.038539846968948
 20
0.4857039933658545
 10
5.038539846968948
 20
0.5623940975815156
  0
LWPOLYLINE
  5
2E
100
AcDbEntity
  8
USP-GEO
100
AcDbPolyline
 90
        2
 70
   128
 43
0.0
 10
5.19192005540027
 20
0.4857039933658545
 10
5.19192005540027
 20
0.5623940975815156
  0
LWPOLYLINE
  5
2F
100
AcDbEntity
  8
USP-GEO
100
AcDbPolyline
 90
        2
 70
   128
 43
0.0
 10
6.701436940045204
 20
0.9202812505879354
 10
6.701436940045204
 20
0.9969713548035965
  0
LWPOLYLINE
  5
30
100
AcDbEntity
  8
USP-GEO
100
AcDbPolyline
 90
        2
 70
   128
 43
0.0
 10
6.522493363541994
 20
0.9202812505879354
 10
6.522493363541994
 20
0.9969713548035965
  0
ARC
  5
31
100
AcDbEntity
  8
USP-GEO
100
AcDbCircle
 10
6.618102346963997
 20
0.9113117700743984
 30
0.0
 40
0.0859
100
AcDbArc
 50
274.0742177047793
 51
6.143217754241978
  0
ARC
  5
32
100
AcDbEntity
  8
USP-GEO
100
AcDbCircle
 10
6.61810234696399
 20
0.9113117700743984
 30
0.0
 40
0.0859
100
AcDbArc
 50
174.6405285065028
 51
274.0742177047836
  0
ARC
  5
33
100
AcDbEntity
  8
USP-GEO
100
AcDbCircle
 10
6.618102346963997
 20
0.9895117700743973
 30
0.0
 40
0.0859
100
AcDbArc
 50
85.48527237770761
 51
175.5387181904725
  0
ARC
  5
34
100
AcDbEntity
  8
USP-GEO
100
AcDbCircle
 10
6.618102346963997
 20
0.9895117700743973
 30
0.0
 40
0.0859
100
AcDbArc
 50
5.115122228404834
 51
85.48527237770761
  0
ARC
  5
35
100
AcDbEntity
  8
USP-GEO
100
AcDbCircle
 10
8.11810234696399
 20
0.5677117700743981
 30
0.0
 40
0.0859
100
AcDbArc
 50
356.7222090427461
 51
95.53990201275084
  0
ARC
  5
36
100
AcDbEntity
  8
USP-GEO
100
AcDbCircle
 10
8.11810234696399
 20
0.5677117700743981
 30
0.0
 40
0.0859
100
AcDbArc
 50
95.53990201275084
 51
183.5345125539839
  0
ARC
  5
37
100
AcDbEntity
  8
USP-GEO
100
AcDbCircle
 10
8.11810234696399
 20
0.4895117700743974
 30
0.0
 40
0.0859
100
AcDbArc
 50
263.338149114347
 51
357.6516544482018
  0
ARC
  5
38
100
AcDbEntity
  8
USP-GEO
100
AcDbCircle
 10
8.11810234696399
 20
0.4895117700743974
 30
0.0
 40
0.0859
100
AcDbArc
 50
182.5324906985874
 51
263.338149114347
  0
LWPOLYLINE
  5
39
100
AcDbEntity
  8
USP-GEO
100
AcDbPolyline
 90
        2
 70
   128
 43
0.0
 10
8.210953824690138
 20
0.4857039933658545
 10
8.210953824690138
 20
0.5623940975815156
  0
LWPOLYLINE
  5
3A
100
AcDbEntity
  8
USP-GEO
100
AcDbPolyline
 90
        2
 70
   128
 43
0.0
 10
8.032010248186928
 20
0.4857039933658545
 10
8.032010248186928
 20
0.5623940975815156
  0
LWPOLYLINE
  5
3B
100
AcDbEntity
  8
USP-GEO
100
AcDbPolyline
 90
        2
 70
   128
 43
0.0
 10
9.541527132831861
 20
0.9202812505879354
 10
9.541527132831861
 20
0.9969713548035965
  0
LWPOLYLINE
  5
3C
100
AcDbEntity
  8
USP-GEO
100
AcDbPolyline
 90
        2
 70
   128
 43
0.0
 10
9.694907341263183
 20
0.9202812505879354
 10
9.694907341263183
 20
0.9969713548035965
  0
ARC
  5
3D
100
AcDbEntity
  8
USP-GEO
100
AcDbCircle
 10
9.61810234696399
 20
0.9113117700743984
 30
0.0
 40
0.0859
100
AcDbArc
 50
270.0705663795119
 51
6.660973531447671
  0
ARC
  5
3E
100
AcDbEntity
  8
USP-GEO
100
AcDbCircle
 10
9.618102346963983
 20
0.9113117700743984
 30
0.0
 40
0.0859
100
AcDbArc
 50
173.3192192140613
 51
270.0705663795162
  0
ARC
  5
3F
100
AcDbEntity
  8
USP-GEO
100
AcDbCircle
 10
9.61810234696399
 20
0.9895117700743973
 30
0.0
 40
0.0859
100
AcDbArc
 50
89.92177377139894
 51
174.4360796488735
  0
ARC
  5
40
100
AcDbEntity
  8
USP-GEO
100
AcDbCircle
 10
9.61810234696399
 20
0.9895117700743973
 30
0.0
 40
0.0859
100
AcDbArc
 50
5.547378563158973
 51
89.92177377139894
  0
ARC
  5
41
100
AcDbEntity
  8
USP-GEO
100
AcDbCircle
 10
11.11810234696398
 20
0.5677117700743981
 30
0.0
 40
0.0859
100
AcDbArc
 50
356.4220277518088
 51
85.07460802339329
  0
ARC
  5
42
100
AcDbEntity
  8
USP-GEO
100
AcDbCircle
 10
11.11810234696398
 20
0.5677117700743981
 30
0.0
 40
0.0859
100
AcDbArc
 50
85.07460802339329
 51
183.2412730205437
  0
ARC
  5
43
100
AcDbEntity
  8
USP-GEO
100
AcDbCircle
 10
11.11810234696398
 20
0.4895117700743974
 30
0.0
 40
0.0859
100
AcDbArc
 50
275.9246190530993
 51
357.436331067553
  0
ARC
  5
44
100
AcDbEntity
  8
USP-GEO
100
AcDbCircle
 10
11.11810234696398
 20
0.4895117700743974
 30
0.0
 40
0.0859
100
AcDbArc
 50
182.3221552323556
 51
275.9246190530993
  0
LWPOLYLINE
  5
45
100
AcDbEntity
  8
USP-GEO
100
AcDbPolyline
 90
        2
 70
   128
 43
0.0
 10
11.02420248100131
 20
0.4857039933658545
 10
11.02420248100131
 20
0.5623940975815156
  0
LWPOLYLINE
  5
46
100
AcDbEntity
  8
USP-GEO
100
AcDbPolyline
 90
        2
 70
   128
 43
0.0
 10
11.20314605750452
 20
0.4857039933658545
 10
11.20314605750452
 20
0.5623940975815156
  0
LWPOLYLINE
  5
47
100
AcDbEntity
  8
USP-GEO
100
AcDbPolyline
 90
        2
 70
   128
 43
0.0
 10
12.53371936564624
 20
0.9202812505879354
 10
12.53371936564624
 20
0.9969713548035965
  0
LWPOLYLINE
  5
48
100
AcDbEntity
  8
USP-GEO
100
AcDbPolyline
 90
        2
 70
   128
 43
0.0
 10
12.71266294214945
 20
0.9202812505879354
 10
12.71266294214945
 20
0.9969713548035965
  0
ARC
  5
49
100
AcDbEntity
  8
USP-GEO
100
AcDbCircle
 10
12.61810234696398
 20
0.9113117700743984
 30
0.0
 40
0.0859
100
AcDbArc
 50
265.2856407949305
 51
5.418539927375436
  0
ARC
  5
4A
100
AcDbEntity
  8
USP-GEO
100
AcDbCircle
 10
12.61810234696397
 20
0.9113117700743984
 30
0.0
 40
0.0859
100
AcDbArc
 50
173.9325337356584
 51
265.2856407949347
  0
ARC
  5
4B
100
AcDbEntity
  8
USP-GEO
100
AcDbCircle
 10
12.61810234696398
 20
0.9895117700743973
 30
0.0
 40
0.0859
100
AcDbArc
 50
4.510540807753362
 51
95.22340150343486
  0
ARC
  5
4C
100
AcDbEntity
  8
USP-GEO
100
AcDbCircle
 10
12.61810234696398
 20
0.9895117700743973
 30
0.0
 40
0.0859
100
AcDbArc
 50
95.22340150343486
 51
174.9480979843571
  0
ARC
  5
4D
100
AcDbEntity
  8
USP-GEO
100
AcDbCircle
 10
14.11810234696397
 20
0.5677117700743981
 30
0.0
 40
0.0859
100
AcDbArc
 50
356.1253386743466
 51
88.92201227416888
  0
ARC
  5
4E
100
AcDbEntity
  8
USP-GEO
100
AcDbCircle
 10
14.11810234696397
 20
0.5677117700743981
 30
0.0
 40
0.0859
100
AcDbArc
 50
88.92201227416888
 51
184.0628450717127
  0
ARC
  5
4F
100
AcDbEntity
  8
USP-GEO
100
AcDbCircle
 10
14.11810234696397
 20
0.4895117700743974
 30
0.0
 40
0.0859
100
AcDbArc
 50
271.2980472572652
 51
357.223445290234
  0
ARC
  5
50
100
AcDbEntity
  8
USP-GEO
100
AcDbCircle
 10
14.11810234696397
 20
0.4895117700743974
 30
0.0
 40
0.0859
100
AcDbArc
 50
182.9116210319905
 51
271.2980472572652
  0
LWPOLYLINE
  5
51
100
AcDbEntity
  8
USP-GEO
100
AcDbPolyline
 90
        2
 70
   128
 43
0.0
 10
14.04323625029118
 20
0.4857039933658545
 10
14.04323625029118
 20
0.5623940975815156
  0
LWPOLYLINE
  5
52
100
AcDbEntity
  8
USP-GEO
100
AcDbPolyline
 90
        2
 70
   128
 43
0.0
 10
14.1966164587225
 20
0.4857039933658545
 10
14.1966164587225
 20
0.5623940975815156
  0
LWPOLYLINE
  5
53
100
AcDbEntity
  8
USP-GEO
100
AcDbPolyline
 90
        2
 70
   128
 43
0.0
 10
15.52591159846063
 20
0.9202812505879354
 10
15.52591159846063
 20
0.9969713548035965
  0
LWPOLYLINE
  5
54
100
AcDbEntity
  8
USP-GEO
100
AcDbPolyline
 90
        2
 70
   128
 43
0.0
 10
15.70485517496384
 20
0.9202812505879354
 10
15.70485517496384
 20
0.9969713548035965
  0
ARC
  5
55
100
AcDbEntity
  8
USP-GEO
100
AcDbCircle
 10
15.61810234696397
 20
0.9113117700743984
 30
0.0
 40
0.0859
100
AcDbArc
 50
174.443032619155
 51
276.156798804211
  0
ARC
  5
56
100
AcDbEntity
  8
USP-GEO
100
AcDbCircle
 10
15.61810234696397
 20
0.9113117700743984
 30
0.0
 40
0.0859
100
AcDbArc
 50
276.156798804211
 51
5.902906509953438
  0
ARC
  5
57
100
AcDbEntity
  8
USP-GEO
100
AcDbCircle
 10
15.61810234696397
 20
0.9895117700743973
 30
0.0
 40
0.0859
100
AcDbArc
 50
4.914583387904945
 51
83.18088058651971
  0
ARC
  5
58
100
AcDbEntity
  8
USP-GEO
100
AcDbCircle
 10
15.61810234696397
 20
0.9895117700743973
 30
0.0
 40
0.0859
100
AcDbArc
 50
83.18088058651971
 51
175.3740086247707
  0
ARC
  5
59
100
AcDbEntity
  8
USP-GEO
100
AcDbCircle
 10
17.11810234696397
 20
0.5677117700743981
 30
0.0
 40
0.0859
100
AcDbArc
 50
93.53233479915212
 51
183.6802568784842
  0
ARC
  5
5A
100
AcDbEntity
  8
USP-GEO
100
AcDbCircle
 10
17.11810234696397
 20
0.5677117700743981
 30
0.0
 40
0.0859
100
AcDbArc
 50
356.8383526532907
 51
93.53233479915212
  0
ARC
  5
5B
100
AcDbEntity
  8
USP-GEO
100
AcDbCircle
 10
20.11810234696397
 20
0.5677117700743981
 30
0.0
 40
0.0859
100
AcDbArc
 50
98.09740428982083
 51
183.3634465237951
  0
ARC
  5
5C
100
AcDbEntity
  8
USP-GEO
100
AcDbCircle
 10
17.11810234696397
 20
0.4895117700743974
 30
0.0
 40
0.0859
100
AcDbArc
 50
265.7487727455151
 51
357.7349483743421
  0
ARC
  5
5D
100
AcDbEntity
  8
USP-GEO
100
AcDbCircle
 10
17.11810234696397
 20
0.4895117700743974
 30
0.0
 40
0.0859
100
AcDbArc
 50
182.6370542197204
 51
265.7487727455151
  0
LWPOLYLINE
  5
5E
100
AcDbEntity
  8
USP-GEO
100
AcDbPolyline
 90
        2
 70
   128
 43
0.0
 10
17.03542848310556
 20
0.4857039933658545
 10
17.03542848310556
 20
0.5623940975815156
  0
LWPOLYLINE
  5
5F
100
AcDbEntity
  8
USP-GEO
100
AcDbPolyline
 90
        2
 70
   128
 43
0.0
 10
17.21437205960877
 20
0.4857039933658545
 10
17.21437205960877
 20
0.5623940975815156
  0
ARC
  5
60
100
AcDbEntity
  8
USP-GEO
100
AcDbCircle
 10
20.11810234696397
 20
0.4895117700743974
 30
0.0
 40
0.0859
100
AcDbArc
 50
182.4097805830517
 51
260.2780291134763
  0
LWPOLYLINE
  5
61
100
AcDbEntity
  8
USP-GEO
100
AcDbPolyline
 90
        2
 70
   128
 43
0.0
 10
20.02762071591995
 20
0.4857039933658545
 10
20.02762071591995
 20
0.5623940975815156
  0
ARC
  5
62
100
AcDbEntity
  8
USP-GEO
100
AcDbCircle
 10
18.61810234696397
 20
0.9895117700743973
 30
0.0
 40
0.0859
100
AcDbArc
 50
87.59578048508696
 51
175.6787829765547
  0
ARC
  5
63
100
AcDbEntity
  8
USP-GEO
100
AcDbCircle
 10
18.61810234696397
 20
0.9113117700743984
 30
0.0
 40
0.0859
100
AcDbArc
 50
174.8085047983687
 51
272.1690370769729
  0
LWPOLYLINE
  5
64
100
AcDbEntity
  8
USP-GEO
100
AcDbPolyline
 90
        2
 70
   128
 43
0.0
 10
18.51938199967861
 20
0.9202812505879354
 10
18.51938199967861
 20
0.9969713548035965
  0
LWPOLYLINE
  5
65
100
AcDbEntity
  8
USP-GEO
100
AcDbPolyline
 90
        2
 70
   128
 43
0.0
 10
18.69832557618182
 20
0.9202812505879354
 10
18.69832557618182
 20
0.9969713548035965
  0
ARC
  5
66
100
AcDbEntity
  8
USP-GEO
100
AcDbCircle
 10
18.61810234696397
 20
0.9113117700743984
 30
0.0
 40
0.0859
100
AcDbArc
 50
272.1690370769729
 51
6.379547132321531
  0
ARC
  5
67
100
AcDbEntity
  8
USP-GEO
100
AcDbCircle
 10
18.61810234696397
 20
0.9895117700743973
 30
0.0
 40
0.0859
100
AcDbArc
 50
5.312392226699574
 51
87.59578048508696
  0
ARC
  5
68
100
AcDbEntity
  8
USP-GEO
100
AcDbCircle
 10
0.6181023469640115
 20
2.411311770074396
 30
0.0
 40
0.0859
100
AcDbArc
 50
266.8694144580296
 51
354.394731998517
  0
ARC
  5
69
100
AcDbEntity
  8
USP-GEO
100
AcDbCircle
 10
0.6181023469640044
 20
2.411311770074396
 30
0.0
 40
0.0859
100
AcDbArc
 50
184.9766717089552
 51
266.8694144580344
  0
ARC
  5
6A
100
AcDbEntity
  8
USP-GEO
100
AcDbCircle
 10
0.6181023469640115
 20
2.489511770074397
 30
0.0
 40
0.0859
100
AcDbArc
 50
353.2090333533669
 51
92.80027675897391
  0
ARC
  5
6B
100
AcDbEntity
  8
USP-GEO
100
AcDbCircle
 10
0.6181023469640115
 20
2.489511770074399
 30
0.0
 40
0.0859
100
AcDbArc
 50
92.80027675897397
 51
186.0313116736527
  0
LWPOLYLINE
  5
6C
100
AcDbEntity
  8
USP-GEO
100
AcDbPolyline
 90
        2
 70
   128
 43
0.0
 10
0.5368307295096291
 20
2.404234767160982
 10
0.5368307295096291
 20
2.480924871376643
  0
LWPOLYLINE
  5
6D
100
AcDbEntity
  8
USP-GEO
100
AcDbPolyline
 90
        2
 70
   128
 43
0.0
 10
0.6902109379409519
 20
2.404234767160982
 10
0.6902109379409519
 20
2.480924871376643
  0
LWPOLYLINE
  5
6E
100
AcDbEntity
  8
USP-GEO
100
AcDbPolyline
 90
        2
 70
   128
 43
0.0
 10
0.0
 20
2.737836720499108
 10
0.2300703126469839
 20
2.99347040121798
  0
ARC
  5
6F
100
AcDbEntity
  8
USP-GEO
100
AcDbCircle
 10
2.118102346964004
 20
1.989511770074397
 30
0.0
 40
0.0859
100
AcDbArc
 50
273.9774247536049
 51
4.000907133186959
  0
ARC
  5
70
100
AcDbEntity
  8
USP-GEO
100
AcDbCircle
 10
2.118102346964004
 20
1.989511770074397
 30
0.0
 40
0.0859
100
AcDbArc
 50
176.6426254612437
 51
273.9774247536049
  0
ARC
  5
71
100
AcDbEntity
  8
USP-GEO
100
AcDbCircle
 10
2.118102346964004
 20
2.067711770074398
 30
0.0
 40
0.0859
100
AcDbArc
 50
86.5084902413
 51
177.5292573720534
  0
LWPOLYLINE
  5
72
100
AcDbEntity
  8
USP-GEO
100
AcDbPolyline
 90
        2
 70
   128
 43
0.0
 10
2.020784246082675
 20
1.995220878010787
 10
2.020784246082675
 20
2.07191098222645
  0
ARC
  5
73
100
AcDbEntity
  8
USP-GEO
100
AcDbCircle
 10
2.118102346964004
 20
2.067711770074398
 30
0.0
 40
0.0859
100
AcDbArc
 50
2.944977844180921
 51
86.5084902413
  0
LWPOLYLINE
  5
74
100
AcDbEntity
  8
USP-GEO
100
AcDbPolyline
 90
        2
 70
   128
 43
0.0
 10
2.199727822585885
 20
1.995220878010787
 10
2.199727822585885
 20
2.07191098222645
  0
ARC
  5
75
100
AcDbEntity
  8
USP-GEO
100
AcDbCircle
 10
3.618102346964004
 20
2.411311770074396
 30
0.0
 40
0.0859
100
AcDbArc
 50
262.4442280675763
 51
355.5600181523723
  0
ARC
  5
76
100
AcDbEntity
  8
USP-GEO
100
AcDbCircle
 10
3.618102346963997
 20
2.411311770074396
 30
0.0
 40
0.0859
100
AcDbArc
 50
184.6082242819266
 51
262.4442280675811
  0
ARC
  5
77
100
AcDbEntity
  8
USP-GEO
100
AcDbCircle
 10
3.618102346964004
 20
2.489511770074399
 30
0.0
 40
0.0859
100
AcDbArc
 50
96.76504604432778
 51
185.585724511793
  0
LWPOLYLINE
  5
78
100
AcDbEntity
  8
USP-GEO
100
AcDbPolyline
 90
        2
 70
   128
 43
0.0
 10
3.530301130727609
 20
2.404234767160982
 10
3.530301130727609
 20
2.480924871376643
  0
ARC
  5
79
100
AcDbEntity
  8
USP-GEO
100
AcDbCircle
 10
3.618102346964004
 20
2.489511770074397
 30
0.0
 40
0.0859
100
AcDbArc
 50
354.6178147708956
 51
96.76504604432764
  0
LWPOLYLINE
  5
7A
100
AcDbEntity
  8
USP-GEO
100
AcDbPolyline
 90
        2
 70
   128
 43
0.0
 10
3.709244707230818
 20
2.404234767160982
 10
3.709244707230818
 20
2.480924871376643
  0
ARC
  5
7B
100
AcDbEntity
  8
USP-GEO
100
AcDbCircle
 10
5.118102346963997
 20
1.989511770074397
 30
0.0
 40
0.0859
100
AcDbArc
 50
267.6826697832619
 51
4.422487786265349
  0
ARC
  5
7C
100
AcDbEntity
  8
USP-GEO
100
AcDbCircle
 10
5.118102346963997
 20
1.989511770074397
 30
0.0
 40
0.0859
100
AcDbArc
 50
175.8957034304111
 51
267.6826697832619
  0
ARC
  5
7D
100
AcDbEntity
  8
USP-GEO
100
AcDbCircle
 10
5.118102346963997
 20
2.067711770074398
 30
0.0
 40
0.0859
100
AcDbArc
 50
3.255832695610791
 51
92.03373003375473
  0
ARC
  5
7E
100
AcDbEntity
  8
USP-GEO
100
AcDbCircle
 10
5.118102346963997
 20
2.067711770074398
 30
0.0
 40
0.0859
100
AcDbArc
 50
92.03373003375473
 51
176.9788015236502
  0
LWPOLYLINE
  5
7F
100
AcDbEntity
  8
USP-GEO
100
AcDbPolyline
 90
        2
 70
   128
 43
0.0
 10
5.038539846968948
 20
1.995220878010787
 10
5.038539846968948
 20
2.07191098222645
  0
LWPOLYLINE
  5
80
100
AcDbEntity
  8
USP-GEO
100
AcDbPolyline
 90
        2
 70
   128
 43
0.0
 10
5.19192005540027
 20
1.995220878010787
 10
5.19192005540027
 20
2.07191098222645
  0
ARC
  5
81
100
AcDbEntity
  8
USP-GEO
100
AcDbCircle
 10
6.618102346963997
 20
2.411311770074396
 30
0.0
 40
0.0859
100
AcDbArc
 50
274.5352614960546
 51
355.1459313919339
  0
ARC
  5
82
100
AcDbEntity
  8
USP-GEO
100
AcDbCircle
 10
6.61810234696399
 20
2.411311770074396
 30
0.0
 40
0.0859
100
AcDbArc
 50
184.233328950243
 51
274.5352614960594
  0
ARC
  5
83
100
AcDbEntity
  8
USP-GEO
100
AcDbCircle
 10
6.618102346963997
 20
2.489511770074397
 30
0.0
 40
0.0859
100
AcDbArc
 50
354.1169351044265
 51
85.94236776939697
  0
ARC
  5
84
100
AcDbEntity
  8
USP-GEO
100
AcDbCircle
 10
6.618102346963997
 20
2.489511770074399
 30
0.0
 40
0.0859
100
AcDbArc
 50
85.94236776939689
 51
185.1321177710415
  0
LWPOLYLINE
  5
85
100
AcDbEntity
  8
USP-GEO
100
AcDbPolyline
 90
        2
 70
   128
 43
0.0
 10
6.522493363541994
 20
2.404234767160982
 10
6.522493363541994
 20
2.480924871376643
  0
LWPOLYLINE
  5
86
100
AcDbEntity
  8
USP-GEO
100
AcDbPolyline
 90
        2
 70
   128
 43
0.0
 10
6.701436940045204
 20
2.404234767160982
 10
6.701436940045204
 20
2.480924871376643
  0
ARC
  5
87
100
AcDbEntity
  8
USP-GEO
100
AcDbCircle
 10
8.11810234696399
 20
1.989511770074397
 30
0.0
 40
0.0859
100
AcDbArc
 50
262.454644096038
 51
3.51848468771715
  0
ARC
  5
88
100
AcDbEntity
  8
USP-GEO
100
AcDbCircle
 10
8.11810234696399
 20
1.989511770074397
 30
0.0
 40
0.0859
100
AcDbArc
 50
176.2060448592675
 51
262.454644096038
  0
ARC
  5
89
100
AcDbEntity
  8
USP-GEO
100
AcDbCircle
 10
8.11810234696399
 20
2.067711770074398
 30
0.0
 40
0.0859
100
AcDbArc
 50
2.5894397053187
 51
96.62990088298318
  0
ARC
  5
8A
100
AcDbEntity
  8
USP-GEO
100
AcDbCircle
 10
8.11810234696399
 20
2.067711770074398
 30
0.0
 40
0.0859
100
AcDbArc
 50
96.62990088298318
 51
177.2075648176624
  0
LWPOLYLINE
  5
8B
100
AcDbEntity
  8
USP-GEO
100
AcDbPolyline
 90
        2
 70
   128
 43
0.0
 10
8.210953824690138
 20
1.995220878010787
 10
8.210953824690138
 20
2.07191098222645
  0
LWPOLYLINE
  5
8C
100
AcDbEntity
  8
USP-GEO
100
AcDbPolyline
 90
        2
 70
   128
 43
0.0
 10
8.032010248186928
 20
1.995220878010787
 10
8.032010248186928
 20
2.07191098222645
  0
ARC
  5
8D
100
AcDbEntity
  8
USP-GEO
100
AcDbCircle
 10
9.61810234696399
 20
2.411311770074396
 30
0.0
 40
0.0859
100
AcDbArc
 50
270.0785835036241
 51
354.735489983103
  0
ARC
  5
8E
100
AcDbEntity
  8
USP-GEO
100
AcDbCircle
 10
9.618102346963983
 20
2.411311770074396
 30
0.0
 40
0.0859
100
AcDbArc
 50
185.2802181360211
 51
270.0785835036289
  0
ARC
  5
8F
100
AcDbEntity
  8
USP-GEO
100
AcDbCircle
 10
9.61810234696399
 20
2.489511770074397
 30
0.0
 40
0.0859
100
AcDbArc
 50
353.6207482036135
 51
89.92972184909987
  0
ARC
  5
90
100
AcDbEntity
  8
USP-GEO
100
AcDbCircle
 10
9.61810234696399
 20
2.489511770074399
 30
0.0
 40
0.0859
100
AcDbArc
 50
89.92972184909987
 51
186.3982355853162
  0
LWPOLYLINE
  5
91
100
AcDbEntity
  8
USP-GEO
100
AcDbPolyline
 90
        2
 70
   128
 43
0.0
 10
9.541527132831861
 20
2.404234767160982
 10
9.541527132831861
 20
2.480924871376643
  0
LWPOLYLINE
  5
92
100
AcDbEntity
  8
USP-GEO
100
AcDbPolyline
 90
        2
 70
   128
 43
0.0
 10
9.694907341263183
 20
2.404234767160982
 10
9.694907341263183
 20
2.480924871376643
  0
ARC
  5
93
100
AcDbEntity
  8
USP-GEO
100
AcDbCircle
 10
11.11810234696398
 20
1.989511770074397
 30
0.0
 40
0.0859
100
AcDbArc
 50
276.7121464169878
 51
3.84058652984145
  0
ARC
  5
94
100
AcDbEntity
  8
USP-GEO
100
AcDbCircle
 10
11.11810234696398
 20
1.989511770074397
 30
0.0
 40
0.0859
100
AcDbArc
 50
176.5207020073741
 51
276.7121464169878
  0
ARC
  5
95
100
AcDbEntity
  8
USP-GEO
100
AcDbCircle
 10
11.11810234696398
 20
2.067711770074398
 30
0.0
 40
0.0859
100
AcDbArc
 50
2.826803821724963
 51
84.10384859405146
  0
ARC
  5
96
100
AcDbEntity
  8
USP-GEO
100
AcDbCircle
 10
11.11810234696398
 20
2.067711770074398
 30
0.0
 40
0.0859
100
AcDbArc
 50
84.10384859405146
 51
177.4394325892012
  0
LWPOLYLINE
  5
97
100
AcDbEntity
  8
USP-GEO
100
AcDbPolyline
 90
        2
 70
   128
 43
0.0
 10
11.02420248100131
 20
1.995220878010787
 10
11.02420248100131
 20
2.07191098222645
  0
LWPOLYLINE
  5
98
100
AcDbEntity
  8
USP-GEO
100
AcDbPolyline
 90
        2
 70
   128
 43
0.0
 10
11.20314605750452
 20
1.995220878010787
 10
11.20314605750452
 20
2.07191098222645
  0
ARC
  5
99
100
AcDbEntity
  8
USP-GEO
100
AcDbCircle
 10
12.61810234696397
 20
2.411311770074396
 30
0.0
 40
0.0859
100
AcDbArc
 50
184.7940436863322
 51
264.7528749970674
  0
ARC
  5
9A
100
AcDbEntity
  8
USP-GEO
100
AcDbCircle
 10
12.61810234696398
 20
2.411311770074396
 30
0.0
 40
0.0859
100
AcDbArc
 50
264.7528749970626
 51
355.7199098214614
  0
ARC
  5
9B
100
AcDbEntity
  8
USP-GEO
100
AcDbCircle
 10
12.61810234696398
 20
2.489511770074399
 30
0.0
 40
0.0859
100
AcDbArc
 50
94.69518963436717
 51
185.8104759356713
  0
ARC
  5
9C
100
AcDbEntity
  8
USP-GEO
100
AcDbCircle
 10
12.61810234696398
 20
2.489511770074397
 30
0.0
 40
0.0859
100
AcDbArc
 50
354.8112916102885
 51
94.69518963436705
  0
LWPOLYLINE
  5
9D
100
AcDbEntity
  8
USP-GEO
100
AcDbPolyline
 90
        2
 70
   128
 43
0.0
 10
12.53371936564624
 20
2.404234767160982
 10
12.53371936564624
 20
2.480924871376643
  0
LWPOLYLINE
  5
9E
100
AcDbEntity
  8
USP-GEO
100
AcDbPolyline
 90
        2
 70
   128
 43
0.0
 10
12.71266294214945
 20
2.404234767160982
 10
12.71266294214945
 20
2.480924871376643
  0
ARC
  5
9F
100
AcDbEntity
  8
USP-GEO
100
AcDbCircle
 10
14.11810234696397
 20
1.989511770074397
 30
0.0
 40
0.0859
100
AcDbArc
 50
271.4720128615446
 51
4.158909642996516
  0
ARC
  5
A0
100
AcDbEntity
  8
USP-GEO
100
AcDbCircle
 10
14.11810234696397
 20
1.989511770074397
 30
0.0
 40
0.0859
100
AcDbArc
 50
175.6392019971482
 51
271.4720128615446
  0
ARC
  5
A1
100
AcDbEntity
  8
USP-GEO
100
AcDbCircle
 10
14.11810234696397
 20
2.067711770074398
 30
0.0
 40
0.0859
100
AcDbArc
 50
3.061463891045507
 51
88.7082320531014
  0
ARC
  5
A2
100
AcDbEntity
  8
USP-GEO
100
AcDbCircle
 10
14.11810234696397
 20
2.067711770074398
 30
0.0
 40
0.0859
100
AcDbArc
 50
88.7082320531014
 51
176.7896643543046
  0
LWPOLYLINE
  5
A3
100
AcDbEntity
  8
USP-GEO
100
AcDbPolyline
 90
        2
 70
   128
 43
0.0
 10
14.04323625029118
 20
1.995220878010787
 10
14.04323625029118
 20
2.07191098222645
  0
LWPOLYLINE
  5
A4
100
AcDbEntity
  8
USP-GEO
100
AcDbPolyline
 90
        2
 70
   128
 43
0.0
 10
14.1966164587225
 20
1.995220878010787
 10
14.1966164587225
 20
2.07191098222645
  0
ARC
  5
A5
100
AcDbEntity
  8
USP-GEO
100
AcDbCircle
 10
15.61810234696397
 20
2.411311770074396
 30
0.0
 40
0.0859
100
AcDbArc
 50
184.3896890905786
 51
276.849968491291
  0
ARC
  5
A6
100
AcDbEntity
  8
USP-GEO
100
AcDbCircle
 10
15.61810234696397
 20
2.411311770074396
 30
0.0
 40
0.0859
100
AcDbArc
 50
276.849968491291
 51
355.3363305665089
  0
ARC
  5
A7
100
AcDbEntity
  8
USP-GEO
100
AcDbCircle
 10
15.61810234696397
 20
2.489511770074399
 30
0.0
 40
0.0859
100
AcDbArc
 50
83.86815672032758
 51
185.3213326669219
  0
ARC
  5
A8
100
AcDbEntity
  8
USP-GEO
100
AcDbCircle
 10
15.61810234696397
 20
2.489511770074397
 30
0.0
 40
0.0859
100
AcDbArc
 50
354.3472078735913
 51
83.86815672032771
  0
LWPOLYLINE
  5
A9
100
AcDbEntity
  8
USP-GEO
100
AcDbPolyline
 90
        2
 70
   128
 43
0.0
 10
15.70485517496384
 20
2.404234767160982
 10
15.70485517496384
 20
2.480924871376643
  0
LWPOLYLINE
  5
AA
100
AcDbEntity
  8
USP-GEO
100
AcDbPolyline
 90
        2
 70
   128
 43
0.0
 10
15.52591159846063
 20
2.404234767160982
 10
15.52591159846063
 20
2.480924871376643
  0
ARC
  5
AB
100
AcDbEntity
  8
USP-GEO
100
AcDbCircle
 10
17.11810234696397
 20
1.989511770074397
 30
0.0
 40
0.0859
100
AcDbArc
 50
176.049666759393
 51
265.1813093600075
  0
ARC
  5
AC
100
AcDbEntity
  8
USP-GEO
100
AcDbCircle
 10
17.11810234696397
 20
1.989511770074397
 30
0.0
 40
0.0859
100
AcDbArc
 50
265.1813093600075
 51
3.393851729316866
  0
ARC
  5
AD
100
AcDbEntity
  8
USP-GEO
100
AcDbCircle
 10
20.11810234696397
 20
1.989511770074397
 30
0.0
 40
0.0859
100
AcDbArc
 50
176.3896016876203
 51
259.0044967232301
  0
ARC
  5
AE
100
AcDbEntity
  8
USP-GEO
100
AcDbCircle
 10
18.61810234696397
 20
2.411311770074396
 30
0.0
 40
0.0859
100
AcDbArc
 50
184.1003697962456
 51
272.4151871126561
  0
ARC
  5
AF
100
AcDbEntity
  8
USP-GEO
100
AcDbCircle
 10
18.61810234696397
 20
2.489511770074399
 30
0.0
 40
0.0859
100
AcDbArc
 50
87.83981396067167
 51
184.9711927058665
  0
ARC
  5
B0
100
AcDbEntity
  8
USP-GEO
100
AcDbCircle
 10
17.11810234696397
 20
2.067711770074398
 30
0.0
 40
0.0859
100
AcDbArc
 50
2.497615409396388
 51
94.23072981059894
  0
ARC
  5
B1
100
AcDbEntity
  8
USP-GEO
100
AcDbCircle
 10
17.11810234696397
 20
2.067711770074398
 30
0.0
 40
0.0859
100
AcDbArc
 50
94.23072981059894
 51
177.0923029563521
  0
LWPOLYLINE
  5
B2
100
AcDbEntity
  8
USP-GEO
100
AcDbPolyline
 90
        2
 70
   128
 43
0.0
 10
17.03542848310556
 20
1.995220878010787
 10
17.03542848310556
 20
2.07191098222645
  0
LWPOLYLINE
  5
B3
100
AcDbEntity
  8
USP-GEO
100
AcDbPolyline
 90
        2
 70
   128
 43
0.0
 10
17.21437205960877
 20
1.995220878010787
 10
17.21437205960877
 20
2.07191098222645
  0
LWPOLYLINE
  5
B4
100
AcDbEntity
  8
USP-GEO
100
AcDbPolyline
 90
        2
 70
   128
 43
0.0
 10
18.51938199967861
 20
2.404234767160982
 10
18.51938199967861
 20
2.480924871376643
  0
ARC
  5
B5
100
AcDbEntity
  8
USP-GEO
100
AcDbCircle
 10
18.61810234696397
 20
2.411311770074396
 30
0.0
 40
0.0859
100
AcDbArc
 50
272.4151871126561
 51
354.958624231519
  0
ARC
  5
B6
100
AcDbEntity
  8
USP-GEO
100
AcDbCircle
 10
20.11810234696397
 20
2.067711770074398
 30
0.0
 40
0.0859
100
AcDbArc
 50
99.67581629339351
 51
177.3428350345156
  0
LWPOLYLINE
  5
B7
100
AcDbEntity
  8
USP-GEO
100
AcDbPolyline
 90
        2
 70
   128
 43
0.0
 10
20.02762071591995
 20
1.995220878010787
 10
20.02762071591995
 20
2.07191098222645
  0
ARC
  5
B8
100
AcDbEntity
  8
USP-GEO
100
AcDbCircle
 10
18.61810234696397
 20
2.489511770074397
 30
0.0
 40
0.0859
100
AcDbArc
 50
353.8904611200188
 51
87.8398139606717
  0
LWPOLYLINE
  5
B9
100
AcDbEntity
  8
USP-GEO
100
AcDbPolyline
 90
        2
 70
   128
 43
0.0
 10
18.69832557618182
 20
2.404234767160982
 10
18.69832557618182
 20
2.480924871376643
  0
LWPOLYLINE
  5
BA
100
AcDbEntity
  8
USP-GEO
100
AcDbPolyline
 90
        2
 70
   128
 43
0.0
 10
40.23546317674671
 20
0.2300703126469834
 10
40.23546317674671
 20
2.737836720499108
  0
ARC
  5
BB
100
AcDbEntity
  8
USP-GEO
100
AcDbCircle
 10
23.11810234696396
 20
0.5677117700743981
 30
0.0
 40
0.0859
100
AcDbArc
 50
86.90448654997664
 51
183.1375293771617
  0
ARC
  5
BC
100
AcDbEntity
  8
USP-GEO
100
AcDbCircle
 10
23.11810234696396
 20
0.5677117700743981
 30
0.0
 40
0.0859
100
AcDbArc
 50
356.2865282552918
 51
86.90448654997664
  0
LWPOLYLINE
  5
BD
100
AcDbEntity
  8
USP-GEO
100
AcDbPolyline
 90
        2
 70
   128
 43
0.0
 10
20.20784246082675
 20
0.4857039933658545
 10
20.20784246082675
 20
0.5623940975815156
  0
ARC
  5
BE
100
AcDbEntity
  8
USP-GEO
100
AcDbCircle
 10
23.11810234696396
 20
0.4895117700743974
 30
0.0
 40
0.0859
100
AcDbArc
 50
182.2477562537201
 51
273.7259967373543
  0
ARC
  5
BF
100
AcDbEntity
  8
USP-GEO
100
AcDbCircle
 10
23.11810234696396
 20
0.4895117700743974
 30
0.0
 40
0.0859
100
AcDbArc
 50
273.7259967373518
 51
357.3391136399866
  0
LWPOLYLINE
  5
C0
100
AcDbEntity
  8
USP-GEO
100
AcDbPolyline
 90
        2
 70
   128
 43
0.0
 10
23.02109111713793
 20
0.4857039933658545
 10
23.02109111713793
 20
0.5623940975815156
  0
LWPOLYLINE
  5
C1
100
AcDbEntity
  8
USP-GEO
100
AcDbPolyline
 90
        2
 70
   128
 43
0.0
 10
23.20003469364114
 20
0.4857039933658545
 10
23.20003469364114
 20
0.5623940975815156
  0
ARC
  5
C2
100
AcDbEntity
  8
USP-GEO
100
AcDbCircle
 10
21.61810234696396
 20
0.9895117700743973
 30
0.0
 40
0.0859
100
AcDbArc
 50
4.35379530836778
 51
92.90801568125706
  0
ARC
  5
C3
100
AcDbEntity
  8
USP-GEO
100
AcDbCircle
 10
21.61810234696396
 20
0.9113117700743984
 30
0.0
 40
0.0859
100
AcDbArc
 50
267.3763157300694
 51
5.230568027490429
  0
LWPOLYLINE
  5
C4
100
AcDbEntity
  8
USP-GEO
100
AcDbPolyline
 90
        2
 70
   128
 43
0.0
 10
21.53713760056488
 20
0.9202812505879354
 10
21.53713760056488
 20
0.9969713548035965
  0
ARC
  5
C5
100
AcDbEntity
  8
USP-GEO
100
AcDbCircle
 10
21.61810234696396
 20
0.9113117700743984
 30
0.0
 40
0.0859
100
AcDbArc
 50
173.6784049001968
 51
267.3763157300738
  0
ARC
  5
C6
100
AcDbEntity
  8
USP-GEO
100
AcDbCircle
 10
21.61810234696396
 20
0.9895117700743973
 30
0.0
 40
0.0859
100
AcDbArc
 50
92.90801568125706
 51
174.7359868423891
  0
LWPOLYLINE
  5
C7
100
AcDbEntity
  8
USP-GEO
100
AcDbPolyline
 90
        2
 70
   128
 43
0.0
 10
21.71608117706809
 20
0.9202812505879354
 10
21.71608117706809
 20
0.9969713548035965
  0
ARC
  5
C8
100
AcDbEntity
  8
USP-GEO
100
AcDbCircle
 10
26.11810234696395
 20
0.5677117700743981
 30
0.0
 40
0.0859
100
AcDbArc
 50
91.51604910181992
 51
183.8385188036053
  0
ARC
  5
C9
100
AcDbEntity
  8
USP-GEO
100
AcDbCircle
 10
26.11810234696395
 20
0.5677117700743981
 30
0.0
 40
0.0859
100
AcDbArc
 50
355.8966497491323
 51
91.51604910181992
  0
ARC
  5
CA
100
AcDbEntity
  8
USP-GEO
100
AcDbCircle
 10
26.11810234696396
 20
0.4895117700743974
 30
0.0
 40
0.0859
100
AcDbArc
 50
268.174560643088
 51
357.0593029696256
  0
ARC
  5
CB
100
AcDbEntity
  8
USP-GEO
100
AcDbCircle
 10
26.11810234696395
 20
0.4895117700743974
 30
0.0
 40
0.0859
100
AcDbArc
 50
182.750617293916
 51
268.1745606430905
  0
LWPOLYLINE
  5
CC
100
AcDbEntity
  8
USP-GEO
100
AcDbPolyline
 90
        2
 70
   128
 43
0.0
 10
26.0388467180242
 20
0.4857039933658545
 10
26.0388467180242
 20
0.5623940975815156
  0
LWPOLYLINE
  5
CD
100
AcDbEntity
  8
USP-GEO
100
AcDbPolyline
 90
        2
 70
   128
 43
0.0
 10
26.19222692645552
 20
0.4857039933658545
 10
26.19222692645552
 20
0.5623940975815156
  0
LWPOLYLINE
  5
CE
100
AcDbEntity
  8
USP-GEO
100
AcDbPolyline
 90
        2
 70
   128
 43
0.0
 10
24.53060800178286
 20
0.9202812505879354
 10
24.53060800178286
 20
0.9969713548035965
  0
LWPOLYLINE
  5
CF
100
AcDbEntity
  8
USP-GEO
100
AcDbPolyline
 90
        2
 70
   128
 43
0.0
 10
24.70955157828607
 20
0.9202812505879354
 10
24.70955157828607
 20
0.9969713548035965
  0
ARC
  5
D0
100
AcDbEntity
  8
USP-GEO
100
AcDbCircle
 10
24.61810234696396
 20
0.9113117700743984
 30
0.0
 40
0.0859
100
AcDbArc
 50
174.146771990548
 51
263.3933846554915
  0
ARC
  5
D1
100
AcDbEntity
  8
USP-GEO
100
AcDbCircle
 10
24.61810234696396
 20
0.9113117700743984
 30
0.0
 40
0.0859
100
AcDbArc
 50
263.3933846554893
 51
5.601740669850231
  0
ARC
  5
D2
100
AcDbEntity
  8
USP-GEO
100
AcDbCircle
 10
24.61810234696396
 20
0.9895117700743973
 30
0.0
 40
0.0859
100
AcDbArc
 50
4.663336506993774
 51
97.31635614358253
  0
ARC
  5
D3
100
AcDbEntity
  8
USP-GEO
100
AcDbCircle
 10
24.61810234696396
 20
0.9895117700743973
 30
0.0
 40
0.0859
100
AcDbArc
 50
97.31635614358253
 51
175.126866425781
  0
ARC
  5
D4
100
AcDbEntity
  8
USP-GEO
100
AcDbCircle
 10
29.11810234696395
 20
0.5677117700743981
 30
0.0
 40
0.0859
100
AcDbArc
 50
95.36015629160507
 51
183.5471239936163
  0
ARC
  5
D5
100
AcDbEntity
  8
USP-GEO
100
AcDbCircle
 10
29.11810234696395
 20
0.5677117700743981
 30
0.0
 40
0.0859
100
AcDbArc
 50
356.7329829215959
 51
95.36015629160507
  0
ARC
  5
D6
100
AcDbEntity
  8
USP-GEO
100
AcDbCircle
 10
29.11810234696395
 20
0.4895117700743974
 30
0.0
 40
0.0859
100
AcDbArc
 50
263.553724101493
 51
357.6593814686535
  0
ARC
  5
D7
100
AcDbEntity
  8
USP-GEO
100
AcDbCircle
 10
29.11810234696395
 20
0.4895117700743974
 30
0.0
 40
0.0859
100
AcDbArc
 50
182.5415380706119
 51
263.5537241014954
  0
LWPOLYLINE
  5
D8
100
AcDbEntity
  8
USP-GEO
100
AcDbPolyline
 90
        2
 70
   128
 43
0.0
 10
29.03231711924218
 20
0.4857039933658545
 10
29.03231711924218
 20
0.5623940975815156
  0
LWPOLYLINE
  5
D9
100
AcDbEntity
  8
USP-GEO
100
AcDbPolyline
 90
        2
 70
   128
 43
0.0
 10
29.21126069574539
 20
0.4857039933658545
 10
29.21126069574539
 20
0.5623940975815156
  0
LWPOLYLINE
  5
DA
100
AcDbEntity
  8
USP-GEO
100
AcDbPolyline
 90
        2
 70
   128
 43
0.0
 10
27.52280023459725
 20
0.9202812505879354
 10
27.52280023459725
 20
0.9969713548035965
  0
LWPOLYLINE
  5
DB
100
AcDbEntity
  8
USP-GEO
100
AcDbPolyline
 90
        2
 70
   128
 43
0.0
 10
27.70174381110046
 20
0.9202812505879354
 10
27.70174381110046
 20
0.9969713548035965
  0
ARC
  5
DC
100
AcDbEntity
  8
USP-GEO
100
AcDbCircle
 10
27.61810234696395
 20
0.9113117700743984
 30
0.0
 40
0.0859
100
AcDbArc
 50
174.6233720789623
 51
274.2617045586571
  0
ARC
  5
DD
100
AcDbEntity
  8
USP-GEO
100
AcDbCircle
 10
27.61810234696396
 20
0.9113117700743984
 30
0.0
 40
0.0859
100
AcDbArc
 50
274.2617045586549
 51
6.120850386008081
  0
ARC
  5
DE
100
AcDbEntity
  8
USP-GEO
100
AcDbCircle
 10
27.61810234696396
 20
0.9895117700743973
 30
0.0
 40
0.0859
100
AcDbArc
 50
85.27768517483906
 51
175.5244112159923
  0
ARC
  5
DF
100
AcDbEntity
  8
USP-GEO
100
AcDbCircle
 10
27.61810234696396
 20
0.9895117700743973
 30
0.0
 40
0.0859
100
AcDbArc
 50
5.096454438121877
 51
85.27768517483906
  0
ARC
  5
E0
100
AcDbEntity
  8
USP-GEO
100
AcDbCircle
 10
32.11810234696395
 20
0.5677117700743981
 30
0.0
 40
0.0859
100
AcDbArc
 50
84.89461237536996
 51
183.251877678664
  0
ARC
  5
E1
100
AcDbEntity
  8
USP-GEO
100
AcDbCircle
 10
32.11810234696395
 20
0.5677117700743981
 30
0.0
 40
0.0859
100
AcDbArc
 50
356.4348588203217
 51
84.89461237536996
  0
ARC
  5
E2
100
AcDbEntity
  8
USP-GEO
100
AcDbCircle
 10
32.11810234696395
 20
0.4895117700743974
 30
0.0
 40
0.0859
100
AcDbArc
 50
182.3297606978207
 51
276.1406272119208
  0
ARC
  5
E3
100
AcDbEntity
  8
USP-GEO
100
AcDbCircle
 10
32.11810234696395
 20
0.4895117700743974
 30
0.0
 40
0.0859
100
AcDbArc
 50
276.1406272119208
 51
357.4455362985291
  0
LWPOLYLINE
  5
E4
100
AcDbEntity
  8
USP-GEO
100
AcDbPolyline
 90
        2
 70
   128
 43
0.0
 10
32.02450935205657
 20
0.4857039933658545
 10
32.02450935205657
 20
0.5623940975815156
  0
LWPOLYLINE
  5
E5
100
AcDbEntity
  8
USP-GEO
100
AcDbPolyline
 90
        2
 70
   128
 43
0.0
 10
32.20345292855978
 20
0.4857039933658545
 10
32.20345292855978
 20
0.5623940975815156
  0
LWPOLYLINE
  5
E6
100
AcDbEntity
  8
USP-GEO
100
AcDbPolyline
 90
        2
 70
   128
 43
0.0
 10
30.54055583548352
 20
0.9202812505879354
 10
30.54055583548352
 20
0.9969713548035965
  0
LWPOLYLINE
  5
E7
100
AcDbEntity
  8
USP-GEO
100
AcDbPolyline
 90
        2
 70
   128
 43
0.0
 10
30.69393604391484
 20
0.9202812505879354
 10
30.69393604391484
 20
0.9969713548035965
  0
ARC
  5
E8
100
AcDbEntity
  8
USP-GEO
100
AcDbCircle
 10
30.61810234696395
 20
0.9113117700743984
 30
0.0
 40
0.0859
100
AcDbArc
 50
173.4021559420274
 51
269.4740025337235
  0
ARC
  5
E9
100
AcDbEntity
  8
USP-GEO
100
AcDbCircle
 10
30.61810234696395
 20
0.9113117700743984
 30
0.0
 40
0.0859
100
AcDbArc
 50
269.4740025337214
 51
6.745507709653987
  0
ARC
  5
EA
100
AcDbEntity
  8
USP-GEO
100
AcDbCircle
 10
30.61810234696395
 20
0.9895117700743973
 30
0.0
 40
0.0859
100
AcDbArc
 50
5.617979114931732
 51
90.58308983007163
  0
ARC
  5
EB
100
AcDbEntity
  8
USP-GEO
100
AcDbCircle
 10
30.61810234696395
 20
0.9895117700743973
 30
0.0
 40
0.0859
100
AcDbArc
 50
90.58308983007163
 51
174.5053405333122
  0
ARC
  5
EC
100
AcDbEntity
  8
USP-GEO
100
AcDbCircle
 10
35.11810234696393
 20
0.5677117700743981
 30
0.0
 40
0.0859
100
AcDbArc
 50
88.7407058011399
 51
184.0795105973294
  0
ARC
  5
ED
100
AcDbEntity
  8
USP-GEO
100
AcDbCircle
 10
35.11810234696393
 20
0.5677117700743981
 30
0.0
 40
0.0859
100
AcDbArc
 50
356.1403780791234
 51
88.7407058011399
  0
ARC
  5
EE
100
AcDbEntity
  8
USP-GEO
100
AcDbCircle
 10
35.11810234696393
 20
0.4895117700743974
 30
0.0
 40
0.0859
100
AcDbArc
 50
182.9235839417597
 51
271.5163361270983
  0
LWPOLYLINE
  5
EF
100
AcDbEntity
  8
USP-GEO
100
AcDbPolyline
 90
        2
 70
   128
 43
0.0
 10
35.04354312134643
 20
0.4857039933658545
 10
35.04354312134643
 20
0.5623940975815156
  0
ARC
  5
F0
100
AcDbEntity
  8
USP-GEO
100
AcDbCircle
 10
35.11810234696395
 20
0.4895117700743974
 30
0.0
 40
0.0859
100
AcDbArc
 50
271.5163361270882
 51
357.234238339066
  0
LWPOLYLINE
  5
F1
100
AcDbEntity
  8
USP-GEO
100
AcDbPolyline
 90
        2
 70
   128
 43
0.0
 10
35.19692332977776
 20
0.4857039933658545
 10
35.19692332977776
 20
0.5623940975815156
  0
LWPOLYLINE
  5
F2
100
AcDbEntity
  8
USP-GEO
100
AcDbPolyline
 90
        2
 70
   128
 43
0.0
 10
33.53402623670151
 20
0.9202812505879354
 10
33.53402623670151
 20
0.9969713548035965
  0
LWPOLYLINE
  5
F3
100
AcDbEntity
  8
USP-GEO
100
AcDbPolyline
 90
        2
 70
   128
 43
0.0
 10
33.71296981320471
 20
0.9202812505879354
 10
33.71296981320471
 20
0.9969713548035965
  0
ARC
  5
F4
100
AcDbEntity
  8
USP-GEO
100
AcDbCircle
 10
33.61810234696395
 20
0.9113117700743984
 30
0.0
 40
0.0859
100
AcDbArc
 50
173.9105540622836
 51
265.4729000774776
  0
ARC
  5
F5
100
AcDbEntity
  8
USP-GEO
100
AcDbCircle
 10
33.61810234696395
 20
0.9113117700743984
 30
0.0
 40
0.0859
100
AcDbArc
 50
265.4729000774776
 51
5.401116208978558
  0
ARC
  5
F6
100
AcDbEntity
  8
USP-GEO
100
AcDbCircle
 10
33.61810234696395
 20
0.9895117700743973
 30
0.0
 40
0.0859
100
AcDbArc
 50
4.496010323283265
 51
95.01612348061321
  0
ARC
  5
F7
100
AcDbEntity
  8
USP-GEO
100
AcDbCircle
 10
33.61810234696395
 20
0.9895117700743973
 30
0.0
 40
0.0859
100
AcDbArc
 50
95.01612348061321
 51
174.929754886503
  0
ARC
  5
F8
100
AcDbEntity
  8
USP-GEO
100
AcDbCircle
 10
38.11810234696393
 20
0.5677117700743981
 30
0.0
 40
0.0859
100
AcDbArc
 50
93.35160667156477
 51
183.6939303555899
  0
ARC
  5
F9
100
AcDbEntity
  8
USP-GEO
100
AcDbCircle
 10
38.11810234696393
 20
0.5677117700743981
 30
0.0
 40
0.0859
100
AcDbArc
 50
356.8483784696099
 51
93.35160667156477
  0
ARC
  5
FA
100
AcDbEntity
  8
USP-GEO
100
AcDbCircle
 10
38.11810234696395
 20
0.4895117700743974
 30
0.0
 40
0.0859
100
AcDbArc
 50
265.9660535231266
 51
357.7421380908657
  0
ARC
  5
FB
100
AcDbEntity
  8
USP-GEO
100
AcDbCircle
 10
38.11810234696393
 20
0.4895117700743974
 30
0.0
 40
0.0859
100
AcDbArc
 50
182.6468650294901
 51
265.9660535231367
  0
LWPOLYLINE
  5
FC
100
AcDbEntity
  8
USP-GEO
100
AcDbPolyline
 90
        2
 70
   128
 43
0.0
 10
38.03573535416082
 20
0.4857039933658545
 10
38.03573535416082
 20
0.5623940975815156
  0
LWPOLYLINE
  5
FD
100
AcDbEntity
  8
USP-GEO
100
AcDbPolyline
 90
        2
 70
   128
 43
0.0
 10
38.21467893066403
 20
0.4857039933658545
 10
38.21467893066403
 20
0.5623940975815156
  0
LWPOLYLINE
  5
FE
100
AcDbEntity
  8
USP-GEO
100
AcDbPolyline
 90
        2
 70
   128
 43
0.0
 10
36.52621846951588
 20
0.9202812505879354
 10
36.52621846951588
 20
0.9969713548035965
  0
LWPOLYLINE
  5
FF
100
AcDbEntity
  8
USP-GEO
100
AcDbPolyline
 90
        2
 70
   128
 43
0.0
 10
36.70516204601909
 20
0.9202812505879354
 10
36.70516204601909
 20
0.9969713548035965
  0
ARC
  5
100
100
AcDbEntity
  8
USP-GEO
100
AcDbCircle
 10
36.61810234696393
 20
0.9113117700743984
 30
0.0
 40
0.0859
100
AcDbArc
 50
174.4245903674482
 51
276.3430474682432
  0
ARC
  5
101
100
AcDbEntity
  8
USP-GEO
100
AcDbCircle
 10
36.61810234696395
 20
0.9113117700743984
 30
0.0
 40
0.0859
100
AcDbArc
 50
276.3430474682345
 51
5.882245889425367
  0
ARC
  5
102
100
AcDbEntity
  8
USP-GEO
100
AcDbCircle
 10
36.61810234696395
 20
0.9895117700743973
 30
0.0
 40
0.0859
100
AcDbArc
 50
82.97497353847703
 51
175.3586262647416
  0
ARC
  5
103
100
AcDbEntity
  8
USP-GEO
100
AcDbCircle
 10
36.61810234696395
 20
0.9895117700743973
 30
0.0
 40
0.0859
100
AcDbArc
 50
4.897344692413016
 51
82.97497353847703
  0
LWPOLYLINE
  5
104
100
AcDbEntity
  8
USP-GEO
100
AcDbPolyline
 90
        2
 70
   128
 43
0.0
 10
40.00539286409972
 20
0.0
 10
40.23546317674671
 20
0.2300703126469834
  0
LWPOLYLINE
  5
105
100
AcDbEntity
  8
USP-GEO
100
AcDbPolyline
 90
        2
 70
   128
 43
0.0
 10
39.69863244723707
 20
0.9202812505879354
 10
39.69863244723707
 20
0.9969713548035965
  0
LWPOLYLINE
  5
106
100
AcDbEntity
  8
USP-GEO
100
AcDbPolyline
 90
        2
 70
   128
 43
0.0
 10
39.54525223880576
 20
0.9202812505879354
 10
39.54525223880576
 20
0.9969713548035965
  0
ARC
  5
107
100
AcDbEntity
  8
USP-GEO
100
AcDbCircle
 10
39.61810234696393
 20
0.9113117700743984
 30
0.0
 40
0.0859
100
AcDbArc
 50
172.9809312382302
 51
272.3572256684988
  0
ARC
  5
108
100
AcDbEntity
  8
USP-GEO
100
AcDbCircle
 10
39.61810234696395
 20
0.9113117700743984
 30
0.0
 40
0.0859
100
AcDbArc
 50
272.3572256684901
 51
6.355436280945627
  0
ARC
  5
109
100
AcDbEntity
  8
USP-GEO
100
AcDbCircle
 10
39.61810234696393
 20
0.9895117700743973
 30
0.0
 40
0.0859
100
AcDbArc
 50
5.292263786998324
 51
87.38723882090294
  0
ARC
  5
10A
100
AcDbEntity
  8
USP-GEO
100
AcDbCircle
 10
39.61810234696393
 20
0.9895117700743973
 30
0.0
 40
0.0859
100
AcDbArc
 50
87.38723882090294
 51
174.1534983805953
  0
ARC
  5
10B
100
AcDbEntity
  8
USP-GEO
100
AcDbCircle
 10
23.11810234696396
 20
1.989511770074397
 30
0.0
 40
0.0859
100
AcDbArc
 50
176.6320296455023
 51
274.2238636932551
  0
ARC
  5
10C
100
AcDbEntity
  8
USP-GEO
100
AcDbCircle
 10
23.11810234696396
 20
1.989511770074397
 30
0.0
 40
0.0859
100
AcDbArc
 50
274.2238636932522
 51
3.985970448226147
  0
ARC
  5
10D
100
AcDbEntity
  8
USP-GEO
100
AcDbCircle
 10
21.61810234696396
 20
2.411311770074396
 30
0.0
 40
0.0859
100
AcDbArc
 50
267.0787257590274
 51
355.8687050907317
  0
ARC
  5
10E
100
AcDbEntity
  8
USP-GEO
100
AcDbCircle
 10
21.61810234696396
 20
2.489511770074397
 30
0.0
 40
0.0859
100
AcDbArc
 50
354.9913752906297
 51
92.61298269518496
  0
ARC
  5
10F
100
AcDbEntity
  8
USP-GEO
100
AcDbCircle
 10
21.61810234696396
 20
2.411311770074396
 30
0.0
 40
0.0859
100
AcDbArc
 50
184.995438930796
 51
267.0787257590323
  0
LWPOLYLINE
  5
110
100
AcDbEntity
  8
USP-GEO
100
AcDbPolyline
 90
        2
 70
   128
 43
0.0
 10
20.20784246082675
 20
1.995220878010787
 10
20.20784246082675
 20
2.07191098222645
  0
ARC
  5
111
100
AcDbEntity
  8
USP-GEO
100
AcDbCircle
 10
21.61810234696396
 20
2.489511770074399
 30
0.0
 40
0.0859
100
AcDbArc
 50
92.61298269518499
 51
186.0540019882314
  0
LWPOLYLINE
  5
112
100
AcDbEntity
  8
USP-GEO
100
AcDbPolyline
 90
        2
 70
   128
 43
0.0
 10
21.53713760056488
 20
2.404234767160982
 10
21.53713760056488
 20
2.480924871376643
  0
ARC
  5
113
100
AcDbEntity
  8
USP-GEO
100
AcDbCircle
 10
23.11810234696396
 20
2.067711770074398
 30
0.0
 40
0.0859
100
AcDbArc
 50
86.29198349070829
 51
177.5214515195938
  0
ARC
  5
114
100
AcDbEntity
  8
USP-GEO
100
AcDbCircle
 10
23.11810234696396
 20
2.067711770074398
 30
0.0
 40
0.0859
100
AcDbArc
 50
2.933966973280301
 51
86.29198349070829
  0
LWPOLYLINE
  5
115
100
AcDbEntity
  8
USP-GEO
100
AcDbPolyline
 90
        2
 70
   128
 43
0.0
 10
23.02109111713793
 20
1.995220878010787
 10
23.02109111713793
 20
2.07191098222645
  0
LWPOLYLINE
  5
116
100
AcDbEntity
  8
USP-GEO
100
AcDbPolyline
 90
        2
 70
   128
 43
0.0
 10
23.20003469364114
 20
1.995220878010787
 10
23.20003469364114
 20
2.07191098222645
  0
LWPOLYLINE
  5
117
100
AcDbEntity
  8
USP-GEO
100
AcDbPolyline
 90
        2
 70
   128
 43
0.0
 10
21.71608117706809
 20
2.404234767160982
 10
21.71608117706809
 20
2.480924871376643
  0
ARC
  5
118
100
AcDbEntity
  8
USP-GEO
100
AcDbCircle
 10
26.11810234696395
 20
1.989511770074397
 30
0.0
 40
0.0859
100
AcDbArc
 50
175.8798665651369
 51
267.9300124392157
  0
ARC
  5
119
100
AcDbEntity
  8
USP-GEO
100
AcDbCircle
 10
26.11810234696396
 20
1.989511770074397
 30
0.0
 40
0.0859
100
AcDbArc
 50
267.9300124392128
 51
4.404251153110579
  0
ARC
  5
11A
100
AcDbEntity
  8
USP-GEO
100
AcDbCircle
 10
24.61810234696396
 20
2.411311770074396
 30
0.0
 40
0.0859
100
AcDbArc
 50
184.6243168437563
 51
262.650593048103
  0
ARC
  5
11B
100
AcDbEntity
  8
USP-GEO
100
AcDbCircle
 10
24.61810234696396
 20
2.411311770074396
 30
0.0
 40
0.0859
100
AcDbArc
 50
262.6505930481006
 51
355.5748578738552
  0
ARC
  5
11C
100
AcDbEntity
  8
USP-GEO
100
AcDbCircle
 10
24.61810234696396
 20
2.489511770074399
 30
0.0
 40
0.0859
100
AcDbArc
 50
96.57986768407509
 51
185.6051909176952
  0
ARC
  5
11D
100
AcDbEntity
  8
USP-GEO
100
AcDbCircle
 10
24.61810234696396
 20
2.489511770074397
 30
0.0
 40
0.0859
100
AcDbArc
 50
354.6357699381404
 51
96.57986768407498
  0
LWPOLYLINE
  5
11E
100
AcDbEntity
  8
USP-GEO
100
AcDbPolyline
 90
        2
 70
   128
 43
0.0
 10
24.70955157828607
 20
2.404234767160982
 10
24.70955157828607
 20
2.480924871376643
  0
LWPOLYLINE
  5
11F
100
AcDbEntity
  8
USP-GEO
100
AcDbPolyline
 90
        2
 70
   128
 43
0.0
 10
24.53060800178286
 20
2.404234767160982
 10
24.53060800178286
 20
2.480924871376643
  0
ARC
  5
120
100
AcDbEntity
  8
USP-GEO
100
AcDbCircle
 10
26.11810234696395
 20
2.067711770074398
 30
0.0
 40
0.0859
100
AcDbArc
 50
3.242382573154386
 51
91.81661171733448
  0
ARC
  5
121
100
AcDbEntity
  8
USP-GEO
100
AcDbCircle
 10
26.11810234696395
 20
2.067711770074398
 30
0.0
 40
0.0859
100
AcDbArc
 50
91.81661171733448
 51
176.9671254971488
  0
LWPOLYLINE
  5
122
100
AcDbEntity
  8
USP-GEO
100
AcDbPolyline
 90
        2
 70
   128
 43
0.0
 10
26.0388467180242
 20
1.995220878010787
 10
26.0388467180242
 20
2.07191098222645
  0
LWPOLYLINE
  5
123
100
AcDbEntity
  8
USP-GEO
100
AcDbPolyline
 90
        2
 70
   128
 43
0.0
 10
26.19222692645552
 20
1.995220878010787
 10
26.19222692645552
 20
2.07191098222645
  0
ARC
  5
124
100
AcDbEntity
  8
USP-GEO
100
AcDbCircle
 10
29.11810234696395
 20
1.989511770074397
 30
0.0
 40
0.0859
100
AcDbArc
 50
176.1925129661603
 51
262.6982145841177
  0
ARC
  5
125
100
AcDbEntity
  8
USP-GEO
100
AcDbCircle
 10
29.11810234696395
 20
1.989511770074397
 30
0.0
 40
0.0859
100
AcDbArc
 50
262.6982145841148
 51
3.506923490691366
  0
ARC
  5
126
100
AcDbEntity
  8
USP-GEO
100
AcDbCircle
 10
27.61810234696395
 20
2.411311770074396
 30
0.0
 40
0.0859
100
AcDbArc
 50
184.246910398181
 51
274.7437844129892
  0
ARC
  5
127
100
AcDbEntity
  8
USP-GEO
100
AcDbCircle
 10
27.61810234696396
 20
2.411311770074396
 30
0.0
 40
0.0859
100
AcDbArc
 50
274.7437844129868
 51
355.1636557920911
  0
ARC
  5
128
100
AcDbEntity
  8
USP-GEO
100
AcDbCircle
 10
27.61810234696396
 20
2.489511770074399
 30
0.0
 40
0.0859
100
AcDbArc
 50
85.75563866426099
 51
185.1485544232591
  0
ARC
  5
129
100
AcDbEntity
  8
USP-GEO
100
AcDbCircle
 10
27.61810234696396
 20
2.489511770074397
 30
0.0
 40
0.0859
100
AcDbArc
 50
354.1383688396357
 51
85.75563866426106
  0
LWPOLYLINE
  5
12A
100
AcDbEntity
  8
USP-GEO
100
AcDbPolyline
 90
        2
 70
   128
 43
0.0
 10
27.52280023459725
 20
2.404234767160982
 10
27.52280023459725
 20
2.480924871376643
  0
LWPOLYLINE
  5
12B
100
AcDbEntity
  8
USP-GEO
100
AcDbPolyline
 90
        2
 70
   128
 43
0.0
 10
27.70174381110046
 20
2.404234767160982
 10
27.70174381110046
 20
2.480924871376643
  0
ARC
  5
12C
100
AcDbEntity
  8
USP-GEO
100
AcDbCircle
 10
29.11810234696395
 20
2.067711770074398
 30
0.0
 40
0.0859
100
AcDbArc
 50
2.580921436659133
 51
96.415342104696
  0
ARC
  5
12D
100
AcDbEntity
  8
USP-GEO
100
AcDbCircle
 10
29.11810234696395
 20
2.067711770074398
 30
0.0
 40
0.0859
100
AcDbArc
 50
96.415342104696
 51
177.1975916094449
  0
LWPOLYLINE
  5
12E
100
AcDbEntity
  8
USP-GEO
100
AcDbPolyline
 90
        2
 70
   128
 43
0.0
 10
29.03231711924218
 20
1.995220878010787
 10
29.03231711924218
 20
2.07191098222645
  0
LWPOLYLINE
  5
12F
100
AcDbEntity
  8
USP-GEO
100
AcDbPolyline
 90
        2
 70
   128
 43
0.0
 10
29.21126069574539
 20
1.995220878010787
 10
29.21126069574539
 20
2.07191098222645
  0
ARC
  5
130
100
AcDbEntity
  8
USP-GEO
100
AcDbCircle
 10
32.11810234696395
 20
1.989511770074397
 30
0.0
 40
0.0859
100
AcDbArc
 50
176.5093223082945
 51
276.9563443852678
  0
ARC
  5
131
100
AcDbEntity
  8
USP-GEO
100
AcDbCircle
 10
32.11810234696395
 20
1.989511770074397
 30
0.0
 40
0.0859
100
AcDbArc
 50
276.9563443852678
 51
3.826819117617043
  0
ARC
  5
132
100
AcDbEntity
  8
USP-GEO
100
AcDbCircle
 10
30.61810234696395
 20
2.411311770074396
 30
0.0
 40
0.0859
100
AcDbArc
 50
185.214448425338
 51
269.4142472624287
  0
ARC
  5
133
100
AcDbEntity
  8
USP-GEO
100
AcDbCircle
 10
30.61810234696395
 20
2.411311770074396
 30
0.0
 40
0.0859
100
AcDbArc
 50
269.4142472624263
 51
354.6684469280719
  0
ARC
  5
134
100
AcDbEntity
  8
USP-GEO
100
AcDbCircle
 10
30.61810234696395
 20
2.489511770074399
 30
0.0
 40
0.0859
100
AcDbArc
 50
90.52384914569175
 51
186.318747705275
  0
ARC
  5
135
100
AcDbEntity
  8
USP-GEO
100
AcDbCircle
 10
30.61810234696395
 20
2.489511770074397
 30
0.0
 40
0.0859
100
AcDbArc
 50
353.5397275581445
 51
90.52384914569175
  0
LWPOLYLINE
  5
136
100
AcDbEntity
  8
USP-GEO
100
AcDbPolyline
 90
        2
 70
   128
 43
0.0
 10
30.69393604391484
 20
2.404234767160982
 10
30.69393604391484
 20
2.480924871376643
  0
LWPOLYLINE
  5
137
100
AcDbEntity
  8
USP-GEO
100
AcDbPolyline
 90
        2
 70
   128
 43
0.0
 10
30.54055583548352
 20
2.404234767160982
 10
30.54055583548352
 20
2.480924871376643
  0
ARC
  5
138
100
AcDbEntity
  8
USP-GEO
100
AcDbCircle
 10
32.11810234696395
 20
2.067711770074398
 30
0.0
 40
0.0859
100
AcDbArc
 50
83.8888628029859
 51
177.4310482750852
  0
ARC
  5
139
100
AcDbEntity
  8
USP-GEO
100
AcDbCircle
 10
32.11810234696395
 20
2.067711770074398
 30
0.0
 40
0.0859
100
AcDbArc
 50
2.816656675481675
 51
83.8888628029859
  0
LWPOLYLINE
  5
13A
100
AcDbEntity
  8
USP-GEO
100
AcDbPolyline
 90
        2
 70
   128
 43
0.0
 10
32.02450935205657
 20
1.995220878010787
 10
32.02450935205657
 20
2.07191098222645
  0
LWPOLYLINE
  5
13B
100
AcDbEntity
  8
USP-GEO
100
AcDbPolyline
 90
        2
 70
   128
 43
0.0
 10
32.20345292855978
 20
1.995220878010787
 10
32.20345292855978
 20
2.07191098222645
  0
ARC
  5
13C
100
AcDbEntity
  8
USP-GEO
100
AcDbCircle
 10
35.11810234696393
 20
1.989511770074397
 30
0.0
 40
0.0859
100
AcDbArc
 50
175.6213234723059
 51
271.7195263463237
  0
ARC
  5
13D
100
AcDbEntity
  8
USP-GEO
100
AcDbCircle
 10
35.11810234696395
 20
1.989511770074397
 30
0.0
 40
0.0859
100
AcDbArc
 50
271.7195263463123
 51
4.14277438575524
  0
ARC
  5
13E
100
AcDbEntity
  8
USP-GEO
100
AcDbCircle
 10
33.61810234696395
 20
2.411311770074396
 30
0.0
 40
0.0859
100
AcDbArc
 50
184.8114595626532
 51
264.9610845197732
  0
ARC
  5
13F
100
AcDbEntity
  8
USP-GEO
100
AcDbCircle
 10
33.61810234696395
 20
2.411311770074396
 30
0.0
 40
0.0859
100
AcDbArc
 50
264.9610845197732
 51
355.7337035756972
  0
ARC
  5
140
100
AcDbEntity
  8
USP-GEO
100
AcDbCircle
 10
33.61810234696395
 20
2.489511770074399
 30
0.0
 40
0.0859
100
AcDbArc
 50
94.50868534496882
 51
185.8315378106246
  0
ARC
  5
141
100
AcDbEntity
  8
USP-GEO
100
AcDbCircle
 10
33.61810234696395
 20
2.489511770074397
 30
0.0
 40
0.0859
100
AcDbArc
 50
354.8279845297001
 51
94.50868534496871
  0
LWPOLYLINE
  5
142
100
AcDbEntity
  8
USP-GEO
100
AcDbPolyline
 90
        2
 70
   128
 43
0.0
 10
33.71296981320471
 20
2.404234767160982
 10
33.71296981320471
 20
2.480924871376643
  0
LWPOLYLINE
  5
143
100
AcDbEntity
  8
USP-GEO
100
AcDbPolyline
 90
        2
 70
   128
 43
0.0
 10
33.53402623670151
 20
2.404234767160982
 10
33.53402623670151
 20
2.480924871376643
  0
ARC
  5
144
100
AcDbEntity
  8
USP-GEO
100
AcDbCircle
 10
35.11810234696393
 20
2.067711770074398
 30
0.0
 40
0.0859
100
AcDbArc
 50
88.49099824819424
 51
176.7764790542725
  0
LWPOLYLINE
  5
145
100
AcDbEntity
  8
USP-GEO
100
AcDbPolyline
 90
        2
 70
   128
 43
0.0
 10
35.04354312134643
 20
1.995220878010787
 10
35.04354312134643
 20
2.07191098222645
  0
ARC
  5
146
100
AcDbEntity
  8
USP-GEO
100
AcDbCircle
 10
35.11810234696393
 20
2.067711770074398
 30
0.0
 40
0.0859
100
AcDbArc
 50
3.049567339137754
 51
88.49099824819424
  0
LWPOLYLINE
  5
147
100
AcDbEntity
  8
USP-GEO
100
AcDbPolyline
 90
        2
 70
   128
 43
0.0
 10
35.19692332977776
 20
1.995220878010787
 10
35.19692332977776
 20
2.07191098222645
  0
ARC
  5
148
100
AcDbEntity
  8
USP-GEO
100
AcDbCircle
 10
38.11810234696393
 20
1.989511770074397
 30
0.0
 40
0.0859
100
AcDbArc
 50
176.0349960342427
 51
265.4273549209547
  0
ARC
  5
149
100
AcDbEntity
  8
USP-GEO
100
AcDbCircle
 10
38.11810234696395
 20
1.989511770074397
 30
0.0
 40
0.0859
100
AcDbArc
 50
265.4273549209433
 51
3.383092889306939
  0
ARC
  5
14A
100
AcDbEntity
  8
USP-GEO
100
AcDbCircle
 10
36.61810234696393
 20
2.411311770074396
 30
0.0
 40
0.0859
100
AcDbArc
 50
184.4042920560652
 51
277.0567884549127
  0
ARC
  5
14B
100
AcDbEntity
  8
USP-GEO
100
AcDbCircle
 10
36.61810234696395
 20
2.411311770074396
 30
0.0
 40
0.0859
100
AcDbArc
 50
277.0567884549031
 51
355.352697099637
  0
ARC
  5
14C
100
AcDbEntity
  8
USP-GEO
100
AcDbCircle
 10
36.61810234696395
 20
2.489511770074399
 30
0.0
 40
0.0859
100
AcDbArc
 50
83.6826508656582
 51
185.3390021666119
  0
LWPOLYLINE
  5
14D
100
AcDbEntity
  8
USP-GEO
100
AcDbPolyline
 90
        2
 70
   128
 43
0.0
 10
36.52621846951588
 20
2.404234767160982
 10
36.52621846951588
 20
2.480924871376643
  0
ARC
  5
14E
100
AcDbEntity
  8
USP-GEO
100
AcDbCircle
 10
36.61810234696395
 20
2.489511770074397
 30
0.0
 40
0.0859
100
AcDbArc
 50
354.3670046617598
 51
83.68265086565832
  0
LWPOLYLINE
  5
14F
100
AcDbEntity
  8
USP-GEO
100
AcDbPolyline
 90
        2
 70
   128
 43
0.0
 10
36.70516204601909
 20
2.404234767160982
 10
36.70516204601909
 20
2.480924871376643
  0
ARC
  5
150
100
AcDbEntity
  8
USP-GEO
100
AcDbCircle
 10
38.11810234696393
 20
2.067711770074398
 30
0.0
 40
0.0859
100
AcDbArc
 50
2.489689265378163
 51
94.01448958959894
  0
ARC
  5
151
100
AcDbEntity
  8
USP-GEO
100
AcDbCircle
 10
38.11810234696393
 20
2.067711770074398
 30
0.0
 40
0.0859
100
AcDbArc
 50
94.01448958959894
 51
177.0814885725786
  0
LWPOLYLINE
  5
152
100
AcDbEntity
  8
USP-GEO
100
AcDbPolyline
 90
        2
 70
   128
 43
0.0
 10
38.03573535416082
 20
1.995220878010787
 10
38.03573535416082
 20
2.07191098222645
  0
LWPOLYLINE
  5
153
100
AcDbEntity
  8
USP-GEO
100
AcDbPolyline
 90
        2
 70
   128
 43
0.0
 10
38.21467893066403
 20
1.995220878010787
 10
38.21467893066403
 20
2.07191098222645
  0
ARC
  5
154
100
AcDbEntity
  8
USP-GEO
100
AcDbCircle
 10
39.61810234696393
 20
2.411311770074396
 30
0.0
 40
0.0859
100
AcDbArc
 50
185.5485716825794
 51
272.6246775539348
  0
ARC
  5
155
100
AcDbEntity
  8
USP-GEO
100
AcDbCircle
 10
39.61810234696395
 20
2.411311770074396
 30
0.0
 40
0.0859
100
AcDbArc
 50
272.6246775539252
 51
354.9777366508169
  0
ARC
  5
156
100
AcDbEntity
  8
USP-GEO
100
AcDbCircle
 10
39.61810234696393
 20
2.489511770074397
 30
0.0
 40
0.0859
100
AcDbArc
 50
87.65239164287457
 51
186.7224794748913
  0
ARC
  5
157
100
AcDbEntity
  8
USP-GEO
100
AcDbCircle
 10
39.61810234696393
 20
2.489511770074399
 30
0.0
 40
0.0859
100
AcDbArc
 50
353.9135672813181
 51
87.65239164287454
  0
LWPOLYLINE
  5
158
100
AcDbEntity
  8
USP-GEO
100
AcDbPolyline
 90
        2
 70
   128
 43
0.0
 10
39.69863244723707
 20
2.404234767160982
 10
39.69863244723707
 20
2.480924871376643
  0
LWPOLYLINE
  5
159
100
AcDbEntity
  8
USP-GEO
100
AcDbPolyline
 90
        2
 70
   128
 43
0.0
 10
39.54525223880576
 20
2.404234767160982
 10
39.54525223880576
 20
2.480924871376643
  0
LWPOLYLINE
  5
15A
100
AcDbEntity
  8
USP-GEO
100
AcDbPolyline
 90
        2
 70
   128
 43
0.0
 10
40.00539286409972
 20
2.99347040121798
 10
40.23546317674671
 20
2.737836720499108
  0
ENDBLK
  5
15D
100
AcDbEntity
  8
0
100
AcDbBlockEnd
  0
ENDSEC
  0
SECTION
  2
ENTITIES
  0
INSERT
  5
3
100
AcDbEntity
  8
USP
100
AcDbBlockReference
  2
MSTC40_F
 10
0.0079476531411304
 20
3.22267712061587
 30
0.0
  0
ENDSEC
  0
SECTION
  2
OBJECTS
  0
DICTIONARY
  5
176
102
{ACAD_XDICTIONARY
360
177
102
}
100
AcDbDictionary
  3
ACAD_GROUP
350
174
  3
ACAD_MLINESTYLE
350
175
  0
DICTIONARY
  5
E
100
AcDbDictionary
280
     1
  3
ACAD_XREC_ROUNDTRIP
360
F
  0
DICTIONARY
  5
9
100
AcDbDictionary
280
     1
  3
ACAD_XREC_ROUNDTRIP
360
A
  0
DICTIONARY
  5
15E
100
AcDbDictionary
280
     1
  3
ACAD_LAYOUTSELFREF
360
15F
  0
DICTIONARY
  5
163
100
AcDbDictionary
280
     1
  3
ACAD_LAYOUTSELFREF
360
164
  0
DICTIONARY
  5
177
100
AcDbDictionary
280
     1
  3
ACAD_XREC_ROUNDTRIP
360
178
  0
DICTIONARY
  5
174
102
{ACAD_REACTORS
330
176
102
}
100
AcDbDictionary
  0
DICTIONARY
  5
175
102
{ACAD_REACTORS
330
176
102
}
100
AcDbDictionary
  3
STANDARD
350
179
  0
XRECORD
  5
F
102
{ACAD_REACTORS
330
E
102
}
100
AcDbXrecord
102
EXTNAMES
  1
USP-GEO
  2
USP-Geo
  0
XRECORD
  5
A
102
{ACAD_REACTORS
330
9
102
}
100
AcDbXrecord
102
EXTNAMES
  1
USP-TXT
  2
USP-Txt
  0
XRECORD
  5
15F
102
{ACAD_REACTORS
330
15E
102
}
100
AcDbXrecord
340
18
  0
XRECORD
  5
164
102
{ACAD_REACTORS
330
163
102
}
100
AcDbXrecord
340
15
  0
XRECORD
  5
178
102
{ACAD_REACTORS
330
177
102
}
100
AcDbXrecord
102
EXTNAMES
  1
ACDBVARIABLEDICTIONARY
  2
AcDbVariableDictionary
  0
MLINESTYLE
  5
179
102
{ACAD_REACTORS
330
175
102
}
100
AcDbMlineStyle
  2
STANDARD
 70
     0
  3

 62
     0
 51
90.0
 52
90.0
 71
     2
 49
0.5
 62
   256
  6
BYLAYER
 49
-0.5
 62
   256
  6
BYLAYER
  0
ENDSEC
  0
EOF
