  0
SECTION
  2
HEADER
  9
$ACADVER
  1
AC1015
  9
$ACADMAINTVER
 70
    20
  9
$DWGCODEPAGE
  3
ANSI_1252
  9
$INSBASE
 10
0.0
 20
0.0
 30
0.0
  9
$EXTMIN
 10
0.0003661829982491
 20
0.0002746372486868
 30
-0.0000000000000008
  9
$EXTMAX
 10
6.347734690570385
 20
5.028970746592946
 30
0.0
  9
$LIMMIN
 10
0.0
 20
0.0
  9
$LIMMAX
 10
12.0
 20
9.0
  9
$ORTHOMODE
 70
     0
  9
$REGENMODE
 70
     1
  9
$FILLMODE
 70
     1
  9
$QTEXTMODE
 70
     0
  9
$MIRRTEXT
 70
     1
  9
$LTSCALE
 40
0.5
  9
$ATTMODE
 70
     1
  9
$TEXTSIZE
 40
0.25
  9
$TRACEWID
 40
0.05
  9
$TEXTSTYLE
  7
STANDARD
  9
$CLAYER
  8
0
  9
$CELTYPE
  6
BYLAYER
  9
$CECOLOR
 62
   256
  9
$CELTSCALE
 40
1.0
  9
$DISPSILH
 70
     0
  9
$DIMSCALE
 40
1.0
  9
$DIMASZ
 40
0.18
  9
$DIMEXO
 40
0.0625
  9
$DIMDLI
 40
0.38
  9
$DIMRND
 40
0.0
  9
$DIMDLE
 40
0.0
  9
$DIMEXE
 40
0.18
  9
$DIMTP
 40
0.0
  9
$DIMTM
 40
0.0
  9
$DIMTXT
 40
0.18
  9
$DIMCEN
 40
0.09
  9
$DIMTSZ
 40
0.0
  9
$DIMTOL
 70
     0
  9
$DIMLIM
 70
     0
  9
$DIMTIH
 70
     1
  9
$DIMTOH
 70
     1
  9
$DIMSE1
 70
     0
  9
$DIMSE2
 70
     0
  9
$DIMTAD
 70
     0
  9
$DIMZIN
 70
     0
  9
$DIMBLK
  1

  9
$DIMASO
 70
     1
  9
$DIMSHO
 70
     1
  9
$DIMPOST
  1

  9
$DIMAPOST
  1

  9
$DIMALT
 70
     0
  9
$DIMALTD
 70
     2
  9
$DIMALTF
 40
25.4
  9
$DIMLFAC
 40
1.0
  9
$DIMTOFL
 70
     0
  9
$DIMTVP
 40
0.0
  9
$DIMTIX
 70
     0
  9
$DIMSOXD
 70
     0
  9
$DIMSAH
 70
     0
  9
$DIMBLK1
  1

  9
$DIMBLK2
  1

  9
$DIMSTYLE
  2
STANDARD
  9
$DIMCLRD
 70
     0
  9
$DIMCLRE
 70
     0
  9
$DIMCLRT
 70
     0
  9
$DIMTFAC
 40
1.0
  9
$DIMGAP
 40
0.09
  9
$DIMJUST
 70
     0
  9
$DIMSD1
 70
     0
  9
$DIMSD2
 70
     0
  9
$DIMTOLJ
 70
     1
  9
$DIMTZIN
 70
     0
  9
$DIMALTZ
 70
     0
  9
$DIMALTTZ
 70
     0
  9
$DIMUPT
 70
     0
  9
$DIMDEC
 70
     4
  9
$DIMTDEC
 70
     4
  9
$DIMALTU
 70
     2
  9
$DIMALTTD
 70
     2
  9
$DIMTXSTY
  7
STANDARD
  9
$DIMAUNIT
 70
     0
  9
$DIMADEC
 70
     0
  9
$DIMALTRND
 40
0.0
  9
$DIMAZIN
 70
     0
  9
$DIMDSEP
 70
    46
  9
$DIMATFIT
 70
     3
  9
$DIMFRAC
 70
     0
  9
$DIMLDRBLK
  1

  9
$DIMLUNIT
 70
     2
  9
$DIMLWD
 70
    -2
  9
$DIMLWE
 70
    -2
  9
$DIMTMOVE
 70
     0
  9
$LUNITS
 70
     2
  9
$LUPREC
 70
     4
  9
$SKETCHINC
 40
0.1
  9
$FILLETRAD
 40
0.5
  9
$AUNITS
 70
     0
  9
$AUPREC
 70
     0
  9
$MENU
  1
.
  9
$ELEVATION
 40
0.0
  9
$PELEVATION
 40
0.0
  9
$THICKNESS
 40
0.0
  9
$LIMCHECK
 70
     0
  9
$CHAMFERA
 40
0.5
  9
$CHAMFERB
 40
0.5
  9
$CHAMFERC
 40
1.0
  9
$CHAMFERD
 40
0.0
  9
$SKPOLY
 70
     0
  9
$TDCREATE
 40
2451675.885797454
  9
$TDUCREATE
 40
2451676.094130787
  9
$TDUPDATE
 40
2455846.457981551
  9
$TDUUPDATE
 40
2455846.666314884
  9
$TDINDWG
 40
0.3622337037
  9
$TDUSRTIMER
 40
0.3622254861
  9
$USRTIMER
 70
     1
  9
$ANGBASE
 50
0.0
  9
$ANGDIR
 70
     0
  9
$PDMODE
 70
     0
  9
$PDSIZE
 40
0.0
  9
$PLINEWID
 40
0.0
  9
$SPLFRAME
 70
     0
  9
$SPLINETYPE
 70
     6
  9
$SPLINESEGS
 70
     8
  9
$HANDSEED
  5
DA
  9
$SURFTAB1
 70
     6
  9
$SURFTAB2
 70
     6
  9
$SURFTYPE
 70
     6
  9
$SURFU
 70
     6
  9
$SURFV
 70
     6
  9
$UCSBASE
  2

  9
$UCSNAME
  2

  9
$UCSORG
 10
0.0
 20
0.0
 30
0.0
  9
$UCSXDIR
 10
1.0
 20
0.0
 30
0.0
  9
$UCSYDIR
 10
0.0
 20
1.0
 30
0.0
  9
$UCSORTHOREF
  2

  9
$UCSORTHOVIEW
 70
     0
  9
$UCSORGTOP
 10
0.0
 20
0.0
 30
0.0
  9
$UCSORGBOTTOM
 10
0.0
 20
0.0
 30
0.0
  9
$UCSORGLEFT
 10
0.0
 20
0.0
 30
0.0
  9
$UCSORGRIGHT
 10
0.0
 20
0.0
 30
0.0
  9
$UCSORGFRONT
 10
0.0
 20
0.0
 30
0.0
  9
$UCSORGBACK
 10
0.0
 20
0.0
 30
0.0
  9
$PUCSBASE
  2

  9
$PUCSNAME
  2

  9
$PUCSORG
 10
0.0
 20
0.0
 30
0.0
  9
$PUCSXDIR
 10
1.0
 20
0.0
 30
0.0
  9
$PUCSYDIR
 10
0.0
 20
1.0
 30
0.0
  9
$PUCSORTHOREF
  2

  9
$PUCSORTHOVIEW
 70
     0
  9
$PUCSORGTOP
 10
0.0
 20
0.0
 30
0.0
  9
$PUCSORGBOTTOM
 10
0.0
 20
0.0
 30
0.0
  9
$PUCSORGLEFT
 10
0.0
 20
0.0
 30
0.0
  9
$PUCSORGRIGHT
 10
0.0
 20
0.0
 30
0.0
  9
$PUCSORGFRONT
 10
0.0
 20
0.0
 30
0.0
  9
$PUCSORGBACK
 10
0.0
 20
0.0
 30
0.0
  9
$USERI1
 70
     0
  9
$USERI2
 70
     0
  9
$USERI3
 70
     0
  9
$USERI4
 70
     0
  9
$USERI5
 70
     0
  9
$USERR1
 40
0.0
  9
$USERR2
 40
0.0
  9
$USERR3
 40
0.0
  9
$USERR4
 40
0.0
  9
$USERR5
 40
0.0
  9
$WORLDVIEW
 70
     1
  9
$SHADEDGE
 70
     3
  9
$SHADEDIF
 70
    70
  9
$TILEMODE
 70
     1
  9
$MAXACTVP
 70
    48
  9
$PINSBASE
 10
0.0
 20
0.0
 30
0.0
  9
$PLIMCHECK
 70
     0
  9
$PEXTMIN
 10
1.000000000000000E+20
 20
1.000000000000000E+20
 30
1.000000000000000E+20
  9
$PEXTMAX
 10
-1.000000000000000E+20
 20
-1.000000000000000E+20
 30
-1.000000000000000E+20
  9
$PLIMMIN
 10
0.0
 20
0.0
  9
$PLIMMAX
 10
12.0
 20
9.0
  9
$UNITMODE
 70
     0
  9
$VISRETAIN
 70
     1
  9
$PLINEGEN
 70
     0
  9
$PSLTSCALE
 70
     1
  9
$TREEDEPTH
 70
  3020
  9
$CMLSTYLE
  2
STANDARD
  9
$CMLJUST
 70
     0
  9
$CMLSCALE
 40
1.0
  9
$PROXYGRAPHICS
 70
     1
  9
$MEASUREMENT
 70
     0
  9
$CELWEIGHT
370
    -1
  9
$ENDCAPS
280
     0
  9
$JOINSTYLE
280
     0
  9
$LWDISPLAY
290
     0
  9
$INSUNITS
 70
     0
  9
$HYPERLINKBASE
  1

  9
$STYLESHEET
  1

  9
$XEDIT
290
     1
  9
$CEPSNTYPE
380
     0
  9
$PSTYLEMODE
290
     1
  9
$FINGERPRINTGUID
  2
{6C800BB0-A4BA-4D29-AEBE-3F3CA6CAFF17}
  9
$VERSIONGUID
  2
{3DFAEDCE-0066-454D-B34E-5F9E829BE824}
  9
$EXTNAMES
290
     1
  9
$PSVPSCALE
 40
0.0
  9
$OLESTARTUP
290
     0
  0
ENDSEC
  0
SECTION
  2
CLASSES
  0
CLASS
  1
ACDBDICTIONARYWDFLT
  2
AcDbDictionaryWithDefault
  3
ObjectDBX Classes
 90
        0
280
     1
281
     0
  0
CLASS
  1
ACDBPLACEHOLDER
  2
AcDbPlaceHolder
  3
ObjectDBX Classes
 90
        0
280
     0
281
     0
  0
CLASS
  1
LAYOUT
  2
AcDbLayout
  3
ObjectDBX Classes
 90
        0
280
     0
281
     0
  0
CLASS
  1
DICTIONARYVAR
  2
AcDbDictionaryVar
  3
ObjectDBX Classes
 90
        0
280
     0
281
     0
  0
ENDSEC
  0
SECTION
  2
TABLES
  0
TABLE
  2
VPORT
  5
A7
330
0
100
AcDbSymbolTable
 70
     2
  0
VPORT
  5
D2
330
A7
100
AcDbSymbolTableRecord
100
AcDbViewportTableRecord
  2
*Active
 70
     0
 10
0.0
 20
0.0
 11
1.0
 21
1.0
 12
5.828166502979255
 22
2.576645616355493
 13
0.0
 23
0.0
 14
0.5
 24
0.5
 15
0.5
 25
0.5
 16
0.0
 26
0.0
 36
1.0
 17
0.0
 27
0.0
 37
0.0
 40
5.189905060816306
 41
2.480286738351254
 42
50.0
 43
0.0
 44
0.0
 50
0.0
 51
0.0
 71
     0
 72
   100
 73
     1
 74
     3
 75
     0
 76
     0
 77
     0
 78
     0
281
     0
 65
     1
110
0.0
120
0.0
130
0.0
111
1.0
121
0.0
131
0.0
112
0.0
122
1.0
132
0.0
 79
     0
146
0.0
  0
ENDTAB
  0
TABLE
  2
LTYPE
  5
A0
330
0
100
AcDbSymbolTable
 70
     1
  0
LTYPE
  5
A1
102
{ACAD_XDICTIONARY
360
A2
102
}
330
A0
100
AcDbSymbolTableRecord
100
AcDbLinetypeTableRecord
  2
BYBLOCK
 70
     0
  3

 72
    65
 73
     0
 40
0.0
  0
LTYPE
  5
A3
102
{ACAD_XDICTIONARY
360
A4
102
}
330
A0
100
AcDbSymbolTableRecord
100
AcDbLinetypeTableRecord
  2
BYLAYER
 70
     0
  3

 72
    65
 73
     0
 40
0.0
  0
LTYPE
  5
5
102
{ACAD_XDICTIONARY
360
6
102
}
330
A0
100
AcDbSymbolTableRecord
100
AcDbLinetypeTableRecord
  2
CONTINUOUS
 70
     0
  3
Solid line
 72
    65
 73
     0
 40
0.0
  0
ENDTAB
  0
TABLE
  2
LAYER
  5
9E
330
0
100
AcDbSymbolTable
 70
     4
  0
LAYER
  5
4E
330
9E
100
AcDbSymbolTableRecord
100
AcDbLayerTableRecord
  2
0
 70
     0
 62
     7
  6
CONTINUOUS
370
    -3
390
C6
  0
LAYER
  5
4
330
9E
100
AcDbSymbolTableRecord
100
AcDbLayerTableRecord
  2
USP
 70
     0
 62
     7
  6
CONTINUOUS
370
    -3
390
C6
  0
LAYER
  5
9
330
9E
100
AcDbSymbolTableRecord
100
AcDbLayerTableRecord
  2
USP-GEO
 70
     0
 62
     7
  6
CONTINUOUS
370
    -3
390
C6
  0
LAYER
  5
D
330
9E
100
AcDbSymbolTableRecord
100
AcDbLayerTableRecord
  2
USP-TXT
 70
     0
 62
     7
  6
CONTINUOUS
370
    -3
390
C6
  0
ENDTAB
  0
TABLE
  2
STYLE
  5
9F
330
0
100
AcDbSymbolTable
 70
     1
  0
STYLE
  5
E
102
{ACAD_XDICTIONARY
360
F
102
}
330
9F
100
AcDbSymbolTableRecord
100
AcDbTextStyleTableRecord
  2
STANDARD
 70
     0
 40
0.0
 41
1.0
 50
0.0
 71
     0
 42
0.25
  3
txt
  4

  0
ENDTAB
  0
TABLE
  2
VIEW
  5
A5
330
0
100
AcDbSymbolTable
 70
     0
  0
ENDTAB
  0
TABLE
  2
UCS
  5
A6
330
0
100
AcDbSymbolTable
 70
     0
  0
ENDTAB
  0
TABLE
  2
APPID
  5
A9
330
0
100
AcDbSymbolTable
 70
     1
  0
APPID
  5
AA
330
A9
100
AcDbSymbolTableRecord
100
AcDbRegAppTableRecord
  2
ACAD
 70
     0
  0
ENDTAB
  0
TABLE
  2
DIMSTYLE
  5
AB
330
0
100
AcDbSymbolTable
 70
     1
100
AcDbDimStyleTable
 71
     0
  0
DIMSTYLE
105
B4
102
{ACAD_XDICTIONARY
360
B5
102
}
330
AB
100
AcDbSymbolTableRecord
100
AcDbDimStyleTableRecord
  2
STANDARD
 70
     0
340
E
  0
ENDTAB
  0
TABLE
  2
BLOCK_RECORD
  5
1
330
0
100
AcDbSymbolTable
 70
     2
  0
BLOCK_RECORD
  5
2
102
{ACAD_XDICTIONARY
360
95
102
}
330
1
100
AcDbSymbolTableRecord
100
AcDbBlockTableRecord
  2
*MODEL_SPACE
340
CB
  0
BLOCK_RECORD
  5
99
102
{ACAD_XDICTIONARY
360
9A
102
}
330
1
100
AcDbSymbolTableRecord
100
AcDbBlockTableRecord
  2
*PAPER_SPACE
340
CC
  0
BLOCK_RECORD
  5
7
330
1
100
AcDbSymbolTableRecord
100
AcDbBlockTableRecord
  2
MPA1_S
340
0
102
{BLKREFS
331
3
102
}
  0
BLOCK_RECORD
  5
51
330
1
100
AcDbSymbolTableRecord
100
AcDbBlockTableRecord
  2
MPA1_F
340
0
102
{BLKREFS
331
50
102
}
  0
ENDTAB
  0
ENDSEC
  0
SECTION
  2
BLOCKS
  0
BLOCK
  5
97
330
2
100
AcDbEntity
  8
0
100
AcDbBlockBegin
  2
*MODEL_SPACE
 70
     0
 10
0.0
 20
0.0
 30
0.0
  3
*MODEL_SPACE
  1

  0
ENDBLK
  5
98
330
2
100
AcDbEntity
  8
0
100
AcDbBlockEnd
  0
BLOCK
  5
9C
330
99
100
AcDbEntity
 67
     1
  8
0
100
AcDbBlockBegin
  2
*PAPER_SPACE
 70
     0
 10
0.0
 20
0.0
 30
0.0
  3
*PAPER_SPACE
  1

  0
ENDBLK
  5
9D
330
99
100
AcDbEntity
 67
     1
  8
0
100
AcDbBlockEnd
  0
BLOCK
  5
4D
330
7
100
AcDbEntity
  8
0
100
AcDbBlockBegin
  2
MPA1_S
 70
     0
 10
0.0
 20
0.0
 30
0.0
  3
MPA1_S
  1

  0
LINE
  5
8
330
7
100
AcDbEntity
  8
USP-GEO
100
AcDbLine
 10
1.434299999999996
 20
3.058720660405406
 30
0.0000000000000002
 11
1.434299999999996
 21
3.183568874307525
 31
0.0000000000000002
210
0.0
220
1.0
230
0.0
  0
LINE
  5
A
330
7
100
AcDbEntity
  8
USP-GEO
100
AcDbLine
 10
1.374499999999996
 20
3.058720660405406
 30
0.0000000000000002
 11
1.374499999999996
 21
3.183568874307525
 31
0.0000000000000002
210
0.0
220
1.0
230
0.0
  0
ARC
  5
B
330
7
100
AcDbEntity
  8
USP-GEO
100
AcDbCircle
 10
0.4064999999999946
 20
3.183568874307526
 30
0.0
 40
0.1875
100
AcDbArc
 50
318.2518834600206
 51
0.0
  0
TEXT
  5
C
330
7
100
AcDbEntity
  8
USP-TXT
100
AcDbText
 10
-0.7815000000000008
 20
-0.5286961079151809
 30
0.0000000000000001
 40
0.1875
  1
MPA1 - SIDE VIEW
 72
     1
 11
0.6559999999999993
 21
-0.5286961079151809
 31
0.0000000000000001
100
AcDbText
  0
LINE
  5
10
330
7
100
AcDbEntity
  8
USP-GEO
100
AcDbLine
 10
0.5471249999999937
 20
1.577874999999992
 30
0.0000000000000001
 11
0.7661249999999891
 21
1.577874999999992
 31
0.0000000000000001
210
0.0
220
1.0
230
0.0
  0
LINE
  5
11
330
7
100
AcDbEntity
  8
USP-GEO
100
AcDbLine
 10
0.7661249999999895
 20
1.484124999999989
 30
0.0000000000000001
 11
0.5471249999999946
 21
1.484124999999989
 31
0.0000000000000001
210
0.0
220
1.0
230
0.0
  0
LINE
  5
12
330
7
100
AcDbEntity
  8
USP-GEO
100
AcDbLine
 10
0.0
 20
0.0
 30
0.0
 11
1.311999999999998
 21
0.0
 31
0.0000000000000002
210
0.0
220
1.0
230
0.0
  0
ARC
  5
13
330
7
100
AcDbEntity
  8
USP-GEO
100
AcDbCircle
 10
0.2499999999999998
 20
1.061999999999981
 30
0.0
 40
0.344
100
AcDbArc
 50
312.6922697950922
 51
77.6308047478615
  0
ARC
  5
14
330
7
100
AcDbEntity
  8
USP-GEO
100
AcDbCircle
 10
0.1879999999999886
 20
0.2809999999999935
 30
0.0
 40
0.188
100
AcDbArc
 50
132.6922697950925
 51
184.0783655713399
  0
CIRCLE
  5
15
330
7
100
AcDbEntity
  8
USP-GEO
100
AcDbCircle
 10
0.1879999999999886
 20
0.2500000000000013
 30
0.0
 40
0.082
  0
LINE
  5
16
330
7
100
AcDbEntity
  8
USP-GEO
100
AcDbLine
 10
0.0
 20
0.0
 30
0.0
 11
0.0004760707665097
 21
0.2676292870483161
 31
0.0
210
0.0
220
1.0
230
0.0
  0
LINE
  5
17
330
7
100
AcDbEntity
  8
USP-GEO
100
AcDbLine
 10
0.0000000000000004
 20
1.468999999999992
 30
0.0
 11
0.0004999999999886
 21
2.437999999999988
 31
0.0
210
0.0
220
1.0
230
0.0
  0
LINE
  5
18
330
7
100
AcDbEntity
  8
USP-GEO
100
AcDbLine
 10
0.0605246239628068
 20
0.4191811438083173
 30
0.0
 11
0.4832528157276097
 21
0.809157907074109
 31
0.0000000000000001
210
0.0
220
1.0
230
0.0
  0
LINE
  5
19
330
7
100
AcDbEntity
  8
USP-GEO
100
AcDbLine
 10
0.0000000000000004
 20
1.468999999999992
 30
0.0
 11
0.3236883067006038
 21
1.398014930405762
 31
0.0
210
0.0
220
1.0
230
0.0
  0
ARC
  5
1A
330
7
100
AcDbEntity
  8
USP-GEO
100
AcDbCircle
 10
0.5471249999999941
 20
1.530999999999989
 30
0.0000000000000001
 40
0.046875
100
AcDbArc
 50
90.00000000000028
 51
270.0000000000011
  0
ARC
  5
1B
330
7
100
AcDbEntity
  8
USP-GEO
100
AcDbCircle
 10
0.1879999999999886
 20
2.437999999999989
 30
0.0
 40
0.1875
100
AcDbArc
 50
138.2518834600213
 51
180.0000000000006
  0
CIRCLE
  5
1C
330
7
100
AcDbEntity
  8
USP-GEO
100
AcDbCircle
 10
0.1879999999999882
 20
2.25
 30
0.0
 40
0.082
  0
LINE
  5
1D
330
7
100
AcDbEntity
  8
USP-GEO
100
AcDbLine
 10
0.5463898619823771
 20
3.058720660405413
 30
0.0000000000000001
 11
0.0481101380176059
 21
2.5628482139021
 31
0.0
210
0.0
220
1.0
230
0.0
  0
LINE
  5
1E
330
7
100
AcDbEntity
  8
USP-GEO
100
AcDbLine
 10
1.434299999999996
 20
0.2676292870483166
 30
0.0000000000000002
 11
1.434299999999996
 21
0.4191811438083213
 31
0.0000000000000002
210
0.0
220
1.0
230
0.0
  0
LINE
  5
1F
330
7
100
AcDbEntity
  8
USP-GEO
100
AcDbLine
 10
1.374499999999997
 20
0.4191811438083218
 30
0.0000000000000002
 11
1.374499999999997
 21
0.2676292870483157
 31
0.0000000000000002
210
0.0
220
1.0
230
0.0
  0
CIRCLE
  5
20
330
7
100
AcDbEntity
  8
USP-GEO
100
AcDbCircle
 10
0.8750000000000003
 20
0.3750000000000009
 30
0.0000000000000001
 40
0.082
  0
LINE
  5
21
330
7
100
AcDbEntity
  8
USP-GEO
100
AcDbLine
 10
1.311999999999998
 20
0.0000000000000004
 30
0.0000000000000002
 11
1.311999999999998
 21
1.499999999999997
 31
0.0000000000000002
210
0.0
220
1.0
230
0.0
  0
LINE
  5
22
330
7
100
AcDbEntity
  8
USP-GEO
100
AcDbLine
 10
1.434299999999996
 20
-0.0000000000000004
 30
0.0000000000000002
 11
1.434299999999996
 21
0.2676292870483166
 31
0.0000000000000002
210
0.0
220
1.0
230
0.0
  0
LINE
  5
23
330
7
100
AcDbEntity
  8
USP-GEO
100
AcDbLine
 10
1.374499999999998
 20
0.0000000000000018
 30
0.0000000000000002
 11
1.374499999999998
 21
0.2676292870483157
 31
0.0000000000000002
210
0.0
220
1.0
230
0.0
  0
LINE
  5
24
330
7
100
AcDbEntity
  8
USP-GEO
100
AcDbLine
 10
1.374499999999998
 20
0.0000000000000018
 30
0.0000000000000002
 11
1.434299999999996
 21
0.0000000000000018
 31
0.0000000000000002
210
0.0
220
1.0
230
0.0
  0
LINE
  5
25
330
7
100
AcDbEntity
  8
USP-GEO
100
AcDbLine
 10
1.374499999999997
 20
0.2676292870483157
 30
0.0000000000000002
 11
1.434299999999997
 21
0.2676292870483157
 31
0.0000000000000002
210
0.0
220
1.0
230
0.0
  0
LINE
  5
26
330
7
100
AcDbEntity
  8
USP-GEO
100
AcDbLine
 10
1.434299999999997
 20
1.468999999999994
 30
0.0000000000000002
 11
1.434299999999997
 21
2.437999999999989
 31
0.0000000000000002
210
0.0
220
1.0
230
0.0
  0
LINE
  5
27
330
7
100
AcDbEntity
  8
USP-GEO
100
AcDbLine
 10
1.374499999999997
 20
1.468999999999994
 30
0.0000000000000002
 11
1.374499999999997
 21
2.437999999999988
 31
0.0000000000000002
210
0.0
220
1.0
230
0.0
  0
LINE
  5
28
330
7
100
AcDbEntity
  8
USP-GEO
100
AcDbLine
 10
1.434299999999996
 20
0.8091579070741161
 30
0.0000000000000002
 11
1.434299999999996
 21
1.398014930405772
 31
0.0000000000000002
210
0.0
220
1.0
230
0.0
  0
LINE
  5
29
330
7
100
AcDbEntity
  8
USP-GEO
100
AcDbLine
 10
1.374499999999996
 20
0.8091579070741161
 30
0.0000000000000002
 11
1.374499999999996
 21
1.398014930405772
 31
0.0000000000000002
210
0.0
220
1.0
230
0.0
  0
CIRCLE
  5
2A
330
7
100
AcDbEntity
  8
USP-GEO
100
AcDbCircle
 10
0.7499999999999996
 20
0.9999999999999973
 30
0.0000000000000001
 40
0.082
  0
LINE
  5
2B
330
7
100
AcDbEntity
  8
USP-GEO
100
AcDbLine
 10
1.434299999999996
 20
0.4191811438083169
 30
0.0000000000000002
 11
1.434299999999996
 21
0.8091579070741143
 31
0.0000000000000002
210
0.0
220
1.0
230
0.0
  0
LINE
  5
2C
330
7
100
AcDbEntity
  8
USP-GEO
100
AcDbLine
 10
1.374499999999997
 20
0.4191811438083173
 30
0.0000000000000002
 11
1.374499999999997
 21
0.8091579070741143
 31
0.0000000000000002
210
0.0
220
1.0
230
0.0
  0
ARC
  5
2D
330
7
100
AcDbEntity
  8
USP-GEO
100
AcDbCircle
 10
0.7661249999999891
 20
1.530999999999989
 30
0.0000000000000001
 40
0.046875
100
AcDbArc
 50
270.0000000000004
 51
90.00000000000012
  0
ARC
  5
2E
330
7
100
AcDbEntity
  8
USP-GEO
100
AcDbCircle
 10
1.374499999999997
 20
1.499999999999998
 30
0.0000000000000002
 40
0.0625
100
AcDbArc
 50
89.9999999999992
 51
180.0000000000007
  0
LINE
  5
2F
330
7
100
AcDbEntity
  8
USP-GEO
100
AcDbLine
 10
1.374499999999997
 20
1.468999999999994
 30
0.0000000000000002
 11
1.434299999999997
 21
1.468999999999994
 31
0.0000000000000002
210
0.0
220
1.0
230
0.0
  0
LINE
  5
30
330
7
100
AcDbEntity
  8
USP-GEO
100
AcDbLine
 10
1.434299999999996
 20
1.398014930405764
 30
0.0000000000000002
 11
1.434299999999997
 21
1.468999999999994
 31
0.0000000000000002
210
0.0
220
1.0
230
0.0
  0
LINE
  5
31
330
7
100
AcDbEntity
  8
USP-GEO
100
AcDbLine
 10
1.374499999999997
 20
1.468999999999994
 30
0.0000000000000002
 11
1.374499999999996
 21
1.398014930405764
 31
0.0000000000000002
210
0.0
220
1.0
230
0.0
  0
LINE
  5
32
330
7
100
AcDbEntity
  8
USP-GEO
100
AcDbLine
 10
1.434299999999997
 20
2.437999999999989
 30
0.0000000000000002
 11
1.434299999999997
 21
2.562848213902114
 31
0.0000000000000002
210
0.0
220
1.0
230
0.0
  0
LINE
  5
33
330
7
100
AcDbEntity
  8
USP-GEO
100
AcDbLine
 10
1.374499999999997
 20
2.562848213902112
 30
0.0000000000000002
 11
1.374499999999997
 21
2.437999999999988
 31
0.0000000000000002
210
0.0
220
1.0
230
0.0
  0
LINE
  5
34
330
7
100
AcDbEntity
  8
USP-GEO
100
AcDbLine
 10
1.434299999999996
 20
2.562848213902114
 30
0.0000000000000002
 11
1.434299999999996
 21
3.058720660405411
 31
0.0000000000000002
210
0.0
220
1.0
230
0.0
  0
LINE
  5
35
330
7
100
AcDbEntity
  8
USP-GEO
100
AcDbLine
 10
1.374499999999998
 20
3.058720660405413
 30
0.0000000000000002
 11
1.374499999999998
 21
2.562848213902115
 31
0.0000000000000002
210
0.0
220
1.0
230
0.0
  0
LINE
  5
36
330
7
100
AcDbEntity
  8
USP-GEO
100
AcDbLine
 10
1.374499999999997
 20
2.562848213902114
 30
0.0000000000000002
 11
1.434299999999997
 21
2.562848213902114
 31
0.0000000000000002
210
0.0
220
1.0
230
0.0
  0
LINE
  5
37
330
7
100
AcDbEntity
  8
USP-GEO
100
AcDbLine
 10
1.374499999999997
 20
3.058720660405407
 30
0.0000000000000002
 11
1.434299999999996
 21
3.058720660405407
 31
0.0000000000000002
210
0.0
220
1.0
230
0.0
  0
LINE
  5
38
330
7
100
AcDbEntity
  8
USP-GEO
100
AcDbLine
 10
0.0000000000000004
 20
4.499999999999994
 30
0.0
 11
1.374499999999997
 21
4.499999999999994
 31
0.0000000000000002
210
0.0
220
1.0
230
0.0
  0
LINE
  5
39
330
7
100
AcDbEntity
  8
USP-GEO
100
AcDbLine
 10
0.5391866452576158
 20
3.511096663211574
 30
0.0000000000000001
 11
0.0792429518103022
 21
4.035264429588037
 31
0.0
210
0.0
220
1.0
230
0.0
  0
ARC
  5
3A
330
7
100
AcDbEntity
  8
USP-GEO
100
AcDbCircle
 10
0.4064999999999941
 20
3.378618347362234
 30
0.0
 40
0.1875
100
AcDbArc
 50
0.0
 51
44.95498502767035
  0
LINE
  5
3B
330
7
100
AcDbEntity
  8
USP-GEO
100
AcDbLine
 10
0.5939999999999937
 20
3.378618347362234
 30
0.0000000000000001
 11
0.5939999999999937
 21
3.183568874307526
 31
0.0000000000000001
210
0.0
220
1.0
230
0.0
  0
CIRCLE
  5
3C
330
7
100
AcDbEntity
  8
USP-GEO
100
AcDbCircle
 10
0.1879999999999875
 20
4.25
 30
0.0
 40
0.082
  0
LINE
  5
3D
330
7
100
AcDbEntity
  8
USP-GEO
100
AcDbLine
 10
0.0000000000000004
 20
4.500000000000001
 30
0.0
 11
0.0004999999999886
 21
4.187999999999989
 31
0.0
210
0.0
220
1.0
230
0.0
  0
ARC
  5
3E
330
7
100
AcDbEntity
  8
USP-GEO
100
AcDbCircle
 10
0.1879999999999882
 20
4.187999999999988
 30
0.0
 40
0.1875
100
AcDbArc
 50
179.9999999999994
 51
234.5468134129411
  0
LINE
  5
3F
330
7
100
AcDbEntity
  8
USP-GEO
100
AcDbLine
 10
1.434299999999996
 20
3.511096663211574
 30
0.0000000000000002
 11
1.434299999999996
 21
4.035264429588037
 31
0.0000000000000002
210
0.0
220
1.0
230
0.0
  0
LINE
  5
40
330
7
100
AcDbEntity
  8
USP-GEO
100
AcDbLine
 10
1.374499999999996
 20
3.511096663211574
 30
0.0000000000000002
 11
1.374499999999996
 21
4.035264429588037
 31
0.0000000000000002
210
0.0
220
1.0
230
0.0
  0
CIRCLE
  5
41
330
7
100
AcDbEntity
  8
USP-GEO
100
AcDbCircle
 10
0.7499999999999996
 20
3.437999999999988
 30
0.0000000000000001
 40
0.082
  0
LINE
  5
42
330
7
100
AcDbEntity
  8
USP-GEO
100
AcDbLine
 10
1.434299999999997
 20
3.37861834736225
 30
0.0000000000000002
 11
1.434299999999998
 21
3.511096663211582
 31
0.0000000000000002
210
0.0
220
1.0
230
0.0
  0
LINE
  5
43
330
7
100
AcDbEntity
  8
USP-GEO
100
AcDbLine
 10
1.374499999999997
 20
3.378618347362248
 30
0.0000000000000002
 11
1.374499999999997
 21
3.511096663211582
 31
0.0000000000000002
210
0.0
220
1.0
230
0.0
  0
LINE
  5
44
330
7
100
AcDbEntity
  8
USP-GEO
100
AcDbLine
 10
1.434299999999997
 20
3.183568874307525
 30
0.0000000000000002
 11
1.434299999999997
 21
3.37861834736225
 31
0.0000000000000002
210
0.0
220
1.0
230
0.0
  0
LINE
  5
45
330
7
100
AcDbEntity
  8
USP-GEO
100
AcDbLine
 10
1.374499999999997
 20
3.378618347362248
 30
0.0000000000000002
 11
1.374499999999997
 21
3.183568874307525
 31
0.0000000000000002
210
0.0
220
1.0
230
0.0
  0
LINE
  5
46
330
7
100
AcDbEntity
  8
USP-GEO
100
AcDbLine
 10
1.374499999999996
 20
3.511096663211574
 30
0.0000000000000002
 11
1.434299999999996
 21
3.511096663211574
 31
0.0000000000000002
210
0.0
220
1.0
230
0.0
  0
LINE
  5
47
330
7
100
AcDbEntity
  8
USP-GEO
100
AcDbLine
 10
1.434299999999996
 20
4.187999999999988
 30
0.0000000000000002
 11
1.434299999999996
 21
4.499999999999987
 31
0.0000000000000002
210
0.0
220
1.0
230
0.0
  0
LINE
  5
48
330
7
100
AcDbEntity
  8
USP-GEO
100
AcDbLine
 10
1.374499999999997
 20
4.499999999999985
 30
0.0000000000000002
 11
1.374499999999996
 21
4.187999999999988
 31
0.0000000000000002
210
0.0
220
1.0
230
0.0
  0
LINE
  5
49
330
7
100
AcDbEntity
  8
USP-GEO
100
AcDbLine
 10
1.434299999999996
 20
4.035264429588033
 30
0.0000000000000002
 11
1.434299999999996
 21
4.187999999999988
 31
0.0000000000000002
210
0.0
220
1.0
230
0.0
  0
LINE
  5
4A
330
7
100
AcDbEntity
  8
USP-GEO
100
AcDbLine
 10
1.374499999999996
 20
4.187999999999988
 30
0.0000000000000002
 11
1.374499999999996
 21
4.035264429588033
 31
0.0000000000000002
210
0.0
220
1.0
230
0.0
  0
LINE
  5
4B
330
7
100
AcDbEntity
  8
USP-GEO
100
AcDbLine
 10
1.374499999999997
 20
4.035264429588032
 30
0.0000000000000002
 11
1.434299999999996
 21
4.035264429588032
 31
0.0000000000000002
210
0.0
220
1.0
230
0.0
  0
LINE
  5
4C
330
7
100
AcDbEntity
  8
USP-GEO
100
AcDbLine
 10
1.374499999999997
 20
4.499999999999985
 30
0.0000000000000002
 11
1.434299999999997
 21
4.499999999999985
 31
0.0000000000000002
210
0.0
220
1.0
230
0.0
  0
ENDBLK
  5
4F
330
7
100
AcDbEntity
  8
0
100
AcDbBlockEnd
  0
BLOCK
  5
93
330
51
100
AcDbEntity
  8
0
100
AcDbBlockBegin
  2
MPA1_F
 70
     0
 10
0.0
 20
0.0
 30
0.0
  3
MPA1_F
  1

  0
TEXT
  5
52
330
51
100
AcDbEntity
  8
USP-TXT
100
AcDbText
 10
-1.033699999999998
 20
-0.52869610791518
 30
0.0000000000000001
 40
0.1875
  1
MPA1 - FRONT VIEW
 72
     1
 11
0.5288000000000013
 21
-0.52869610791518
 31
0.0000000000000001
100
AcDbText
  0
ARC
  5
53
330
51
100
AcDbEntity
  8
USP-GEO
100
AcDbCircle
 10
1.341799999999998
 20
3.183568874307524
 30
0.0000000000000002
 40
0.1875
100
AcDbArc
 50
318.2518834600202
 51
0.0000000000002544
  0
LINE
  5
54
330
51
100
AcDbEntity
  8
USP-GEO
100
AcDbLine
 10
0.0598000000000001
 20
3.058720660405408
 30
0.0
 11
0.0598000000000001
 21
3.183568874307526
 31
0.0
210
0.0
220
1.0
230
0.0
  0
LINE
  5
55
330
51
100
AcDbEntity
  8
USP-GEO
100
AcDbLine
 10
-0.0000000000000009
 20
3.183568874307526
 30
0.0
 11
-0.0000000000000009
 21
3.058720660405407
 31
0.0
210
0.0
220
1.0
230
0.0
  0
ARC
  5
56
330
51
100
AcDbEntity
  8
USP-GEO
100
AcDbCircle
 10
1.12329999999999
 20
0.2809999999999926
 30
0.0000000000000002
 40
0.1880000000000001
100
AcDbArc
 50
132.6922697950922
 51
184.0783655713398
  0
LINE
  5
57
330
51
100
AcDbEntity
  8
USP-GEO
100
AcDbLine
 10
0.0598000000000001
 20
0.4191811438083222
 30
0.0
 11
0.0598000000000001
 21
0.2676292870483161
 31
0.0
210
0.0
220
1.0
230
0.0
  0
LINE
  5
58
330
51
100
AcDbEntity
  8
USP-GEO
100
AcDbLine
 10
0.0000000000000018
 20
0.4191811438083226
 30
0.0
 11
0.0000000000000018
 21
0.2676292870483143
 31
0.0
210
0.0
220
1.0
230
0.0
  0
CIRCLE
  5
59
330
51
100
AcDbEntity
  8
USP-GEO
100
AcDbCircle
 10
0.6853000000000034
 20
0.2499999999999996
 30
0.0000000000000001
 40
0.082
  0
LINE
  5
5A
330
51
100
AcDbEntity
  8
USP-GEO
100
AcDbLine
 10
0.1223000000000001
 20
0.0000000000000009
 30
0.0
 11
0.1223000000000001
 21
1.5
 31
0.0
210
0.0
220
1.0
230
0.0
  0
LINE
  5
5B
330
51
100
AcDbEntity
  8
USP-GEO
100
AcDbLine
 10
0.1223000000000001
 20
0.0000000000000009
 30
0.0
 11
0.9353000000000024
 21
0.0000000000000009
 31
0.0000000000000002
210
0.0
220
1.0
230
0.0
  0
LINE
  5
5C
330
51
100
AcDbEntity
  8
USP-GEO
100
AcDbLine
 10
0.059800000000001
 20
0.0
 30
0.0
 11
0.059800000000001
 21
0.2676292870483161
 31
0.0
210
0.0
220
1.0
230
0.0
  0
LINE
  5
5D
330
51
100
AcDbEntity
  8
USP-GEO
100
AcDbLine
 10
0.0
 20
0.2676292870483143
 30
0.0
 11
0.0
 21
0.0000000000000004
 31
0.0
210
0.0
220
1.0
230
0.0
  0
LINE
  5
5E
330
51
100
AcDbEntity
  8
USP-GEO
100
AcDbLine
 10
0.059800000000001
 20
0.0
 30
0.0
 11
0.0
 21
0.0
 31
0.0
210
0.0
220
1.0
230
0.0
  0
LINE
  5
5F
330
51
100
AcDbEntity
  8
USP-GEO
100
AcDbLine
 10
0.0598000000000001
 20
0.2676292870483161
 30
0.0
 11
0.0000000000000009
 21
0.2676292870483161
 31
0.0
210
0.0
220
1.0
230
0.0
  0
LINE
  5
60
330
51
100
AcDbEntity
  8
USP-GEO
100
AcDbLine
 10
0.9353000000000024
 20
0.0000000000000018
 30
0.0000000000000002
 11
0.9357760707665132
 21
0.2676292870483157
 31
0.0000000000000002
210
0.0
220
1.0
230
0.0
  0
LINE
  5
61
330
51
100
AcDbEntity
  8
USP-GEO
100
AcDbLine
 10
0.9353000000000033
 20
1.468999999999994
 30
0.0000000000000002
 11
0.9357999999999915
 21
2.437999999999988
 31
0.0000000000000002
210
0.0
220
1.0
230
0.0
  0
LINE
  5
62
330
51
100
AcDbEntity
  8
USP-GEO
100
AcDbLine
 10
0.0598000000000001
 20
1.468999999999992
 30
0.0
 11
0.0598000000000001
 21
2.437999999999988
 31
0.0
210
0.0
220
1.0
230
0.0
  0
LINE
  5
63
330
51
100
AcDbEntity
  8
USP-GEO
100
AcDbLine
 10
0.0
 20
2.437999999999988
 30
0.0
 11
0.0
 21
1.468999999999992
 31
0.0
210
0.0
220
1.0
230
0.0
  0
LINE
  5
64
330
51
100
AcDbEntity
  8
USP-GEO
100
AcDbLine
 10
0.0598000000000019
 20
0.8091579070741019
 30
0.0
 11
0.0598000000000019
 21
1.398014930405756
 31
0.0
210
0.0
220
1.0
230
0.0
  0
LINE
  5
65
330
51
100
AcDbEntity
  8
USP-GEO
100
AcDbLine
 10
0.0000000000000018
 20
1.398014930405755
 30
0.0
 11
0.0000000000000018
 21
0.8091579070741028
 31
0.0
210
0.0
220
1.0
230
0.0
  0
LINE
  5
66
330
51
100
AcDbEntity
  8
USP-GEO
100
AcDbLine
 10
0.0598000000000001
 20
0.4191811438083173
 30
0.0
 11
0.0598000000000001
 21
0.809157907074109
 31
0.0
210
0.0
220
1.0
230
0.0
  0
LINE
  5
67
330
51
100
AcDbEntity
  8
USP-GEO
100
AcDbLine
 10
-0.0000000000000009
 20
0.809157907074109
 30
0.0
 11
-0.0000000000000009
 21
0.4191811438083178
 31
0.0
210
0.0
220
1.0
230
0.0
  0
CIRCLE
  5
68
330
51
100
AcDbEntity
  8
USP-GEO
100
AcDbCircle
 10
0.6232999999999925
 20
0.7179999999999894
 30
0.0000000000000001
 40
0.082
  0
LINE
  5
69
330
51
100
AcDbEntity
  8
USP-GEO
100
AcDbLine
 10
0.2941750000000001
 20
1.577874999999993
 30
0.0000000000000001
 11
0.5131749999999951
 21
1.577874999999993
 31
0.0000000000000001
210
0.0
220
1.0
230
0.0
  0
LINE
  5
6A
330
51
100
AcDbEntity
  8
USP-GEO
100
AcDbLine
 10
0.5131749999999942
 20
1.484124999999992
 30
0.0000000000000001
 11
0.2941750000000001
 21
1.484124999999992
 31
0.0000000000000001
210
0.0
220
1.0
230
0.0
  0
ARC
  5
6B
330
51
100
AcDbEntity
  8
USP-GEO
100
AcDbCircle
 10
0.0598000000000001
 20
1.5
 30
0.0
 40
0.0625
100
AcDbArc
 50
0.0
 51
89.9999999999992
  0
LINE
  5
6C
330
51
100
AcDbEntity
  8
USP-GEO
100
AcDbLine
 10
0.0598000000000001
 20
1.468999999999992
 30
0.0
 11
0.0
 21
1.468999999999992
 31
0.0
210
0.0
220
1.0
230
0.0
  0
LINE
  5
6D
330
51
100
AcDbEntity
  8
USP-GEO
100
AcDbLine
 10
0.0598000000000001
 20
1.468999999999992
 30
0.0
 11
0.0598000000000001
 21
1.398014930405762
 31
0.0
210
0.0
220
1.0
230
0.0
  0
LINE
  5
6E
330
51
100
AcDbEntity
  8
USP-GEO
100
AcDbLine
 10
0.0
 20
1.468999999999992
 30
0.0
 11
0.0
 21
1.398014930405762
 31
0.0
210
0.0
220
1.0
230
0.0
  0
ARC
  5
6F
330
51
100
AcDbEntity
  8
USP-GEO
100
AcDbCircle
 10
0.2941750000000018
 20
1.530999999999991
 30
0.0000000000000001
 40
0.046875
100
AcDbArc
 50
90.00000000000213
 51
269.9999999999978
  0
ARC
  5
70
330
51
100
AcDbEntity
  8
USP-GEO
100
AcDbCircle
 10
0.5131749999999942
 20
1.530999999999993
 30
0.0000000000000001
 40
0.046875
100
AcDbArc
 50
269.9999999999989
 51
89.99999999999888
  0
CIRCLE
  5
71
330
51
100
AcDbEntity
  8
USP-GEO
100
AcDbCircle
 10
1.185300000000002
 20
1.0
 30
0.0000000000000002
 40
0.082
  0
ARC
  5
72
330
51
100
AcDbEntity
  8
USP-GEO
100
AcDbCircle
 10
1.185300000000003
 20
1.061999999999997
 30
0.0000000000000002
 40
0.3440000000000001
100
AcDbArc
 50
312.6922697950917
 51
77.6308047478613
  0
LINE
  5
73
330
51
100
AcDbEntity
  8
USP-GEO
100
AcDbLine
 10
0.9958246239628092
 20
0.4191811438083173
 30
0.0000000000000002
 11
1.418552815727617
 21
0.8091579070741143
 31
0.0000000000000003
210
0.0
220
1.0
230
0.0
  0
LINE
  5
74
330
51
100
AcDbEntity
  8
USP-GEO
100
AcDbLine
 10
0.9353000000000033
 20
1.468999999999994
 30
0.0000000000000002
 11
1.258988306700605
 21
1.398014930405764
 31
0.0000000000000002
210
0.0
220
1.0
230
0.0
  0
ARC
  5
75
330
51
100
AcDbEntity
  8
USP-GEO
100
AcDbCircle
 10
1.12329999999999
 20
2.437999999999988
 30
0.0000000000000002
 40
0.1875
100
AcDbArc
 50
138.2518834600175
 51
180.0
  0
LINE
  5
76
330
51
100
AcDbEntity
  8
USP-GEO
100
AcDbLine
 10
0.0598000000000001
 20
2.562848213902105
 30
0.0
 11
0.0598000000000001
 21
2.437999999999988
 31
0.0
210
0.0
220
1.0
230
0.0
  0
LINE
  5
77
330
51
100
AcDbEntity
  8
USP-GEO
100
AcDbLine
 10
0.0000000000000009
 20
2.562848213902107
 30
0.0
 11
0.0000000000000009
 21
2.437999999999988
 31
0.0
210
0.0
220
1.0
230
0.0
  0
CIRCLE
  5
78
330
51
100
AcDbEntity
  8
USP-GEO
100
AcDbCircle
 10
0.6853000000000034
 20
2.25
 30
0.0000000000000001
 40
0.082
  0
LINE
  5
79
330
51
100
AcDbEntity
  8
USP-GEO
100
AcDbLine
 10
0.0598000000000019
 20
3.058720660405413
 30
0.0
 11
0.0598000000000019
 21
2.5628482139021
 31
0.0
210
0.0
220
1.0
230
0.0
  0
LINE
  5
7A
330
51
100
AcDbEntity
  8
USP-GEO
100
AcDbLine
 10
-0.0000000000000009
 20
3.058720660405411
 30
0.0
 11
-0.0000000000000009
 21
2.562848213902102
 31
0.0
210
0.0
220
1.0
230
0.0
  0
LINE
  5
7B
330
51
100
AcDbEntity
  8
USP-GEO
100
AcDbLine
 10
0.059800000000001
 20
2.5628482139021
 30
0.0
 11
0.0000000000000009
 21
2.5628482139021
 31
0.0
210
0.0
220
1.0
230
0.0
  0
LINE
  5
7C
330
51
100
AcDbEntity
  8
USP-GEO
100
AcDbLine
 10
0.059800000000001
 20
3.058720660405409
 30
0.0
 11
0.0
 21
3.058720660405409
 31
0.0
210
0.0
220
1.0
230
0.0
  0
LINE
  5
7D
330
51
100
AcDbEntity
  8
USP-GEO
100
AcDbLine
 10
1.481689861982377
 20
3.058720660405413
 30
0.0000000000000003
 11
0.9834101380176081
 21
2.562848213902115
 31
0.0000000000000002
210
0.0
220
1.0
230
0.0
  0
ARC
  5
7E
330
51
100
AcDbEntity
  8
USP-GEO
100
AcDbCircle
 10
1.123299999999991
 20
4.187999999999988
 30
0.0000000000000002
 40
0.1875
100
AcDbArc
 50
180.0
 51
234.5468134129411
  0
LINE
  5
7F
330
51
100
AcDbEntity
  8
USP-GEO
100
AcDbLine
 10
0.0598000000000019
 20
4.499999999999993
 30
0.0
 11
0.9353000000000104
 21
4.499999999999987
 31
0.0000000000000002
210
0.0
220
1.0
230
0.0
  0
LINE
  5
80
330
51
100
AcDbEntity
  8
USP-GEO
100
AcDbLine
 10
0.0598000000000001
 20
3.511096663211574
 30
0.0
 11
0.0598000000000001
 21
4.035264429588037
 31
0.0
210
0.0
220
1.0
230
0.0
  0
LINE
  5
81
330
51
100
AcDbEntity
  8
USP-GEO
100
AcDbLine
 10
0.0000000000000009
 20
4.035264429588039
 30
0.0
 11
0.0000000000000009
 21
3.511096663211576
 31
0.0
210
0.0
220
1.0
230
0.0
  0
LINE
  5
82
330
51
100
AcDbEntity
  8
USP-GEO
100
AcDbLine
 10
0.059800000000001
 20
3.378618347362234
 30
0.0
 11
0.059800000000001
 21
3.511096663211575
 31
0.0
210
0.0
220
1.0
230
0.0
  0
LINE
  5
83
330
51
100
AcDbEntity
  8
USP-GEO
100
AcDbLine
 10
-0.0000000000000009
 20
3.511096663211575
 30
0.0
 11
-0.0000000000000009
 21
3.378618347362234
 31
0.0
210
0.0
220
1.0
230
0.0
  0
LINE
  5
84
330
51
100
AcDbEntity
  8
USP-GEO
100
AcDbLine
 10
0.0598000000000019
 20
3.378618347362234
 30
0.0
 11
0.0598000000000019
 21
3.183568874307526
 31
0.0
210
0.0
220
1.0
230
0.0
  0
LINE
  5
85
330
51
100
AcDbEntity
  8
USP-GEO
100
AcDbLine
 10
0.0
 20
3.378618347362234
 30
0.0
 11
0.0
 21
3.183568874307526
 31
0.0
210
0.0
220
1.0
230
0.0
  0
LINE
  5
86
330
51
100
AcDbEntity
  8
USP-GEO
100
AcDbLine
 10
0.0598000000000001
 20
3.511096663211574
 30
0.0
 11
0.0000000000000009
 21
3.511096663211574
 31
0.0
210
0.0
220
1.0
230
0.0
  0
LINE
  5
87
330
51
100
AcDbEntity
  8
USP-GEO
100
AcDbLine
 10
0.0598000000000001
 20
4.500000000000001
 30
0.0
 11
0.0598000000000001
 21
4.187999999999989
 31
0.0
210
0.0
220
1.0
230
0.0
  0
LINE
  5
88
330
51
100
AcDbEntity
  8
USP-GEO
100
AcDbLine
 10
-0.0000000000000009
 20
4.500000000000001
 30
0.0
 11
-0.0000000000000009
 21
4.187999999999986
 31
0.0
210
0.0
220
1.0
230
0.0
  0
LINE
  5
89
330
51
100
AcDbEntity
  8
USP-GEO
100
AcDbLine
 10
0.0598000000000001
 20
4.187999999999989
 30
0.0
 11
0.0598000000000001
 21
4.035264429588033
 31
0.0
210
0.0
220
1.0
230
0.0
  0
LINE
  5
8A
330
51
100
AcDbEntity
  8
USP-GEO
100
AcDbLine
 10
0.0000000000000009
 20
4.187999999999986
 30
0.0
 11
0.0000000000000009
 21
4.035264429588034
 31
0.0
210
0.0
220
1.0
230
0.0
  0
LINE
  5
8B
330
51
100
AcDbEntity
  8
USP-GEO
100
AcDbLine
 10
0.0598000000000019
 20
4.035264429588032
 30
0.0
 11
0.0000000000000018
 21
4.035264429588032
 31
0.0
210
0.0
220
1.0
230
0.0
  0
LINE
  5
8C
330
51
100
AcDbEntity
  8
USP-GEO
100
AcDbLine
 10
0.0598000000000001
 20
4.500000000000001
 30
0.0
 11
-0.0000000000000009
 21
4.500000000000001
 31
0.0
210
0.0
220
1.0
230
0.0
  0
CIRCLE
  5
8D
330
51
100
AcDbEntity
  8
USP-GEO
100
AcDbCircle
 10
0.6853000000000034
 20
4.25
 30
0.0000000000000001
 40
0.082
  0
LINE
  5
8E
330
51
100
AcDbEntity
  8
USP-GEO
100
AcDbLine
 10
1.474486645257619
 20
3.511096663211574
 30
0.0000000000000003
 11
1.014542951810305
 21
4.035264429588037
 31
0.0000000000000002
210
0.0
220
1.0
230
0.0
  0
CIRCLE
  5
8F
330
51
100
AcDbEntity
  8
USP-GEO
100
AcDbCircle
 10
1.216299999999994
 20
3.375
 30
0.0000000000000002
 40
0.082
  0
ARC
  5
90
330
51
100
AcDbEntity
  8
USP-GEO
100
AcDbCircle
 10
1.341799999999997
 20
3.378618347362248
 30
0.0000000000000002
 40
0.1875
100
AcDbArc
 50
359.9999999999992
 51
44.95498502766726
  0
LINE
  5
91
330
51
100
AcDbEntity
  8
USP-GEO
100
AcDbLine
 10
1.529299999999996
 20
3.378618347362248
 30
0.0000000000000003
 11
1.529299999999996
 21
3.183568874307525
 31
0.0000000000000003
210
0.0
220
1.0
230
0.0
  0
LINE
  5
92
330
51
100
AcDbEntity
  8
USP-GEO
100
AcDbLine
 10
0.9353000000000033
 20
4.499999999999985
 30
0.0000000000000002
 11
0.9357999999999915
 21
4.187999999999988
 31
0.0000000000000002
210
0.0
220
1.0
230
0.0
  0
ENDBLK
  5
94
330
51
100
AcDbEntity
  8
0
100
AcDbBlockEnd
  0
ENDSEC
  0
SECTION
  2
ENTITIES
  0
INSERT
  5
3
330
2
100
AcDbEntity
  8
USP
100
AcDbBlockReference
  2
MPA1_S
 10
4.254234690570386
 20
0.5289707451638677
 30
-0.0000000000000002
  0
INSERT
  5
50
330
2
100
AcDbEntity
  8
USP
100
AcDbBlockReference
  2
MPA1_F
 10
1.034066182998247
 20
0.528970746592945
 30
-0.0000000000000008
  0
ENDSEC
  0
SECTION
  2
OBJECTS
  0
DICTIONARY
  5
B0
330
0
100
AcDbDictionary
281
     1
  3
ACAD_COLOR
350
C8
  3
ACAD_GROUP
350
AD
  3
ACAD_LAYOUT
350
C9
  3
ACAD_MATERIAL
350
C7
  3
ACAD_MLINESTYLE
350
AE
  3
ACAD_PLOTSETTINGS
350
CA
  3
ACAD_PLOTSTYLENAME
350
C5
  3
ACDBHEADERROUNDTRIPXREC
350
D3
  3
AcDbVariableDictionary
350
CF
  0
DICTIONARY
  5
A2
330
A1
100
AcDbDictionary
280
     1
281
     1
  0
DICTIONARY
  5
A4
330
A3
100
AcDbDictionary
280
     1
281
     1
  0
DICTIONARY
  5
6
330
5
100
AcDbDictionary
280
     1
281
     1
  0
DICTIONARY
  5
F
330
E
100
AcDbDictionary
280
     1
281
     1
  0
DICTIONARY
  5
B5
330
B4
100
AcDbDictionary
280
     1
281
     1
  0
DICTIONARY
  5
95
330
2
100
AcDbDictionary
280
     1
281
     1
  3
ACAD_LAYOUTSELFREF
360
96
  0
DICTIONARY
  5
9A
330
99
100
AcDbDictionary
280
     1
281
     1
  3
ACAD_LAYOUTSELFREF
360
9B
  0
DICTIONARY
  5
C8
102
{ACAD_REACTORS
330
B0
102
}
330
B0
100
AcDbDictionary
281
     1
  0
DICTIONARY
  5
AD
102
{ACAD_REACTORS
330
B0
102
}
330
B0
100
AcDbDictionary
281
     1
  0
DICTIONARY
  5
C9
102
{ACAD_REACTORS
330
B0
102
}
330
B0
100
AcDbDictionary
281
     1
  3
Layout1
350
CC
  3
Model
350
CB
  0
DICTIONARY
  5
C7
102
{ACAD_REACTORS
330
B0
102
}
330
B0
100
AcDbDictionary
281
     1
  0
DICTIONARY
  5
AE
102
{ACAD_XDICTIONARY
360
AF
102
}
102
{ACAD_REACTORS
330
B0
102
}
330
B0
100
AcDbDictionary
281
     1
  3
STANDARD
350
B3
  0
DICTIONARY
  5
CA
102
{ACAD_REACTORS
330
B0
102
}
330
B0
100
AcDbDictionary
281
     1
  0
ACDBDICTIONARYWDFLT
  5
C5
102
{ACAD_REACTORS
330
B0
102
}
330
B0
100
AcDbDictionary
281
     1
  3
Normal
350
C6
100
AcDbDictionaryWithDefault
340
C6
  0
DICTIONARY
  5
D3
102
{ACAD_REACTORS
330
B0
102
}
330
B0
100
AcDbDictionary
281
     1
  3
COLORDICT
350
D5
  3
MATERIALDICT
350
D4
  0
DICTIONARY
  5
CF
102
{ACAD_REACTORS
330
B0
102
}
330
B0
100
AcDbDictionary
281
     1
  3
DIMASSOC
350
D0
  3
PROJECTNAME
350
D1
  0
XRECORD
  5
96
102
{ACAD_REACTORS
330
95
102
}
330
95
100
AcDbXrecord
280
     1
340
2
  0
XRECORD
  5
9B
102
{ACAD_REACTORS
330
9A
102
}
330
9A
100
AcDbXrecord
280
     1
340
9B
  0
LAYOUT
  5
CC
102
{ACAD_XDICTIONARY
360
D8
102
}
102
{ACAD_REACTORS
330
C9
102
}
330
C9
100
AcDbPlotSettings
  1

  2
\\mitk-us-mtg-n28\Office Canon IR C2550
  4

  6

 40
0.0
 41
0.0
 42
0.0
 43
0.0
 44
0.0
 45
0.0
 46
0.0
 47
0.0
 48
0.0
 49
0.0
140
0.0
141
0.0
142
1.0
143
1.0
 70
   688
 72
     0
 73
     0
 74
     5
  7

 75
    16
147
1.0
148
0.0
149
0.0
100
AcDbLayout
  1
Layout1
 70
     1
 71
     1
 10
0.0
 20
0.0
 11
12.0
 21
9.0
 12
0.0
 22
0.0
 32
0.0
 14
1.000000000000000E+20
 24
1.000000000000000E+20
 34
1.000000000000000E+20
 15
-1.000000000000000E+20
 25
-1.000000000000000E+20
 35
-1.000000000000000E+20
146
0.0
 13
0.0
 23
0.0
 33
0.0
 16
1.0
 26
0.0
 36
0.0
 17
0.0
 27
1.0
 37
0.0
 76
     0
330
99
  0
LAYOUT
  5
CB
102
{ACAD_XDICTIONARY
360
D6
102
}
102
{ACAD_REACTORS
330
C9
102
}
330
C9
100
AcDbPlotSettings
  1

  2
\\mitk-us-mtg-n28\Office Canon IR C2550
  4

  6

 40
0.0
 41
0.0
 42
0.0
 43
0.0
 44
0.0
 45
0.0
 46
0.0
 47
0.0
 48
0.0
 49
0.0
140
0.0
141
0.0
142
1.0
143
1.0
 70
  1712
 72
     0
 73
     0
 74
     0
  7

 75
     0
147
1.0
148
0.0
149
0.0
100
AcDbLayout
  1
Model
 70
     1
 71
     0
 10
0.0
 20
0.0
 11
12.0
 21
9.0
 12
0.0
 22
0.0
 32
0.0
 14
0.0
 24
0.0
 34
0.0
 15
0.0
 25
0.0
 35
0.0
146
0.0
 13
0.0
 23
0.0
 33
0.0
 16
1.0
 26
0.0
 36
0.0
 17
0.0
 27
1.0
 37
0.0
 76
     0
330
2
  0
DICTIONARY
  5
AF
330
AE
100
AcDbDictionary
280
     1
281
     1
  0
MLINESTYLE
  5
B3
102
{ACAD_REACTORS
330
AE
102
}
330
AE
100
AcDbMlineStyle
  2
STANDARD
 70
     0
  3

 62
   256
 51
90.0
 52
90.0
 71
     2
 49
0.5
 62
   256
  6
BYLAYER
 49
-0.5
 62
   256
  6
BYLAYER
  0
ACDBPLACEHOLDER
  5
C6
102
{ACAD_REACTORS
330
C5
102
}
330
C5
  0
XRECORD
  5
D5
102
{ACAD_REACTORS
330
D3
102
}
330
D3
100
AcDbXrecord
280
     1
340
C8
  0
XRECORD
  5
D4
102
{ACAD_REACTORS
330
D3
102
}
330
D3
100
AcDbXrecord
280
     1
340
C7
  0
DICTIONARYVAR
  5
D0
102
{ACAD_REACTORS
330
CF
102
}
330
CF
100
DictionaryVariables
280
     0
  1
1
  0
DICTIONARYVAR
  5
D1
102
{ACAD_REACTORS
330
CF
102
}
330
CF
100
DictionaryVariables
280
     0
  1

  0
DICTIONARY
  5
D8
330
CC
100
AcDbDictionary
280
     1
281
     1
  3
ACAD_XREC_ROUNDTRIP
360
D9
  0
DICTIONARY
  5
D6
330
CB
100
AcDbDictionary
280
     1
281
     1
  3
ACAD_XREC_ROUNDTRIP
360
D7
  0
XRECORD
  5
D9
102
{ACAD_REACTORS
330
D8
102
}
330
D8
100
AcDbXrecord
280
     1
102
SHADEPLOT
 70
     0
102
SHADEPLOTRESLEVEL
 70
     2
102
SHADEPLOTCUSTOMDPI
 70
   300
  0
XRECORD
  5
D7
102
{ACAD_REACTORS
330
D6
102
}
330
D6
100
AcDbXrecord
280
     1
102
SHADEPLOT
 70
     0
102
SHADEPLOTRESLEVEL
 70
     2
102
SHADEPLOTCUSTOMDPI
 70
   300
  0
ENDSEC
  0
EOF
