  0
SECTION
  2
HEADER
  9
$ACADVER
  1
AC1014
  9
$ACADMAINTVER
 70
     9
  9
$DWGCODEPAGE
  3
ANSI_1252
  9
$INSBASE
 10
0.0
 20
0.0
 30
0.0
  9
$EXTMIN
 10
-0.2544280659233301
 20
0.0014254100519082
 30
0.0
  9
$EXTMAX
 10
11.60604947818242
 20
13.92969258452886
 30
0.0
  9
$LIMMIN
 10
0.0
 20
0.0
  9
$LIMMAX
 10
12.0
 20
9.0
  9
$ORTHOMODE
 70
     1
  9
$REGENMODE
 70
     1
  9
$FILLMODE
 70
     1
  9
$QTEXTMODE
 70
     0
  9
$MIRRTEXT
 70
     0
  9
$DRAGMODE
 70
     2
  9
$LTSCALE
 40
1.5
  9
$OSMODE
 70
     0
  9
$ATTMODE
 70
     1
  9
$TEXTSIZE
 40
0.75
  9
$TRACEWID
 40
0.05
  9
$TEXTSTYLE
  7
STANDARD
  9
$CLAYER
  8
USP
  9
$CELTYPE
  6
BYLAYER
  9
$CECOLOR
 62
   256
  9
$CELTSCALE
 40
1.0
  9
$DELOBJ
 70
     1
  9
$DISPSILH
 70
     1
  9
$DIMSCALE
 40
7.0
  9
$DIMASZ
 40
0.125
  9
$DIMEXO
 40
0.0625
  9
$DIMDLI
 40
0.37890625
  9
$DIMRND
 40
0.0
  9
$DIMDLE
 40
0.0
  9
$DIMEXE
 40
0.09375
  9
$DIMTP
 40
0.0
  9
$DIMTM
 40
0.0
  9
$DIMTXT
 40
0.109375
  9
$DIMCEN
 40
0.0
  9
$DIMTSZ
 40
0.0
  9
$DIMTOL
 70
     0
  9
$DIMLIM
 70
     0
  9
$DIMTIH
 70
     1
  9
$DIMTOH
 70
     1
  9
$DIMSE1
 70
     0
  9
$DIMSE2
 70
     0
  9
$DIMTAD
 70
     0
  9
$DIMZIN
 70
     8
  9
$DIMBLK
  1

  9
$DIMASO
 70
     1
  9
$DIMSHO
 70
     1
  9
$DIMPOST
  1

  9
$DIMAPOST
  1

  9
$DIMALT
 70
     0
  9
$DIMALTD
 70
     2
  9
$DIMALTF
 40
25.4
  9
$DIMLFAC
 40
1.0
  9
$DIMTOFL
 70
     0
  9
$DIMTVP
 40
0.0
  9
$DIMTIX
 70
     0
  9
$DIMSOXD
 70
     0
  9
$DIMSAH
 70
     0
  9
$DIMBLK1
  1

  9
$DIMBLK2
  1

  9
$DIMSTYLE
  2
STANDARD
  9
$DIMCLRD
 70
     0
  9
$DIMCLRE
 70
     0
  9
$DIMCLRT
 70
   256
  9
$DIMTFAC
 40
1.0
  9
$DIMGAP
 40
0.08984375
  9
$DIMJUST
 70
     0
  9
$DIMSD1
 70
     0
  9
$DIMSD2
 70
     0
  9
$DIMTOLJ
 70
     1
  9
$DIMTZIN
 70
     0
  9
$DIMALTZ
 70
     0
  9
$DIMALTTZ
 70
     0
  9
$DIMFIT
 70
     3
  9
$DIMUPT
 70
     1
  9
$DIMUNIT
 70
     7
  9
$DIMDEC
 70
     4
  9
$DIMTDEC
 70
     4
  9
$DIMALTU
 70
     2
  9
$DIMALTTD
 70
     2
  9
$DIMTXSTY
  7
STANDARD
  9
$DIMAUNIT
 70
     0
  9
$LUNITS
 70
     5
  9
$LUPREC
 70
     6
  9
$SKETCHINC
 40
0.1
  9
$FILLETRAD
 40
0.0
  9
$AUNITS
 70
     0
  9
$AUPREC
 70
     1
  9
$MENU
  1
CUSTOM
  9
$ELEVATION
 40
0.0
  9
$PELEVATION
 40
0.0
  9
$THICKNESS
 40
0.0
  9
$LIMCHECK
 70
     0
  9
$BLIPMODE
 70
     0
  9
$CHAMFERA
 40
0.0
  9
$CHAMFERB
 40
0.0
  9
$CHAMFERC
 40
0.0
  9
$CHAMFERD
 40
0.0
  9
$SKPOLY
 70
     0
  9
$TDCREATE
 40
2451263.663231366
  9
$TDUPDATE
 40
2452759.746038229
  9
$TDINDWG
 40
0.4767638194
  9
$TDUSRTIMER
 40
0.4767638194
  9
$USRTIMER
 70
     1
  9
$ANGBASE
 50
0.0
  9
$ANGDIR
 70
     0
  9
$PDMODE
 70
     0
  9
$PDSIZE
 40
0.0
  9
$PLINEWID
 40
0.0
  9
$COORDS
 70
     2
  9
$SPLFRAME
 70
     0
  9
$SPLINETYPE
 70
     6
  9
$SPLINESEGS
 70
     8
  9
$ATTDIA
 70
     0
  9
$ATTREQ
 70
     0
  9
$HANDLING
 70
     1
  9
$HANDSEED
  5
1EF
  9
$SURFTAB1
 70
     6
  9
$SURFTAB2
 70
     6
  9
$SURFTYPE
 70
     6
  9
$SURFU
 70
     6
  9
$SURFV
 70
     6
  9
$UCSNAME
  2

  9
$UCSORG
 10
0.0
 20
0.0
 30
0.0
  9
$UCSXDIR
 10
1.0
 20
0.0
 30
0.0
  9
$UCSYDIR
 10
0.0
 20
1.0
 30
0.0
  9
$PUCSNAME
  2

  9
$PUCSORG
 10
0.0
 20
0.0
 30
0.0
  9
$PUCSXDIR
 10
1.0
 20
0.0
 30
0.0
  9
$PUCSYDIR
 10
0.0
 20
1.0
 30
0.0
  9
$USERI1
 70
     0
  9
$USERI2
 70
     0
  9
$USERI3
 70
     0
  9
$USERI4
 70
     0
  9
$USERI5
 70
     0
  9
$USERR1
 40
0.0
  9
$USERR2
 40
0.0
  9
$USERR3
 40
0.0
  9
$USERR4
 40
0.0
  9
$USERR5
 40
0.0
  9
$WORLDVIEW
 70
     1
  9
$SHADEDGE
 70
     3
  9
$SHADEDIF
 70
    70
  9
$TILEMODE
 70
     1
  9
$MAXACTVP
 70
    16
  9
$PINSBASE
 10
0.0
 20
0.0
 30
0.0
  9
$PLIMCHECK
 70
     0
  9
$PEXTMIN
 10
1.000000000000000E+20
 20
1.000000000000000E+20
 30
1.000000000000000E+20
  9
$PEXTMAX
 10
-1.000000000000000E+20
 20
-1.000000000000000E+20
 30
-1.000000000000000E+20
  9
$PLIMMIN
 10
0.0
 20
0.0
  9
$PLIMMAX
 10
12.0
 20
9.0
  9
$UNITMODE
 70
     0
  9
$VISRETAIN
 70
     0
  9
$PLINEGEN
 70
     0
  9
$PSLTSCALE
 70
     0
  9
$TREEDEPTH
 70
  3020
  9
$PICKSTYLE
 70
     1
  9
$CMLSTYLE
  2
STANDARD
  9
$CMLJUST
 70
     0
  9
$CMLSCALE
 40
1.0
  9
$PROXYGRAPHICS
 70
     1
  9
$MEASUREMENT
 70
     0
  0
ENDSEC
  0
SECTION
  2
CLASSES
  0
CLASS
  1
ACDBDICTIONARYWDFLT
  2
AcDbDictionaryWithDefault
  3
AutoCAD 2000
 90
        0
280
     1
281
     0
  0
CLASS
  1
ACDBPLACEHOLDER
  2
AcDbPlaceHolder
  3
AutoCAD 2000
 90
        0
280
     1
281
     0
  0
CLASS
  1
LAYOUT
  2
AcDbLayout
  3
AutoCAD 2000
 90
        0
280
     1
281
     0
  0
CLASS
  1
DICTIONARYVAR
  2
AcDbDictionaryVar
  3
"AutoCAD"
 90
        0
280
     1
281
     0
  0
CLASS
  1
LONG_TRANSACTION
  2
AcDbLongTransaction
  3
AutoCAD 2000
 90
        0
280
     1
281
     0
  0
CLASS
  1
LWPOLYLINE
  2
AcDbPolyline
  3
"AutoCAD"
 90
        0
280
     1
281
     1
  0
CLASS
  1
HATCH
  2
AcDbHatch
  3
"ACAD_SEDONA"
 90
        0
280
     1
281
     1
  0
CLASS
  1
XRECORD
  2
AcDbXrecord
  3
"<Built In>"
 90
        0
280
     0
281
     0
  0
CLASS
  1
LONG_TRANSACTION
  2
AcDbLongTransaction
  3
AutoCAD 2000
 90
        0
280
     1
281
     0
  0
CLASS
  1
LWPOLYLINE
  2
AcDbPolyline
  3
"AutoCAD"
 90
        0
280
     1
281
     1
  0
CLASS
  1
HATCH
  2
AcDbHatch
  3
"ACAD_SEDONA"
 90
        0
280
     1
281
     1
  0
CLASS
  1
XRECORD
  2
AcDbXrecord
  3
"<Built In>"
 90
        0
280
     0
281
     0
  0
ENDSEC
  0
SECTION
  2
TABLES
  0
TABLE
  2
VPORT
  5
1D9
100
AcDbSymbolTable
 70
     1
  0
VPORT
  5
1EB
100
AcDbSymbolTableRecord
100
AcDbViewportTableRecord
  2
*ACTIVE
 70
     0
 10
0.0
 20
0.0
 11
1.0
 21
1.0
 12
-12.7787031092437
 22
17.52424567702465
 13
0.0
 23
0.0
 14
1.0
 24
1.0
 15
0.0
 25
0.0
 16
0.0
 26
0.0
 36
1.0
 17
23.09603071721725
 27
-10.27010416511325
 37
-10.44050274849355
 40
14.50543220371897
 41
1.457627118644067
 42
50.0
 43
10.55307667737539
 44
10.55307667737539
 50
0.0
 51
0.0
 71
     0
 72
   100
 73
     1
 74
     1
 75
     0
 76
     0
 77
     0
 78
     0
  0
ENDTAB
  0
TABLE
  2
LTYPE
  5
1D5
100
AcDbSymbolTable
 70
     1
  0
LTYPE
  5
1D6
100
AcDbSymbolTableRecord
100
AcDbLinetypeTableRecord
  2
BYBLOCK
 70
     0
  3

 72
    65
 73
     0
 40
0.0
  0
LTYPE
  5
6
100
AcDbSymbolTableRecord
100
AcDbLinetypeTableRecord
  2
BYLAYER
 70
     0
  3

 72
    65
 73
     0
 40
0.0
  0
LTYPE
  5
5
100
AcDbSymbolTableRecord
100
AcDbLinetypeTableRecord
  2
CONTINUOUS
 70
     0
  3
Solid line
 72
    65
 73
     0
 40
0.0
  0
ENDTAB
  0
TABLE
  2
LAYER
  5
1D3
100
AcDbSymbolTable
 70
     5
  0
LAYER
  5
CC
100
AcDbSymbolTableRecord
100
AcDbLayerTableRecord
  2
0
 70
     0
 62
     7
  6
CONTINUOUS
  0
LAYER
  5
D
100
AcDbSymbolTableRecord
100
AcDbLayerTableRecord
  2
USP-GEO
 70
     0
 62
     7
  6
CONTINUOUS
  0
LAYER
  5
13
100
AcDbSymbolTableRecord
100
AcDbLayerTableRecord
  2
USP-TXT
 70
     0
 62
     7
  6
CONTINUOUS
  0
LAYER
  5
9
102
{ACAD_XDICTIONARY
360
A
102
}
100
AcDbSymbolTableRecord
100
AcDbLayerTableRecord
  2
USP-HID
 70
     0
 62
     7
  6
CONTINUOUS
  0
LAYER
  5
4
100
AcDbSymbolTableRecord
100
AcDbLayerTableRecord
  2
USP
 70
     0
 62
     7
  6
CONTINUOUS
  0
ENDTAB
  0
TABLE
  2
STYLE
  5
1D4
100
AcDbSymbolTable
 70
     1
  0
STYLE
  5
14
100
AcDbSymbolTableRecord
100
AcDbTextStyleTableRecord
  2
STANDARD
 70
     0
 40
0.0
 41
1.0
 50
0.0
 71
     0
 42
0.75
  3
txt
  4

  0
ENDTAB
  0
TABLE
  2
VIEW
  5
1D7
100
AcDbSymbolTable
 70
     0
  0
ENDTAB
  0
TABLE
  2
UCS
  5
1D8
100
AcDbSymbolTable
 70
     0
  0
ENDTAB
  0
TABLE
  2
APPID
  5
1DB
100
AcDbSymbolTable
 70
     1
  0
APPID
  5
B
100
AcDbSymbolTableRecord
100
AcDbRegAppTableRecord
  2
ACAD
 70
     0
  0
ENDTAB
  0
TABLE
  2
DIMSTYLE
  5
1DC
100
AcDbSymbolTable
 70
     1
  0
DIMSTYLE
105
1E3
100
AcDbSymbolTableRecord
100
AcDbDimStyleTableRecord
  2
STANDARD
 70
     0
  3

  4

  5

  6

  7

 40
1.0
 41
0.18
 42
0.0625
 43
0.38
 44
0.18
 45
0.0
 46
0.0
 47
0.0
 48
0.0
140
0.18
141
0.09
142
0.0
143
25.4
144
1.0
145
0.0
146
1.0
147
0.09
 71
     0
 72
     0
 73
     1
 74
     1
 75
     0
 76
     0
 77
     0
 78
     0
170
     0
171
     2
172
     0
173
     0
174
     0
175
     0
176
     0
177
     0
178
     0
270
     2
271
     4
272
     4
273
     2
274
     2
340
14
275
     0
280
     0
281
     0
282
     0
283
     1
284
     0
285
     0
286
     0
287
     3
288
     0
  0
ENDTAB
  0
TABLE
  2
BLOCK_RECORD
  5
1
100
AcDbSymbolTable
 70
     3
  0
BLOCK_RECORD
  5
2
102
{ACAD_XDICTIONARY
360
1CC
102
}
100
AcDbSymbolTableRecord
100
AcDbBlockTableRecord
  2
*MODEL_SPACE
  0
BLOCK_RECORD
  5
1CF
102
{ACAD_XDICTIONARY
360
1D0
102
}
100
AcDbSymbolTableRecord
100
AcDbBlockTableRecord
  2
*PAPER_SPACE
  0
BLOCK_RECORD
  5
7
100
AcDbSymbolTableRecord
100
AcDbBlockTableRecord
  2
MP7_S
  0
BLOCK_RECORD
  5
CF
100
AcDbSymbolTableRecord
100
AcDbBlockTableRecord
  2
MP7_F
  0
BLOCK_RECORD
  5
1A8
100
AcDbSymbolTableRecord
100
AcDbBlockTableRecord
  2
MP7_T
  0
ENDTAB
  0
ENDSEC
  0
SECTION
  2
BLOCKS
  0
BLOCK
  5
1CD
100
AcDbEntity
  8
0
100
AcDbBlockBegin
  2
*MODEL_SPACE
 70
     0
 10
0.0
 20
0.0
 30
0.0
  3
*MODEL_SPACE
  1

  0
ENDBLK
  5
1CE
100
AcDbEntity
  8
0
100
AcDbBlockEnd
  0
BLOCK
  5
1D1
100
AcDbEntity
 67
     1
  8
0
100
AcDbBlockBegin
  2
*PAPER_SPACE
 70
     0
 10
0.0
 20
0.0
 30
0.0
  3
*PAPER_SPACE
  1

  0
ENDBLK
  5
1D2
100
AcDbEntity
 67
     1
  8
0
100
AcDbBlockEnd
  0
BLOCK
  5
CB
100
AcDbEntity
  8
0
100
AcDbBlockBegin
  2
MP7_S
 70
     0
 10
0.0
 20
0.0
 30
0.0
  3
MP7_S
  1

  0
LINE
  5
8
100
AcDbEntity
  8
USP-HID
100
AcDbLine
 10
2.17897200834758
 20
5.588388347648326
 30
0.0
 11
1.512477071761468
 21
4.911611652351682
 31
0.0
  0
LINE
  5
C
100
AcDbEntity
  8
USP-GEO
100
AcDbLine
 10
-0.0519999999999997
 20
4.911611652351681
 30
0.0
 11
-0.0519999999999993
 21
5.588388347648319
 31
0.0
  0
LINE
  5
E
100
AcDbEntity
  8
USP-GEO
100
AcDbLine
 10
0.0000000000000003
 20
5.588388347648319
 30
0.0
 11
-0.0000000000000001
 21
4.911611652351681
 31
0.0
  0
LINE
  5
F
100
AcDbEntity
  8
USP-GEO
100
AcDbLine
 10
0.0917819319397836
 20
4.998500000007986
 30
0.0
 11
0.0917819319492004
 21
5.561502673804788
 31
0.0
  0
LINE
  5
10
100
AcDbEntity
  8
USP-GEO
100
AcDbLine
 10
0.1008116371784634
 20
4.998500000007986
 30
0.0
 11
0.1008116371878802
 21
5.561502673804788
 31
0.0
  0
LINE
  5
11
100
AcDbEntity
  8
USP-GEO
100
AcDbLine
 10
2.18800171358626
 20
5.588388347648326
 30
0.0
 11
1.521506777000149
 21
4.911611652351683
 31
0.0
  0
TEXT
  5
12
100
AcDbEntity
  8
USP-TXT
100
AcDbText
 10
-1.065054756996941
 20
-1.617895053353727
 30
0.0
 40
0.296875
  1
MP7 - SIDE VIEW
 72
     1
 11
1.112028576336392
 21
-1.617895053353727
 31
0.0
100
AcDbText
  0
LINE
  5
15
100
AcDbEntity
  8
USP-GEO
100
AcDbLine
 10
0.0
 20
0.0
 30
0.0
 11
2.224057152672785
 21
0.0000000000000004
 31
0.0
  0
LINE
  5
16
100
AcDbEntity
  8
USP-GEO
100
AcDbLine
 10
-0.0520000000000011
 20
0.96338834764832
 30
0.0
 11
-0.0520000000000011
 21
1.051776695296638
 31
0.0
  0
LINE
  5
17
100
AcDbEntity
  8
USP-GEO
100
AcDbLine
 10
0.0000000000000003
 20
0.96338834764832
 30
0.0
 11
0.0000000000000003
 21
1.051776695296638
 31
0.0
  0
ELLIPSE
  5
18
100
AcDbEntity
  8
USP-GEO
100
AcDbEllipse
 10
-0.0002975929668555
 20
0.937501336898407
 30
0.0
 11
0.0
 21
-0.0935000000095601
 31
0.0
210
0.0
220
0.0
230
1.0
 40
0.9848077530122081
 41
1.570796326777911
 42
3.138360735471163
  0
ELLIPSE
  5
19
100
AcDbEntity
  8
USP-GEO
100
AcDbEllipse
 10
0.0087321122718244
 20
0.937501336898407
 30
0.0
 11
0.0
 21
0.0935000000095601
 31
0.0
210
0.0
220
0.0
230
1.0
 40
0.9848077530122081
 41
-1.570796326811881
 42
-0.0000000000000002
  0
ELLIPSE
  5
1A
100
AcDbEntity
  8
USP-GEO
100
AcDbEllipse
 10
-0.0002975929668555
 20
0.3744986631015905
 30
0.0
 11
0.0
 21
-0.0935000000095601
 31
0.0
210
0.0
220
0.0
230
1.0
 40
0.9848077530122081
 41
0.0032319181186277
 42
1.570796326777911
  0
ELLIPSE
  5
1B
100
AcDbEntity
  8
USP-GEO
100
AcDbEllipse
 10
0.0087321122718244
 20
0.3744986631015905
 30
0.0
 11
0.0
 21
0.0935000000095601
 31
0.0
210
0.0
220
0.0
230
1.0
 40
0.9848077530122081
 41
3.13624503451549
 42
4.71238898036776
  0
LINE
  5
1C
100
AcDbEntity
  8
USP-GEO
100
AcDbLine
 10
-0.0520000000000011
 20
0.2866116523516808
 30
0.0
 11
-0.0520000000000011
 21
0.9633883476483195
 31
0.0
  0
LINE
  5
1D
100
AcDbEntity
  8
USP-GEO
100
AcDbLine
 10
0.0000000000000003
 20
0.2866116523516808
 30
0.0
 11
0.0000000000000003
 21
0.9633883476483195
 31
0.0
  0
LINE
  5
1E
100
AcDbEntity
  8
USP-GEO
100
AcDbLine
 10
-0.0520000000000011
 20
0.0
 30
0.0
 11
-0.0520000000000011
 21
0.1982233047033617
 31
0.0
  0
LINE
  5
1F
100
AcDbEntity
  8
USP-GEO
100
AcDbLine
 10
0.0000000000000003
 20
0.0
 30
0.0
 11
0.0000000000000003
 21
0.1982233047033617
 31
0.0
  0
LINE
  5
20
100
AcDbEntity
  8
USP-GEO
100
AcDbLine
 10
0.0000000000000003
 20
0.0
 30
0.0
 11
-0.0519999999999993
 21
0.0
 31
0.0
  0
LINE
  5
21
100
AcDbEntity
  8
USP-HID
100
AcDbLine
 10
0.0000000000000003
 20
0.3680000000000021
 30
0.0
 11
-0.0519999999999993
 21
0.3680000000000021
 31
0.0
  0
LINE
  5
22
100
AcDbEntity
  8
USP-HID
100
AcDbLine
 10
0.0000000000000003
 20
0.2809999999999846
 30
0.0
 11
-0.0519999999999993
 21
0.2809999999999846
 31
0.0
  0
ELLIPSE
  5
23
100
AcDbEntity
  8
USP-HID
100
AcDbEllipse
 10
-0.0002975929668555
 20
0.3744986631015905
 30
0.0
 11
0.0
 21
-0.0935000000095601
 31
0.0
210
0.0
220
0.0
230
1.0
 40
0.9848077530122081
 41
-0.0053476190743027
 42
0.0032319181186275
  0
LINE
  5
24
100
AcDbEntity
  8
USP-HID
100
AcDbLine
 10
-0.0002975929668561
 20
0.2809986630920305
 30
0.0
 11
0.0087321122718244
 21
0.2809986630920305
 31
0.0
  0
LINE
  5
25
100
AcDbEntity
  8
USP-GEO
100
AcDbLine
 10
-0.0520000000000011
 20
0.1982233047033617
 30
0.0
 11
-0.0520000000000011
 21
0.2866116523516802
 31
0.0
  0
LINE
  5
26
100
AcDbEntity
  8
USP-GEO
100
AcDbLine
 10
0.0000000000000003
 20
0.2866116523516802
 30
0.0
 11
0.0000000000000003
 21
0.1982233047033617
 31
0.0
  0
LINE
  5
27
100
AcDbEntity
  8
USP-GEO
100
AcDbLine
 10
0.0082397083949196
 20
0.2809999999999846
 30
0.0
 11
0.0
 21
0.2809999999999755
 31
0.0
  0
LINE
  5
28
100
AcDbEntity
  8
USP-HID
100
AcDbLine
 10
0.0000000000000003
 20
0.5320000000000036
 30
0.0
 11
-0.0519999999999993
 21
0.5320000000000036
 31
0.0
  0
LINE
  5
29
100
AcDbEntity
  8
USP-GEO
100
AcDbLine
 10
0.0917819319397836
 20
0.3744986631000025
 30
0.0
 11
0.0917819319492003
 21
0.937501336896819
 31
0.0
  0
LINE
  5
2A
100
AcDbEntity
  8
USP-GEO
100
AcDbLine
 10
0.1008116371784634
 20
0.3744986631000025
 30
0.0
 11
0.1008116371878801
 21
0.937501336896819
 31
0.0
  0
LINE
  5
2B
100
AcDbEntity
  8
USP-HID
100
AcDbLine
 10
-0.0491643590901341
 20
3.654999999999994
 30
0.0
 11
-0.0491643590901719
 21
3.093002673815931
 31
0.0
  0
LINE
  5
2C
100
AcDbEntity
  8
USP-GEO
100
AcDbLine
 10
-0.0519999999999993
 20
2.426776695296638
 30
0.0
 11
-0.0519999999999997
 21
3.448223304703361
 31
0.0
  0
LINE
  5
2D
100
AcDbEntity
  8
USP-GEO
100
AcDbLine
 10
0.0000000000000003
 20
2.426776695296638
 30
0.0
 11
-0.0000000000000001
 21
3.448223304703361
 31
0.0
  0
LINE
  5
2E
100
AcDbEntity
  8
USP-HID
100
AcDbLine
 10
-0.0491643590880368
 20
2.342999999999928
 30
0.0
 11
-0.0491643590901697
 21
2.062001336907972
 31
0.0
  0
LINE
  5
2F
100
AcDbEntity
  8
USP-GEO
100
AcDbLine
 10
-0.0520000000000015
 20
1.66161165235168
 30
0.0
 11
-0.0520000000000011
 21
2.338388347648319
 31
0.0
  0
LINE
  5
30
100
AcDbEntity
  8
USP-GEO
100
AcDbLine
 10
0.0000000000000003
 20
2.338388347648319
 30
0.0
 11
-0.0000000000000001
 21
1.66161165235168
 31
0.0
  0
ELLIPSE
  5
31
100
AcDbEntity
  8
USP-GEO
100
AcDbEllipse
 10
-0.0002975929668555
 20
1.405498663101596
 30
0.0
 11
0.0
 21
-0.0935000000095601
 31
0.0
210
0.0
220
0.0
230
1.0
 40
0.9848077530122081
 41
0.0032319181186277
 42
1.570796326777911
  0
ELLIPSE
  5
32
100
AcDbEntity
  8
USP-GEO
100
AcDbEllipse
 10
-0.0002975929668555
 20
1.968501336898413
 30
0.0
 11
0.0
 21
-0.0935000000095601
 31
0.0
210
0.0
220
0.0
230
1.0
 40
0.9848077530122081
 41
1.570796326777911
 42
3.138360735471166
  0
ELLIPSE
  5
33
100
AcDbEntity
  8
USP-GEO
100
AcDbEllipse
 10
0.0087321122718244
 20
1.405498663101596
 30
0.0
 11
0.0
 21
0.0935000000095601
 31
0.0
210
0.0
220
0.0
230
1.0
 40
0.9848077530122081
 41
3.141592653589793
 42
4.712388980367761
  0
ELLIPSE
  5
34
100
AcDbEntity
  8
USP-GEO
100
AcDbEllipse
 10
0.0087321122718244
 20
1.968501336898413
 30
0.0
 11
0.0
 21
0.0935000000095601
 31
0.0
210
0.0
220
0.0
230
1.0
 40
0.9848077530122081
 41
-1.570796326811881
 42
-0.0000000000000002
  0
LINE
  5
35
100
AcDbEntity
  8
USP-GEO
100
AcDbLine
 10
-0.0520000000000011
 20
1.051776695296638
 30
0.0
 11
-0.0520000000000011
 21
1.573223304703361
 31
0.0
  0
LINE
  5
36
100
AcDbEntity
  8
USP-GEO
100
AcDbLine
 10
-0.0000000000000014
 20
1.573223304703361
 30
0.0
 11
-0.0000000000000014
 21
1.051776695296638
 31
0.0
  0
LINE
  5
37
100
AcDbEntity
  8
USP-HID
100
AcDbLine
 10
-0.0491643590901761
 20
1.311998663092037
 30
0.0
 11
-0.0491643590901233
 21
1.031001336907966
 31
0.0
  0
LINE
  5
38
100
AcDbEntity
  8
USP-HID
100
AcDbLine
 10
0.0000000000000003
 20
1.217999999999996
 30
0.0
 11
-0.0520000000000011
 21
1.217999999999996
 31
0.0
  0
LINE
  5
39
100
AcDbEntity
  8
USP-HID
100
AcDbLine
 10
0.0000000000000003
 20
1.031001336907966
 30
0.0
 11
-0.0519999999999993
 21
1.031001336907966
 31
0.0
  0
ELLIPSE
  5
3A
100
AcDbEntity
  8
USP-HID
100
AcDbEllipse
 10
-0.0002975929668555
 20
0.937501336898407
 30
0.0
 11
0.0
 21
-0.0935000000095601
 31
0.0
210
0.0
220
0.0
230
1.0
 40
0.9848077530122081
 41
3.138360735471163
 42
3.141592653589793
  0
LINE
  5
3B
100
AcDbEntity
  8
USP-GEO
100
AcDbLine
 10
0.0
 20
1.031001336907966
 30
0.0
 11
0.0087321122718242
 21
1.031001336907966
 31
0.0
  0
LINE
  5
3C
100
AcDbEntity
  8
USP-HID
100
AcDbLine
 10
-0.0000000000000014
 20
1.381999999999997
 30
0.0
 11
-0.0520000000000011
 21
1.381999999999997
 31
0.0
  0
LINE
  5
3D
100
AcDbEntity
  8
USP-HID
100
AcDbLine
 10
-0.0000000000000014
 20
1.311998663092037
 30
0.0
 11
-0.0519999999999993
 21
1.311998663092037
 31
0.0
  0
ELLIPSE
  5
3E
100
AcDbEntity
  8
USP-HID
100
AcDbEllipse
 10
-0.0002975929668555
 20
1.405498663101596
 30
0.0
 11
0.0
 21
-0.0935000000095601
 31
0.0
210
0.0
220
0.0
230
1.0
 40
0.9848077530122081
 41
0.0
 42
0.0032319181186277
  0
LINE
  5
3F
100
AcDbEntity
  8
USP-GEO
100
AcDbLine
 10
0.0087321122718244
 20
1.311998663092037
 30
0.0
 11
-0.000000000000002
 21
1.311998663092037
 31
0.0
  0
LINE
  5
40
100
AcDbEntity
  8
USP-GEO
100
AcDbLine
 10
-0.0520000000000011
 20
1.573223304703361
 30
0.0
 11
-0.0520000000000011
 21
1.66161165235168
 31
0.0
  0
LINE
  5
41
100
AcDbEntity
  8
USP-GEO
100
AcDbLine
 10
-0.0000000000000014
 20
1.573223304703361
 30
0.0
 11
-0.0000000000000014
 21
1.66161165235168
 31
0.0
  0
LINE
  5
42
100
AcDbEntity
  8
USP-HID
100
AcDbLine
 10
0.0000000000000003
 20
2.062001336907972
 30
0.0
 11
-0.0519999999999993
 21
2.062001336907972
 31
0.0
  0
ELLIPSE
  5
43
100
AcDbEntity
  8
USP-HID
100
AcDbEllipse
 10
-0.0002975929668555
 20
1.968501336898413
 30
0.0
 11
0.0
 21
-0.0935000000095601
 31
0.0
210
0.0
220
0.0
230
1.0
 40
0.9848077530122081
 41
3.138360735471166
 42
3.141592653589793
  0
LINE
  5
44
100
AcDbEntity
  8
USP-GEO
100
AcDbLine
 10
0.0
 20
2.062001336907972
 30
0.0
 11
0.0087321122718242
 21
2.062001336907972
 31
0.0
  0
LINE
  5
45
100
AcDbEntity
  8
USP-GEO
100
AcDbLine
 10
0.0917819319397854
 20
1.405498663100008
 30
0.0
 11
0.0917819319492023
 21
1.968501336896824
 31
0.0
  0
LINE
  5
46
100
AcDbEntity
  8
USP-GEO
100
AcDbLine
 10
0.1008116371784652
 20
1.405498663100008
 30
0.0
 11
0.1008116371878821
 21
1.968501336896824
 31
0.0
  0
ELLIPSE
  5
47
100
AcDbEntity
  8
USP-GEO
100
AcDbEllipse
 10
-0.0002975929668555
 20
2.436500000009559
 30
0.0
 11
0.0
 21
-0.0935000000095601
 31
0.0
210
0.0
220
0.0
230
1.0
 40
0.9848077530122081
 41
0.0032319181186277
 42
1.570796326777911
  0
ELLIPSE
  5
48
100
AcDbEntity
  8
USP-GEO
100
AcDbEllipse
 10
-0.0002975929668555
 20
2.999502673806368
 30
0.0
 11
0.0
 21
-0.0935000000095601
 31
0.0
210
0.0
220
0.0
230
1.0
 40
0.9848077530122081
 41
1.570796326777949
 42
3.138360735471168
  0
ELLIPSE
  5
49
100
AcDbEntity
  8
USP-GEO
100
AcDbEllipse
 10
0.0087321122718244
 20
2.436500000009559
 30
0.0
 11
0.0
 21
0.0935000000095601
 31
0.0
210
0.0
220
0.0
230
1.0
 40
0.9848077530122081
 41
3.141592653589793
 42
4.712388980367761
  0
ELLIPSE
  5
4A
100
AcDbEntity
  8
USP-GEO
100
AcDbEllipse
 10
0.0087321122718244
 20
2.999502673806368
 30
0.0
 11
0.0
 21
0.0935000000095601
 31
0.0
210
0.0
220
0.0
230
1.0
 40
0.9848077530122081
 41
-1.570796326811843
 42
-0.0000000000000002
  0
LINE
  5
4B
100
AcDbEntity
  8
USP-GEO
100
AcDbLine
 10
-0.0520000000000011
 20
2.33838834764832
 30
0.0
 11
-0.0520000000000011
 21
2.426776695296638
 31
0.0
  0
LINE
  5
4C
100
AcDbEntity
  8
USP-GEO
100
AcDbLine
 10
0.0000000000000003
 20
2.426776695296638
 30
0.0
 11
0.0000000000000003
 21
2.33838834764832
 31
0.0
  0
LINE
  5
4D
100
AcDbEntity
  8
USP-HID
100
AcDbLine
 10
0.0000000000000003
 20
2.342999999999999
 30
0.0
 11
-0.0519999999999993
 21
2.342999999999999
 31
0.0
  0
ELLIPSE
  5
4E
100
AcDbEntity
  8
USP-HID
100
AcDbEllipse
 10
-0.0002975929668555
 20
2.436500000009559
 30
0.0
 11
0.0
 21
-0.0935000000095601
 31
0.0
210
0.0
220
0.0
230
1.0
 40
0.9848077530122081
 41
0.0
 42
0.0032319181186277
  0
LINE
  5
4F
100
AcDbEntity
  8
USP-GEO
100
AcDbLine
 10
0.0087321122718244
 20
2.342999999999999
 30
0.0
 11
0.0000000000000001
 21
2.342999999999999
 31
0.0
  0
LINE
  5
50
100
AcDbEntity
  8
USP-HID
100
AcDbLine
 10
0.0000000000000003
 20
2.867999999999994
 30
0.0
 11
-0.0520000000000011
 21
2.867999999999994
 31
0.0
  0
LINE
  5
51
100
AcDbEntity
  8
USP-HID
100
AcDbLine
 10
0.0000000000000003
 20
3.031999999999996
 30
0.0
 11
-0.0520000000000011
 21
3.031999999999996
 31
0.0
  0
LINE
  5
52
100
AcDbEntity
  8
USP-HID
100
AcDbLine
 10
0.0000000000000003
 20
3.093002673815931
 30
0.0
 11
-0.0519999999999993
 21
3.093002673815931
 31
0.0
  0
ELLIPSE
  5
53
100
AcDbEntity
  8
USP-HID
100
AcDbEllipse
 10
-0.0002975929668555
 20
2.999502673806368
 30
0.0
 11
0.0
 21
-0.0935000000095601
 31
0.0
210
0.0
220
0.0
230
1.0
 40
0.9848077530122081
 41
3.138360735471168
 42
3.141592653589793
  0
LINE
  5
54
100
AcDbEntity
  8
USP-GEO
100
AcDbLine
 10
0.0087321122718244
 20
3.093002673815931
 30
0.0
 11
-0.0000000000000002
 21
3.093002673815931
 31
0.0
  0
LINE
  5
55
100
AcDbEntity
  8
USP-GEO
100
AcDbLine
 10
0.0917819319397854
 20
2.436500000007971
 30
0.0
 11
0.0917819319491995
 21
2.999502673804784
 31
0.0
  0
LINE
  5
56
100
AcDbEntity
  8
USP-GEO
100
AcDbLine
 10
0.1008116371784652
 20
2.436500000007971
 30
0.0
 11
0.1008116371878793
 21
2.999502673804784
 31
0.0
  0
ELLIPSE
  5
57
100
AcDbEntity
  8
USP-GEO
100
AcDbEllipse
 10
0.9121267901989508
 20
1.450000000000017
 30
0.0
 11
0.0
 21
0.082
 31
0.0
210
0.0
220
0.0
230
1.0
 40
0.9848077530122079
 41
3.141592653589793
 42
6.283185307179641
  0
ELLIPSE
  5
58
100
AcDbEntity
  8
USP-GEO
100
AcDbEllipse
 10
0.9211564954376324
 20
1.450000000000017
 30
0.0
 11
0.0
 21
-0.082
 31
0.0
210
0.0
220
0.0
230
1.0
 40
0.9848077530122079
 41
0.0
 42
3.141592653589848
  0
ELLIPSE
  5
59
100
AcDbEntity
  8
USP-HID
100
AcDbEllipse
 10
0.8589471715362972
 20
1.450000000000002
 30
0.0
 11
0.0
 21
0.082
 31
0.0
210
0.0
220
0.0
230
1.0
 40
0.9848077530122079
 41
0.0
 42
3.141592653589793
  0
ELLIPSE
  5
5A
100
AcDbEntity
  8
USP-GEO
100
AcDbEllipse
 10
0.8679768767749788
 20
1.450000000000002
 30
0.0
 11
0.0
 21
-0.082
 31
0.0
210
0.0
220
0.0
230
1.0
 40
0.9848077530122079
 41
-3.141592653589793
 42
0.0
  0
LINE
  5
5B
100
AcDbEntity
  8
USP-HID
100
AcDbLine
 10
0.867976876774977
 20
1.368000000000005
 30
0.0
 11
0.8589471715362966
 21
1.368000000000005
 31
0.0
  0
LINE
  5
5C
100
AcDbEntity
  8
USP-HID
100
AcDbLine
 10
0.8679768767749788
 20
1.531999999999996
 30
0.0
 11
0.8589471715362984
 21
1.531999999999996
 31
0.0
  0
LINE
  5
5D
100
AcDbEntity
  8
USP-GEO
100
AcDbLine
 10
0.8679768767749772
 20
1.368000000000027
 30
0.0
 11
0.9211564954376324
 21
1.368000000000018
 31
0.0
  0
LINE
  5
5E
100
AcDbEntity
  8
USP-GEO
100
AcDbLine
 10
0.9211564954376324
 20
1.532
 30
0.0
 11
0.8679768767749788
 21
1.532
 31
0.0
  0
LINE
  5
5F
100
AcDbEntity
  8
USP-GEO
100
AcDbLine
 10
-0.0519999999999993
 20
4.213388347648304
 30
0.0
 11
-0.0519999999999993
 21
4.301776695296624
 31
0.0
  0
LINE
  5
60
100
AcDbEntity
  8
USP-GEO
100
AcDbLine
 10
0.0000000000000003
 20
4.213388347648304
 30
0.0
 11
0.0000000000000003
 21
4.301776695296624
 31
0.0
  0
LINE
  5
61
100
AcDbEntity
  8
USP-GEO
100
AcDbLine
 10
0.0917819319397836
 20
3.748500000007972
 30
0.0
 11
0.0917819319491994
 21
4.311502673804788
 31
0.0
  0
LINE
  5
62
100
AcDbEntity
  8
USP-GEO
100
AcDbLine
 10
0.1008116371784634
 20
3.748500000007972
 30
0.0
 11
0.1008116371878792
 21
4.311502673804788
 31
0.0
  0
ELLIPSE
  5
63
100
AcDbEntity
  8
USP-GEO
100
AcDbEllipse
 10
-0.0002975929668555
 20
3.748500000009556
 30
0.0
 11
0.0
 21
-0.0935000000095601
 31
0.0
210
0.0
220
0.0
230
1.0
 40
0.9848077530122081
 41
0.0032319181186277
 42
1.570796326777949
  0
ELLIPSE
  5
64
100
AcDbEntity
  8
USP-GEO
100
AcDbEllipse
 10
0.0087321122718244
 20
3.748500000009556
 30
0.0
 11
0.0
 21
0.0935000000095601
 31
0.0
210
0.0
220
0.0
230
1.0
 40
0.9848077530122081
 41
3.141592653589793
 42
4.7123889803678
  0
LINE
  5
65
100
AcDbEntity
  8
USP-GEO
100
AcDbLine
 10
-0.0519999999999993
 20
3.53661165235168
 30
0.0
 11
-0.0519999999999997
 21
4.213388347648303
 31
0.0
  0
LINE
  5
66
100
AcDbEntity
  8
USP-GEO
100
AcDbLine
 10
0.0000000000000003
 20
3.53661165235168
 30
0.0
 11
-0.0000000000000001
 21
4.213388347648303
 31
0.0
  0
LINE
  5
67
100
AcDbEntity
  8
USP-HID
100
AcDbLine
 10
0.0000000000000021
 20
3.654999999999994
 30
0.0
 11
-0.0519999999999993
 21
3.654999999999994
 31
0.0
  0
ELLIPSE
  5
68
100
AcDbEntity
  8
USP-HID
100
AcDbEllipse
 10
-0.0002975929668555
 20
3.748500000009556
 30
0.0
 11
0.0
 21
-0.0935000000095601
 31
0.0
210
0.0
220
0.0
230
1.0
 40
0.9848077530122081
 41
0.0
 42
0.0032319181186277
  0
LINE
  5
69
100
AcDbEntity
  8
USP-GEO
100
AcDbLine
 10
-0.0520000000000011
 20
3.448223304703361
 30
0.0
 11
-0.0520000000000011
 21
3.53661165235168
 31
0.0
  0
LINE
  5
6A
100
AcDbEntity
  8
USP-GEO
100
AcDbLine
 10
0.0000000000000003
 20
3.53661165235168
 30
0.0
 11
0.0000000000000003
 21
3.448223304703361
 31
0.0
  0
LINE
  5
6B
100
AcDbEntity
  8
USP-GEO
100
AcDbLine
 10
0.0000000000000017
 20
3.654999999999994
 30
0.0
 11
0.0087321122718242
 21
3.654999999999994
 31
0.0
  0
LINE
  5
6C
100
AcDbEntity
  8
USP-HID
100
AcDbLine
 10
0.0000000000000003
 20
4.167999999999992
 30
0.0
 11
-0.0519999999999993
 21
4.167999999999992
 31
0.0
  0
ELLIPSE
  5
6D
100
AcDbEntity
  8
USP-GEO
100
AcDbEllipse
 10
-0.0002975929668555
 20
4.99850000000957
 30
0.0
 11
0.0
 21
-0.0935000000095601
 31
0.0
210
0.0
220
0.0
230
1.0
 40
0.9848077530122081
 41
0.0032319181186301
 42
1.570796326777949
  0
ELLIPSE
  5
6E
100
AcDbEntity
  8
USP-GEO
100
AcDbEllipse
 10
-0.0002975929668555
 20
4.311502673806373
 30
0.0
 11
0.0
 21
-0.0935000000095601
 31
0.0
210
0.0
220
0.0
230
1.0
 40
0.9848077530122081
 41
1.570796326777949
 42
3.138360735471165
  0
ELLIPSE
  5
6F
100
AcDbEntity
  8
USP-GEO
100
AcDbEllipse
 10
0.0087321122718244
 20
4.311502673806373
 30
0.0
 11
0.0
 21
0.0935000000095601
 31
0.0
210
0.0
220
0.0
230
1.0
 40
0.9848077530122081
 41
-1.570796326811843
 42
-0.0000000000000002
  0
ELLIPSE
  5
70
100
AcDbEntity
  8
USP-GEO
100
AcDbEllipse
 10
0.0087321122718244
 20
4.99850000000957
 30
0.0
 11
0.0
 21
0.0935000000095601
 31
0.0
210
0.0
220
0.0
230
1.0
 40
0.9848077530122081
 41
3.141592653589793
 42
4.712388980367785
  0
LINE
  5
71
100
AcDbEntity
  8
USP-HID
100
AcDbLine
 10
-0.0491643590901789
 20
4.905000000000015
 30
0.0
 11
-0.0491643590901286
 21
4.405002673815936
 31
0.0
  0
LINE
  5
72
100
AcDbEntity
  8
USP-GEO
100
AcDbLine
 10
-0.0519999999999993
 20
4.301776695296624
 30
0.0
 11
-0.0519999999999993
 21
4.823223304703361
 31
0.0
  0
LINE
  5
73
100
AcDbEntity
  8
USP-GEO
100
AcDbLine
 10
0.0000000000000003
 20
4.301776695296624
 30
0.0
 11
0.0000000000000003
 21
4.823223304703361
 31
0.0
  0
LINE
  5
74
100
AcDbEntity
  8
USP-HID
100
AcDbLine
 10
0.0000000000000021
 20
4.331999999999993
 30
0.0
 11
-0.0519999999999993
 21
4.331999999999993
 31
0.0
  0
LINE
  5
75
100
AcDbEntity
  8
USP-HID
100
AcDbLine
 10
0.0000000000000021
 20
4.405002673815936
 30
0.0
 11
-0.0519999999999993
 21
4.405002673815936
 31
0.0
  0
ELLIPSE
  5
76
100
AcDbEntity
  8
USP-HID
100
AcDbEllipse
 10
-0.0002975929668555
 20
4.311502673806373
 30
0.0
 11
0.0
 21
-0.0935000000095601
 31
0.0
210
0.0
220
0.0
230
1.0
 40
0.9848077530122081
 41
3.138360735471165
 42
3.141592653589793
  0
LINE
  5
77
100
AcDbEntity
  8
USP-GEO
100
AcDbLine
 10
0.0087321122718244
 20
4.405002673815936
 30
0.0
 11
0.0000000000000018
 21
4.405002673815936
 31
0.0
  0
LINE
  5
78
100
AcDbEntity
  8
USP-HID
100
AcDbLine
 10
0.0000000000000003
 20
4.905000000000008
 30
0.0
 11
-0.0519999999999993
 21
4.905000000000008
 31
0.0
  0
ELLIPSE
  5
79
100
AcDbEntity
  8
USP-HID
100
AcDbEllipse
 10
-0.0002975929668555
 20
4.99850000000957
 30
0.0
 11
0.0
 21
-0.0935000000095601
 31
0.0
210
0.0
220
0.0
230
1.0
 40
0.9848077530122081
 41
0.0
 42
0.0032319181186301
  0
LINE
  5
7A
100
AcDbEntity
  8
USP-GEO
100
AcDbLine
 10
-0.0519999999999993
 20
4.823223304703361
 30
0.0
 11
-0.0519999999999993
 21
4.91161165235168
 31
0.0
  0
LINE
  5
7B
100
AcDbEntity
  8
USP-GEO
100
AcDbLine
 10
0.0000000000000003
 20
4.823223304703361
 30
0.0
 11
0.0000000000000003
 21
4.91161165235168
 31
0.0
  0
LINE
  5
7C
100
AcDbEntity
  8
USP-GEO
100
AcDbLine
 10
0.0087321122718244
 20
4.905000000000008
 30
0.0
 11
0.0000000000000001
 21
4.905000000000008
 31
0.0
  0
LINE
  5
7D
100
AcDbEntity
  8
USP-HID
100
AcDbLine
 10
0.0000000000000003
 20
5.31799999999999
 30
0.0
 11
-0.0519999999999993
 21
5.31799999999999
 31
0.0
  0
LINE
  5
7E
100
AcDbEntity
  8
USP-HID
100
AcDbLine
 10
1.212659590329245
 20
4.017999999999993
 30
0.0
 11
1.203629885090565
 21
4.017999999999993
 31
0.0
  0
LINE
  5
7F
100
AcDbEntity
  8
USP-HID
100
AcDbLine
 10
1.212659590329245
 20
4.181999999999995
 30
0.0
 11
1.203629885090565
 21
4.181999999999995
 31
0.0
  0
ELLIPSE
  5
80
100
AcDbEntity
  8
USP-GEO
100
AcDbEllipse
 10
1.212659590329245
 20
4.099999999999994
 30
0.0
 11
0.0
 21
-0.082
 31
0.0
210
0.0
220
0.0
230
1.0
 40
0.9848077530122079
 41
-3.141592653589793
 42
0.0
  0
ELLIPSE
  5
81
100
AcDbEntity
  8
USP-HID
100
AcDbEllipse
 10
1.203629885090564
 20
4.099999999999994
 30
0.0
 11
0.0
 21
0.082
 31
0.0
210
0.0
220
0.0
230
1.0
 40
0.9848077530122079
 41
0.0
 42
3.141592653589793
  0
ELLIPSE
  5
82
100
AcDbEntity
  8
USP-GEO
100
AcDbEllipse
 10
1.256809503753226
 20
4.100000000000008
 30
0.0
 11
0.0
 21
0.082
 31
0.0
210
0.0
220
0.0
230
1.0
 40
0.9848077530122079
 41
3.141592653589793
 42
6.283185307179641
  0
ELLIPSE
  5
83
100
AcDbEntity
  8
USP-GEO
100
AcDbEllipse
 10
1.265839208991906
 20
4.100000000000008
 30
0.0
 11
0.0
 21
-0.082
 31
0.0
210
0.0
220
0.0
230
1.0
 40
0.9848077530122079
 41
0.0
 42
3.141592653589848
  0
LINE
  5
84
100
AcDbEntity
  8
USP-GEO
100
AcDbLine
 10
1.212659590329246
 20
4.017999999999992
 30
0.0
 11
1.265839208991907
 21
4.018000000000006
 31
0.0
  0
LINE
  5
85
100
AcDbEntity
  8
USP-GEO
100
AcDbLine
 10
1.265839208991905
 20
4.182000000000005
 30
0.0
 11
1.212659590329246
 21
4.181999999999998
 31
0.0
  0
ELLIPSE
  5
86
100
AcDbEntity
  8
USP-HID
100
AcDbEllipse
 10
1.599522601801473
 20
1.051776695296638
 30
0.0
 11
0.0
 21
-0.125
 31
0.0
210
0.0
220
0.0
230
1.0
 40
0.9848077530122081
 41
-1.570796326794896
 42
-0.7853981633974437
  0
ELLIPSE
  5
87
100
AcDbEntity
  8
USP-GEO
100
AcDbEllipse
 10
1.608552307040153
 20
1.051776695296638
 30
0.0
 11
0.0
 21
0.125
 31
0.0
210
0.0
220
0.0
230
1.0
 40
0.9848077530122081
 41
1.570796326794896
 42
2.356194490192349
  0
LINE
  5
88
100
AcDbEntity
  8
USP-HID
100
AcDbLine
 10
1.51247707176147
 20
0.9633883476483191
 30
0.0
 11
2.178972008347578
 21
0.2866116523516808
 31
0.0
  0
LINE
  5
89
100
AcDbEntity
  8
USP-GEO
100
AcDbLine
 10
2.18800171358626
 20
0.2866116523516806
 30
0.0
 11
1.521506777000151
 21
0.96338834764832
 31
0.0
  0
ELLIPSE
  5
8A
100
AcDbEntity
  8
USP-HID
100
AcDbEllipse
 10
1.728532417446072
 20
0.2999999999999971
 30
0.0
 11
0.0
 21
0.082
 31
0.0
210
0.0
220
0.0
230
1.0
 40
0.9848077530122079
 41
0.0
 42
3.141592653589793
  0
ELLIPSE
  5
8B
100
AcDbEntity
  8
USP-GEO
100
AcDbEllipse
 10
1.737562122684753
 20
0.2999999999999971
 30
0.0
 11
0.0
 21
-0.082
 31
0.0
210
0.0
220
0.0
230
1.0
 40
0.9848077530122079
 41
-3.141592653589793
 42
0.0
  0
ELLIPSE
  5
8C
100
AcDbEntity
  8
USP-GEO
100
AcDbEllipse
 10
1.781712036108727
 20
0.3000000000000114
 30
0.0
 11
0.0
 21
0.082
 31
0.0
210
0.0
220
0.0
230
1.0
 40
0.9848077530122079
 41
3.141592653589793
 42
6.283185307179641
  0
ELLIPSE
  5
8D
100
AcDbEntity
  8
USP-GEO
100
AcDbEllipse
 10
1.790741741347407
 20
0.3000000000000114
 30
0.0
 11
0.0
 21
-0.082
 31
0.0
210
0.0
220
0.0
230
1.0
 40
0.9848077530122079
 41
0.0
 42
3.141592653589848
  0
LINE
  5
8E
100
AcDbEntity
  8
USP-HID
100
AcDbLine
 10
1.737562122684753
 20
0.218
 30
0.0
 11
1.728532417446073
 21
0.218
 31
0.0
  0
LINE
  5
8F
100
AcDbEntity
  8
USP-HID
100
AcDbLine
 10
1.737562122684753
 20
0.3819999999999979
 30
0.0
 11
1.728532417446073
 21
0.3819999999999979
 31
0.0
  0
LINE
  5
90
100
AcDbEntity
  8
USP-GEO
100
AcDbLine
 10
1.737562122684753
 20
0.2179999999999984
 30
0.0
 11
1.790741741347407
 21
0.2180000000000126
 31
0.0
  0
LINE
  5
91
100
AcDbEntity
  8
USP-GEO
100
AcDbLine
 10
1.790741741347409
 20
0.3820000000000165
 30
0.0
 11
1.737562122684754
 21
0.3819999999999952
 31
0.0
  0
LINE
  5
92
100
AcDbEntity
  8
USP-HID
100
AcDbLine
 10
2.215027447434101
 20
0.1982233047033617
 30
0.0
 11
2.215027447434103
 21
0.0
 31
0.0
  0
LINE
  5
93
100
AcDbEntity
  8
USP-GEO
100
AcDbLine
 10
2.224057152672785
 20
0.0
 30
0.0
 11
2.224057152672783
 21
0.1982233047033617
 31
0.0
  0
ELLIPSE
  5
94
100
AcDbEntity
  8
USP-HID
100
AcDbEllipse
 10
2.091926478307577
 20
0.1982233047033617
 30
0.0
 11
0.0
 21
0.125
 31
0.0
210
0.0
220
0.0
230
1.0
 40
0.9848077530122081
 41
-1.570796326794896
 42
-0.7853981633974332
  0
ELLIPSE
  5
95
100
AcDbEntity
  8
USP-GEO
100
AcDbEllipse
 10
2.100956183546259
 20
0.1982233047033617
 30
0.0
 11
0.0
 21
0.125
 31
0.0
210
0.0
220
0.0
230
1.0
 40
0.9848077530122081
 41
-1.570796326794896
 42
-0.7853981633974378
  0
LINE
  5
96
100
AcDbEntity
  8
USP-HID
100
AcDbLine
 10
2.215027447434103
 20
3.448223304703361
 30
0.0
 11
2.215027447434103
 21
2.426776695296638
 31
0.0
  0
LINE
  5
97
100
AcDbEntity
  8
USP-GEO
100
AcDbLine
 10
2.224057152672785
 20
2.426776695296638
 30
0.0
 11
2.224057152672785
 21
3.448223304703361
 31
0.0
  0
LINE
  5
98
100
AcDbEntity
  8
USP-HID
100
AcDbLine
 10
2.178972008347578
 20
2.338388347648319
 30
0.0
 11
1.512477071761471
 21
1.661611652351679
 31
0.0
  0
LINE
  5
99
100
AcDbEntity
  8
USP-GEO
100
AcDbLine
 10
2.18800171358626
 20
2.338388347648319
 30
0.0
 11
1.521506777000153
 21
1.661611652351679
 31
0.0
  0
LINE
  5
9A
100
AcDbEntity
  8
USP-HID
100
AcDbLine
 10
1.476421632674947
 20
1.573223304703361
 30
0.0
 11
1.476421632674947
 21
1.051776695296638
 31
0.0
  0
LINE
  5
9B
100
AcDbEntity
  8
USP-GEO
100
AcDbLine
 10
1.485451337913627
 20
1.573223304703361
 30
0.0
 11
1.485451337913627
 21
1.051776695296638
 31
0.0
  0
ELLIPSE
  5
9C
100
AcDbEntity
  8
USP-HID
100
AcDbEllipse
 10
1.599522601801471
 20
1.573223304703361
 30
0.0
 11
0.0
 21
-0.125
 31
0.0
210
0.0
220
0.0
230
1.0
 40
0.9848077530122081
 41
-2.356194490192359
 42
-1.570796326794896
  0
ELLIPSE
  5
9D
100
AcDbEntity
  8
USP-GEO
100
AcDbEllipse
 10
1.608552307040151
 20
1.573223304703361
 30
0.0
 11
0.0
 21
0.125
 31
0.0
210
0.0
220
0.0
230
1.0
 40
0.9848077530122081
 41
0.7853981633974278
 42
1.570796326794896
  0
ELLIPSE
  5
9E
100
AcDbEntity
  8
USP-HID
100
AcDbEllipse
 10
1.696033761596668
 20
2.949999999999995
 30
0.0
 11
0.0
 21
0.082
 31
0.0
210
0.0
220
0.0
230
1.0
 40
0.9848077530122079
 41
0.0
 42
3.141592653589793
  0
ELLIPSE
  5
9F
100
AcDbEntity
  8
USP-GEO
100
AcDbEllipse
 10
1.705063466835348
 20
2.949999999999995
 30
0.0
 11
0.0
 21
-0.082
 31
0.0
210
0.0
220
0.0
230
1.0
 40
0.9848077530122079
 41
-3.141592653589793
 42
0.0
  0
ELLIPSE
  5
A0
100
AcDbEntity
  8
USP-GEO
100
AcDbEllipse
 10
1.749213380259329
 20
2.950000000000009
 30
0.0
 11
0.0
 21
0.082
 31
0.0
210
0.0
220
0.0
230
1.0
 40
0.9848077530122079
 41
3.141592653589793
 42
6.283185307179641
  0
ELLIPSE
  5
A1
100
AcDbEntity
  8
USP-GEO
100
AcDbEllipse
 10
1.758243085498011
 20
2.950000000000009
 30
0.0
 11
0.0
 21
-0.082
 31
0.0
210
0.0
220
0.0
230
1.0
 40
0.9848077530122079
 41
0.0
 42
3.141592653589848
  0
LINE
  5
A2
100
AcDbEntity
  8
USP-HID
100
AcDbLine
 10
1.705063466835348
 20
2.867999999999994
 30
0.0
 11
1.696033761596668
 21
2.867999999999994
 31
0.0
  0
LINE
  5
A3
100
AcDbEntity
  8
USP-GEO
100
AcDbLine
 10
1.705063466835348
 20
2.867999999999995
 30
0.0
 11
1.758243085498011
 21
2.86800000000001
 31
0.0
  0
LINE
  5
A4
100
AcDbEntity
  8
USP-HID
100
AcDbLine
 10
1.705063466835348
 20
3.031999999999996
 30
0.0
 11
1.696033761596668
 21
3.031999999999996
 31
0.0
  0
LINE
  5
A5
100
AcDbEntity
  8
USP-GEO
100
AcDbLine
 10
1.758243085498011
 20
3.032000000000008
 30
0.0
 11
1.705063466835348
 21
3.031999999999995
 31
0.0
  0
ELLIPSE
  5
A6
100
AcDbEntity
  8
USP-HID
100
AcDbEllipse
 10
2.091926478307577
 20
2.426776695296638
 30
0.0
 11
0.0
 21
0.125
 31
0.0
210
0.0
220
0.0
230
1.0
 40
0.9848077530122081
 41
-2.356194490192356
 42
-1.570796326794896
  0
ELLIPSE
  5
A7
100
AcDbEntity
  8
USP-GEO
100
AcDbEllipse
 10
2.100956183546259
 20
2.426776695296638
 30
0.0
 11
0.0
 21
0.125
 31
0.0
210
0.0
220
0.0
230
1.0
 40
0.9848077530122081
 41
-2.356194490192359
 42
-1.570796326794896
  0
ELLIPSE
  5
A8
100
AcDbEntity
  8
USP-HID
100
AcDbEllipse
 10
1.599522601801473
 20
4.301776695296624
 30
0.0
 11
0.0
 21
-0.125
 31
0.0
210
0.0
220
0.0
230
1.0
 40
0.9848077530122081
 41
-1.570796326794896
 42
-0.7853981633974393
  0
ELLIPSE
  5
A9
100
AcDbEntity
  8
USP-GEO
100
AcDbEllipse
 10
1.608552307040153
 20
4.301776695296624
 30
0.0
 11
0.0
 21
0.125
 31
0.0
210
0.0
220
0.0
230
1.0
 40
0.9848077530122081
 41
1.570796326794896
 42
2.356194490192354
  0
LINE
  5
AA
100
AcDbEntity
  8
USP-HID
100
AcDbLine
 10
1.512477071761471
 20
4.213388347648304
 30
0.0
 11
2.178972008347579
 21
3.536611652351681
 31
0.0
  0
LINE
  5
AB
100
AcDbEntity
  8
USP-GEO
100
AcDbLine
 10
2.18800171358626
 20
3.53661165235168
 30
0.0
 11
1.52150677700015
 21
4.213388347648304
 31
0.0
  0
ELLIPSE
  5
AC
100
AcDbEntity
  8
USP-HID
100
AcDbEllipse
 10
2.091926478307577
 20
3.448223304703361
 30
0.0
 11
0.0
 21
0.125
 31
0.0
210
0.0
220
0.0
230
1.0
 40
0.9848077530122081
 41
-1.570796326794896
 42
-0.7853981633974393
  0
ELLIPSE
  5
AD
100
AcDbEntity
  8
USP-GEO
100
AcDbEllipse
 10
2.100956183546259
 20
3.448223304703361
 30
0.0
 11
0.0
 21
0.125
 31
0.0
210
0.0
220
0.0
230
1.0
 40
0.9848077530122081
 41
-1.570796326794896
 42
-0.7853981633974367
  0
LINE
  5
AE
100
AcDbEntity
  8
USP-HID
100
AcDbLine
 10
1.476421632674947
 20
4.823223304703368
 30
0.0
 11
1.476421632674947
 21
4.301776695296624
 31
0.0
  0
LINE
  5
AF
100
AcDbEntity
  8
USP-GEO
100
AcDbLine
 10
1.485451337913627
 20
4.301776695296624
 30
0.0
 11
1.485451337913627
 21
4.823223304703368
 31
0.0
  0
ELLIPSE
  5
B0
100
AcDbEntity
  8
USP-HID
100
AcDbEllipse
 10
1.599522601801473
 20
4.823223304703361
 30
0.0
 11
0.0
 21
-0.125
 31
0.0
210
0.0
220
0.0
230
1.0
 40
0.9848077530122081
 41
-2.356194490192343
 42
-1.570796326794896
  0
ELLIPSE
  5
B1
100
AcDbEntity
  8
USP-GEO
100
AcDbEllipse
 10
1.608552307040153
 20
4.823223304703361
 30
0.0
 11
0.0
 21
0.125
 31
0.0
210
0.0
220
0.0
230
1.0
 40
0.9848077530122081
 41
0.7853981633974393
 42
1.570796326794896
  0
LINE
  5
B2
100
AcDbEntity
  8
USP-GEO
100
AcDbLine
 10
0.0000000000000018
 20
5.875000000000042
 30
0.0
 11
2.224057152672785
 21
5.875000000000044
 31
0.0
  0
ELLIPSE
  5
B3
100
AcDbEntity
  8
USP-GEO
100
AcDbEllipse
 10
-0.0002975929668555
 20
5.56150267380638
 30
0.0
 11
0.0
 21
-0.0935000000095601
 31
0.0
210
0.0
220
0.0
230
1.0
 40
0.9848077530122081
 41
1.570796326777873
 42
3.138360735471165
  0
ELLIPSE
  5
B4
100
AcDbEntity
  8
USP-GEO
100
AcDbEllipse
 10
0.0087321122718244
 20
5.56150267380638
 30
0.0
 11
0.0
 21
0.0935000000095601
 31
0.0
210
0.0
220
0.0
230
1.0
 40
0.9848077530122081
 41
-1.570796326811919
 42
0.0053476190743449
  0
LINE
  5
B5
100
AcDbEntity
  8
USP-GEO
100
AcDbLine
 10
-0.0519999999999993
 20
5.588388347648319
 30
0.0
 11
-0.0519999999999993
 21
5.676776695296638
 31
0.0
  0
LINE
  5
B6
100
AcDbEntity
  8
USP-GEO
100
AcDbLine
 10
0.0000000000000003
 20
5.676776695296638
 30
0.0
 11
0.0000000000000003
 21
5.588388347648319
 31
0.0
  0
LINE
  5
B7
100
AcDbEntity
  8
USP-HID
100
AcDbLine
 10
0.0000000000000003
 20
5.481999999999992
 30
0.0
 11
-0.0519999999999993
 21
5.481999999999992
 31
0.0
  0
LINE
  5
B8
100
AcDbEntity
  8
USP-HID
100
AcDbLine
 10
0.0000000000000021
 20
5.655001336907979
 30
0.0
 11
-0.0519999999999993
 21
5.655001336907979
 31
0.0
  0
ELLIPSE
  5
B9
100
AcDbEntity
  8
USP-HID
100
AcDbEllipse
 10
-0.0002975929668555
 20
5.56150267380638
 30
0.0
 11
0.0
 21
-0.0935000000095601
 31
0.0
210
0.0
220
0.0
230
1.0
 40
0.9848077530122081
 41
3.138360735471165
 42
3.146940272664189
  0
LINE
  5
BA
100
AcDbEntity
  8
USP-HID
100
AcDbLine
 10
-0.0002975929668557
 20
5.65500267381594
 30
0.0
 11
0.0087321122718244
 21
5.65500267381594
 31
0.0
  0
LINE
  5
BB
100
AcDbEntity
  8
USP-GEO
100
AcDbLine
 10
-0.0519999999999993
 20
5.676776695296638
 30
0.0
 11
-0.0519999999999993
 21
5.875000000000042
 31
0.0
  0
LINE
  5
BC
100
AcDbEntity
  8
USP-GEO
100
AcDbLine
 10
0.0000000000000003
 20
5.676776695296638
 30
0.0
 11
0.0000000000000003
 21
5.875000000000042
 31
0.0
  0
LINE
  5
BD
100
AcDbEntity
  8
USP-GEO
100
AcDbLine
 10
0.0000000000000003
 20
5.875000000000042
 30
0.0
 11
-0.0519999999999993
 21
5.875000000000042
 31
0.0
  0
LINE
  5
BE
100
AcDbEntity
  8
USP-GEO
100
AcDbLine
 10
0.0082397083949161
 20
5.655001336907979
 30
0.0
 11
0.0000000000000016
 21
5.655001336907988
 31
0.0
  0
ELLIPSE
  5
BF
100
AcDbEntity
  8
USP-HID
100
AcDbEllipse
 10
1.696033761596668
 20
5.550000000000046
 30
0.0
 11
0.0
 21
0.082
 31
0.0
210
0.0
220
0.0
230
1.0
 40
0.9848077530122079
 41
0.0
 42
3.141592653589793
  0
ELLIPSE
  5
C0
100
AcDbEntity
  8
USP-GEO
100
AcDbEllipse
 10
1.705063466835348
 20
5.550000000000046
 30
0.0
 11
0.0
 21
-0.082
 31
0.0
210
0.0
220
0.0
230
1.0
 40
0.9848077530122079
 41
-3.141592653589793
 42
0.0
  0
ELLIPSE
  5
C1
100
AcDbEntity
  8
USP-GEO
100
AcDbEllipse
 10
1.749213380259329
 20
5.550000000000061
 30
0.0
 11
0.0
 21
0.082
 31
0.0
210
0.0
220
0.0
230
1.0
 40
0.9848077530122079
 41
3.141592653589793
 42
6.283185307179641
  0
ELLIPSE
  5
C2
100
AcDbEntity
  8
USP-GEO
100
AcDbEllipse
 10
1.758243085498011
 20
5.550000000000061
 30
0.0
 11
0.0
 21
-0.082
 31
0.0
210
0.0
220
0.0
230
1.0
 40
0.9848077530122079
 41
0.0
 42
3.141592653589848
  0
LINE
  5
C3
100
AcDbEntity
  8
USP-HID
100
AcDbLine
 10
1.705063466835348
 20
5.468000000000053
 30
0.0
 11
1.696033761596668
 21
5.468000000000053
 31
0.0
  0
LINE
  5
C4
100
AcDbEntity
  8
USP-GEO
100
AcDbLine
 10
1.705063466835349
 20
5.468000000000047
 30
0.0
 11
1.758243085498011
 21
5.468000000000063
 31
0.0
  0
LINE
  5
C5
100
AcDbEntity
  8
USP-HID
100
AcDbLine
 10
1.705063466835348
 20
5.632000000000054
 30
0.0
 11
1.696033761596668
 21
5.632000000000054
 31
0.0
  0
LINE
  5
C6
100
AcDbEntity
  8
USP-GEO
100
AcDbLine
 10
1.758243085498011
 20
5.632000000000062
 30
0.0
 11
1.705063466835349
 21
5.632000000000048
 31
0.0
  0
ELLIPSE
  5
C7
100
AcDbEntity
  8
USP-HID
100
AcDbEllipse
 10
2.091926478307577
 20
5.676776695296638
 30
0.0
 11
0.0
 21
0.125
 31
0.0
210
0.0
220
0.0
230
1.0
 40
0.9848077530122081
 41
-2.356194490192303
 42
-1.570796326794896
  0
ELLIPSE
  5
C8
100
AcDbEntity
  8
USP-GEO
100
AcDbEllipse
 10
2.100956183546259
 20
5.676776695296638
 30
0.0
 11
0.0
 21
0.125
 31
0.0
210
0.0
220
0.0
230
1.0
 40
0.9848077530122081
 41
-2.356194490192313
 42
-1.570796326794896
  0
LINE
  5
C9
100
AcDbEntity
  8
USP-HID
100
AcDbLine
 10
2.215027447434103
 20
5.875000000000042
 30
0.0
 11
2.215027447434103
 21
5.676776695296638
 31
0.0
  0
LINE
  5
CA
100
AcDbEntity
  8
USP-GEO
100
AcDbLine
 10
2.224057152672785
 20
5.676776695296638
 30
0.0
 11
2.224057152672785
 21
5.875000000000042
 31
0.0
  0
ENDBLK
  5
CD
100
AcDbEntity
  8
0
100
AcDbBlockEnd
  0
BLOCK
  5
1A5
100
AcDbEntity
  8
0
100
AcDbBlockBegin
  2
MP7_F
 70
     0
 10
0.0
 20
0.0
 30
0.0
  3
MP7_F
  1

  0
LINE
  5
D0
100
AcDbEntity
  8
USP-HID
100
AcDbLine
 10
0.3743854710498997
 20
4.998500000007986
 30
0.0
 11
0.3743854710482388
 21
5.561502673804788
 31
0.0
  0
ARC
  5
D1
100
AcDbEntity
  8
USP-GEO
100
AcDbCircle
 10
1.574738104989275
 20
5.400000000000005
 30
0.0
 40
0.082
100
AcDbArc
 50
90.0
 51
270.0
  0
ARC
  5
D2
100
AcDbEntity
  8
USP-GEO
100
AcDbCircle
 10
1.62873810498927
 20
5.399999999999991
 30
0.0
 40
0.082
100
AcDbArc
 50
270.0
 51
90.0
  0
LINE
  5
D3
100
AcDbEntity
  8
USP-GEO
100
AcDbLine
 10
0.5447381049892766
 20
4.99850000000957
 30
0.0
 11
0.5447381049988298
 21
5.561502673806373
 31
0.0
  0
LINE
  5
D4
100
AcDbEntity
  8
USP-GEO
100
AcDbLine
 10
1.988349757340953
 20
5.588388347648319
 30
0.0
 11
2.665126452637592
 21
4.911611652351681
 31
0.0
  0
LINE
  5
D5
100
AcDbEntity
  8
USP-GEO
100
AcDbLine
 10
0.0063575467122448
 20
5.588388347648326
 30
0.0
 11
0.1238785865379537
 21
4.911611652351683
 31
0.0
  0
LINE
  5
D6
100
AcDbEntity
  8
USP-GEO
100
AcDbLine
 10
0.4255954742065349
 20
4.998500000007986
 30
0.0
 11
0.425595474204874
 21
5.561502673804788
 31
0.0
  0
LINE
  5
D7
100
AcDbEntity
  8
USP-GEO
100
AcDbLine
 10
0.0575675498688799
 20
5.588388347648326
 30
0.0
 11
0.1750885896945888
 21
4.911611652351683
 31
0.0
  0
TEXT
  5
D8
100
AcDbEntity
  8
USP-TXT
100
AcDbText
 10
-1.024130947505362
 20
-1.617895053353727
 30
0.0
 40
0.296875
  1
MP7 - FRONT VIEW
 72
     1
 11
1.350869052494637
 21
-1.617895053353727
 31
0.0
100
AcDbText
  0
LINE
  5
D9
100
AcDbEntity
  8
USP-GEO
100
AcDbLine
 10
1.951738104989273
 20
0.0
 30
0.0
 11
0.4433712858104926
 21
0.0000000000000004
 31
0.0
  0
ELLIPSE
  5
DA
100
AcDbEntity
  8
USP-HID
100
AcDbEllipse
 10
0.3906215756617577
 20
0.937501336898407
 30
0.0
 11
0.0
 21
-0.0935000000095601
 31
0.0
210
0.0
220
0.0
230
1.0
 40
0.17364817766693
 41
3.141592653589793
 42
4.712388980401731
  0
ARC
  5
DB
100
AcDbEntity
  8
USP-GEO
100
AcDbCircle
 10
0.4512381049892689
 20
0.937501336898407
 30
0.0
 40
0.0935000000095601
100
AcDbArc
 50
0.0
 51
90.0
  0
ELLIPSE
  5
DC
100
AcDbEntity
  8
USP-GEO
100
AcDbEllipse
 10
0.1085301110418317
 20
1.051776695296638
 30
0.0
 11
0.0
 21
-0.125
 31
0.0
210
0.0
220
0.0
230
1.0
 40
0.17364817766693
 41
0.7853981633974618
 42
1.570796326794896
  0
ELLIPSE
  5
DD
100
AcDbEntity
  8
USP-GEO
100
AcDbEllipse
 10
0.4418315788183929
 20
0.937501336898407
 30
0.0
 11
0.0
 21
0.0935000000095601
 31
0.0
210
0.0
220
0.0
230
1.0
 40
0.17364817766693
 41
0.0
 42
1.570796326811881
  0
ELLIPSE
  5
DE
100
AcDbEntity
  8
USP-GEO
100
AcDbEllipse
 10
0.1597401141984669
 20
1.051776695296638
 30
0.0
 11
0.0
 21
0.125
 31
0.0
210
0.0
220
0.0
230
1.0
 40
0.17364817766693
 41
-2.356194490192334
 42
-1.570796326794896
  0
ARC
  5
DF
100
AcDbEntity
  8
USP-GEO
100
AcDbCircle
 10
0.4512381049892689
 20
0.3744986631015905
 30
0.0
 40
0.0935000000095601
100
AcDbArc
 50
270.3063960031546
 51
0.0
  0
LINE
  5
E0
100
AcDbEntity
  8
USP-HID
100
AcDbLine
 10
0.3743854710498997
 20
0.3744986631000025
 30
0.0
 11
0.3743854710482388
 21
0.937501336896819
 31
0.0
  0
LINE
  5
E1
100
AcDbEntity
  8
USP-GEO
100
AcDbLine
 10
0.1238785865379519
 20
0.9633883476483191
 30
0.0
 11
0.0063575467122448
 21
0.2866116523516804
 31
0.0
  0
LINE
  5
E2
100
AcDbEntity
  8
USP-GEO
100
AcDbLine
 10
0.4255954742065349
 20
0.3744986631000025
 30
0.0
 11
0.425595474204874
 21
0.937501336896819
 31
0.0
  0
LINE
  5
E3
100
AcDbEntity
  8
USP-GEO
100
AcDbLine
 10
0.0575675498688799
 20
0.2866116523516804
 30
0.0
 11
0.1750885896945871
 21
0.9633883476483191
 31
0.0
  0
LINE
  5
E4
100
AcDbEntity
  8
USP-GEO
100
AcDbLine
 10
0.4433712858104908
 20
0.0
 30
0.0
 11
0.0512100031566352
 21
0.0000000000000004
 31
0.0
  0
LINE
  5
E5
100
AcDbEntity
  8
USP-GEO
100
AcDbLine
 10
0.0
 20
0.1982233047033617
 30
0.0
 11
0.0
 21
0.0
 31
0.0
  0
LINE
  5
E6
100
AcDbEntity
  8
USP-GEO
100
AcDbLine
 10
0.0512100031566352
 20
0.0
 30
0.0
 11
0.0512100031566352
 21
0.1982233047033617
 31
0.0
  0
LINE
  5
E7
100
AcDbEntity
  8
USP-GEO
100
AcDbLine
 10
0.0512100031566352
 20
0.0
 30
0.0
 11
-0.0000000000000009
 21
0.0
 31
0.0
  0
LINE
  5
E8
100
AcDbEntity
  8
USP-HID
100
AcDbLine
 10
0.1276152013300855
 20
0.2180000000000106
 30
0.0
 11
0.0764051981734504
 21
0.2180000000000106
 31
0.0
  0
LINE
  5
E9
100
AcDbEntity
  8
USP-HID
100
AcDbLine
 10
0.1276152013300837
 20
0.3820000000000121
 30
0.0
 11
0.0764051981734486
 21
0.3820000000000121
 31
0.0
  0
ELLIPSE
  5
EA
100
AcDbEntity
  8
USP-HID
100
AcDbEllipse
 10
0.0857821997674631
 20
0.2999999999999971
 30
0.0
 11
0.0
 21
0.082
 31
0.0
210
0.0
220
0.0
230
1.0
 40
0.17364817766693
 41
3.141592653589793
 42
6.283185307179642
  0
ELLIPSE
  5
EB
100
AcDbEntity
  8
USP-HID
100
AcDbEllipse
 10
0.0764051981734486
 20
0.3000000000000114
 30
0.0
 11
0.0
 21
0.082
 31
0.0
210
0.0
220
0.0
230
1.0
 40
0.17364817766693
 41
0.0
 42
3.141592653589793
  0
ELLIPSE
  5
EC
100
AcDbEntity
  8
USP-GEO
100
AcDbEllipse
 10
0.0217060222083649
 20
0.1982233047033617
 30
0.0
 11
0.0
 21
0.125
 31
0.0
210
0.0
220
0.0
230
1.0
 40
0.17364817766693
 41
0.7853981633974263
 42
1.570796326794896
  0
ELLIPSE
  5
ED
100
AcDbEntity
  8
USP-GEO
100
AcDbEllipse
 10
0.0729160253650001
 20
0.1982233047033617
 30
0.0
 11
0.0
 21
0.125
 31
0.0
210
0.0
220
0.0
230
1.0
 40
0.17364817766693
 41
0.7853981633974277
 42
1.570796326794896
  0
LINE
  5
EE
100
AcDbEntity
  8
USP-GEO
100
AcDbLine
 10
0.1369922029241
 20
0.2179999999999984
 30
0.0
 11
0.1276152013300855
 21
0.2180000000000126
 31
0.0
  0
ELLIPSE
  5
EF
100
AcDbEntity
  8
USP-GEO
100
AcDbEllipse
 10
0.1369922029241
 20
0.2999999999999971
 30
0.0
 11
0.0
 21
-0.082
 31
0.0
210
0.0
220
0.0
230
1.0
 40
0.17364817766693
 41
0.0
 42
3.141592653589848
  0
LINE
  5
F0
100
AcDbEntity
  8
USP-GEO
100
AcDbLine
 10
0.1276152013300873
 20
0.3820000000000165
 30
0.0
 11
0.1369922029241
 21
0.3819999999999952
 31
0.0
  0
ELLIPSE
  5
F1
100
AcDbEntity
  8
USP-GEO
100
AcDbEllipse
 10
0.1276152013300855
 20
0.3000000000000114
 30
0.0
 11
0.0
 21
-0.082
 31
0.0
210
0.0
220
0.0
230
1.0
 40
0.17364817766693
 41
-3.141592653589793
 42
0.0
  0
LINE
  5
F2
100
AcDbEntity
  8
USP-HID
100
AcDbLine
 10
0.3997381049892716
 20
0.0
 30
0.0
 11
0.3997381049893249
 21
0.2809999999999277
 31
0.0
  0
LINE
  5
F3
100
AcDbEntity
  8
USP-GEO
100
AcDbLine
 10
0.4433712858104926
 20
0.0
 30
0.0
 11
0.4433712858104926
 21
0.2809999999999846
 31
0.0
  0
ELLIPSE
  5
F4
100
AcDbEntity
  8
USP-HID
100
AcDbEllipse
 10
0.3906215756617577
 20
0.3744986631015905
 30
0.0
 11
0.0
 21
-0.0935000000095601
 31
0.0
210
0.0
220
0.0
230
1.0
 40
0.17364817766693
 41
-1.570796326777911
 42
0.0053476190742803
  0
LINE
  5
F5
100
AcDbEntity
  8
USP-HID
100
AcDbLine
 10
0.4417447547295357
 20
0.2809999999999846
 30
0.0
 11
0.3907083997506611
 21
0.2809999999999846
 31
0.0
  0
LINE
  5
F6
100
AcDbEntity
  8
USP-HID
100
AcDbLine
 10
0.4418315788183929
 20
0.2809986630920305
 30
0.0
 11
0.3906215756617577
 21
0.2809986630920305
 31
0.0
  0
LINE
  5
F7
100
AcDbEntity
  8
USP-GEO
100
AcDbLine
 10
0.4433712858104926
 20
0.2809999999999846
 30
0.0
 11
0.4517381049892713
 21
0.2809999999999846
 31
0.0
  0
LINE
  5
F8
100
AcDbEntity
  8
USP-GEO
100
AcDbLine
 10
0.4419184029072963
 20
0.2809999999999846
 30
0.0
 11
0.4417447547295357
 21
0.2809999999999846
 31
0.0
  0
LINE
  5
F9
100
AcDbEntity
  8
USP-GEO
100
AcDbLine
 10
0.4419184029072963
 20
0.2809999999999846
 30
0.0
 11
0.4433712858104908
 21
0.2809999999999755
 31
0.0
  0
ELLIPSE
  5
FA
100
AcDbEntity
  8
USP-GEO
100
AcDbEllipse
 10
0.4418315788183929
 20
0.3744986631015905
 30
0.0
 11
0.0
 21
0.0935000000095601
 31
0.0
210
0.0
220
0.0
230
1.0
 40
0.17364817766693
 41
1.570796326811881
 42
3.146940272664128
  0
LINE
  5
FB
100
AcDbEntity
  8
USP-GEO
100
AcDbLine
 10
0.5447381049892748
 20
0.3744986631015905
 30
0.0
 11
0.5447381049988298
 21
0.937501336898407
 31
0.0
  0
ARC
  5
FC
100
AcDbEntity
  8
USP-GEO
100
AcDbCircle
 10
1.574738104989277
 20
0.4500000000000171
 30
0.0
 40
0.082
100
AcDbArc
 50
90.0
 51
270.0
  0
ARC
  5
FD
100
AcDbEntity
  8
USP-GEO
100
AcDbCircle
 10
1.628738104989272
 20
0.4500000000000029
 30
0.0
 40
0.082
100
AcDbArc
 50
270.0
 51
90.0
  0
LINE
  5
FE
100
AcDbEntity
  8
USP-GEO
100
AcDbLine
 10
1.62873810498927
 20
0.368000000000025
 30
0.0
 11
1.574738104989275
 21
0.3680000000000179
 31
0.0
  0
LINE
  5
FF
100
AcDbEntity
  8
USP-GEO
100
AcDbLine
 10
1.574738104989277
 20
0.5320000000000183
 30
0.0
 11
1.628738104989272
 21
0.5320000000000041
 31
0.0
  0
LINE
  5
100
100
AcDbEntity
  8
USP-HID
100
AcDbLine
 10
0.3992381049892621
 20
3.654999999999994
 30
0.0
 11
0.3992381049892692
 21
3.093002673815931
 31
0.0
  0
LINE
  5
101
100
AcDbEntity
  8
USP-GEO
100
AcDbLine
 10
0.4433712858104926
 20
3.093002673815931
 30
0.0
 11
0.4433712858104926
 21
3.654999999999994
 31
0.0
  0
LINE
  5
102
100
AcDbEntity
  8
USP-GEO
100
AcDbLine
 10
0.0000000000000009
 20
3.448223304703361
 30
0.0
 11
0.0000000000000009
 21
2.426776695296638
 31
0.0
  0
LINE
  5
103
100
AcDbEntity
  8
USP-GEO
100
AcDbLine
 10
0.0512100031566352
 20
2.426776695296638
 30
0.0
 11
0.0512100031566352
 21
3.448223304703361
 31
0.0
  0
TEXT
  5
104
100
AcDbEntity
  8
USP-TXT
100
AcDbText
 10
0.887133967433483
 20
1.499217313685612
 30
0.0
 40
0.1875
  1
530
100
AcDbText
  0
TEXT
  5
105
100
AcDbEntity
  8
USP-TXT
100
AcDbText
 10
0.887133967433483
 20
1.811717313685612
 30
0.0
 40
0.1875
  1
NER
100
AcDbText
  0
TEXT
  5
106
100
AcDbEntity
  8
USP-TXT
100
AcDbText
 10
0.887133967433483
 20
2.436717313685612
 30
0.0
 40
0.1875
  1
USP
100
AcDbText
  0
LINE
  5
107
100
AcDbEntity
  8
USP-HID
100
AcDbLine
 10
0.3992381049888909
 20
2.342999999999928
 30
0.0
 11
0.3992381049892675
 21
2.062001336907972
 31
0.0
  0
LINE
  5
108
100
AcDbEntity
  8
USP-GEO
100
AcDbLine
 10
0.4433712858104926
 20
2.062001336907961
 30
0.0
 11
0.4433712858104926
 21
2.342999999999989
 31
0.0
  0
ARC
  5
109
100
AcDbEntity
  8
USP-GEO
100
AcDbCircle
 10
0.4512381049892689
 20
1.968501336898413
 30
0.0
 40
0.0935000000095601
100
AcDbArc
 50
0.0
 51
90.0
  0
LINE
  5
10A
100
AcDbEntity
  8
USP-GEO
100
AcDbLine
 10
0.0063575467122448
 20
2.338388347648319
 30
0.0
 11
0.1238785865379519
 21
1.66161165235168
 31
0.0
  0
LINE
  5
10B
100
AcDbEntity
  8
USP-GEO
100
AcDbLine
 10
0.0575675498688799
 20
2.338388347648319
 30
0.0
 11
0.1750885896945871
 21
1.66161165235168
 31
0.0
  0
ARC
  5
10C
100
AcDbEntity
  8
USP-GEO
100
AcDbCircle
 10
0.4512381049892689
 20
1.405498663101596
 30
0.0
 40
0.0935000000095601
100
AcDbArc
 50
270.0
 51
0.0
  0
LINE
  5
10D
100
AcDbEntity
  8
USP-HID
100
AcDbLine
 10
0.3743854710498997
 20
1.405498663100008
 30
0.0
 11
0.3743854710482388
 21
1.968501336896824
 31
0.0
  0
LINE
  5
10E
100
AcDbEntity
  8
USP-GEO
100
AcDbLine
 10
0.1302361332501967
 20
1.573223304703361
 30
0.0
 11
0.1302361332501967
 21
1.051776695296638
 31
0.0
  0
LINE
  5
10F
100
AcDbEntity
  8
USP-GEO
100
AcDbLine
 10
0.4255954742065349
 20
1.405498663100008
 30
0.0
 11
0.425595474204874
 21
1.968501336896824
 31
0.0
  0
LINE
  5
110
100
AcDbEntity
  8
USP-GEO
100
AcDbLine
 10
0.1814461364068318
 20
1.573223304703361
 30
0.0
 11
0.1814461364068318
 21
1.051776695296638
 31
0.0
  0
ELLIPSE
  5
111
100
AcDbEntity
  8
USP-HID
100
AcDbEllipse
 10
0.2297365390533468
 20
1.450000000000017
 30
0.0
 11
0.0
 21
0.082
 31
0.0
210
0.0
220
0.0
230
1.0
 40
0.17364817766693
 41
0.0
 42
3.141592653589793
  0
LINE
  5
112
100
AcDbEntity
  8
USP-HID
100
AcDbLine
 10
0.3992381049892692
 20
1.311998663092037
 30
0.0
 11
0.3992381049892604
 21
1.031001336907966
 31
0.0
  0
LINE
  5
113
100
AcDbEntity
  8
USP-GEO
100
AcDbLine
 10
0.4433712858104926
 20
1.031001336907966
 30
0.0
 11
0.4433712858104926
 21
1.311998663092037
 31
0.0
  0
LINE
  5
114
100
AcDbEntity
  8
USP-HID
100
AcDbLine
 10
0.4418315788183929
 20
1.031001336907966
 30
0.0
 11
0.3906215756617577
 21
1.031001336907966
 31
0.0
  0
LINE
  5
115
100
AcDbEntity
  8
USP-GEO
100
AcDbLine
 10
0.45123810498926
 20
1.031001336907966
 30
0.0
 11
0.4433712858104926
 21
1.031001336907966
 31
0.0
  0
LINE
  5
116
100
AcDbEntity
  8
USP-GEO
100
AcDbLine
 10
0.4433712858104908
 20
1.031001336907966
 30
0.0
 11
0.4418315788183929
 21
1.031001336907966
 31
0.0
  0
ELLIPSE
  5
117
100
AcDbEntity
  8
USP-HID
100
AcDbEllipse
 10
0.2391135406473612
 20
1.450000000000002
 30
0.0
 11
0.0
 21
0.082
 31
0.0
210
0.0
220
0.0
230
1.0
 40
0.17364817766693
 41
3.141592653589793
 42
6.283185307179641
  0
LINE
  5
118
100
AcDbEntity
  8
USP-HID
100
AcDbLine
 10
0.2809465422099837
 20
1.531999999999996
 30
0.0
 11
0.2297365390533486
 21
1.531999999999996
 31
0.0
  0
LINE
  5
119
100
AcDbEntity
  8
USP-HID
100
AcDbLine
 10
0.2809465422099837
 20
1.368000000000016
 30
0.0
 11
0.2297365390533486
 21
1.368000000000016
 31
0.0
  0
ELLIPSE
  5
11A
100
AcDbEntity
  8
USP-GEO
100
AcDbEllipse
 10
0.2809465422099855
 20
1.450000000000017
 30
0.0
 11
0.0
 21
-0.082
 31
0.0
210
0.0
220
0.0
230
1.0
 40
0.17364817766693
 41
-3.141592653589793
 42
0.0
  0
LINE
  5
11B
100
AcDbEntity
  8
USP-GEO
100
AcDbLine
 10
0.2903235438039981
 20
1.368000000000027
 30
0.0
 11
0.2809465422099837
 21
1.368000000000018
 31
0.0
  0
ELLIPSE
  5
11C
100
AcDbEntity
  8
USP-GEO
100
AcDbEllipse
 10
0.2903235438039981
 20
1.450000000000002
 30
0.0
 11
0.0
 21
-0.082
 31
0.0
210
0.0
220
0.0
230
1.0
 40
0.17364817766693
 41
0.0
 42
3.141592653589853
  0
LINE
  5
11D
100
AcDbEntity
  8
USP-GEO
100
AcDbLine
 10
0.2809465422099837
 20
1.532
 30
0.0
 11
0.2903235438039964
 21
1.532
 31
0.0
  0
ELLIPSE
  5
11E
100
AcDbEntity
  8
USP-HID
100
AcDbEllipse
 10
0.3906215756617577
 20
1.405498663101596
 30
0.0
 11
0.0
 21
-0.0935000000095601
 31
0.0
210
0.0
220
0.0
230
1.0
 40
0.17364817766693
 41
-1.570796326777911
 42
0.0
  0
LINE
  5
11F
100
AcDbEntity
  8
USP-HID
100
AcDbLine
 10
0.4418315788183911
 20
1.311998663092037
 30
0.0
 11
0.3906215756617559
 21
1.311998663092037
 31
0.0
  0
LINE
  5
120
100
AcDbEntity
  8
USP-GEO
100
AcDbLine
 10
0.4433712858104926
 20
1.311998663092035
 30
0.0
 11
0.4512381049892689
 21
1.311998663092035
 31
0.0
  0
LINE
  5
121
100
AcDbEntity
  8
USP-GEO
100
AcDbLine
 10
0.4418315788183911
 20
1.311998663092037
 30
0.0
 11
0.4433712858104891
 21
1.311998663092037
 31
0.0
  0
ELLIPSE
  5
122
100
AcDbEntity
  8
USP-GEO
100
AcDbEllipse
 10
0.4418315788183911
 20
1.405498663101596
 30
0.0
 11
0.0
 21
0.0935000000095601
 31
0.0
210
0.0
220
0.0
230
1.0
 40
0.17364817766693
 41
1.570796326811881
 42
3.141592653589793
  0
ELLIPSE
  5
123
100
AcDbEntity
  8
USP-GEO
100
AcDbEllipse
 10
0.1085301110418317
 20
1.573223304703361
 30
0.0
 11
0.0
 21
-0.125
 31
0.0
210
0.0
220
0.0
230
1.0
 40
0.17364817766693
 41
1.570796326794896
 42
2.356194490192338
  0
ELLIPSE
  5
124
100
AcDbEntity
  8
USP-GEO
100
AcDbEllipse
 10
0.1597401141984669
 20
1.573223304703361
 30
0.0
 11
0.0
 21
0.125
 31
0.0
210
0.0
220
0.0
230
1.0
 40
0.17364817766693
 41
-1.570796326794896
 42
-0.7853981633974528
  0
LINE
  5
125
100
AcDbEntity
  8
USP-HID
100
AcDbLine
 10
0.4418315788183929
 20
2.062001336907972
 30
0.0
 11
0.3906215756617577
 21
2.062001336907972
 31
0.0
  0
ELLIPSE
  5
126
100
AcDbEntity
  8
USP-HID
100
AcDbEllipse
 10
0.3906215756617577
 20
1.968501336898413
 30
0.0
 11
0.0
 21
-0.0935000000095601
 31
0.0
210
0.0
220
0.0
230
1.0
 40
0.17364817766693
 41
3.141592653589793
 42
4.712388980401731
  0
LINE
  5
127
100
AcDbEntity
  8
USP-GEO
100
AcDbLine
 10
0.4512381049892689
 20
2.062001336907972
 30
0.0
 11
0.4433712858104926
 21
2.062001336907961
 31
0.0
  0
LINE
  5
128
100
AcDbEntity
  8
USP-GEO
100
AcDbLine
 10
0.4433712858104908
 20
2.062001336907972
 30
0.0
 11
0.4418315788183929
 21
2.062001336907972
 31
0.0
  0
ELLIPSE
  5
129
100
AcDbEntity
  8
USP-GEO
100
AcDbEllipse
 10
0.4418315788183929
 20
1.968501336898413
 30
0.0
 11
0.0
 21
0.0935000000095601
 31
0.0
210
0.0
220
0.0
230
1.0
 40
0.17364817766693
 41
0.0
 42
1.570796326811881
  0
LINE
  5
12A
100
AcDbEntity
  8
USP-GEO
100
AcDbLine
 10
0.5447381049892748
 20
1.405498663101596
 30
0.0
 11
0.5447381049988281
 21
1.968501336898413
 31
0.0
  0
ARC
  5
12B
100
AcDbEntity
  8
USP-GEO
100
AcDbCircle
 10
0.4512381049892689
 20
2.999502673806368
 30
0.0
 40
0.0935000000095601
100
AcDbArc
 50
0.0
 51
90.0
  0
ARC
  5
12C
100
AcDbEntity
  8
USP-GEO
100
AcDbCircle
 10
0.4512381049892689
 20
2.436500000009559
 30
0.0
 40
0.0935000000095601
100
AcDbArc
 50
270.0
 51
0.0
  0
LINE
  5
12D
100
AcDbEntity
  8
USP-HID
100
AcDbLine
 10
0.3743854710498997
 20
2.436500000007971
 30
0.0
 11
0.3743854710482388
 21
2.999502673804784
 31
0.0
  0
LINE
  5
12E
100
AcDbEntity
  8
USP-GEO
100
AcDbLine
 10
0.4255954742065349
 20
2.436500000007971
 30
0.0
 11
0.425595474204874
 21
2.999502673804784
 31
0.0
  0
ELLIPSE
  5
12F
100
AcDbEntity
  8
USP-GEO
100
AcDbEllipse
 10
0.0217060222083667
 20
2.426776695296638
 30
0.0
 11
0.0
 21
0.125
 31
0.0
210
0.0
220
0.0
230
1.0
 40
0.17364817766693
 41
1.570796326794896
 42
2.356194490192368
  0
ELLIPSE
  5
130
100
AcDbEntity
  8
USP-GEO
100
AcDbEllipse
 10
0.072916025365001
 20
2.426776695296638
 30
0.0
 11
0.0
 21
0.125
 31
0.0
210
0.0
220
0.0
230
1.0
 40
0.17364817766693
 41
1.570796326794896
 42
2.356194490192368
  0
ELLIPSE
  5
131
100
AcDbEntity
  8
USP-HID
100
AcDbEllipse
 10
0.3906215756617577
 20
2.436500000009559
 30
0.0
 11
0.0
 21
-0.0935000000095601
 31
0.0
210
0.0
220
0.0
230
1.0
 40
0.17364817766693
 41
-1.570796326777911
 42
0.0
  0
ELLIPSE
  5
132
100
AcDbEntity
  8
USP-GEO
100
AcDbEllipse
 10
0.4418315788183929
 20
2.436500000009559
 30
0.0
 11
0.0
 21
0.0935000000095601
 31
0.0
210
0.0
220
0.0
230
1.0
 40
0.17364817766693
 41
1.570796326811881
 42
3.141592653589793
  0
LINE
  5
133
100
AcDbEntity
  8
USP-HID
100
AcDbLine
 10
0.4418315788183929
 20
2.342999999999999
 30
0.0
 11
0.3906215756617577
 21
2.342999999999999
 31
0.0
  0
LINE
  5
134
100
AcDbEntity
  8
USP-GEO
100
AcDbLine
 10
0.4433712858104926
 20
2.342999999999987
 30
0.0
 11
0.4512381049888923
 21
2.342999999999998
 31
0.0
  0
LINE
  5
135
100
AcDbEntity
  8
USP-GEO
100
AcDbLine
 10
0.4418315788183929
 20
2.342999999999999
 30
0.0
 11
0.4433712858104908
 21
2.342999999999999
 31
0.0
  0
ELLIPSE
  5
136
100
AcDbEntity
  8
USP-HID
100
AcDbEllipse
 10
0.0821355880364561
 20
2.950000000000009
 30
0.0
 11
0.0
 21
0.082
 31
0.0
210
0.0
220
0.0
230
1.0
 40
0.17364817766693
 41
0.0
 42
3.141592653589793
  0
ELLIPSE
  5
137
100
AcDbEntity
  8
USP-HID
100
AcDbEllipse
 10
0.0915125896304714
 20
2.949999999999995
 30
0.0
 11
0.0
 21
0.082
 31
0.0
210
0.0
220
0.0
230
1.0
 40
0.17364817766693
 41
3.141592653589793
 42
6.283185307179642
  0
ELLIPSE
  5
138
100
AcDbEntity
  8
USP-GEO
100
AcDbEllipse
 10
0.1333455911930947
 20
2.950000000000009
 30
0.0
 11
0.0
 21
-0.082
 31
0.0
210
0.0
220
0.0
230
1.0
 40
0.17364817766693
 41
-3.141592653589793
 42
0.0
  0
ELLIPSE
  5
139
100
AcDbEntity
  8
USP-GEO
100
AcDbEllipse
 10
0.1427225927871092
 20
2.949999999999995
 30
0.0
 11
0.0
 21
-0.082
 31
0.0
210
0.0
220
0.0
230
1.0
 40
0.17364817766693
 41
0.0
 42
3.141592653589848
  0
LINE
  5
13A
100
AcDbEntity
  8
USP-HID
100
AcDbLine
 10
0.133345591193093
 20
2.868000000000009
 30
0.0
 11
0.0821355880364587
 21
2.868000000000009
 31
0.0
  0
LINE
  5
13B
100
AcDbEntity
  8
USP-GEO
100
AcDbLine
 10
0.1427225927871074
 20
2.867999999999995
 30
0.0
 11
0.133345591193093
 21
2.86800000000001
 31
0.0
  0
LINE
  5
13C
100
AcDbEntity
  8
USP-HID
100
AcDbLine
 10
0.133345591193093
 20
3.03200000000001
 30
0.0
 11
0.0821355880364578
 21
3.03200000000001
 31
0.0
  0
LINE
  5
13D
100
AcDbEntity
  8
USP-GEO
100
AcDbLine
 10
0.133345591193093
 20
3.032000000000008
 30
0.0
 11
0.1427225927871074
 21
3.031999999999995
 31
0.0
  0
LINE
  5
13E
100
AcDbEntity
  8
USP-HID
100
AcDbLine
 10
0.4418315788183911
 20
3.093002673815931
 30
0.0
 11
0.3906215756617559
 21
3.093002673815931
 31
0.0
  0
ELLIPSE
  5
13F
100
AcDbEntity
  8
USP-HID
100
AcDbEllipse
 10
0.3906215756617577
 20
2.999502673806368
 30
0.0
 11
0.0
 21
-0.0935000000095601
 31
0.0
210
0.0
220
0.0
230
1.0
 40
0.17364817766693
 41
3.141592653589793
 42
4.712388980401692
  0
LINE
  5
140
100
AcDbEntity
  8
USP-GEO
100
AcDbLine
 10
0.4433712858104926
 20
3.093002673815925
 30
0.0
 11
0.4512381049892689
 21
3.093002673815925
 31
0.0
  0
LINE
  5
141
100
AcDbEntity
  8
USP-GEO
100
AcDbLine
 10
0.4418315788183911
 20
3.093002673815931
 30
0.0
 11
0.4433712858104891
 21
3.093002673815931
 31
0.0
  0
ELLIPSE
  5
142
100
AcDbEntity
  8
USP-GEO
100
AcDbEllipse
 10
0.4418315788183911
 20
2.999502673806368
 30
0.0
 11
0.0
 21
0.0935000000095601
 31
0.0
210
0.0
220
0.0
230
1.0
 40
0.17364817766693
 41
0.0
 42
1.570796326811843
  0
LINE
  5
143
100
AcDbEntity
  8
USP-GEO
100
AcDbLine
 10
0.5447381049892766
 20
2.436500000009559
 30
0.0
 11
0.5447381049988298
 21
2.999502673806368
 31
0.0
  0
ARC
  5
144
100
AcDbEntity
  8
USP-GEO
100
AcDbCircle
 10
1.42473810498927
 20
2.950000000000009
 30
0.0
 40
0.082
100
AcDbArc
 50
90.0
 51
270.0
  0
TEXT
  5
145
100
AcDbEntity
  8
USP-TXT
100
AcDbText
 10
0.984713476256898
 20
2.124217313685612
 30
0.0
 40
0.1875
  1
MP
100
AcDbText
  0
ARC
  5
146
100
AcDbEntity
  8
USP-GEO
100
AcDbCircle
 10
1.478738104989274
 20
2.949999999999995
 30
0.0
 40
0.082
100
AcDbArc
 50
270.0
 51
90.0
  0
LINE
  5
147
100
AcDbEntity
  8
USP-GEO
100
AcDbLine
 10
1.478738104989274
 20
2.868000000000008
 30
0.0
 11
1.424738104989272
 21
2.868000000000006
 31
0.0
  0
LINE
  5
148
100
AcDbEntity
  8
USP-GEO
100
AcDbLine
 10
1.424738104989272
 20
3.032000000000006
 30
0.0
 11
1.478738104989272
 21
3.031999999999992
 31
0.0
  0
LINE
  5
149
100
AcDbEntity
  8
USP-HID
100
AcDbLine
 10
0.3743854710498997
 20
3.748500000007972
 30
0.0
 11
0.3743854710482388
 21
4.311502673804788
 31
0.0
  0
LINE
  5
14A
100
AcDbEntity
  8
USP-GEO
100
AcDbLine
 10
0.5447381049892766
 20
3.748500000009556
 30
0.0
 11
0.5447381049988316
 21
4.311502673806373
 31
0.0
  0
ELLIPSE
  5
14B
100
AcDbEntity
  8
USP-GEO
100
AcDbEllipse
 10
0.1085301110418317
 20
4.301776695296624
 30
0.0
 11
0.0
 21
-0.125
 31
0.0
210
0.0
220
0.0
230
1.0
 40
0.17364817766693
 41
0.7853981633974603
 42
1.570796326794896
  0
LINE
  5
14C
100
AcDbEntity
  8
USP-GEO
100
AcDbLine
 10
0.4255954742065349
 20
3.748500000007972
 30
0.0
 11
0.425595474204874
 21
4.311502673804788
 31
0.0
  0
ELLIPSE
  5
14D
100
AcDbEntity
  8
USP-GEO
100
AcDbEllipse
 10
0.1597401141984669
 20
4.301776695296624
 30
0.0
 11
0.0
 21
0.125
 31
0.0
210
0.0
220
0.0
230
1.0
 40
0.17364817766693
 41
-2.356194490192332
 42
-1.570796326794896
  0
ARC
  5
14E
100
AcDbEntity
  8
USP-GEO
100
AcDbCircle
 10
0.4512381049892689
 20
3.748500000009556
 30
0.0
 40
0.0935000000095601
100
AcDbArc
 50
270.0
 51
0.0
  0
ELLIPSE
  5
14F
100
AcDbEntity
  8
USP-HID
100
AcDbEllipse
 10
0.3906215756617577
 20
3.748500000009556
 30
0.0
 11
0.0
 21
-0.0935000000095601
 31
0.0
210
0.0
220
0.0
230
1.0
 40
0.17364817766693
 41
-1.570796326777949
 42
0.0
  0
LINE
  5
150
100
AcDbEntity
  8
USP-GEO
100
AcDbLine
 10
0.1238785865379519
 20
4.213388347648304
 30
0.0
 11
0.0063575467122448
 21
3.53661165235168
 31
0.0
  0
ELLIPSE
  5
151
100
AcDbEntity
  8
USP-GEO
100
AcDbEllipse
 10
0.4418315788183929
 20
3.748500000009556
 30
0.0
 11
0.0
 21
0.0935000000095601
 31
0.0
210
0.0
220
0.0
230
1.0
 40
0.17364817766693
 41
1.570796326811843
 42
3.141592653589793
  0
LINE
  5
152
100
AcDbEntity
  8
USP-GEO
100
AcDbLine
 10
0.0575675498688799
 20
3.53661165235168
 30
0.0
 11
0.1750885896945871
 21
4.213388347648304
 31
0.0
  0
ELLIPSE
  5
153
100
AcDbEntity
  8
USP-GEO
100
AcDbEllipse
 10
0.0217060222083667
 20
3.448223304703361
 30
0.0
 11
0.0
 21
0.125
 31
0.0
210
0.0
220
0.0
230
1.0
 40
0.17364817766693
 41
0.7853981633974301
 42
1.570796326794896
  0
ELLIPSE
  5
154
100
AcDbEntity
  8
USP-GEO
100
AcDbEllipse
 10
0.072916025365001
 20
3.448223304703361
 30
0.0
 11
0.0
 21
0.125
 31
0.0
210
0.0
220
0.0
230
1.0
 40
0.17364817766693
 41
0.7853981633974301
 42
1.570796326794896
  0
LINE
  5
155
100
AcDbEntity
  8
USP-HID
100
AcDbLine
 10
0.4418315788183929
 20
3.654999999999994
 30
0.0
 11
0.3906215756617577
 21
3.654999999999994
 31
0.0
  0
LINE
  5
156
100
AcDbEntity
  8
USP-GEO
100
AcDbLine
 10
0.4433712858104926
 20
3.654999999999994
 30
0.0
 11
0.4512381049892618
 21
3.654999999999994
 31
0.0
  0
LINE
  5
157
100
AcDbEntity
  8
USP-GEO
100
AcDbLine
 10
0.4433712858104908
 20
3.654999999999994
 30
0.0
 11
0.4418315788183929
 21
3.654999999999994
 31
0.0
  0
LINE
  5
158
100
AcDbEntity
  8
USP-GEO
100
AcDbLine
 10
0.2295466816205742
 20
4.017999999999992
 30
0.0
 11
0.2201696800265598
 21
4.018000000000006
 31
0.0
  0
LINE
  5
159
100
AcDbEntity
  8
USP-GEO
100
AcDbLine
 10
0.2201696800265598
 20
4.182000000000005
 30
0.0
 11
0.2295466816205742
 21
4.181999999999998
 31
0.0
  0
ELLIPSE
  5
15A
100
AcDbEntity
  8
USP-HID
100
AcDbEllipse
 10
0.1783366784639355
 20
4.099999999999994
 30
0.0
 11
0.0
 21
0.082
 31
0.0
210
0.0
220
0.0
230
1.0
 40
0.17364817766693
 41
3.141592653589793
 42
6.283185307179641
  0
ELLIPSE
  5
15B
100
AcDbEntity
  8
USP-HID
100
AcDbEllipse
 10
0.1689596768699211
 20
4.100000000000008
 30
0.0
 11
0.0
 21
0.082
 31
0.0
210
0.0
220
0.0
230
1.0
 40
0.17364817766693
 41
0.0
 42
3.141592653589793
  0
LINE
  5
15C
100
AcDbEntity
  8
USP-HID
100
AcDbLine
 10
0.220169680026558
 20
4.018000000000007
 30
0.0
 11
0.1689596768699229
 21
4.018000000000007
 31
0.0
  0
LINE
  5
15D
100
AcDbEntity
  8
USP-HID
100
AcDbLine
 10
0.220169680026558
 20
4.182000000000009
 30
0.0
 11
0.1689596768699229
 21
4.182000000000009
 31
0.0
  0
ELLIPSE
  5
15E
100
AcDbEntity
  8
USP-GEO
100
AcDbEllipse
 10
0.220169680026558
 20
4.100000000000008
 30
0.0
 11
0.0
 21
-0.082
 31
0.0
210
0.0
220
0.0
230
1.0
 40
0.17364817766693
 41
-3.141592653589793
 42
0.0
  0
ELLIPSE
  5
15F
100
AcDbEntity
  8
USP-GEO
100
AcDbEllipse
 10
0.2295466816205725
 20
4.099999999999994
 30
0.0
 11
0.0
 21
-0.082
 31
0.0
210
0.0
220
0.0
230
1.0
 40
0.17364817766693
 41
0.0
 42
3.141592653589848
  0
ARC
  5
160
100
AcDbEntity
  8
USP-GEO
100
AcDbCircle
 10
0.4512381049892689
 20
4.99850000000957
 30
0.0
 40
0.0935000000095601
100
AcDbArc
 50
270.0
 51
0.0
  0
ARC
  5
161
100
AcDbEntity
  8
USP-GEO
100
AcDbCircle
 10
0.4512381049892689
 20
4.311502673806373
 30
0.0
 40
0.0935000000095601
100
AcDbArc
 50
0.0
 51
90.0
  0
LINE
  5
162
100
AcDbEntity
  8
USP-HID
100
AcDbLine
 10
0.399238104989271
 20
4.905000000000015
 30
0.0
 11
0.3992381049892621
 21
4.405002673815936
 31
0.0
  0
LINE
  5
163
100
AcDbEntity
  8
USP-GEO
100
AcDbLine
 10
0.4433712858104926
 20
4.405002673815936
 30
0.0
 11
0.4433712858104926
 21
4.905000000000008
 31
0.0
  0
LINE
  5
164
100
AcDbEntity
  8
USP-GEO
100
AcDbLine
 10
0.1302361332501967
 20
4.823223304703368
 30
0.0
 11
0.1302361332501967
 21
4.301776695296624
 31
0.0
  0
LINE
  5
165
100
AcDbEntity
  8
USP-GEO
100
AcDbLine
 10
0.1814461364068318
 20
4.301776695296624
 30
0.0
 11
0.1814461364068318
 21
4.823223304703368
 31
0.0
  0
LINE
  5
166
100
AcDbEntity
  8
USP-HID
100
AcDbLine
 10
0.4418315788183929
 20
4.405002673815936
 30
0.0
 11
0.3906215756617577
 21
4.405002673815936
 31
0.0
  0
ELLIPSE
  5
167
100
AcDbEntity
  8
USP-HID
100
AcDbEllipse
 10
0.3906215756617577
 20
4.311502673806373
 30
0.0
 11
0.0
 21
-0.0935000000095601
 31
0.0
210
0.0
220
0.0
230
1.0
 40
0.17364817766693
 41
3.141592653589793
 42
4.712388980401688
  0
LINE
  5
168
100
AcDbEntity
  8
USP-GEO
100
AcDbLine
 10
0.4433712858104926
 20
4.405002673815935
 30
0.0
 11
0.45123810498926
 21
4.405002673815935
 31
0.0
  0
LINE
  5
169
100
AcDbEntity
  8
USP-GEO
100
AcDbLine
 10
0.4418315788183929
 20
4.405002673815936
 30
0.0
 11
0.4433712858104908
 21
4.405002673815936
 31
0.0
  0
ELLIPSE
  5
16A
100
AcDbEntity
  8
USP-GEO
100
AcDbEllipse
 10
0.4418315788183929
 20
4.311502673806373
 30
0.0
 11
0.0
 21
0.0935000000095601
 31
0.0
210
0.0
220
0.0
230
1.0
 40
0.17364817766693
 41
0.0
 42
1.570796326811843
  0
ELLIPSE
  5
16B
100
AcDbEntity
  8
USP-GEO
100
AcDbEllipse
 10
0.1085301110418317
 20
4.823223304703361
 30
0.0
 11
0.0
 21
-0.125
 31
0.0
210
0.0
220
0.0
230
1.0
 40
0.17364817766693
 41
1.570796326794896
 42
2.356194490192332
  0
ELLIPSE
  5
16C
100
AcDbEntity
  8
USP-GEO
100
AcDbEllipse
 10
0.1597401141984669
 20
4.823223304703361
 30
0.0
 11
0.0
 21
0.125
 31
0.0
210
0.0
220
0.0
230
1.0
 40
0.17364817766693
 41
-1.570796326794896
 42
-0.7853981633974603
  0
ELLIPSE
  5
16D
100
AcDbEntity
  8
USP-HID
100
AcDbEllipse
 10
0.3906215756617577
 20
4.99850000000957
 30
0.0
 11
0.0
 21
-0.0935000000095601
 31
0.0
210
0.0
220
0.0
230
1.0
 40
0.17364817766693
 41
-1.570796326777949
 42
0.0
  0
LINE
  5
16E
100
AcDbEntity
  8
USP-HID
100
AcDbLine
 10
0.4418315788183929
 20
4.905000000000008
 30
0.0
 11
0.3906215756617577
 21
4.905000000000008
 31
0.0
  0
LINE
  5
16F
100
AcDbEntity
  8
USP-GEO
100
AcDbLine
 10
0.4512381049892689
 20
4.905000000000008
 30
0.0
 11
0.4433712858104908
 21
4.905000000000008
 31
0.0
  0
LINE
  5
170
100
AcDbEntity
  8
USP-GEO
100
AcDbLine
 10
0.4418315788183929
 20
4.905000000000008
 30
0.0
 11
0.4433712858104908
 21
4.905000000000008
 31
0.0
  0
ELLIPSE
  5
171
100
AcDbEntity
  8
USP-GEO
100
AcDbEllipse
 10
0.4418315788183929
 20
4.99850000000957
 30
0.0
 11
0.0
 21
0.0935000000095601
 31
0.0
210
0.0
220
0.0
230
1.0
 40
0.17364817766693
 41
1.570796326811843
 42
3.141592653589793
  0
LINE
  5
172
100
AcDbEntity
  8
USP-GEO
100
AcDbLine
 10
1.62873810498927
 20
5.318000000000001
 30
0.0
 11
1.574738104989275
 21
5.318000000000006
 31
0.0
  0
ARC
  5
173
100
AcDbEntity
  8
USP-GEO
100
AcDbCircle
 10
2.576738104989273
 20
1.051776695296638
 30
0.0
 40
0.125
100
AcDbArc
 50
315.0000000000003
 51
0.0
  0
LINE
  5
174
100
AcDbEntity
  8
USP-GEO
100
AcDbLine
 10
1.988349757340953
 20
0.2866116523516808
 30
0.0
 11
2.66512645263759
 21
0.9633883476483191
 31
0.0
  0
LINE
  5
175
100
AcDbEntity
  8
USP-GEO
100
AcDbLine
 10
1.951738104989273
 20
0.0
 30
0.0
 11
1.951738104989273
 21
0.1982233047033617
 31
0.0
  0
ARC
  5
176
100
AcDbEntity
  8
USP-GEO
100
AcDbCircle
 10
2.076738104989273
 20
0.1982233047033617
 30
0.0
 40
0.125
100
AcDbArc
 50
134.9999999999995
 51
180.0
  0
LINE
  5
177
100
AcDbEntity
  8
USP-GEO
100
AcDbLine
 10
1.951738104989273
 20
2.426776695296638
 30
0.0
 11
1.951738104989271
 21
3.448223304703361
 31
0.0
  0
LINE
  5
178
100
AcDbEntity
  8
USP-GEO
100
AcDbLine
 10
1.988349757340953
 20
2.338388347648319
 30
0.0
 11
2.66512645263759
 21
1.66161165235168
 31
0.0
  0
ARC
  5
179
100
AcDbEntity
  8
USP-GEO
100
AcDbCircle
 10
2.174738104989272
 20
1.300000000000011
 30
0.0
 40
0.082
100
AcDbArc
 50
90.0
 51
270.0
  0
ARC
  5
17A
100
AcDbEntity
  8
USP-GEO
100
AcDbCircle
 10
2.228738104989274
 20
1.299999999999997
 30
0.0
 40
0.082
100
AcDbArc
 50
270.0
 51
90.0
  0
LINE
  5
17B
100
AcDbEntity
  8
USP-GEO
100
AcDbLine
 10
2.228738104989272
 20
1.217999999999999
 30
0.0
 11
2.17473810498927
 21
1.218000000000012
 31
0.0
  0
LINE
  5
17C
100
AcDbEntity
  8
USP-GEO
100
AcDbLine
 10
2.174738104989273
 20
1.382000000000016
 30
0.0
 11
2.228738104989274
 21
1.381999999999995
 31
0.0
  0
LINE
  5
17D
100
AcDbEntity
  8
USP-GEO
100
AcDbLine
 10
2.701738104989273
 20
1.573223304703361
 30
0.0
 11
2.701738104989273
 21
1.051776695296638
 31
0.0
  0
ARC
  5
17E
100
AcDbEntity
  8
USP-GEO
100
AcDbCircle
 10
2.576738104989273
 20
1.573223304703361
 30
0.0
 40
0.125
100
AcDbArc
 50
0.0
 51
45.0000000000004
  0
ARC
  5
17F
100
AcDbEntity
  8
USP-GEO
100
AcDbCircle
 10
2.076738104989273
 20
2.426776695296638
 30
0.0
 40
0.125
100
AcDbArc
 50
180.0
 51
225.0000000000003
  0
ARC
  5
180
100
AcDbEntity
  8
USP-GEO
100
AcDbCircle
 10
2.174738104989272
 20
4.250000000000007
 30
0.0
 40
0.082
100
AcDbArc
 50
90.0
 51
270.0
  0
ARC
  5
181
100
AcDbEntity
  8
USP-GEO
100
AcDbCircle
 10
2.228738104989274
 20
4.249999999999992
 30
0.0
 40
0.082
100
AcDbArc
 50
270.0
 51
90.0
  0
ARC
  5
182
100
AcDbEntity
  8
USP-GEO
100
AcDbCircle
 10
2.576738104989273
 20
4.301776695296624
 30
0.0
 40
0.125
100
AcDbArc
 50
314.9999999999994
 51
0.0
  0
LINE
  5
183
100
AcDbEntity
  8
USP-GEO
100
AcDbLine
 10
1.988349757340955
 20
3.53661165235168
 30
0.0
 11
2.66512645263759
 21
4.213388347648303
 31
0.0
  0
ARC
  5
184
100
AcDbEntity
  8
USP-GEO
100
AcDbCircle
 10
2.076738104989273
 20
3.448223304703361
 30
0.0
 40
0.125
100
AcDbArc
 50
134.9999999999994
 51
180.0
  0
LINE
  5
185
100
AcDbEntity
  8
USP-GEO
100
AcDbLine
 10
2.228738104989275
 20
4.16800000000001
 30
0.0
 11
2.174738104989272
 21
4.168000000000009
 31
0.0
  0
LINE
  5
186
100
AcDbEntity
  8
USP-GEO
100
AcDbLine
 10
2.174738104989273
 20
4.332000000000003
 30
0.0
 11
2.228738104989274
 21
4.331999999999989
 31
0.0
  0
LINE
  5
187
100
AcDbEntity
  8
USP-GEO
100
AcDbLine
 10
2.701738104989273
 20
4.301776695296624
 30
0.0
 11
2.701738104989273
 21
4.823223304703361
 31
0.0
  0
ARC
  5
188
100
AcDbEntity
  8
USP-GEO
100
AcDbCircle
 10
2.576738104989273
 20
4.823223304703361
 30
0.0
 40
0.125
100
AcDbArc
 50
0.0
 51
45.00000000000027
  0
LINE
  5
189
100
AcDbEntity
  8
USP-GEO
100
AcDbLine
 10
1.951738104989271
 20
5.875000000000042
 30
0.0
 11
0.4433712858104926
 21
5.875000000000042
 31
0.0
  0
ARC
  5
18A
100
AcDbEntity
  8
USP-GEO
100
AcDbCircle
 10
0.4512381049892689
 20
5.561502673806373
 30
0.0
 40
0.0935000000095601
100
AcDbArc
 50
0.0
 51
89.6936039968453
  0
LINE
  5
18B
100
AcDbEntity
  8
USP-GEO
100
AcDbLine
 10
0.4433712858104908
 20
5.875000000000042
 30
0.0
 11
0.0512100031566352
 21
5.875000000000044
 31
0.0
  0
ELLIPSE
  5
18C
100
AcDbEntity
  8
USP-HID
100
AcDbEllipse
 10
0.0915125896304714
 20
5.550000000000046
 30
0.0
 11
0.0
 21
0.082
 31
0.0
210
0.0
220
0.0
230
1.0
 40
0.17364817766693
 41
3.141592653589793
 42
6.283185307179642
  0
ELLIPSE
  5
18D
100
AcDbEntity
  8
USP-HID
100
AcDbEllipse
 10
0.0821355880364561
 20
5.550000000000061
 30
0.0
 11
0.0
 21
0.082
 31
0.0
210
0.0
220
0.0
230
1.0
 40
0.17364817766693
 41
0.0
 42
3.141592653589793
  0
ELLIPSE
  5
18E
100
AcDbEntity
  8
USP-GEO
100
AcDbEllipse
 10
0.0217060222083667
 20
5.676776695296638
 30
0.0
 11
0.0
 21
0.125
 31
0.0
210
0.0
220
0.0
230
1.0
 40
0.17364817766693
 41
1.570796326794896
 42
2.356194490192312
  0
ELLIPSE
  5
18F
100
AcDbEntity
  8
USP-GEO
100
AcDbEllipse
 10
0.1427225927871092
 20
5.550000000000046
 30
0.0
 11
0.0
 21
-0.082
 31
0.0
210
0.0
220
0.0
230
1.0
 40
0.17364817766693
 41
0.0
 42
3.141592653589848
  0
ELLIPSE
  5
190
100
AcDbEntity
  8
USP-GEO
100
AcDbEllipse
 10
0.1333455911930947
 20
5.550000000000061
 30
0.0
 11
0.0
 21
-0.082
 31
0.0
210
0.0
220
0.0
230
1.0
 40
0.17364817766693
 41
-3.141592653589793
 42
0.0
  0
ELLIPSE
  5
191
100
AcDbEntity
  8
USP-GEO
100
AcDbEllipse
 10
0.0729160253650019
 20
5.676776695296638
 30
0.0
 11
0.0
 21
0.125
 31
0.0
210
0.0
220
0.0
230
1.0
 40
0.17364817766693
 41
1.570796326794896
 42
2.356194490192312
  0
LINE
  5
192
100
AcDbEntity
  8
USP-HID
100
AcDbLine
 10
0.133345591193093
 20
5.46800000000006
 30
0.0
 11
0.0821355880364578
 21
5.46800000000006
 31
0.0
  0
LINE
  5
193
100
AcDbEntity
  8
USP-GEO
100
AcDbLine
 10
0.1427225927871092
 20
5.468000000000047
 30
0.0
 11
0.1333455911930947
 21
5.468000000000063
 31
0.0
  0
LINE
  5
194
100
AcDbEntity
  8
USP-HID
100
AcDbLine
 10
0.133345591193093
 20
5.632000000000061
 30
0.0
 11
0.0821355880364578
 21
5.632000000000061
 31
0.0
  0
LINE
  5
195
100
AcDbEntity
  8
USP-GEO
100
AcDbLine
 10
0.0512100031566352
 20
5.875000000000042
 30
0.0
 11
-0.0000000000000018
 21
5.875000000000042
 31
0.0
  0
LINE
  5
196
100
AcDbEntity
  8
USP-GEO
100
AcDbLine
 10
0.0
 20
5.875000000000042
 30
0.0
 11
0.0
 21
5.676776695296638
 31
0.0
  0
LINE
  5
197
100
AcDbEntity
  8
USP-GEO
100
AcDbLine
 10
0.0512100031566352
 20
5.676776695296638
 30
0.0
 11
0.0512100031566352
 21
5.875000000000042
 31
0.0
  0
LINE
  5
198
100
AcDbEntity
  8
USP-GEO
100
AcDbLine
 10
0.1333455911930947
 20
5.632000000000062
 30
0.0
 11
0.1427225927871092
 21
5.632000000000048
 31
0.0
  0
ELLIPSE
  5
199
100
AcDbEntity
  8
USP-HID
100
AcDbEllipse
 10
0.3906215756617577
 20
5.56150267380638
 30
0.0
 11
0.0
 21
-0.0935000000095601
 31
0.0
210
0.0
220
0.0
230
1.0
 40
0.17364817766693
 41
3.136245034515512
 42
4.712388980401755
  0
ELLIPSE
  5
19A
100
AcDbEntity
  8
USP-GEO
100
AcDbEllipse
 10
0.4418315788183911
 20
5.56150267380638
 30
0.0
 11
0.0
 21
0.0935000000095601
 31
0.0
210
0.0
220
0.0
230
1.0
 40
0.17364817766693
 41
-0.0053476190743897
 42
1.570796326811919
  0
LINE
  5
19B
100
AcDbEntity
  8
USP-HID
100
AcDbLine
 10
0.3997381049893107
 20
5.655001336908036
 30
0.0
 11
0.3997381049892716
 21
5.875000000000042
 31
0.0
  0
LINE
  5
19C
100
AcDbEntity
  8
USP-HID
100
AcDbLine
 10
0.441744754729303
 20
5.655001336907979
 30
0.0
 11
0.3907083997506611
 21
5.655001336907979
 31
0.0
  0
LINE
  5
19D
100
AcDbEntity
  8
USP-HID
100
AcDbLine
 10
0.4418315788183911
 20
5.65500267381594
 30
0.0
 11
0.3906215756617577
 21
5.65500267381594
 31
0.0
  0
LINE
  5
19E
100
AcDbEntity
  8
USP-GEO
100
AcDbLine
 10
0.4433712858104926
 20
5.655001336907979
 30
0.0
 11
0.4433712858104926
 21
5.875000000000042
 31
0.0
  0
LINE
  5
19F
100
AcDbEntity
  8
USP-GEO
100
AcDbLine
 10
0.4433712858104926
 20
5.655001336907979
 30
0.0
 11
0.4517381049892713
 21
5.655001336907979
 31
0.0
  0
LINE
  5
1A0
100
AcDbEntity
  8
USP-GEO
100
AcDbLine
 10
0.4419184029072963
 20
5.655001336907979
 30
0.0
 11
0.441744754729303
 21
5.655001336907979
 31
0.0
  0
LINE
  5
1A1
100
AcDbEntity
  8
USP-GEO
100
AcDbLine
 10
0.4419184029072963
 20
5.655001336907979
 30
0.0
 11
0.4433712858104891
 21
5.655001336907988
 31
0.0
  0
LINE
  5
1A2
100
AcDbEntity
  8
USP-GEO
100
AcDbLine
 10
1.574738104989277
 20
5.482000000000011
 30
0.0
 11
1.62873810498927
 21
5.481999999999995
 31
0.0
  0
ARC
  5
1A3
100
AcDbEntity
  8
USP-GEO
100
AcDbCircle
 10
2.076738104989271
 20
5.676776695296638
 30
0.0
 40
0.125
100
AcDbArc
 50
180.0
 51
225.0000000000003
  0
LINE
  5
1A4
100
AcDbEntity
  8
USP-GEO
100
AcDbLine
 10
1.951738104989271
 20
5.676776695296638
 30
0.0
 11
1.951738104989271
 21
5.875000000000042
 31
0.0
  0
ENDBLK
  5
1A6
100
AcDbEntity
  8
0
100
AcDbBlockEnd
  0
BLOCK
  5
1CA
100
AcDbEntity
  8
0
100
AcDbBlockBegin
  2
MP7_T
 70
     0
 10
0.0
 20
0.0
 30
0.0
  3
MP7_T
  1

  0
TEXT
  5
1A9
100
AcDbEntity
  8
USP-TXT
100
AcDbText
 10
-0.7272559475053649
 20
-1.211924789857093
 30
0.0
 40
0.296875
  1
MP7 - TOP VIEW
 72
     1
 11
1.350869052494635
 21
-1.211924789857093
 31
0.0
100
AcDbText
  0
LINE
  5
1AA
100
AcDbEntity
  8
USP-GEO
100
AcDbLine
 10
1.951738104989271
 20
2.267027447434102
 30
0.0
 11
0.3997381049892716
 21
2.267027447434101
 31
0.0
  0
LINE
  5
1AB
100
AcDbEntity
  8
USP-GEO
100
AcDbLine
 10
1.951738104989271
 20
2.215027447434103
 30
0.0
 11
0.4433712858104926
 21
2.215027447434103
 31
0.0
  0
LINE
  5
1AC
100
AcDbEntity
  8
USP-GEO
100
AcDbLine
 10
0.3997381049892716
 20
2.267027447434102
 30
0.0
 11
0.0
 21
0.0
 31
0.0
  0
LINE
  5
1AD
100
AcDbEntity
  8
USP-GEO
100
AcDbLine
 10
0.4433712858104908
 20
2.215027447434103
 30
0.0
 11
0.0512100031566352
 21
-0.0090297052386816
 31
0.0
  0
LINE
  5
1AE
100
AcDbEntity
  8
USP-GEO
100
AcDbLine
 10
0.0512100031566352
 20
-0.0090297052386816
 30
0.0
 11
-0.0000000000000018
 21
-0.0000000000000018
 31
0.0
  0
LINE
  5
1AF
100
AcDbEntity
  8
USP-HID
100
AcDbLine
 10
0.1133760507613974
 20
0.3435314703396912
 30
0.0
 11
0.0621660476047605
 21
0.3525611755783728
 31
0.0
  0
LINE
  5
1B0
100
AcDbEntity
  8
USP-HID
100
AcDbLine
 10
0.1191064406244067
 20
0.3760301261890859
 30
0.0
 11
0.0678964374677662
 21
0.3850598314277675
 31
0.0
  0
LINE
  5
1B1
100
AcDbEntity
  8
USP-HID
100
AcDbLine
 10
0.1512313534927863
 20
0.5582195604963474
 30
0.0
 11
0.1000213503361511
 21
0.5672492657350272
 31
0.0
  0
LINE
  5
1B2
100
AcDbEntity
  8
USP-HID
100
AcDbLine
 10
0.1569617433557973
 20
0.5907182163457563
 30
0.0
 11
0.1057517401991603
 21
0.5997479215844362
 31
0.0
  0
LINE
  5
1B3
100
AcDbEntity
  8
USP-HID
100
AcDbLine
 10
0.1814461364068318
 20
0.7295761095204725
 30
0.0
 11
0.1302361332501967
 21
0.7386058147591524
 31
0.0
  0
LINE
  5
1B4
100
AcDbEntity
  8
USP-HID
100
AcDbLine
 10
0.2437858321892605
 20
1.083122092851859
 30
0.0
 11
0.1925758290326236
 21
1.09215179809054
 31
0.0
  0
LINE
  5
1B5
100
AcDbEntity
  8
USP-HID
100
AcDbLine
 10
0.2667073916412974
 20
1.213116716249466
 30
0.0
 11
0.2154973884846587
 21
1.222146421488147
 31
0.0
  0
LINE
  5
1B6
100
AcDbEntity
  8
USP-HID
100
AcDbLine
 10
0.2059305294578699
 20
0.8684340026951957
 30
0.0
 11
0.154720526301233
 21
0.8774637079338774
 31
0.0
  0
LINE
  5
1B7
100
AcDbEntity
  8
USP-HID
100
AcDbLine
 10
0.3045626943726845
 20
1.427804806406122
 30
0.0
 11
0.2533526912160493
 21
1.436834511644802
 31
0.0
  0
LINE
  5
1B8
100
AcDbEntity
  8
USP-HID
100
AcDbLine
 10
0.425595474204874
 20
2.114215810246221
 30
0.0
 11
0.3743854710482388
 21
2.123245515484901
 31
0.0
  0
LINE
  5
1B9
100
AcDbEntity
  8
USP-GEO
100
AcDbLine
 10
0.3997381049892929
 20
2.267027447434102
 30
0.0
 11
0.3992381049892692
 21
2.267027447434102
 31
0.0
  0
LINE
  5
1BA
100
AcDbEntity
  8
USP-GEO
100
AcDbLine
 10
0.3992381049892692
 20
2.26419180652428
 30
0.0
 11
0.3992381049892692
 21
2.267027447434102
 31
0.0
  0
LINE
  5
1BB
100
AcDbEntity
  8
USP-HID
100
AcDbLine
 10
0.5447381049988298
 20
2.215027447434103
 30
0.0
 11
0.5447381049988298
 21
2.267027447434102
 31
0.0
  0
LINE
  5
1BC
100
AcDbEntity
  8
USP-HID
100
AcDbLine
 10
1.342738104989269
 20
2.215027447434103
 30
0.0
 11
1.342738104989269
 21
2.267027447434102
 31
0.0
  0
LINE
  5
1BD
100
AcDbEntity
  8
USP-HID
100
AcDbLine
 10
1.492738104989275
 20
2.215027447434096
 30
0.0
 11
1.492738104989275
 21
2.267027447434102
 31
0.0
  0
LINE
  5
1BE
100
AcDbEntity
  8
USP-HID
100
AcDbLine
 10
1.560738104989274
 20
2.215027447434103
 30
0.0
 11
1.560738104989274
 21
2.267027447434102
 31
0.0
  0
LINE
  5
1BF
100
AcDbEntity
  8
USP-HID
100
AcDbLine
 10
1.710738104989271
 20
2.215027447434096
 30
0.0
 11
1.710738104989271
 21
2.267027447434102
 31
0.0
  0
LINE
  5
1C0
100
AcDbEntity
  8
USP-GEO
100
AcDbLine
 10
2.665126452637593
 20
2.267027447434102
 30
0.0
 11
1.988349757340953
 21
2.267027447434102
 31
0.0
  0
LINE
  5
1C1
100
AcDbEntity
  8
USP-GEO
100
AcDbLine
 10
1.988349757340953
 20
2.215027447434103
 30
0.0
 11
2.665126452637593
 21
2.215027447434103
 31
0.0
  0
LINE
  5
1C2
100
AcDbEntity
  8
USP-GEO
100
AcDbLine
 10
1.988349757340953
 20
2.267027447434102
 30
0.0
 11
1.951738104989271
 21
2.267027447434102
 31
0.0
  0
LINE
  5
1C3
100
AcDbEntity
  8
USP-GEO
100
AcDbLine
 10
1.951738104989271
 20
2.215027447434103
 30
0.0
 11
1.988349757340953
 21
2.215027447434103
 31
0.0
  0
LINE
  5
1C4
100
AcDbEntity
  8
USP-GEO
100
AcDbLine
 10
1.951738104989271
 20
2.215027447434103
 30
0.0
 11
1.951738104989271
 21
2.267027447434102
 31
0.0
  0
LINE
  5
1C5
100
AcDbEntity
  8
USP-HID
100
AcDbLine
 10
2.092738104989271
 20
2.215027447434096
 30
0.0
 11
2.092738104989271
 21
2.267027447434102
 31
0.0
  0
LINE
  5
1C6
100
AcDbEntity
  8
USP-HID
100
AcDbLine
 10
2.310738104989274
 20
2.215027447434096
 30
0.0
 11
2.310738104989274
 21
2.267027447434102
 31
0.0
  0
LINE
  5
1C7
100
AcDbEntity
  8
USP-GEO
100
AcDbLine
 10
2.701738104989273
 20
2.267027447434102
 30
0.0
 11
2.665126452637592
 21
2.267027447434102
 31
0.0
  0
LINE
  5
1C8
100
AcDbEntity
  8
USP-GEO
100
AcDbLine
 10
2.701738104989273
 20
2.215027447434103
 30
0.0
 11
2.665126452637592
 21
2.215027447434103
 31
0.0
  0
LINE
  5
1C9
100
AcDbEntity
  8
USP-GEO
100
AcDbLine
 10
2.701738104989273
 20
2.215027447434103
 30
0.0
 11
2.701738104989273
 21
2.267027447434102
 31
0.0
  0
ENDBLK
  5
1CB
100
AcDbEntity
  8
0
100
AcDbBlockEnd
  0
ENDSEC
  0
SECTION
  2
ENTITIES
  0
INSERT
  5
3
100
AcDbEntity
  8
USP
100
AcDbBlockReference
  2
MP7_S
 10
0.8106266910736113
 20
1.619320463405635
 30
0.0
  0
INSERT
  5
CE
100
AcDbEntity
  8
USP
100
AcDbBlockReference
  2
MP7_F
 10
7.880180425687782
 20
1.619320463405635
 30
0.0
  0
INSERT
  5
1A7
100
AcDbEntity
  8
USP
100
AcDbBlockReference
  2
MP7_T
 10
7.880180425687782
 20
11.66266513709476
 30
0.0
  0
ENDSEC
  0
SECTION
  2
OBJECTS
  0
DICTIONARY
  5
1E0
102
{ACAD_XDICTIONARY
360
1E1
102
}
100
AcDbDictionary
  3
ACAD_GROUP
350
1DE
  3
ACAD_MLINESTYLE
350
1DF
1001
ACAD
1000
TREAT_AS_HARD
1070
     0
  0
DICTIONARY
  5
A
100
AcDbDictionary
280
     1
1001
ACAD
1000
TREAT_AS_HARD
1070
     1
  0
DICTIONARY
  5
1CC
100
AcDbDictionary
280
     1
1001
ACAD
1000
TREAT_AS_HARD
1070
     1
  0
DICTIONARY
  5
1D0
100
AcDbDictionary
280
     1
1001
ACAD
1000
TREAT_AS_HARD
1070
     1
  0
DICTIONARY
  5
1E1
100
AcDbDictionary
280
     1
1001
ACAD
1000
TREAT_AS_HARD
1070
     1
  0
DICTIONARY
  5
1DE
102
{ACAD_REACTORS
330
1E0
102
}
100
AcDbDictionary
1001
ACAD
1000
TREAT_AS_HARD
1070
     0
  0
DICTIONARY
  5
1DF
102
{ACAD_REACTORS
330
1E0
102
}
100
AcDbDictionary
  3
STANDARD
350
1E2
1001
ACAD
1000
TREAT_AS_HARD
1070
     0
  0
MLINESTYLE
  5
1E2
102
{ACAD_REACTORS
330
1DF
102
}
100
AcDbMlineStyle
  2
STANDARD
 70
     0
  3

 62
     0
 51
90.0
 52
90.0
 71
     2
 49
0.5
 62
   256
  6
BYLAYER
 49
-0.5
 62
   256
  6
BYLAYER
  0
ENDSEC
  0
EOF
