  0
SECTION
  2
HEADER
  9
$ACADVER
  1
AC1014
  9
$ACADMAINTVER
 70
     9
  9
$DWGCODEPAGE
  3
ANSI_1252
  9
$INSBASE
 10
0.0
 20
0.0
 30
0.0
  9
$EXTMIN
 10
0.0003661829982491
 20
0.0002746372486868
 30
0.0
  9
$EXTMAX
 10
4.250366182998249
 20
4.254857019397704
 30
0.0
  9
$LIMMIN
 10
0.0
 20
0.0
  9
$LIMMAX
 10
12.0
 20
9.0
  9
$ORTHOMODE
 70
     0
  9
$REGENMODE
 70
     1
  9
$FILLMODE
 70
     1
  9
$QTEXTMODE
 70
     0
  9
$MIRRTEXT
 70
     0
  9
$DRAGMODE
 70
     2
  9
$LTSCALE
 40
1.5
  9
$OSMODE
 70
    37
  9
$ATTMODE
 70
     1
  9
$TEXTSIZE
 40
0.1875
  9
$TRACEWID
 40
0.05
  9
$TEXTSTYLE
  7
STANDARD
  9
$CLAYER
  8
0
  9
$CELTYPE
  6
BYLAYER
  9
$CECOLOR
 62
   256
  9
$CELTSCALE
 40
1.0
  9
$DELOBJ
 70
     1
  9
$DISPSILH
 70
     1
  9
$DIMSCALE
 40
1.5
  9
$DIMASZ
 40
0.125
  9
$DIMEXO
 40
0.0625
  9
$DIMDLI
 40
0.38
  9
$DIMRND
 40
0.0
  9
$DIMDLE
 40
0.0
  9
$DIMEXE
 40
0.09375
  9
$DIMTP
 40
0.0
  9
$DIMTM
 40
0.0
  9
$DIMTXT
 40
0.109375
  9
$DIMCEN
 40
0.0
  9
$DIMTSZ
 40
0.0
  9
$DIMTOL
 70
     0
  9
$DIMLIM
 70
     0
  9
$DIMTIH
 70
     1
  9
$DIMTOH
 70
     1
  9
$DIMSE1
 70
     0
  9
$DIMSE2
 70
     0
  9
$DIMTAD
 70
     0
  9
$DIMZIN
 70
     0
  9
$DIMBLK
  1

  9
$DIMASO
 70
     1
  9
$DIMSHO
 70
     1
  9
$DIMPOST
  1

  9
$DIMAPOST
  1

  9
$DIMALT
 70
     0
  9
$DIMALTD
 70
     2
  9
$DIMALTF
 40
25.4
  9
$DIMLFAC
 40
1.0
  9
$DIMTOFL
 70
     0
  9
$DIMTVP
 40
0.0
  9
$DIMTIX
 70
     0
  9
$DIMSOXD
 70
     0
  9
$DIMSAH
 70
     0
  9
$DIMBLK1
  1

  9
$DIMBLK2
  1

  9
$DIMSTYLE
  2
STANDARD
  9
$DIMCLRD
 70
     0
  9
$DIMCLRE
 70
     0
  9
$DIMCLRT
 70
     0
  9
$DIMTFAC
 40
1.0
  9
$DIMGAP
 40
0.09
  9
$DIMJUST
 70
     0
  9
$DIMSD1
 70
     0
  9
$DIMSD2
 70
     0
  9
$DIMTOLJ
 70
     1
  9
$DIMTZIN
 70
     0
  9
$DIMALTZ
 70
     0
  9
$DIMALTTZ
 70
     0
  9
$DIMFIT
 70
     3
  9
$DIMUPT
 70
     1
  9
$DIMUNIT
 70
     7
  9
$DIMDEC
 70
     4
  9
$DIMTDEC
 70
     4
  9
$DIMALTU
 70
     2
  9
$DIMALTTD
 70
     2
  9
$DIMTXSTY
  7
STANDARD
  9
$DIMAUNIT
 70
     0
  9
$LUNITS
 70
     5
  9
$LUPREC
 70
     6
  9
$SKETCHINC
 40
0.1
  9
$FILLETRAD
 40
0.0
  9
$AUNITS
 70
     0
  9
$AUPREC
 70
     1
  9
$MENU
  1
CUSTOM
  9
$ELEVATION
 40
0.0
  9
$PELEVATION
 40
0.0
  9
$THICKNESS
 40
0.0
  9
$LIMCHECK
 70
     0
  9
$BLIPMODE
 70
     0
  9
$CHAMFERA
 40
0.0
  9
$CHAMFERB
 40
0.0
  9
$CHAMFERC
 40
0.0
  9
$CHAMFERD
 40
0.0
  9
$SKPOLY
 70
     0
  9
$TDCREATE
 40
2451263.538231365
  9
$TDUPDATE
 40
2452759.746026111
  9
$TDINDWG
 40
0.1062522454
  9
$TDUSRTIMER
 40
0.1062522454
  9
$USRTIMER
 70
     1
  9
$ANGBASE
 50
0.0
  9
$ANGDIR
 70
     0
  9
$PDMODE
 70
     0
  9
$PDSIZE
 40
0.0
  9
$PLINEWID
 40
0.0
  9
$COORDS
 70
     1
  9
$SPLFRAME
 70
     0
  9
$SPLINETYPE
 70
     6
  9
$SPLINESEGS
 70
     8
  9
$ATTDIA
 70
     0
  9
$ATTREQ
 70
     1
  9
$HANDLING
 70
     1
  9
$HANDSEED
  5
77
  9
$SURFTAB1
 70
     6
  9
$SURFTAB2
 70
     6
  9
$SURFTYPE
 70
     6
  9
$SURFU
 70
     6
  9
$SURFV
 70
     6
  9
$UCSNAME
  2

  9
$UCSORG
 10
0.0
 20
0.0
 30
0.0
  9
$UCSXDIR
 10
1.0
 20
0.0
 30
0.0
  9
$UCSYDIR
 10
0.0
 20
1.0
 30
0.0
  9
$PUCSNAME
  2

  9
$PUCSORG
 10
0.0
 20
0.0
 30
0.0
  9
$PUCSXDIR
 10
1.0
 20
0.0
 30
0.0
  9
$PUCSYDIR
 10
0.0
 20
1.0
 30
0.0
  9
$USERI1
 70
     0
  9
$USERI2
 70
     0
  9
$USERI3
 70
     0
  9
$USERI4
 70
     0
  9
$USERI5
 70
     0
  9
$USERR1
 40
0.0
  9
$USERR2
 40
0.0
  9
$USERR3
 40
0.0
  9
$USERR4
 40
0.0
  9
$USERR5
 40
0.0
  9
$WORLDVIEW
 70
     1
  9
$SHADEDGE
 70
     3
  9
$SHADEDIF
 70
    70
  9
$TILEMODE
 70
     1
  9
$MAXACTVP
 70
    16
  9
$PINSBASE
 10
0.0
 20
0.0
 30
0.0
  9
$PLIMCHECK
 70
     0
  9
$PEXTMIN
 10
0.0
 20
0.0
 30
0.0
  9
$PEXTMAX
 10
0.0
 20
0.0
 30
0.0
  9
$PLIMMIN
 10
0.0
 20
0.0
  9
$PLIMMAX
 10
12.0
 20
9.0
  9
$UNITMODE
 70
     0
  9
$VISRETAIN
 70
     0
  9
$PLINEGEN
 70
     0
  9
$PSLTSCALE
 70
     1
  9
$TREEDEPTH
 70
  3020
  9
$PICKSTYLE
 70
     1
  9
$CMLSTYLE
  2
STANDARD
  9
$CMLJUST
 70
     0
  9
$CMLSCALE
 40
1.0
  9
$PROXYGRAPHICS
 70
     1
  9
$MEASUREMENT
 70
     0
  0
ENDSEC
  0
SECTION
  2
CLASSES
  0
CLASS
  1
ACDBDICTIONARYWDFLT
  2
AcDbDictionaryWithDefault
  3
AutoCAD 2000
 90
        0
280
     1
281
     0
  0
CLASS
  1
ACDBPLACEHOLDER
  2
AcDbPlaceHolder
  3
AutoCAD 2000
 90
        0
280
     1
281
     0
  0
CLASS
  1
LAYOUT
  2
AcDbLayout
  3
AutoCAD 2000
 90
        0
280
     1
281
     0
  0
CLASS
  1
DICTIONARYVAR
  2
AcDbDictionaryVar
  3
"AutoCAD"
 90
        0
280
     1
281
     0
  0
CLASS
  1
LONG_TRANSACTION
  2
AcDbLongTransaction
  3
AutoCAD 2000
 90
        0
280
     1
281
     0
  0
CLASS
  1
LWPOLYLINE
  2
AcDbPolyline
  3
"AutoCAD"
 90
        0
280
     1
281
     1
  0
CLASS
  1
HATCH
  2
AcDbHatch
  3
"ACAD_SEDONA"
 90
        0
280
     1
281
     1
  0
CLASS
  1
XRECORD
  2
AcDbXrecord
  3
"<Built In>"
 90
        0
280
     0
281
     0
  0
CLASS
  1
LONG_TRANSACTION
  2
AcDbLongTransaction
  3
AutoCAD 2000
 90
        0
280
     1
281
     0
  0
CLASS
  1
LWPOLYLINE
  2
AcDbPolyline
  3
"AutoCAD"
 90
        0
280
     1
281
     1
  0
CLASS
  1
HATCH
  2
AcDbHatch
  3
"ACAD_SEDONA"
 90
        0
280
     1
281
     1
  0
CLASS
  1
XRECORD
  2
AcDbXrecord
  3
"<Built In>"
 90
        0
280
     0
281
     0
  0
CLASS
  1
LONG_TRANSACTION
  2
AcDbLongTransaction
  3
AutoCAD 2000
 90
        0
280
     1
281
     0
  0
CLASS
  1
LWPOLYLINE
  2
AcDbPolyline
  3
"AutoCAD"
 90
        0
280
     1
281
     1
  0
CLASS
  1
HATCH
  2
AcDbHatch
  3
"ACAD_SEDONA"
 90
        0
280
     1
281
     1
  0
CLASS
  1
XRECORD
  2
AcDbXrecord
  3
"<Built In>"
 90
        0
280
     0
281
     0
  0
CLASS
  1
LONG_TRANSACTION
  2
AcDbLongTransaction
  3
AutoCAD 2000
 90
        0
280
     1
281
     0
  0
CLASS
  1
LWPOLYLINE
  2
AcDbPolyline
  3
"AutoCAD"
 90
        0
280
     1
281
     1
  0
CLASS
  1
HATCH
  2
AcDbHatch
  3
"ACAD_SEDONA"
 90
        0
280
     1
281
     1
  0
CLASS
  1
XRECORD
  2
AcDbXrecord
  3
"<Built In>"
 90
        0
280
     0
281
     0
  0
CLASS
  1
LONG_TRANSACTION
  2
AcDbLongTransaction
  3
AutoCAD 2000
 90
        0
280
     0
281
     0
  0
CLASS
  1
LWPOLYLINE
  2
AcDbPolyline
  3
"AutoCAD"
 90
        0
280
     0
281
     1
  0
CLASS
  1
HATCH
  2
AcDbHatch
  3
"ACAD_SEDONA"
 90
        0
280
     0
281
     1
  0
CLASS
  1
XRECORD
  2
AcDbXrecord
  3
"<Built In>"
 90
        0
280
     0
281
     0
  0
CLASS
  1
LONG_TRANSACTION
  2
AcDbLongTransaction
  3
AutoCAD 2000
 90
        0
280
     0
281
     0
  0
CLASS
  1
LWPOLYLINE
  2
AcDbPolyline
  3
"AutoCAD"
 90
        0
280
     0
281
     1
  0
CLASS
  1
HATCH
  2
AcDbHatch
  3
"ACAD_SEDONA"
 90
        0
280
     0
281
     1
  0
CLASS
  1
XRECORD
  2
AcDbXrecord
  3
"<Built In>"
 90
        0
280
     0
281
     0
  0
ENDSEC
  0
SECTION
  2
TABLES
  0
TABLE
  2
VPORT
  5
57
100
AcDbSymbolTable
 70
     1
  0
VPORT
  5
73
100
AcDbSymbolTableRecord
100
AcDbViewportTableRecord
  2
*ACTIVE
 70
     0
 10
0.0
 20
0.0
 11
1.0
 21
1.0
 12
1.176596058666914
 22
9.092217399336702
 13
0.0
 23
0.0
 14
1.0
 24
1.0
 15
0.0
 25
0.0
 16
0.0
 26
0.0
 36
1.0
 17
0.9490487004618515
 27
-6.922240751207503
 37
2.286409897494303
 40
4.37074473001305
 41
1.457627118644067
 42
50.0
 43
-7.648485950621489
 44
-7.648485950621489
 50
0.0
 51
0.0
 71
     0
 72
   100
 73
     1
 74
     1
 75
     0
 76
     0
 77
     0
 78
     0
  0
ENDTAB
  0
TABLE
  2
LTYPE
  5
52
100
AcDbSymbolTable
 70
     1
  0
LTYPE
  5
53
100
AcDbSymbolTableRecord
100
AcDbLinetypeTableRecord
  2
BYBLOCK
 70
     0
  3

 72
    65
 73
     0
 40
0.0
  0
LTYPE
  5
54
100
AcDbSymbolTableRecord
100
AcDbLinetypeTableRecord
  2
BYLAYER
 70
     0
  3

 72
    65
 73
     0
 40
0.0
  0
LTYPE
  5
5
100
AcDbSymbolTableRecord
100
AcDbLinetypeTableRecord
  2
CONTINUOUS
 70
     0
  3
Solid line
 72
    65
 73
     0
 40
0.0
  0
ENDTAB
  0
TABLE
  2
LAYER
  5
50
100
AcDbSymbolTable
 70
     4
  0
LAYER
  5
44
102
{ACAD_XDICTIONARY
360
45
102
}
100
AcDbSymbolTableRecord
100
AcDbLayerTableRecord
  2
0
 70
     0
 62
     7
  6
CONTINUOUS
  0
LAYER
  5
4
100
AcDbSymbolTableRecord
100
AcDbLayerTableRecord
  2
USP
 70
     0
 62
     7
  6
CONTINUOUS
  0
LAYER
  5
8
100
AcDbSymbolTableRecord
100
AcDbLayerTableRecord
  2
USP-GEO
 70
     0
 62
     7
  6
CONTINUOUS
  0
LAYER
  5
41
100
AcDbSymbolTableRecord
100
AcDbLayerTableRecord
  2
USP-TXT
 70
     0
 62
     7
  6
CONTINUOUS
  0
ENDTAB
  0
TABLE
  2
STYLE
  5
51
100
AcDbSymbolTable
 70
     1
  0
STYLE
  5
42
100
AcDbSymbolTableRecord
100
AcDbTextStyleTableRecord
  2
STANDARD
 70
     0
 40
0.0
 41
1.0
 50
0.0
 71
     0
 42
0.1875
  3
txt
  4

  0
ENDTAB
  0
TABLE
  2
VIEW
  5
55
100
AcDbSymbolTable
 70
     0
  0
ENDTAB
  0
TABLE
  2
UCS
  5
56
100
AcDbSymbolTable
 70
     0
  0
ENDTAB
  0
TABLE
  2
APPID
  5
59
100
AcDbSymbolTable
 70
     1
  0
APPID
  5
5A
100
AcDbSymbolTableRecord
100
AcDbRegAppTableRecord
  2
ACAD
 70
     0
  0
ENDTAB
  0
TABLE
  2
DIMSTYLE
  5
5B
100
AcDbSymbolTable
 70
     1
  0
DIMSTYLE
105
63
102
{ACAD_XDICTIONARY
360
64
102
}
100
AcDbSymbolTableRecord
100
AcDbDimStyleTableRecord
  2
STANDARD
 70
     0
  3

  4

  5

  6

  7

 40
1.0
 41
0.09375
 42
0.0625
 43
0.38
 44
0.09375
 45
0.0
 46
0.0
 47
0.0
 48
0.0
140
0.09375
141
0.0
142
0.0
143
25.4
144
1.0
145
0.0
146
6.0
147
0.09
 71
     0
 72
     0
 73
     1
 74
     1
 75
     0
 76
     0
 77
     0
 78
     0
170
     0
171
     2
172
     0
173
     0
174
     0
175
     0
176
     0
177
     0
178
     0
270
     7
271
     4
272
     4
273
     2
274
     2
340
42
275
     0
280
     0
281
     0
282
     0
283
     1
284
     0
285
     0
286
     0
287
     3
288
     0
  0
ENDTAB
  0
TABLE
  2
BLOCK_RECORD
  5
1
100
AcDbSymbolTable
 70
     1
  0
BLOCK_RECORD
  5
2
102
{ACAD_XDICTIONARY
360
47
102
}
100
AcDbSymbolTableRecord
100
AcDbBlockTableRecord
  2
*MODEL_SPACE
  0
BLOCK_RECORD
  5
4B
102
{ACAD_XDICTIONARY
360
4C
102
}
100
AcDbSymbolTableRecord
100
AcDbBlockTableRecord
  2
*PAPER_SPACE
  0
BLOCK_RECORD
  5
6
100
AcDbSymbolTableRecord
100
AcDbBlockTableRecord
  2
MP6F_F
  0
ENDTAB
  0
ENDSEC
  0
SECTION
  2
BLOCKS
  0
BLOCK
  5
49
100
AcDbEntity
  8
0
100
AcDbBlockBegin
  2
*MODEL_SPACE
 70
     0
 10
0.0
 20
0.0
 30
0.0
  3
*MODEL_SPACE
  1

  0
ENDBLK
  5
4A
100
AcDbEntity
  8
0
100
AcDbBlockEnd
  0
BLOCK
  5
4E
100
AcDbEntity
 67
     1
  8
0
100
AcDbBlockBegin
  2
*PAPER_SPACE
 70
     0
 10
0.0
 20
0.0
 30
0.0
  3
*PAPER_SPACE
  1

  0
ENDBLK
  5
4F
100
AcDbEntity
 67
     1
  8
0
100
AcDbBlockEnd
  0
BLOCK
  5
43
100
AcDbEntity
  8
0
100
AcDbBlockBegin
  2
MP6F_F
 70
     0
 10
0.0
 20
0.0
 30
0.0
  3
MP6F_F
  1

  0
CIRCLE
  5
7
100
AcDbEntity
  8
USP-GEO
100
AcDbCircle
 10
4.0
 20
2.75
 30
0.0
 40
0.09375
  0
CIRCLE
  5
9
100
AcDbEntity
  8
USP-GEO
100
AcDbCircle
 10
4.0
 20
0.25
 30
0.0
 40
0.09375
  0
LINE
  5
A
100
AcDbEntity
  8
USP-GEO
100
AcDbLine
 10
4.25
 20
0.0
 30
0.0
 11
4.25
 21
3.25
 31
0.0
  0
ARC
  5
B
100
AcDbEntity
  8
USP-GEO
100
AcDbCircle
 10
3.53125
 20
3.65625
 30
0.0
 40
0.09375
100
AcDbArc
 50
0.0
 51
90.00000000000005
  0
ARC
  5
C
100
AcDbEntity
  8
USP-GEO
100
AcDbCircle
 10
2.96875
 20
3.65625
 30
0.0
 40
0.09375
100
AcDbArc
 50
90.0
 51
180.0
  0
LINE
  5
D
100
AcDbEntity
  8
USP-GEO
100
AcDbLine
 10
3.53125
 20
3.75
 30
0.0
 11
2.96875
 21
3.75
 31
0.0
  0
ARC
  5
E
100
AcDbEntity
  8
USP-GEO
100
AcDbCircle
 10
2.03125
 20
3.65625
 30
0.0
 40
0.09375
100
AcDbArc
 50
0.0
 51
90.00000000000005
  0
LINE
  5
F
100
AcDbEntity
  8
USP-GEO
100
AcDbLine
 10
2.03125
 20
3.75
 30
0.0
 11
1.46875
 21
3.75
 31
0.0
  0
ARC
  5
10
100
AcDbEntity
  8
USP-GEO
100
AcDbCircle
 10
3.71875
 20
3.34375
 30
0.0
 40
0.09375
100
AcDbArc
 50
180.0
 51
270.0
  0
ARC
  5
11
100
AcDbEntity
  8
USP-GEO
100
AcDbCircle
 10
2.78125
 20
3.34375
 30
0.0
 40
0.09375
100
AcDbArc
 50
270.0
 51
0.0
  0
ARC
  5
12
100
AcDbEntity
  8
USP-GEO
100
AcDbCircle
 10
2.21875
 20
3.34375
 30
0.0
 40
0.09375
100
AcDbArc
 50
180.0
 51
270.0
  0
LINE
  5
13
100
AcDbEntity
  8
USP-GEO
100
AcDbLine
 10
2.78125
 20
3.25
 30
0.0
 11
2.21875
 21
3.25
 31
0.0
  0
CIRCLE
  5
14
100
AcDbEntity
  8
USP-GEO
100
AcDbCircle
 10
2.5
 20
2.75
 30
0.0
 40
0.09375
  0
LINE
  5
15
100
AcDbEntity
  8
USP-GEO
100
AcDbLine
 10
3.625
 20
3.34375
 30
0.0
 11
3.625
 21
3.65625
 31
0.0
  0
LINE
  5
16
100
AcDbEntity
  8
USP-GEO
100
AcDbLine
 10
2.125
 20
3.34375
 30
0.0
 11
2.125
 21
3.65625
 31
0.0
  0
LINE
  5
17
100
AcDbEntity
  8
USP-GEO
100
AcDbLine
 10
2.875
 20
3.34375
 30
0.0
 11
2.875
 21
3.65625
 31
0.0
  0
CIRCLE
  5
18
100
AcDbEntity
  8
USP-GEO
100
AcDbCircle
 10
3.25
 20
3.5
 30
0.0
 40
0.09375
  0
CIRCLE
  5
19
100
AcDbEntity
  8
USP-GEO
100
AcDbCircle
 10
1.75
 20
3.5
 30
0.0
 40
0.09375
  0
ARC
  5
1A
100
AcDbEntity
  8
USP-GEO
100
AcDbCircle
 10
0.5312500000000009
 20
3.65625
 30
0.0
 40
0.09375
100
AcDbArc
 50
359.9999999999998
 51
90.0
  0
LINE
  5
1B
100
AcDbEntity
  8
USP-GEO
100
AcDbLine
 10
0.5312500000000009
 20
3.75
 30
0.0
 11
0.0000000000000009
 21
3.75
 31
0.0
  0
ARC
  5
1C
100
AcDbEntity
  8
USP-GEO
100
AcDbCircle
 10
1.28125
 20
3.34375
 30
0.0
 40
0.09375
100
AcDbArc
 50
270.0
 51
359.9999999999998
  0
CIRCLE
  5
1D
100
AcDbEntity
  8
USP-GEO
100
AcDbCircle
 10
1.0
 20
2.75
 30
0.0
 40
0.09375
  0
ARC
  5
1E
100
AcDbEntity
  8
USP-GEO
100
AcDbCircle
 10
0.71875
 20
3.34375
 30
0.0
 40
0.09375
100
AcDbArc
 50
179.9999999999998
 51
270.0
  0
LINE
  5
1F
100
AcDbEntity
  8
USP-GEO
100
AcDbLine
 10
1.28125
 20
3.25
 30
0.0
 11
0.71875
 21
3.25
 31
0.0
  0
CIRCLE
  5
20
100
AcDbEntity
  8
USP-GEO
100
AcDbCircle
 10
0.2500000000000009
 20
3.5
 30
0.0
 40
0.09375
  0
LINE
  5
21
100
AcDbEntity
  8
USP-GEO
100
AcDbLine
 10
0.625
 20
3.34375
 30
0.0
 11
0.6250000000000009
 21
3.65625
 31
0.0
  0
LINE
  5
22
100
AcDbEntity
  8
USP-GEO
100
AcDbLine
 10
1.375
 20
3.34375
 30
0.0
 11
1.375
 21
3.65625
 31
0.0
  0
ARC
  5
23
100
AcDbEntity
  8
USP-GEO
100
AcDbCircle
 10
1.46875
 20
3.65625
 30
0.0
 40
0.09375
100
AcDbArc
 50
90.0
 51
179.9999999999998
  0
ARC
  5
24
100
AcDbEntity
  8
USP-GEO
100
AcDbCircle
 10
3.53125
 20
0.40625
 30
0.0
 40
0.09375
100
AcDbArc
 50
0.0
 51
90.0
  0
ARC
  5
25
100
AcDbEntity
  8
USP-GEO
100
AcDbCircle
 10
3.71875
 20
0.0937499999999991
 30
0.0
 40
0.09375
100
AcDbArc
 50
180.0
 51
270.0
  0
LINE
  5
26
100
AcDbEntity
  8
USP-GEO
100
AcDbLine
 10
3.625
 20
0.0937499999999991
 30
0.0
 11
3.625
 21
0.40625
 31
0.0
  0
ARC
  5
27
100
AcDbEntity
  8
USP-GEO
100
AcDbCircle
 10
2.96875
 20
0.40625
 30
0.0
 40
0.09375
100
AcDbArc
 50
90.0
 51
180.0
  0
ARC
  5
28
100
AcDbEntity
  8
USP-GEO
100
AcDbCircle
 10
2.78125
 20
0.09375
 30
0.0
 40
0.09375
100
AcDbArc
 50
270.0
 51
0.0
  0
LINE
  5
29
100
AcDbEntity
  8
USP-GEO
100
AcDbLine
 10
2.875
 20
0.09375
 30
0.0
 11
2.875
 21
0.40625
 31
0.0
  0
LINE
  5
2A
100
AcDbEntity
  8
USP-GEO
100
AcDbLine
 10
3.53125
 20
0.5
 30
0.0
 11
2.96875
 21
0.5
 31
0.0
  0
ARC
  5
2B
100
AcDbEntity
  8
USP-GEO
100
AcDbCircle
 10
2.03125
 20
0.40625
 30
0.0
 40
0.09375
100
AcDbArc
 50
0.0
 51
90.0
  0
ARC
  5
2C
100
AcDbEntity
  8
USP-GEO
100
AcDbCircle
 10
2.21875
 20
0.0937499999999991
 30
0.0
 40
0.09375
100
AcDbArc
 50
180.0
 51
270.0
  0
LINE
  5
2D
100
AcDbEntity
  8
USP-GEO
100
AcDbLine
 10
2.125
 20
0.0937499999999991
 30
0.0
 11
2.125
 21
0.40625
 31
0.0
  0
LINE
  5
2E
100
AcDbEntity
  8
USP-GEO
100
AcDbLine
 10
2.03125
 20
0.5
 30
0.0
 11
1.46875
 21
0.5
 31
0.0
  0
LINE
  5
2F
100
AcDbEntity
  8
USP-GEO
100
AcDbLine
 10
2.78125
 20
0.0
 30
0.0
 11
2.21875
 21
-0.0000000000000009
 31
0.0
  0
CIRCLE
  5
30
100
AcDbEntity
  8
USP-GEO
100
AcDbCircle
 10
2.5
 20
0.25
 30
0.0
 40
0.09375
  0
ARC
  5
31
100
AcDbEntity
  8
USP-GEO
100
AcDbCircle
 10
1.281250000000001
 20
0.09375
 30
0.0
 40
0.09375
100
AcDbArc
 50
270.0
 51
0.0000000000001527
  0
CIRCLE
  5
32
100
AcDbEntity
  8
USP-GEO
100
AcDbCircle
 10
1.0
 20
0.25
 30
0.0
 40
0.09375
  0
LINE
  5
33
100
AcDbEntity
  8
USP-GEO
100
AcDbLine
 10
1.375000000000001
 20
0.09375
 30
0.0
 11
1.375
 21
0.40625
 31
0.0
  0
ARC
  5
34
100
AcDbEntity
  8
USP-GEO
100
AcDbCircle
 10
0.5312500000000009
 20
0.40625
 30
0.0
 40
0.09375
100
AcDbArc
 50
0.0000000000001527
 51
90.0
  0
ARC
  5
35
100
AcDbEntity
  8
USP-GEO
100
AcDbCircle
 10
0.7187500000000009
 20
0.09375
 30
0.0
 40
0.09375
100
AcDbArc
 50
180.0000000000001
 51
270.0
  0
LINE
  5
36
100
AcDbEntity
  8
USP-GEO
100
AcDbLine
 10
0.6250000000000009
 20
0.09375
 30
0.0
 11
0.6250000000000009
 21
0.40625
 31
0.0
  0
LINE
  5
37
100
AcDbEntity
  8
USP-GEO
100
AcDbLine
 10
1.281250000000001
 20
0.0
 30
0.0
 11
0.7187500000000009
 21
0.0
 31
0.0
  0
LINE
  5
38
100
AcDbEntity
  8
USP-GEO
100
AcDbLine
 10
0.5312500000000009
 20
0.5
 30
0.0
 11
0.0000000000000009
 21
0.5
 31
0.0
  0
ARC
  5
39
100
AcDbEntity
  8
USP-GEO
100
AcDbCircle
 10
1.46875
 20
0.40625
 30
0.0
 40
0.09375
100
AcDbArc
 50
89.99999999999992
 51
180.0000000000001
  0
LINE
  5
3A
100
AcDbEntity
  8
USP-GEO
100
AcDbLine
 10
0.0
 20
0.5
 30
0.0
 11
0.0000000000000009
 21
3.75
 31
0.0
  0
CIRCLE
  5
3B
100
AcDbEntity
  8
USP-GEO
100
AcDbCircle
 10
3.25
 20
1.0
 30
0.0
 40
0.09375
  0
CIRCLE
  5
3C
100
AcDbEntity
  8
USP-GEO
100
AcDbCircle
 10
0.2500000000000009
 20
0.9999999999999946
 30
0.0
 40
0.09375
  0
CIRCLE
  5
3D
100
AcDbEntity
  8
USP-GEO
100
AcDbCircle
 10
1.75
 20
0.9999999999999964
 30
0.0
 40
0.09375
  0
LINE
  5
3E
100
AcDbEntity
  8
USP-GEO
100
AcDbLine
 10
4.25
 20
0.0
 30
0.0
 11
3.71875
 21
-0.0000000000000009
 31
0.0
  0
LINE
  5
3F
100
AcDbEntity
  8
USP-GEO
100
AcDbLine
 10
4.25
 20
3.25
 30
0.0
 11
3.71875
 21
3.25
 31
0.0
  0
TEXT
  5
40
100
AcDbEntity
  8
USP-TXT
100
AcDbText
 10
0.5312500000000009
 20
-0.4851661214127781
 30
0.0
 40
0.1875
  1
MP6F - FRONT VIEW
 72
     1
 11
2.125
 21
-0.4851661214127781
 31
0.0
100
AcDbText
  0
ENDBLK
  5
46
100
AcDbEntity
  8
0
100
AcDbBlockEnd
  0
ENDSEC
  0
SECTION
  2
ENTITIES
  0
INSERT
  5
3
100
AcDbEntity
  8
USP
100
AcDbBlockReference
  2
MP6F_F
 10
0.0003661829982491
 20
0.4854407586614649
 30
0.0
  0
ENDSEC
  0
SECTION
  2
OBJECTS
  0
DICTIONARY
  5
5F
102
{ACAD_XDICTIONARY
360
60
102
}
100
AcDbDictionary
  3
ACAD_GROUP
350
5D
  3
ACAD_MLINESTYLE
350
5E
  0
DICTIONARY
  5
45
100
AcDbDictionary
280
     1
  0
DICTIONARY
  5
64
100
AcDbDictionary
280
     1
  3
ACAD_XREC_ROUNDTRIP
360
65
  0
DICTIONARY
  5
47
100
AcDbDictionary
280
     1
  3
ACAD_LAYOUTSELFREF
360
48
  0
DICTIONARY
  5
4C
100
AcDbDictionary
280
     1
  3
ACAD_LAYOUTSELFREF
360
4D
  0
DICTIONARY
  5
60
100
AcDbDictionary
280
     1
  3
ACAD_XREC_ROUNDTRIP
360
61
  0
DICTIONARY
  5
5D
102
{ACAD_REACTORS
330
5F
102
}
100
AcDbDictionary
  0
DICTIONARY
  5
5E
102
{ACAD_REACTORS
330
5F
102
}
100
AcDbDictionary
  3
STANDARD
350
62
  0
XRECORD
  5
65
102
{ACAD_REACTORS
330
64
102
}
100
AcDbXrecord
102
ACADR14ROUNDTRIP
1000
DSTYLE
1002
{
1070
   276
 70
     2
1070
   277
 70
     5
1002
}
  0
XRECORD
  5
48
102
{ACAD_REACTORS
330
47
102
}
100
AcDbXrecord
340
2
  0
XRECORD
  5
4D
102
{ACAD_REACTORS
330
4C
102
}
100
AcDbXrecord
340
4C
  0
XRECORD
  5
61
102
{ACAD_REACTORS
330
60
102
}
100
AcDbXrecord
102
EXTNAMES
  1
ACDBVARIABLEDICTIONARY
  2
AcDbVariableDictionary
  0
MLINESTYLE
  5
62
102
{ACAD_REACTORS
330
5E
102
}
100
AcDbMlineStyle
  2
STANDARD
 70
     0
  3

 62
     0
 51
90.0
 52
90.0
 71
     2
 49
0.5
 62
   256
  6
BYLAYER
 49
-0.5
 62
   256
  6
BYLAYER
  0
ENDSEC
  0
EOF
