  0
SECTION
  2
HEADER
  9
$ACADVER
  1
AC1014
  9
$ACADMAINTVER
 70
     9
  9
$DWGCODEPAGE
  3
ANSI_1252
  9
$INSBASE
 10
0.0
 20
0.0
 30
0.0
  9
$EXTMIN
 10
-0.1147186806558755
 20
0.0012187491967097
 30
0.0
  9
$EXTMAX
 10
12.13034598992267
 20
13.56498460505511
 30
0.0
  9
$LIMMIN
 10
0.0
 20
0.0
  9
$LIMMAX
 10
12.0
 20
9.0
  9
$ORTHOMODE
 70
     1
  9
$REGENMODE
 70
     1
  9
$FILLMODE
 70
     1
  9
$QTEXTMODE
 70
     0
  9
$MIRRTEXT
 70
     0
  9
$DRAGMODE
 70
     2
  9
$LTSCALE
 40
1.5
  9
$OSMODE
 70
     0
  9
$ATTMODE
 70
     1
  9
$TEXTSIZE
 40
0.75
  9
$TRACEWID
 40
0.05
  9
$TEXTSTYLE
  7
STANDARD
  9
$CLAYER
  8
USP
  9
$CELTYPE
  6
BYLAYER
  9
$CECOLOR
 62
   256
  9
$CELTSCALE
 40
1.0
  9
$DELOBJ
 70
     1
  9
$DISPSILH
 70
     1
  9
$DIMSCALE
 40
7.0
  9
$DIMASZ
 40
0.125
  9
$DIMEXO
 40
0.0625
  9
$DIMDLI
 40
0.37890625
  9
$DIMRND
 40
0.0
  9
$DIMDLE
 40
0.0
  9
$DIMEXE
 40
0.09375
  9
$DIMTP
 40
0.0
  9
$DIMTM
 40
0.0
  9
$DIMTXT
 40
0.109375
  9
$DIMCEN
 40
0.0
  9
$DIMTSZ
 40
0.0
  9
$DIMTOL
 70
     0
  9
$DIMLIM
 70
     0
  9
$DIMTIH
 70
     1
  9
$DIMTOH
 70
     1
  9
$DIMSE1
 70
     0
  9
$DIMSE2
 70
     0
  9
$DIMTAD
 70
     0
  9
$DIMZIN
 70
     8
  9
$DIMBLK
  1

  9
$DIMASO
 70
     1
  9
$DIMSHO
 70
     1
  9
$DIMPOST
  1

  9
$DIMAPOST
  1

  9
$DIMALT
 70
     0
  9
$DIMALTD
 70
     2
  9
$DIMALTF
 40
25.4
  9
$DIMLFAC
 40
1.0
  9
$DIMTOFL
 70
     0
  9
$DIMTVP
 40
0.0
  9
$DIMTIX
 70
     0
  9
$DIMSOXD
 70
     0
  9
$DIMSAH
 70
     0
  9
$DIMBLK1
  1

  9
$DIMBLK2
  1

  9
$DIMSTYLE
  2
STANDARD
  9
$DIMCLRD
 70
     0
  9
$DIMCLRE
 70
     0
  9
$DIMCLRT
 70
   256
  9
$DIMTFAC
 40
1.0
  9
$DIMGAP
 40
0.08984375
  9
$DIMJUST
 70
     0
  9
$DIMSD1
 70
     0
  9
$DIMSD2
 70
     0
  9
$DIMTOLJ
 70
     1
  9
$DIMTZIN
 70
     0
  9
$DIMALTZ
 70
     0
  9
$DIMALTTZ
 70
     0
  9
$DIMFIT
 70
     3
  9
$DIMUPT
 70
     1
  9
$DIMUNIT
 70
     7
  9
$DIMDEC
 70
     4
  9
$DIMTDEC
 70
     4
  9
$DIMALTU
 70
     2
  9
$DIMALTTD
 70
     2
  9
$DIMTXSTY
  7
STANDARD
  9
$DIMAUNIT
 70
     0
  9
$LUNITS
 70
     5
  9
$LUPREC
 70
     6
  9
$SKETCHINC
 40
0.1
  9
$FILLETRAD
 40
0.0
  9
$AUNITS
 70
     0
  9
$AUPREC
 70
     1
  9
$MENU
  1
CUSTOM
  9
$ELEVATION
 40
0.0
  9
$PELEVATION
 40
0.0
  9
$THICKNESS
 40
0.0
  9
$LIMCHECK
 70
     0
  9
$BLIPMODE
 70
     0
  9
$CHAMFERA
 40
0.0
  9
$CHAMFERB
 40
0.0
  9
$CHAMFERC
 40
0.0
  9
$CHAMFERD
 40
0.0
  9
$SKPOLY
 70
     0
  9
$TDCREATE
 40
2451263.663231366
  9
$TDUPDATE
 40
2452759.745975833
  9
$TDINDWG
 40
0.4764497106
  9
$TDUSRTIMER
 40
0.4764497106
  9
$USRTIMER
 70
     1
  9
$ANGBASE
 50
0.0
  9
$ANGDIR
 70
     0
  9
$PDMODE
 70
     0
  9
$PDSIZE
 40
0.0
  9
$PLINEWID
 40
0.0
  9
$COORDS
 70
     2
  9
$SPLFRAME
 70
     0
  9
$SPLINETYPE
 70
     6
  9
$SPLINESEGS
 70
     8
  9
$ATTDIA
 70
     0
  9
$ATTREQ
 70
     0
  9
$HANDLING
 70
     1
  9
$HANDSEED
  5
154
  9
$SURFTAB1
 70
     6
  9
$SURFTAB2
 70
     6
  9
$SURFTYPE
 70
     6
  9
$SURFU
 70
     6
  9
$SURFV
 70
     6
  9
$UCSNAME
  2

  9
$UCSORG
 10
0.0
 20
0.0
 30
0.0
  9
$UCSXDIR
 10
1.0
 20
0.0
 30
0.0
  9
$UCSYDIR
 10
0.0
 20
1.0
 30
0.0
  9
$PUCSNAME
  2

  9
$PUCSORG
 10
0.0
 20
0.0
 30
0.0
  9
$PUCSXDIR
 10
1.0
 20
0.0
 30
0.0
  9
$PUCSYDIR
 10
0.0
 20
1.0
 30
0.0
  9
$USERI1
 70
     0
  9
$USERI2
 70
     0
  9
$USERI3
 70
     0
  9
$USERI4
 70
     0
  9
$USERI5
 70
     0
  9
$USERR1
 40
0.0
  9
$USERR2
 40
0.0
  9
$USERR3
 40
0.0
  9
$USERR4
 40
0.0
  9
$USERR5
 40
0.0
  9
$WORLDVIEW
 70
     1
  9
$SHADEDGE
 70
     3
  9
$SHADEDIF
 70
    70
  9
$TILEMODE
 70
     1
  9
$MAXACTVP
 70
    16
  9
$PINSBASE
 10
0.0
 20
0.0
 30
0.0
  9
$PLIMCHECK
 70
     0
  9
$PEXTMIN
 10
1.000000000000000E+20
 20
1.000000000000000E+20
 30
1.000000000000000E+20
  9
$PEXTMAX
 10
-1.000000000000000E+20
 20
-1.000000000000000E+20
 30
-1.000000000000000E+20
  9
$PLIMMIN
 10
0.0
 20
0.0
  9
$PLIMMAX
 10
12.0
 20
9.0
  9
$UNITMODE
 70
     0
  9
$VISRETAIN
 70
     0
  9
$PLINEGEN
 70
     0
  9
$PSLTSCALE
 70
     0
  9
$TREEDEPTH
 70
  3020
  9
$PICKSTYLE
 70
     1
  9
$CMLSTYLE
  2
STANDARD
  9
$CMLJUST
 70
     0
  9
$CMLSCALE
 40
1.0
  9
$PROXYGRAPHICS
 70
     1
  9
$MEASUREMENT
 70
     0
  0
ENDSEC
  0
SECTION
  2
CLASSES
  0
CLASS
  1
ACDBDICTIONARYWDFLT
  2
AcDbDictionaryWithDefault
  3
AutoCAD 2000
 90
        0
280
     1
281
     0
  0
CLASS
  1
ACDBPLACEHOLDER
  2
AcDbPlaceHolder
  3
AutoCAD 2000
 90
        0
280
     1
281
     0
  0
CLASS
  1
LAYOUT
  2
AcDbLayout
  3
AutoCAD 2000
 90
        0
280
     1
281
     0
  0
CLASS
  1
DICTIONARYVAR
  2
AcDbDictionaryVar
  3
"AutoCAD"
 90
        0
280
     1
281
     0
  0
CLASS
  1
LONG_TRANSACTION
  2
AcDbLongTransaction
  3
AutoCAD 2000
 90
        0
280
     1
281
     0
  0
CLASS
  1
LWPOLYLINE
  2
AcDbPolyline
  3
"AutoCAD"
 90
        0
280
     1
281
     1
  0
CLASS
  1
HATCH
  2
AcDbHatch
  3
"ACAD_SEDONA"
 90
        0
280
     1
281
     1
  0
CLASS
  1
XRECORD
  2
AcDbXrecord
  3
"<Built In>"
 90
        0
280
     0
281
     0
  0
ENDSEC
  0
SECTION
  2
TABLES
  0
TABLE
  2
VPORT
  5
13E
100
AcDbSymbolTable
 70
     1
  0
VPORT
  5
150
100
AcDbSymbolTableRecord
100
AcDbViewportTableRecord
  2
*ACTIVE
 70
     0
 10
0.0
 20
0.0
 11
1.0
 21
1.0
 12
-12.91565548203829
 22
17.33423618215015
 13
0.0
 23
0.0
 14
1.0
 24
1.0
 15
0.0
 25
0.0
 16
0.0
 26
0.0
 36
1.0
 17
23.09603071721725
 27
-10.27010416511325
 37
-10.44050274849355
 40
14.12582653568036
 41
1.457627118644067
 42
50.0
 43
10.55307667737539
 44
10.55307667737539
 50
0.0
 51
0.0
 71
     0
 72
   100
 73
     1
 74
     1
 75
     0
 76
     0
 77
     0
 78
     0
  0
ENDTAB
  0
TABLE
  2
LTYPE
  5
13A
100
AcDbSymbolTable
 70
     1
  0
LTYPE
  5
13B
100
AcDbSymbolTableRecord
100
AcDbLinetypeTableRecord
  2
BYBLOCK
 70
     0
  3

 72
    65
 73
     0
 40
0.0
  0
LTYPE
  5
6
100
AcDbSymbolTableRecord
100
AcDbLinetypeTableRecord
  2
BYLAYER
 70
     0
  3

 72
    65
 73
     0
 40
0.0
  0
LTYPE
  5
5
100
AcDbSymbolTableRecord
100
AcDbLinetypeTableRecord
  2
CONTINUOUS
 70
     0
  3
Solid line
 72
    65
 73
     0
 40
0.0
  0
ENDTAB
  0
TABLE
  2
LAYER
  5
138
100
AcDbSymbolTable
 70
     5
  0
LAYER
  5
86
100
AcDbSymbolTableRecord
100
AcDbLayerTableRecord
  2
0
 70
     0
 62
     7
  6
CONTINUOUS
  0
LAYER
  5
C
100
AcDbSymbolTableRecord
100
AcDbLayerTableRecord
  2
USP-GEO
 70
     0
 62
     7
  6
CONTINUOUS
  0
LAYER
  5
9
100
AcDbSymbolTableRecord
100
AcDbLayerTableRecord
  2
USP-TXT
 70
     0
 62
     7
  6
CONTINUOUS
  0
LAYER
  5
F
102
{ACAD_XDICTIONARY
360
10
102
}
100
AcDbSymbolTableRecord
100
AcDbLayerTableRecord
  2
USP-HID
 70
     0
 62
     7
  6
CONTINUOUS
  0
LAYER
  5
4
100
AcDbSymbolTableRecord
100
AcDbLayerTableRecord
  2
USP
 70
     0
 62
     7
  6
CONTINUOUS
  0
ENDTAB
  0
TABLE
  2
STYLE
  5
139
100
AcDbSymbolTable
 70
     1
  0
STYLE
  5
A
100
AcDbSymbolTableRecord
100
AcDbTextStyleTableRecord
  2
STANDARD
 70
     0
 40
0.0
 41
1.0
 50
0.0
 71
     0
 42
0.75
  3
txt
  4

  0
ENDTAB
  0
TABLE
  2
VIEW
  5
13C
100
AcDbSymbolTable
 70
     0
  0
ENDTAB
  0
TABLE
  2
UCS
  5
13D
100
AcDbSymbolTable
 70
     0
  0
ENDTAB
  0
TABLE
  2
APPID
  5
140
100
AcDbSymbolTable
 70
     1
  0
APPID
  5
11
100
AcDbSymbolTableRecord
100
AcDbRegAppTableRecord
  2
ACAD
 70
     0
  0
ENDTAB
  0
TABLE
  2
DIMSTYLE
  5
141
100
AcDbSymbolTable
 70
     1
  0
DIMSTYLE
105
148
100
AcDbSymbolTableRecord
100
AcDbDimStyleTableRecord
  2
STANDARD
 70
     0
  3

  4

  5

  6

  7

 40
1.0
 41
0.18
 42
0.0625
 43
0.38
 44
0.18
 45
0.0
 46
0.0
 47
0.0
 48
0.0
140
0.18
141
0.09
142
0.0
143
25.4
144
1.0
145
0.0
146
1.0
147
0.09
 71
     0
 72
     0
 73
     1
 74
     1
 75
     0
 76
     0
 77
     0
 78
     0
170
     0
171
     2
172
     0
173
     0
174
     0
175
     0
176
     0
177
     0
178
     0
270
     2
271
     4
272
     4
273
     2
274
     2
340
A
275
     0
280
     0
281
     0
282
     0
283
     1
284
     0
285
     0
286
     0
287
     3
288
     0
  0
ENDTAB
  0
TABLE
  2
BLOCK_RECORD
  5
1
100
AcDbSymbolTable
 70
     3
  0
BLOCK_RECORD
  5
2
102
{ACAD_XDICTIONARY
360
131
102
}
100
AcDbSymbolTableRecord
100
AcDbBlockTableRecord
  2
*MODEL_SPACE
  0
BLOCK_RECORD
  5
134
102
{ACAD_XDICTIONARY
360
135
102
}
100
AcDbSymbolTableRecord
100
AcDbBlockTableRecord
  2
*PAPER_SPACE
  0
BLOCK_RECORD
  5
7
100
AcDbSymbolTableRecord
100
AcDbBlockTableRecord
  2
MP3_S
  0
BLOCK_RECORD
  5
89
100
AcDbSymbolTableRecord
100
AcDbBlockTableRecord
  2
MP3_F
  0
BLOCK_RECORD
  5
10F
100
AcDbSymbolTableRecord
100
AcDbBlockTableRecord
  2
MP3_T
  0
ENDTAB
  0
ENDSEC
  0
SECTION
  2
BLOCKS
  0
BLOCK
  5
132
100
AcDbEntity
  8
0
100
AcDbBlockBegin
  2
*MODEL_SPACE
 70
     0
 10
0.0
 20
0.0
 30
0.0
  3
*MODEL_SPACE
  1

  0
ENDBLK
  5
133
100
AcDbEntity
  8
0
100
AcDbBlockEnd
  0
BLOCK
  5
136
100
AcDbEntity
 67
     1
  8
0
100
AcDbBlockBegin
  2
*PAPER_SPACE
 70
     0
 10
0.0
 20
0.0
 30
0.0
  3
*PAPER_SPACE
  1

  0
ENDBLK
  5
137
100
AcDbEntity
 67
     1
  8
0
100
AcDbBlockEnd
  0
BLOCK
  5
85
100
AcDbEntity
  8
0
100
AcDbBlockBegin
  2
MP3_S
 70
     0
 10
0.0
 20
0.0
 30
0.0
  3
MP3_S
  1

  0
TEXT
  5
8
100
AcDbEntity
  8
USP-TXT
100
AcDbText
 10
-1.043815811554536
 20
-1.103885365451752
 30
0.0
 40
0.296875
  1
MP3 - SIDE VIEW
 72
     1
 11
1.133267521778797
 21
-1.103885365451752
 31
0.0
100
AcDbText
  0
LINE
  5
B
100
AcDbEntity
  8
USP-GEO
100
AcDbLine
 10
0.0
 20
0.0
 30
0.0
 11
2.266535043557594
 21
0.0
 31
0.0
  0
LINE
  5
D
100
AcDbEntity
  8
USP-GEO
100
AcDbLine
 10
2.266535043557594
 20
3.374999999999998
 30
0.0
 11
-0.0004924038765086
 21
3.375
 31
0.0
  0
LINE
  5
E
100
AcDbEntity
  8
USP-HID
100
AcDbLine
 10
0.1523192333019487
 20
1.969501336898403
 30
0.0
 11
0.1523192333019487
 21
1.406498663101586
 31
0.0
  0
LINE
  5
12
100
AcDbEntity
  8
USP-GEO
100
AcDbLine
 10
0.0520000000000014
 20
1.969501336898403
 30
0.0
 11
0.0520000000000014
 21
1.406498663101586
 31
0.0
  0
LINE
  5
13
100
AcDbEntity
  8
USP-GEO
100
AcDbLine
 10
0.0
 20
1.406498663101586
 30
0.0
 11
0.0
 21
1.969501336898403
 31
0.0
  0
LINE
  5
14
100
AcDbEntity
  8
USP-GEO
100
AcDbLine
 10
0.1432895280632671
 20
1.969501336898403
 30
0.0
 11
0.1432895280632671
 21
1.406498663101586
 31
0.0
  0
LINE
  5
15
100
AcDbEntity
  8
USP-HID
100
AcDbLine
 10
0.1523192333019487
 20
0.9384999999904408
 30
0.0
 11
0.1523192333019487
 21
0.3754973261936314
 31
0.0
  0
LINE
  5
16
100
AcDbEntity
  8
USP-GEO
100
AcDbLine
 10
0.0520000000000014
 20
0.9384999999904408
 30
0.0
 11
0.0520000000000014
 21
0.3754973261936314
 31
0.0
  0
LINE
  5
17
100
AcDbEntity
  8
USP-GEO
100
AcDbLine
 10
0.0
 20
0.3754973261936314
 30
0.0
 11
0.0
 21
0.9384999999904408
 31
0.0
  0
LINE
  5
18
100
AcDbEntity
  8
USP-GEO
100
AcDbLine
 10
0.1432895280632671
 20
0.9384999999904408
 30
0.0
 11
0.1432895280632671
 21
0.3754973261936314
 31
0.0
  0
LINE
  5
19
100
AcDbEntity
  8
USP-HID
100
AcDbLine
 10
0.0520000000000014
 20
0.2819973261840722
 30
0.0
 11
0.0520000000000014
 21
0.0
 31
0.0
  0
LINE
  5
1A
100
AcDbEntity
  8
USP-GEO
100
AcDbLine
 10
-0.0000000000000009
 20
0.2819973261840687
 30
0.0
 11
0.0
 21
0.0
 31
0.0
  0
ELLIPSE
  5
1B
100
AcDbEntity
  8
USP-HID
100
AcDbEllipse
 10
0.060239708395315
 20
0.3754973261936314
 30
0.0
 11
0.0
 21
0.0935000000095601
 31
0.0
210
0.0
220
0.0
230
1.0
 40
0.9848077530122081
 41
3.141592653589793
 42
4.712388980384746
  0
ELLIPSE
  5
1C
100
AcDbEntity
  8
USP-GEO
100
AcDbEllipse
 10
0.0512100031566334
 20
0.3754973261936314
 30
0.0
 11
0.0
 21
0.0935000000095601
 31
0.0
210
0.0
220
0.0
230
1.0
 40
0.9848077530122081
 41
3.141592653589793
 42
4.712388980384746
  0
LINE
  5
1D
100
AcDbEntity
  8
USP-HID
100
AcDbLine
 10
0.0520000000000014
 20
0.2820007674178679
 30
0.0
 11
0.0520000000000014
 21
0.2819973261840713
 31
0.0
  0
LINE
  5
1E
100
AcDbEntity
  8
USP-HID
100
AcDbLine
 10
0.0519999999999996
 20
0.3430000000000035
 30
0.0
 11
0.0
 21
0.3430000000000035
 31
0.0
  0
LINE
  5
1F
100
AcDbEntity
  8
USP-HID
100
AcDbLine
 10
0.060239708395315
 20
0.2819973261840722
 30
0.0
 11
0.0512100031566345
 21
0.2819973261840722
 31
0.0
  0
LINE
  5
20
100
AcDbEntity
  8
USP-GEO
100
AcDbLine
 10
0.0520000000000014
 20
0.3754973261936314
 30
0.0
 11
0.0520000000000014
 21
0.2820007674178679
 31
0.0
  0
LINE
  5
21
100
AcDbEntity
  8
USP-GEO
100
AcDbLine
 10
0.0
 20
0.2819973261840713
 30
0.0
 11
0.0
 21
0.3754973261936314
 31
0.0
  0
LINE
  5
22
100
AcDbEntity
  8
USP-GEO
100
AcDbLine
 10
0.0512100031566334
 20
0.2819973261840687
 30
0.0
 11
0.0
 21
0.2819973261840687
 31
0.0
  0
LINE
  5
23
100
AcDbEntity
  8
USP-HID
100
AcDbLine
 10
0.0519999999999996
 20
0.507000000000005
 30
0.0
 11
0.0
 21
0.507000000000005
 31
0.0
  0
LINE
  5
24
100
AcDbEntity
  8
USP-HID
100
AcDbLine
 10
0.0520000000000014
 20
1.312998663092027
 30
0.0
 11
0.0520000000000014
 21
1.032000000000003
 31
0.0
  0
LINE
  5
25
100
AcDbEntity
  8
USP-GEO
100
AcDbLine
 10
0.0
 20
1.312998663092031
 30
0.0
 11
0.0
 21
1.03199999999979
 31
0.0
  0
ELLIPSE
  5
26
100
AcDbEntity
  8
USP-HID
100
AcDbEllipse
 10
0.060239708395315
 20
0.9384999999904408
 30
0.0
 11
0.0
 21
0.0935000000095601
 31
0.0
210
0.0
220
0.0
230
1.0
 40
0.9848077530122081
 41
-1.570796326794896
 42
-0.0000000000000002
  0
ELLIPSE
  5
27
100
AcDbEntity
  8
USP-GEO
100
AcDbEllipse
 10
0.0512100031566334
 20
0.9384999999904408
 30
0.0
 11
0.0
 21
0.0935000000095601
 31
0.0
210
0.0
220
0.0
230
1.0
 40
0.9848077530122081
 41
-1.570796326794896
 42
-0.0000000000000002
  0
LINE
  5
28
100
AcDbEntity
  8
USP-HID
100
AcDbLine
 10
0.0520000000000014
 20
1.032
 30
0.0
 11
0.0520000000000014
 21
1.031996558766204
 31
0.0
  0
LINE
  5
29
100
AcDbEntity
  8
USP-HID
100
AcDbLine
 10
0.060239708395315
 20
1.032
 30
0.0
 11
0.0512100031566345
 21
1.032
 31
0.0
  0
LINE
  5
2A
100
AcDbEntity
  8
USP-GEO
100
AcDbLine
 10
0.0520000000000014
 20
1.031996558766204
 30
0.0
 11
0.0520000000000014
 21
0.9384999999904408
 31
0.0
  0
LINE
  5
2B
100
AcDbEntity
  8
USP-GEO
100
AcDbLine
 10
0.0
 20
0.9384999999904408
 30
0.0
 11
0.0
 21
1.032
 31
0.0
  0
LINE
  5
2C
100
AcDbEntity
  8
USP-GEO
100
AcDbLine
 10
0.0
 20
1.03199999999979
 30
0.0
 11
0.0512100031566334
 21
1.03199999999979
 31
0.0
  0
ELLIPSE
  5
2D
100
AcDbEntity
  8
USP-HID
100
AcDbEllipse
 10
0.060239708395315
 20
1.406498663101586
 30
0.0
 11
0.0
 21
0.0935000000095601
 31
0.0
210
0.0
220
0.0
230
1.0
 40
0.9848077530122081
 41
3.141592653589793
 42
4.712388980384746
  0
ELLIPSE
  5
2E
100
AcDbEntity
  8
USP-GEO
100
AcDbEllipse
 10
0.0512100031566334
 20
1.406498663101586
 30
0.0
 11
0.0
 21
0.0935000000095601
 31
0.0
210
0.0
220
0.0
230
1.0
 40
0.9848077530122081
 41
3.141592653589793
 42
4.712388980384746
  0
LINE
  5
2F
100
AcDbEntity
  8
USP-HID
100
AcDbLine
 10
0.0520000000000014
 20
1.313002104325823
 30
0.0
 11
0.0520000000000014
 21
1.312998663092026
 31
0.0
  0
LINE
  5
30
100
AcDbEntity
  8
USP-HID
100
AcDbLine
 10
0.060239708395315
 20
1.312998663092031
 30
0.0
 11
0.0512100031566345
 21
1.312998663092031
 31
0.0
  0
LINE
  5
31
100
AcDbEntity
  8
USP-GEO
100
AcDbLine
 10
0.0520000000000014
 20
1.406498663101586
 30
0.0
 11
0.0520000000000014
 21
1.313002104325823
 31
0.0
  0
LINE
  5
32
100
AcDbEntity
  8
USP-GEO
100
AcDbLine
 10
0.0
 20
1.312998663092026
 30
0.0
 11
0.0
 21
1.406498663101586
 31
0.0
  0
LINE
  5
33
100
AcDbEntity
  8
USP-GEO
100
AcDbLine
 10
0.0512100031566334
 20
1.312998663092031
 30
0.0
 11
0.0
 21
1.312998663092031
 31
0.0
  0
LINE
  5
34
100
AcDbEntity
  8
USP-HID
100
AcDbLine
 10
0.1523192333019487
 20
3.000501336898409
 30
0.0
 11
0.1523192333019487
 21
2.437498663101592
 31
0.0
  0
LINE
  5
35
100
AcDbEntity
  8
USP-GEO
100
AcDbLine
 10
0.0519999999999996
 20
3.000501336898409
 30
0.0
 11
0.0519999999999996
 21
2.437498663101592
 31
0.0
  0
LINE
  5
36
100
AcDbEntity
  8
USP-GEO
100
AcDbLine
 10
0.0
 20
2.437498663101592
 30
0.0
 11
0.0
 21
3.000501336898409
 31
0.0
  0
LINE
  5
37
100
AcDbEntity
  8
USP-GEO
100
AcDbLine
 10
0.1432895280632671
 20
3.000501336898409
 30
0.0
 11
0.1432895280632671
 21
2.437498663101592
 31
0.0
  0
LINE
  5
38
100
AcDbEntity
  8
USP-HID
100
AcDbLine
 10
0.0520000000000014
 20
2.343998663092033
 30
0.0
 11
0.0520000000000014
 21
2.063001336907962
 31
0.0
  0
LINE
  5
39
100
AcDbEntity
  8
USP-GEO
100
AcDbLine
 10
0.0
 20
2.343998663092037
 30
0.0
 11
0.0
 21
2.063001336907959
 31
0.0
  0
ELLIPSE
  5
3A
100
AcDbEntity
  8
USP-HID
100
AcDbEllipse
 10
0.060239708395315
 20
1.969501336898403
 30
0.0
 11
0.0
 21
0.0935000000095601
 31
0.0
210
0.0
220
0.0
230
1.0
 40
0.9848077530122081
 41
-1.570796326794896
 42
-0.0000000000000002
  0
ELLIPSE
  5
3B
100
AcDbEntity
  8
USP-GEO
100
AcDbEllipse
 10
0.0512100031566334
 20
1.969501336898403
 30
0.0
 11
0.0
 21
0.0935000000095601
 31
0.0
210
0.0
220
0.0
230
1.0
 40
0.9848077530122081
 41
-1.570796326794896
 42
-0.0000000000000002
  0
LINE
  5
3C
100
AcDbEntity
  8
USP-HID
100
AcDbLine
 10
0.0520000000000014
 20
2.063001336907963
 30
0.0
 11
0.0520000000000014
 21
2.062997895674167
 31
0.0
  0
LINE
  5
3D
100
AcDbEntity
  8
USP-HID
100
AcDbLine
 10
0.0519999999999996
 20
2.156999999999989
 30
0.0
 11
0.0
 21
2.156999999999989
 31
0.0
  0
LINE
  5
3E
100
AcDbEntity
  8
USP-HID
100
AcDbLine
 10
0.0519999999999996
 20
1.992999999999987
 30
0.0
 11
0.0
 21
1.992999999999987
 31
0.0
  0
LINE
  5
3F
100
AcDbEntity
  8
USP-HID
100
AcDbLine
 10
0.060239708395315
 20
2.063001336907962
 30
0.0
 11
0.0512100031566345
 21
2.063001336907962
 31
0.0
  0
LINE
  5
40
100
AcDbEntity
  8
USP-GEO
100
AcDbLine
 10
0.0520000000000014
 20
2.062997895674167
 30
0.0
 11
0.0520000000000014
 21
1.969501336898403
 31
0.0
  0
LINE
  5
41
100
AcDbEntity
  8
USP-GEO
100
AcDbLine
 10
0.0
 20
1.969501336898403
 30
0.0
 11
0.0
 21
2.063001336907963
 31
0.0
  0
LINE
  5
42
100
AcDbEntity
  8
USP-GEO
100
AcDbLine
 10
0.0
 20
2.063001336907959
 30
0.0
 11
0.0512100031566334
 21
2.063001336907959
 31
0.0
  0
ELLIPSE
  5
43
100
AcDbEntity
  8
USP-HID
100
AcDbEllipse
 10
0.060239708395315
 20
2.437498663101592
 30
0.0
 11
0.0
 21
0.0935000000095601
 31
0.0
210
0.0
220
0.0
230
1.0
 40
0.9848077530122081
 41
3.141592653589793
 42
4.712388980384746
  0
ELLIPSE
  5
44
100
AcDbEntity
  8
USP-GEO
100
AcDbEllipse
 10
0.0512100031566334
 20
2.437498663101592
 30
0.0
 11
0.0
 21
0.0935000000095601
 31
0.0
210
0.0
220
0.0
230
1.0
 40
0.9848077530122081
 41
3.141592653589793
 42
4.712388980384746
  0
LINE
  5
45
100
AcDbEntity
  8
USP-HID
100
AcDbLine
 10
0.0520000000000014
 20
2.344002104325829
 30
0.0
 11
0.0520000000000014
 21
2.343998663092032
 31
0.0
  0
LINE
  5
46
100
AcDbEntity
  8
USP-HID
100
AcDbLine
 10
0.060239708395315
 20
2.343998663092037
 30
0.0
 11
0.0512100031566345
 21
2.343998663092037
 31
0.0
  0
LINE
  5
47
100
AcDbEntity
  8
USP-GEO
100
AcDbLine
 10
0.0520000000000014
 20
2.437498663101592
 30
0.0
 11
0.0520000000000014
 21
2.344002104325829
 31
0.0
  0
LINE
  5
48
100
AcDbEntity
  8
USP-GEO
100
AcDbLine
 10
0.0
 20
2.343998663092032
 30
0.0
 11
0.0
 21
2.437498663101592
 31
0.0
  0
LINE
  5
49
100
AcDbEntity
  8
USP-GEO
100
AcDbLine
 10
0.0512100031566334
 20
2.343998663092038
 30
0.0
 11
0.0
 21
2.343998663092037
 31
0.0
  0
ELLIPSE
  5
4A
100
AcDbEntity
  8
USP-HID
100
AcDbEllipse
 10
0.060239708395315
 20
3.000501336898409
 30
0.0
 11
0.0
 21
0.0935000000095601
 31
0.0
210
0.0
220
0.0
230
1.0
 40
0.9848077530122081
 41
-1.570796326794896
 42
0.0053476190887343
  0
LINE
  5
4B
100
AcDbEntity
  8
USP-GEO
100
AcDbLine
 10
0.0519999999999996
 20
3.093997895674172
 30
0.0
 11
0.0519999999999996
 21
3.000501336898409
 31
0.0
  0
LINE
  5
4C
100
AcDbEntity
  8
USP-GEO
100
AcDbLine
 10
0.0
 20
3.000501336898409
 30
0.0
 11
0.0
 21
3.094000000000014
 31
0.0
  0
ELLIPSE
  5
4D
100
AcDbEntity
  8
USP-GEO
100
AcDbEllipse
 10
0.0512100031566334
 20
3.000501336898409
 30
0.0
 11
0.0
 21
0.0935000000095601
 31
0.0
210
0.0
220
0.0
230
1.0
 40
0.9848077530122081
 41
-1.570796326794896
 42
0.0053476190887343
  0
LINE
  5
4E
100
AcDbEntity
  8
USP-HID
100
AcDbLine
 10
0.0519999999999996
 20
2.843000000000003
 30
0.0
 11
0.0
 21
2.843000000000003
 31
0.0
  0
LINE
  5
4F
100
AcDbEntity
  8
USP-HID
100
AcDbLine
 10
0.0519999999999996
 20
3.007000000000005
 30
0.0
 11
0.0
 21
3.007000000000005
 31
0.0
  0
LINE
  5
50
100
AcDbEntity
  8
USP-HID
100
AcDbLine
 10
0.0520000000000014
 20
3.375
 30
0.0
 11
0.0520000000000014
 21
3.094000000000015
 31
0.0
  0
LINE
  5
51
100
AcDbEntity
  8
USP-HID
100
AcDbLine
 10
0.0
 20
3.094000000000015
 30
0.0
 11
0.0
 21
3.375
 31
0.0
  0
LINE
  5
52
100
AcDbEntity
  8
USP-GEO
100
AcDbLine
 10
-0.0004924038765086
 20
3.375
 30
0.0
 11
-0.0004924038765086
 21
3.094000000000008
 31
0.0
  0
LINE
  5
53
100
AcDbEntity
  8
USP-HID
100
AcDbLine
 10
0.0519999999999996
 20
3.094000000000015
 30
0.0
 11
0.0519999999999996
 21
3.093997895674172
 31
0.0
  0
LINE
  5
54
100
AcDbEntity
  8
USP-HID
100
AcDbLine
 10
0.0597473045170816
 20
3.094000000000008
 30
0.0
 11
0.0517024070345782
 21
3.094000000000008
 31
0.0
  0
LINE
  5
55
100
AcDbEntity
  8
USP-HID
100
AcDbLine
 10
0.0
 20
3.094001336907969
 30
0.0
 11
0.0512100031566346
 21
3.094001336907969
 31
0.0
  0
LINE
  5
56
100
AcDbEntity
  8
USP-HID
100
AcDbLine
 10
0.0512100031566346
 20
3.094001336907969
 30
0.0
 11
0.060239708395315
 21
3.094001336907969
 31
0.0
  0
LINE
  5
57
100
AcDbEntity
  8
USP-GEO
100
AcDbLine
 10
0.0517024070345782
 20
3.094000000000008
 30
0.0
 11
0.050717599278401
 21
3.094000000000008
 31
0.0
  0
LINE
  5
58
100
AcDbEntity
  8
USP-GEO
100
AcDbLine
 10
-0.0004924038765086
 20
3.094000000000008
 30
0.0
 11
0.0507175992783999
 21
3.094000000000008
 31
0.0
  0
LINE
  5
59
100
AcDbEntity
  8
USP-GEO
100
AcDbLine
 10
0.9636343863224343
 20
2.006999999999983
 30
0.0
 11
0.9104547676597878
 21
2.006999999999983
 31
0.0
  0
LINE
  5
5A
100
AcDbEntity
  8
USP-GEO
100
AcDbLine
 10
0.9104547676597878
 20
1.842999999999996
 30
0.0
 11
0.9636343863224343
 21
1.842999999999996
 31
0.0
  0
ELLIPSE
  5
5B
100
AcDbEntity
  8
USP-GEO
100
AcDbEllipse
 10
0.9104547676597878
 20
1.924999999999997
 30
0.0
 11
0.0
 21
0.082
 31
0.0
210
0.0
220
0.0
230
1.0
 40
0.9848077530122079
 41
0.0
 42
3.141592653589793
  0
ELLIPSE
  5
5C
100
AcDbEntity
  8
USP-GEO
100
AcDbEllipse
 10
0.9194844728984676
 20
1.924999999999997
 30
0.0
 11
0.0
 21
0.082
 31
0.0
210
0.0
220
0.0
230
1.0
 40
0.9848077530122079
 41
0.0
 42
3.141592653589793
  0
ELLIPSE
  5
5D
100
AcDbEntity
  8
USP-HID
100
AcDbEllipse
 10
0.9726640915611159
 20
1.924999999999982
 30
0.0
 11
0.0
 21
0.082
 31
0.0
210
0.0
220
0.0
230
1.0
 40
0.9848077530122079
 41
3.141592653589793
 42
6.283185307179641
  0
ELLIPSE
  5
5E
100
AcDbEntity
  8
USP-GEO
100
AcDbEllipse
 10
0.9636343863224343
 20
1.924999999999982
 30
0.0
 11
0.0
 21
0.082
 31
0.0
210
0.0
220
0.0
230
1.0
 40
0.9848077530122079
 41
3.141592653589793
 42
6.283185307179641
  0
LINE
  5
5F
100
AcDbEntity
  8
USP-HID
100
AcDbLine
 10
0.9726640915611159
 20
1.842999999999982
 30
0.0
 11
0.9636343863224354
 21
1.842999999999982
 31
0.0
  0
LINE
  5
60
100
AcDbEntity
  8
USP-HID
100
AcDbLine
 10
0.9726640915611159
 20
2.00699999999998
 30
0.0
 11
0.9636343863224354
 21
2.00699999999998
 31
0.0
  0
LINE
  5
61
100
AcDbEntity
  8
USP-GEO
100
AcDbLine
 10
2.23047960447107
 20
1.03661165235168
 30
0.0
 11
1.563984667884959
 21
1.713388347648318
 31
0.0
  0
LINE
  5
62
100
AcDbEntity
  8
USP-GEO
100
AcDbLine
 10
2.239509309709752
 20
1.03661165235168
 30
0.0
 11
1.57301437312364
 21
1.713388347648318
 31
0.0
  0
ELLIPSE
  5
63
100
AcDbEntity
  8
USP-HID
100
AcDbEllipse
 10
1.8097506816215
 20
0.4249999999999901
 30
0.0
 11
0.0
 21
0.082
 31
0.0
210
0.0
220
0.0
230
1.0
 40
0.9848077530122079
 41
3.141592653589793
 42
6.283185307179641
  0
ELLIPSE
  5
64
100
AcDbEntity
  8
USP-GEO
100
AcDbEllipse
 10
1.747541357720159
 20
0.4250000000000043
 30
0.0
 11
0.0
 21
0.082
 31
0.0
210
0.0
220
0.0
230
1.0
 40
0.9848077530122079
 41
0.0
 42
3.141592653589793
  0
ELLIPSE
  5
65
100
AcDbEntity
  8
USP-GEO
100
AcDbEllipse
 10
1.756571062958837
 20
0.4250000000000043
 30
0.0
 11
0.0
 21
0.082
 31
0.0
210
0.0
220
0.0
230
1.0
 40
0.9848077530122079
 41
0.0
 42
3.141592653589793
  0
ELLIPSE
  5
66
100
AcDbEntity
  8
USP-GEO
100
AcDbEllipse
 10
1.80072097638282
 20
0.4249999999999901
 30
0.0
 11
0.0
 21
0.082
 31
0.0
210
0.0
220
0.0
230
1.0
 40
0.9848077530122079
 41
3.141592653589793
 42
6.283185307179641
  0
LINE
  5
67
100
AcDbEntity
  8
USP-GEO
100
AcDbLine
 10
2.266535043557594
 20
0.0
 30
0.0
 11
2.266535043557594
 21
0.9482233047033616
 31
0.0
  0
LINE
  5
68
100
AcDbEntity
  8
USP-GEO
100
AcDbLine
 10
2.275564748796274
 20
0.9482233047033616
 30
0.0
 11
2.275564748796274
 21
0.0
 31
0.0
  0
LINE
  5
69
100
AcDbEntity
  8
USP-GEO
100
AcDbLine
 10
1.747541357720159
 20
0.3430000000000035
 30
0.0
 11
1.80072097638282
 21
0.3430000000000035
 31
0.0
  0
LINE
  5
6A
100
AcDbEntity
  8
USP-HID
100
AcDbLine
 10
1.8097506816215
 20
0.3429999999999893
 30
0.0
 11
1.80072097638282
 21
0.3429999999999893
 31
0.0
  0
LINE
  5
6B
100
AcDbEntity
  8
USP-GEO
100
AcDbLine
 10
2.275564748796274
 20
0.0
 30
0.0
 11
2.266535043557594
 21
0.0
 31
0.0
  0
LINE
  5
6C
100
AcDbEntity
  8
USP-GEO
100
AcDbLine
 10
1.80072097638282
 20
0.5069999999999908
 30
0.0
 11
1.747541357720159
 21
0.5069999999999908
 31
0.0
  0
LINE
  5
6D
100
AcDbEntity
  8
USP-HID
100
AcDbLine
 10
1.8097506816215
 20
0.5069999999999908
 30
0.0
 11
1.80072097638282
 21
0.5069999999999908
 31
0.0
  0
ELLIPSE
  5
6E
100
AcDbEntity
  8
USP-GEO
100
AcDbEllipse
 10
2.143434074431067
 20
0.9482233047033616
 30
0.0
 11
0.0
 21
0.125
 31
0.0
210
0.0
220
0.0
230
1.0
 40
0.9848077530122081
 41
-1.570796326794896
 42
-0.785398163397448
  0
ELLIPSE
  5
6F
100
AcDbEntity
  8
USP-GEO
100
AcDbEllipse
 10
2.152463779669747
 20
0.9482233047033616
 30
0.0
 11
0.0
 21
0.125
 31
0.0
210
0.0
220
0.0
230
1.0
 40
0.9848077530122081
 41
-1.570796326794896
 42
-0.7853981633974582
  0
LINE
  5
70
100
AcDbEntity
  8
USP-GEO
100
AcDbLine
 10
1.563984667884959
 20
2.41161165235168
 30
0.0
 11
2.230479604471069
 21
3.088388347648318
 31
0.0
  0
LINE
  5
71
100
AcDbEntity
  8
USP-GEO
100
AcDbLine
 10
2.23950930970975
 20
3.088388347648317
 30
0.0
 11
1.573014373123641
 21
2.41161165235168
 31
0.0
  0
LINE
  5
72
100
AcDbEntity
  8
USP-GEO
100
AcDbLine
 10
1.527929228798438
 20
1.801776695296638
 30
0.0
 11
1.527929228798438
 21
2.323223304703361
 31
0.0
  0
LINE
  5
73
100
AcDbEntity
  8
USP-GEO
100
AcDbLine
 10
1.536958934037116
 20
1.801776695296638
 30
0.0
 11
1.536958934037116
 21
2.323223304703361
 31
0.0
  0
ELLIPSE
  5
74
100
AcDbEntity
  8
USP-GEO
100
AcDbEllipse
 10
1.651030197924963
 20
1.801776695296638
 30
0.0
 11
0.0
 21
0.125
 31
0.0
210
0.0
220
0.0
230
1.0
 40
0.9848077530122081
 41
1.570796326794896
 42
2.356194490192339
  0
ELLIPSE
  5
75
100
AcDbEntity
  8
USP-GEO
100
AcDbEllipse
 10
1.660059903163642
 20
1.801776695296638
 30
0.0
 11
0.0
 21
0.125
 31
0.0
210
0.0
220
0.0
230
1.0
 40
0.9848077530122081
 41
1.570796326794896
 42
2.356194490192357
  0
ELLIPSE
  5
76
100
AcDbEntity
  8
USP-GEO
100
AcDbEllipse
 10
1.651030197924963
 20
2.323223304703361
 30
0.0
 11
0.0
 21
0.125
 31
0.0
210
0.0
220
0.0
230
1.0
 40
0.9848077530122081
 41
0.7853981633974544
 42
1.570796326794896
  0
ELLIPSE
  5
77
100
AcDbEntity
  8
USP-GEO
100
AcDbEllipse
 10
1.660059903163642
 20
2.323223304703361
 30
0.0
 11
0.0
 21
0.125
 31
0.0
210
0.0
220
0.0
230
1.0
 40
0.9848077530122081
 41
0.7853981633974354
 42
1.570796326794896
  0
ELLIPSE
  5
78
100
AcDbEntity
  8
USP-HID
100
AcDbEllipse
 10
1.84224933747089
 20
3.074999999999988
 30
0.0
 11
0.0
 21
0.082
 31
0.0
210
0.0
220
0.0
230
1.0
 40
0.9848077530122079
 41
3.141592653589793
 42
6.283185307179641
  0
ELLIPSE
  5
79
100
AcDbEntity
  8
USP-GEO
100
AcDbEllipse
 10
1.780040013569561
 20
3.075000000000002
 30
0.0
 11
0.0
 21
0.082
 31
0.0
210
0.0
220
0.0
230
1.0
 40
0.9848077530122079
 41
0.0
 42
3.141592653589793
  0
ELLIPSE
  5
7A
100
AcDbEntity
  8
USP-GEO
100
AcDbEllipse
 10
1.789069718808242
 20
3.075000000000002
 30
0.0
 11
0.0
 21
0.082
 31
0.0
210
0.0
220
0.0
230
1.0
 40
0.9848077530122079
 41
0.0
 42
3.141592653589793
  0
ELLIPSE
  5
7B
100
AcDbEntity
  8
USP-GEO
100
AcDbEllipse
 10
1.83321963223221
 20
3.074999999999988
 30
0.0
 11
0.0
 21
0.082
 31
0.0
210
0.0
220
0.0
230
1.0
 40
0.9848077530122079
 41
3.141592653589793
 42
6.283185307179641
  0
LINE
  5
7C
100
AcDbEntity
  8
USP-GEO
100
AcDbLine
 10
1.780040013569561
 20
2.993000000000002
 30
0.0
 11
1.83321963223221
 21
2.993000000000002
 31
0.0
  0
LINE
  5
7D
100
AcDbEntity
  8
USP-HID
100
AcDbLine
 10
1.84224933747089
 20
2.992999999999987
 30
0.0
 11
1.833219632232209
 21
2.992999999999987
 31
0.0
  0
LINE
  5
7E
100
AcDbEntity
  8
USP-GEO
100
AcDbLine
 10
1.83321963223221
 20
3.156999999999989
 30
0.0
 11
1.780040013569561
 21
3.156999999999989
 31
0.0
  0
LINE
  5
7F
100
AcDbEntity
  8
USP-HID
100
AcDbLine
 10
1.84224933747089
 20
3.156999999999989
 30
0.0
 11
1.833219632232209
 21
3.156999999999989
 31
0.0
  0
LINE
  5
80
100
AcDbEntity
  8
USP-GEO
100
AcDbLine
 10
2.266535043557594
 20
3.176776695296638
 30
0.0
 11
2.266535043557594
 21
3.375
 31
0.0
  0
LINE
  5
81
100
AcDbEntity
  8
USP-GEO
100
AcDbLine
 10
2.275564748796274
 20
3.375
 30
0.0
 11
2.275564748796274
 21
3.176776695296638
 31
0.0
  0
ELLIPSE
  5
82
100
AcDbEntity
  8
USP-GEO
100
AcDbEllipse
 10
2.143434074431065
 20
3.176776695296638
 30
0.0
 11
0.0
 21
0.125
 31
0.0
210
0.0
220
0.0
230
1.0
 40
0.9848077530122081
 41
-2.356194490192343
 42
-1.570796326794896
  0
ELLIPSE
  5
83
100
AcDbEntity
  8
USP-GEO
100
AcDbEllipse
 10
2.152463779669747
 20
3.176776695296638
 30
0.0
 11
0.0
 21
0.125
 31
0.0
210
0.0
220
0.0
230
1.0
 40
0.9848077530122081
 41
-2.356194490192356
 42
-1.570796326794896
  0
LINE
  5
84
100
AcDbEntity
  8
USP-GEO
100
AcDbLine
 10
2.275564748796274
 20
3.375
 30
0.0
 11
2.266535043557594
 21
3.375
 31
0.0
  0
ENDBLK
  5
87
100
AcDbEntity
  8
0
100
AcDbBlockEnd
  0
BLOCK
  5
10C
100
AcDbEntity
  8
0
100
AcDbBlockBegin
  2
MP3_F
 70
     0
 10
0.0
 20
0.0
 30
0.0
  3
MP3_F
  1

  0
TEXT
  5
8A
100
AcDbEntity
  8
USP-TXT
100
AcDbText
 10
-1.023924359549777
 20
-1.103885365451752
 30
0.0
 40
0.296875
  1
MP3 - FRONT VIEW
 72
     1
 11
1.351075640450222
 21
-1.103885365451752
 31
0.0
100
AcDbText
  0
TEXT
  5
8B
100
AcDbEntity
  8
USP-TXT
100
AcDbText
 10
1.419471376647873
 20
0.5746644645500894
 30
0.0
 40
0.1875
  1
530
100
AcDbText
  0
TEXT
  5
8C
100
AcDbEntity
  8
USP-TXT
100
AcDbText
 10
1.419471376647873
 20
0.8871644645500893
 30
0.0
 40
0.1875
  1
NER
100
AcDbText
  0
TEXT
  5
8D
100
AcDbEntity
  8
USP-TXT
100
AcDbText
 10
1.50892180965631
 20
1.199664464550089
 30
0.0
 40
0.1875
  1
MP
100
AcDbText
  0
TEXT
  5
8E
100
AcDbEntity
  8
USP-TXT
100
AcDbText
 10
1.419471376647873
 20
1.512164464550089
 30
0.0
 40
0.1875
  1
USP
100
AcDbText
  0
LINE
  5
8F
100
AcDbEntity
  8
USP-GEO
100
AcDbLine
 10
0.7500000000000036
 20
3.375
 30
0.0
 11
2.258866819178786
 21
3.375
 31
0.0
  0
LINE
  5
90
100
AcDbEntity
  8
USP-GEO
100
AcDbLine
 10
0.7500000000000036
 20
0.0
 30
0.0
 11
2.258866819178786
 21
0.0
 31
0.0
  0
LINE
  5
91
100
AcDbEntity
  8
USP-GEO
100
AcDbLine
 10
0.7133883476483227
 20
1.03661165235168
 30
0.0
 11
0.0366116523516809
 21
1.713388347648318
 31
0.0
  0
LINE
  5
92
100
AcDbEntity
  8
USP-GEO
100
AcDbLine
 10
0.7500000000000036
 20
0.9482233047033616
 30
0.0
 11
0.7500000000000036
 21
0.0
 31
0.0
  0
ARC
  5
93
100
AcDbEntity
  8
USP-GEO
100
AcDbCircle
 10
0.6250000000000036
 20
0.9482233047033616
 30
0.0
 40
0.125
100
AcDbArc
 50
0.0
 51
44.99999999999969
  0
ARC
  5
94
100
AcDbEntity
  8
USP-GEO
100
AcDbCircle
 10
1.223000000000002
 20
0.4250000000000043
 30
0.0
 40
0.082
100
AcDbArc
 50
90.0
 51
270.0
  0
ARC
  5
95
100
AcDbEntity
  8
USP-GEO
100
AcDbCircle
 10
1.277000000000004
 20
0.4249999999999901
 30
0.0
 40
0.082
100
AcDbArc
 50
270.0
 51
90.0
  0
LINE
  5
96
100
AcDbEntity
  8
USP-GEO
100
AcDbLine
 10
1.277000000000004
 20
0.3430000000000035
 30
0.0
 11
1.223
 21
0.3430000000000035
 31
0.0
  0
LINE
  5
97
100
AcDbEntity
  8
USP-GEO
100
AcDbLine
 10
1.223
 20
0.507000000000005
 30
0.0
 11
1.277000000000002
 21
0.507000000000005
 31
0.0
  0
LINE
  5
98
100
AcDbEntity
  8
USP-GEO
100
AcDbLine
 10
0.7133883476483227
 20
3.088388347648319
 30
0.0
 11
0.0366116523516791
 21
2.411611652351679
 31
0.0
  0
LINE
  5
99
100
AcDbEntity
  8
USP-GEO
100
AcDbLine
 10
0.0
 20
1.801776695296638
 30
0.0
 11
0.0
 21
2.323223304703361
 31
0.0
  0
ARC
  5
9A
100
AcDbEntity
  8
USP-GEO
100
AcDbCircle
 10
0.1249999999999982
 20
1.801776695296638
 30
0.0
 40
0.125
100
AcDbArc
 50
180.0
 51
225.0000000000006
  0
ARC
  5
9B
100
AcDbEntity
  8
USP-GEO
100
AcDbCircle
 10
0.1249999999999982
 20
2.323223304703361
 30
0.0
 40
0.125
100
AcDbArc
 50
135.0000000000003
 51
180.0
  0
ARC
  5
9C
100
AcDbEntity
  8
USP-GEO
100
AcDbCircle
 10
0.5270000000000046
 20
2.074999999999988
 30
0.0
 40
0.082
100
AcDbArc
 50
270.0
 51
90.0
  0
ARC
  5
9D
100
AcDbEntity
  8
USP-GEO
100
AcDbCircle
 10
0.4730000000000026
 20
2.075000000000002
 30
0.0
 40
0.082
100
AcDbArc
 50
90.0
 51
270.0
  0
LINE
  5
9E
100
AcDbEntity
  8
USP-GEO
100
AcDbLine
 10
0.4730000000000026
 20
2.156999999999989
 30
0.0
 11
0.5270000000000046
 21
2.156999999999989
 31
0.0
  0
LINE
  5
9F
100
AcDbEntity
  8
USP-GEO
100
AcDbLine
 10
0.5270000000000046
 20
1.993000000000002
 30
0.0
 11
0.4730000000000026
 21
1.993000000000002
 31
0.0
  0
LINE
  5
A0
100
AcDbEntity
  8
USP-GEO
100
AcDbLine
 10
0.7500000000000036
 20
3.375
 30
0.0
 11
0.7500000000000036
 21
3.176776695296638
 31
0.0
  0
ARC
  5
A1
100
AcDbEntity
  8
USP-GEO
100
AcDbCircle
 10
0.6250000000000036
 20
3.176776695296638
 30
0.0
 40
0.125
100
AcDbArc
 50
315.0000000000002
 51
0.0
  0
ARC
  5
A2
100
AcDbEntity
  8
USP-GEO
100
AcDbCircle
 10
1.072999999999996
 20
2.924999999999997
 30
0.0
 40
0.082
100
AcDbArc
 50
90.0
 51
270.0
  0
ARC
  5
A3
100
AcDbEntity
  8
USP-GEO
100
AcDbCircle
 10
1.126999999999998
 20
2.924999999999982
 30
0.0
 40
0.082
100
AcDbArc
 50
270.0
 51
90.0
  0
LINE
  5
A4
100
AcDbEntity
  8
USP-GEO
100
AcDbLine
 10
1.072999999999995
 20
3.007000000000005
 30
0.0
 11
1.126999999999997
 21
3.007000000000005
 31
0.0
  0
LINE
  5
A5
100
AcDbEntity
  8
USP-GEO
100
AcDbLine
 10
1.126999999999997
 20
2.842999999999996
 30
0.0
 11
1.072999999999995
 21
2.842999999999996
 31
0.0
  0
LINE
  5
A6
100
AcDbEntity
  8
USP-HID
100
AcDbLine
 10
2.327765809850541
 20
1.969501336898403
 30
0.0
 11
2.327765809850541
 21
1.406498663101586
 31
0.0
  0
LINE
  5
A7
100
AcDbEntity
  8
USP-GEO
100
AcDbLine
 10
2.157
 20
1.969501336898403
 30
0.0
 11
2.157
 21
1.406498663101586
 31
0.0
  0
LINE
  5
A8
100
AcDbEntity
  8
USP-GEO
100
AcDbLine
 10
2.6957937341882
 20
1.03661165235168
 30
0.0
 11
2.578272694362491
 21
1.713388347648318
 31
0.0
  0
LINE
  5
A9
100
AcDbEntity
  8
USP-GEO
100
AcDbLine
 10
2.644583731031566
 20
1.03661165235168
 30
0.0
 11
2.527062691205857
 21
1.713388347648318
 31
0.0
  0
LINE
  5
AA
100
AcDbEntity
  8
USP-GEO
100
AcDbLine
 10
2.276555806693906
 20
1.969501336898403
 30
0.0
 11
2.276555806693906
 21
1.406498663101586
 31
0.0
  0
ELLIPSE
  5
AB
100
AcDbEntity
  8
USP-HID
100
AcDbEllipse
 10
2.610638691269972
 20
0.4250000000000043
 30
0.0
 11
0.0
 21
0.082
 31
0.0
210
0.0
220
0.0
230
1.0
 40
0.1736481776669304
 41
0.0
 42
3.141592653589807
  0
ELLIPSE
  5
AC
100
AcDbEntity
  8
USP-HID
100
AcDbEllipse
 10
2.620015692863987
 20
0.4249999999999901
 30
0.0
 11
0.0
 21
0.082
 31
0.0
210
0.0
220
0.0
230
1.0
 40
0.1736481776669304
 41
-3.141592653589793
 42
0.0
  0
LINE
  5
AD
100
AcDbEntity
  8
USP-HID
100
AcDbLine
 10
2.327765809850541
 20
0.9384999999904408
 30
0.0
 11
2.327765809850541
 21
0.3754973261936314
 31
0.0
  0
LINE
  5
AE
100
AcDbEntity
  8
USP-GEO
100
AcDbLine
 10
2.157
 20
0.9384999999904408
 30
0.0
 11
2.157
 21
0.3754973261936314
 31
0.0
  0
ELLIPSE
  5
AF
100
AcDbEntity
  8
USP-GEO
100
AcDbEllipse
 10
2.559428688113337
 20
0.4250000000000043
 30
0.0
 11
0.0
 21
0.082
 31
0.0
210
0.0
220
0.0
230
1.0
 40
0.1736481776669304
 41
0.0
 42
3.141592653589807
  0
ELLIPSE
  5
B0
100
AcDbEntity
  8
USP-GEO
100
AcDbEllipse
 10
2.568805689707351
 20
0.4249999999999901
 30
0.0
 11
0.0
 21
0.082
 31
0.0
210
0.0
220
0.0
230
1.0
 40
0.1736481776669304
 41
-3.141592653589793
 42
0.0
  0
LINE
  5
B1
100
AcDbEntity
  8
USP-GEO
100
AcDbLine
 10
2.702151280900444
 20
0.0
 30
0.0
 11
2.702151280900444
 21
0.9482233047033616
 31
0.0
  0
LINE
  5
B2
100
AcDbEntity
  8
USP-GEO
100
AcDbLine
 10
2.650941277743811
 20
0.9482233047033616
 30
0.0
 11
2.650941277743811
 21
0.0
 31
0.0
  0
LINE
  5
B3
100
AcDbEntity
  8
USP-GEO
100
AcDbLine
 10
2.276555806693906
 20
0.9384999999904408
 30
0.0
 11
2.276555806693906
 21
0.3754973261936314
 31
0.0
  0
LINE
  5
B4
100
AcDbEntity
  8
USP-HID
100
AcDbLine
 10
2.26031970208205
 20
0.2819973261840722
 30
0.0
 11
2.311529705238685
 21
0.2819973261840722
 31
0.0
  0
LINE
  5
B5
100
AcDbEntity
  8
USP-GEO
100
AcDbLine
 10
2.258866819178786
 20
0.0
 30
0.0
 11
2.650941277743809
 21
0.0
 31
0.0
  0
LINE
  5
B6
100
AcDbEntity
  8
USP-GEO
100
AcDbLine
 10
2.258866819178786
 20
0.2819973261840722
 30
0.0
 11
2.258866819178786
 21
0.0
 31
0.0
  0
ARC
  5
B7
100
AcDbEntity
  8
USP-GEO
100
AcDbCircle
 10
2.250500000000005
 20
0.3754973261936314
 30
0.0
 40
0.0935000000095601
100
AcDbArc
 50
180.0
 51
270.0
  0
LINE
  5
B8
100
AcDbEntity
  8
USP-GEO
100
AcDbLine
 10
2.250500000000005
 20
0.2819973261840722
 30
0.0
 11
2.258866819178786
 21
0.2819973261840722
 31
0.0
  0
LINE
  5
B9
100
AcDbEntity
  8
USP-GEO
100
AcDbLine
 10
2.258866819178786
 20
0.2819973261840687
 30
0.0
 11
2.26031970208205
 21
0.2819973261840687
 31
0.0
  0
ELLIPSE
  5
BA
100
AcDbEntity
  8
USP-GEO
100
AcDbEllipse
 10
2.26031970208205
 20
0.3754973261936314
 30
0.0
 11
0.0
 21
0.0935000000095601
 31
0.0
210
0.0
220
0.0
230
1.0
 40
0.1736481776669304
 41
-3.141592653589793
 42
-1.570796326794896
  0
LINE
  5
BB
100
AcDbEntity
  8
USP-HID
100
AcDbLine
 10
2.302500000000005
 20
0.2819973261840687
 30
0.0
 11
2.302500000000005
 21
0.0
 31
0.0
  0
ELLIPSE
  5
BC
100
AcDbEntity
  8
USP-HID
100
AcDbEllipse
 10
2.311529705238685
 20
0.3754973261936314
 30
0.0
 11
0.0
 21
0.0935000000095601
 31
0.0
210
0.0
220
0.0
230
1.0
 40
0.1736481776669304
 41
-3.141592653589793
 42
-1.570796326794896
  0
LINE
  5
BD
100
AcDbEntity
  8
USP-GEO
100
AcDbLine
 10
2.650941277743811
 20
0.0
 30
0.0
 11
2.702151280900446
 21
0.0
 31
0.0
  0
LINE
  5
BE
100
AcDbEntity
  8
USP-HID
100
AcDbLine
 10
2.568805689707351
 20
0.3429999999999893
 30
0.0
 11
2.620015692863987
 21
0.3429999999999893
 31
0.0
  0
LINE
  5
BF
100
AcDbEntity
  8
USP-GEO
100
AcDbLine
 10
2.568805689707351
 20
0.3430000000000035
 30
0.0
 11
2.559428688113337
 21
0.3430000000000035
 31
0.0
  0
LINE
  5
C0
100
AcDbEntity
  8
USP-HID
100
AcDbLine
 10
2.26031970208205
 20
1.032
 30
0.0
 11
2.311529705238685
 21
1.032
 31
0.0
  0
LINE
  5
C1
100
AcDbEntity
  8
USP-HID
100
AcDbLine
 10
2.26031970208205
 20
1.312998663092031
 30
0.0
 11
2.311529705238685
 21
1.312998663092031
 31
0.0
  0
LINE
  5
C2
100
AcDbEntity
  8
USP-GEO
100
AcDbLine
 10
2.258866819178786
 20
1.312998663092027
 30
0.0
 11
2.258866819178786
 21
1.032000000000003
 31
0.0
  0
ARC
  5
C3
100
AcDbEntity
  8
USP-GEO
100
AcDbCircle
 10
2.250500000000005
 20
0.9384999999904408
 30
0.0
 40
0.0935000000095601
100
AcDbArc
 50
90.0
 51
180.0
  0
LINE
  5
C4
100
AcDbEntity
  8
USP-GEO
100
AcDbLine
 10
2.258866819178788
 20
1.032000000000003
 30
0.0
 11
2.250500000000005
 21
1.032000000000003
 31
0.0
  0
LINE
  5
C5
100
AcDbEntity
  8
USP-GEO
100
AcDbLine
 10
2.26031970208205
 20
1.03199999999979
 30
0.0
 11
2.258866819178786
 21
1.03199999999979
 31
0.0
  0
ELLIPSE
  5
C6
100
AcDbEntity
  8
USP-GEO
100
AcDbEllipse
 10
2.26031970208205
 20
0.9384999999904408
 30
0.0
 11
0.0
 21
0.0935000000095601
 31
0.0
210
0.0
220
0.0
230
1.0
 40
0.1736481776669304
 41
-1.570796326794896
 42
0.0
  0
ARC
  5
C7
100
AcDbEntity
  8
USP-GEO
100
AcDbCircle
 10
2.250500000000005
 20
1.406498663101586
 30
0.0
 40
0.0935000000095601
100
AcDbArc
 50
180.0
 51
270.0
  0
LINE
  5
C8
100
AcDbEntity
  8
USP-GEO
100
AcDbLine
 10
2.250500000000005
 20
1.312998663092027
 30
0.0
 11
2.258866819178786
 21
1.312998663092027
 31
0.0
  0
ELLIPSE
  5
C9
100
AcDbEntity
  8
USP-GEO
100
AcDbEllipse
 10
2.26031970208205
 20
1.406498663101586
 30
0.0
 11
0.0
 21
0.0935000000095601
 31
0.0
210
0.0
220
0.0
230
1.0
 40
0.1736481776669304
 41
-3.141592653589793
 42
-1.570796326794896
  0
LINE
  5
CA
100
AcDbEntity
  8
USP-GEO
100
AcDbLine
 10
2.258866819178786
 20
1.312998663092031
 30
0.0
 11
2.26031970208205
 21
1.312998663092031
 31
0.0
  0
LINE
  5
CB
100
AcDbEntity
  8
USP-HID
100
AcDbLine
 10
2.568805689707351
 20
0.5069999999999908
 30
0.0
 11
2.620015692863987
 21
0.5069999999999908
 31
0.0
  0
LINE
  5
CC
100
AcDbEntity
  8
USP-GEO
100
AcDbLine
 10
2.559428688113337
 20
0.5069999999999908
 30
0.0
 11
2.568805689707351
 21
0.5069999999999908
 31
0.0
  0
LINE
  5
CD
100
AcDbEntity
  8
USP-HID
100
AcDbLine
 10
2.302500000000005
 20
1.312998663092031
 30
0.0
 11
2.302500000000005
 21
1.03199999999979
 31
0.0
  0
ELLIPSE
  5
CE
100
AcDbEntity
  8
USP-HID
100
AcDbEllipse
 10
2.311529705238685
 20
0.9384999999904408
 30
0.0
 11
0.0
 21
0.0935000000095601
 31
0.0
210
0.0
220
0.0
230
1.0
 40
0.1736481776669304
 41
-1.570796326794896
 42
0.0
  0
ELLIPSE
  5
CF
100
AcDbEntity
  8
USP-HID
100
AcDbEllipse
 10
2.311529705238685
 20
1.406498663101586
 30
0.0
 11
0.0
 21
0.0935000000095601
 31
0.0
210
0.0
220
0.0
230
1.0
 40
0.1736481776669304
 41
-3.141592653589793
 42
-1.570796326794896
  0
ELLIPSE
  5
D0
100
AcDbEntity
  8
USP-GEO
100
AcDbEllipse
 10
2.629235255535444
 20
0.9482233047033616
 30
0.0
 11
0.0
 21
0.125
 31
0.0
210
0.0
220
0.0
230
1.0
 40
0.1736481776669304
 41
-1.570796326794896
 42
-0.7853981633974705
  0
ELLIPSE
  5
D1
100
AcDbEntity
  8
USP-GEO
100
AcDbEllipse
 10
2.680445258692078
 20
0.9482233047033616
 30
0.0
 11
0.0
 21
0.125
 31
0.0
210
0.0
220
0.0
230
1.0
 40
0.1736481776669304
 41
-1.570796326794896
 42
-0.7853981633974705
  0
LINE
  5
D2
100
AcDbEntity
  8
USP-HID
100
AcDbLine
 10
2.327765809850541
 20
3.000501336898409
 30
0.0
 11
2.327765809850541
 21
2.437498663101592
 31
0.0
  0
LINE
  5
D3
100
AcDbEntity
  8
USP-GEO
100
AcDbLine
 10
2.157
 20
3.000501336898409
 30
0.0
 11
2.157
 21
2.437498663101592
 31
0.0
  0
LINE
  5
D4
100
AcDbEntity
  8
USP-GEO
100
AcDbLine
 10
2.578272694362491
 20
2.411611652351681
 30
0.0
 11
2.6957937341882
 21
3.088388347648318
 31
0.0
  0
LINE
  5
D5
100
AcDbEntity
  8
USP-GEO
100
AcDbLine
 10
2.644583731031566
 20
3.088388347648317
 30
0.0
 11
2.527062691205857
 21
2.411611652351679
 31
0.0
  0
LINE
  5
D6
100
AcDbEntity
  8
USP-GEO
100
AcDbLine
 10
2.276555806693906
 20
3.000501336898409
 30
0.0
 11
2.276555806693906
 21
2.437498663101592
 31
0.0
  0
LINE
  5
D7
100
AcDbEntity
  8
USP-HID
100
AcDbLine
 10
2.26031970208205
 20
2.063001336907962
 30
0.0
 11
2.311529705238685
 21
2.063001336907962
 31
0.0
  0
LINE
  5
D8
100
AcDbEntity
  8
USP-HID
100
AcDbLine
 10
2.26031970208205
 20
2.343998663092037
 30
0.0
 11
2.311529705238685
 21
2.343998663092037
 31
0.0
  0
LINE
  5
D9
100
AcDbEntity
  8
USP-GEO
100
AcDbLine
 10
2.258866819178786
 20
2.343998663092033
 30
0.0
 11
2.258866819178786
 21
2.063001336907962
 31
0.0
  0
ARC
  5
DA
100
AcDbEntity
  8
USP-GEO
100
AcDbCircle
 10
2.250500000000005
 20
1.969501336898403
 30
0.0
 40
0.0935000000095601
100
AcDbArc
 50
90.0
 51
180.0
  0
LINE
  5
DB
100
AcDbEntity
  8
USP-GEO
100
AcDbLine
 10
2.258866819178788
 20
2.063001336907962
 30
0.0
 11
2.250500000000005
 21
2.063001336907962
 31
0.0
  0
LINE
  5
DC
100
AcDbEntity
  8
USP-GEO
100
AcDbLine
 10
2.26031970208205
 20
2.063001336907959
 30
0.0
 11
2.258866819178786
 21
2.063001336907959
 31
0.0
  0
ELLIPSE
  5
DD
100
AcDbEntity
  8
USP-GEO
100
AcDbEllipse
 10
2.26031970208205
 20
1.969501336898403
 30
0.0
 11
0.0
 21
0.0935000000095601
 31
0.0
210
0.0
220
0.0
230
1.0
 40
0.1736481776669304
 41
-1.570796326794896
 42
0.0
  0
ARC
  5
DE
100
AcDbEntity
  8
USP-GEO
100
AcDbCircle
 10
2.250500000000005
 20
2.437498663101592
 30
0.0
 40
0.0935000000095601
100
AcDbArc
 50
180.0
 51
270.0
  0
LINE
  5
DF
100
AcDbEntity
  8
USP-GEO
100
AcDbLine
 10
2.250500000000005
 20
2.343998663092033
 30
0.0
 11
2.258866819178786
 21
2.343998663092033
 31
0.0
  0
ELLIPSE
  5
E0
100
AcDbEntity
  8
USP-GEO
100
AcDbEllipse
 10
2.26031970208205
 20
2.437498663101592
 30
0.0
 11
0.0
 21
0.0935000000095601
 31
0.0
210
0.0
220
0.0
230
1.0
 40
0.1736481776669304
 41
-3.141592653589793
 42
-1.570796326794896
  0
LINE
  5
E1
100
AcDbEntity
  8
USP-GEO
100
AcDbLine
 10
2.258866819178786
 20
2.343998663092038
 30
0.0
 11
2.26031970208205
 21
2.343998663092038
 31
0.0
  0
ELLIPSE
  5
E2
100
AcDbEntity
  8
USP-HID
100
AcDbEllipse
 10
2.463037740253081
 20
1.924999999999997
 30
0.0
 11
0.0
 21
0.082
 31
0.0
210
0.0
220
0.0
230
1.0
 40
0.1736481776669304
 41
0.0
 42
3.141592653589807
  0
ELLIPSE
  5
E3
100
AcDbEntity
  8
USP-HID
100
AcDbEllipse
 10
2.472414741847094
 20
1.924999999999982
 30
0.0
 11
0.0
 21
0.082
 31
0.0
210
0.0
220
0.0
230
1.0
 40
0.1736481776669304
 41
-3.141592653589793
 42
0.0
  0
ELLIPSE
  5
E4
100
AcDbEntity
  8
USP-GEO
100
AcDbEllipse
 10
2.411827737096448
 20
1.924999999999997
 30
0.0
 11
0.0
 21
0.082
 31
0.0
210
0.0
220
0.0
230
1.0
 40
0.1736481776669304
 41
0.0
 42
3.141592653589807
  0
ELLIPSE
  5
E5
100
AcDbEntity
  8
USP-GEO
100
AcDbEllipse
 10
2.421204738690459
 20
1.924999999999982
 30
0.0
 11
0.0
 21
0.082
 31
0.0
210
0.0
220
0.0
230
1.0
 40
0.1736481776669304
 41
-3.141592653589793
 42
0.0
  0
LINE
  5
E6
100
AcDbEntity
  8
USP-GEO
100
AcDbLine
 10
2.571915147650248
 20
1.801776695296638
 30
0.0
 11
2.571915147650248
 21
2.323223304703361
 31
0.0
  0
LINE
  5
E7
100
AcDbEntity
  8
USP-GEO
100
AcDbLine
 10
2.520705144493611
 20
1.801776695296638
 30
0.0
 11
2.520705144493611
 21
2.323223304703361
 31
0.0
  0
LINE
  5
E8
100
AcDbEntity
  8
USP-HID
100
AcDbLine
 10
2.421204738690459
 20
1.842999999999982
 30
0.0
 11
2.472414741847094
 21
1.842999999999982
 31
0.0
  0
LINE
  5
E9
100
AcDbEntity
  8
USP-GEO
100
AcDbLine
 10
2.421204738690459
 20
1.842999999999996
 30
0.0
 11
2.411827737096446
 21
1.842999999999996
 31
0.0
  0
ELLIPSE
  5
EA
100
AcDbEntity
  8
USP-GEO
100
AcDbEllipse
 10
2.542411166701977
 20
1.801776695296638
 30
0.0
 11
0.0
 21
0.125
 31
0.0
210
0.0
220
0.0
230
1.0
 40
0.1736481776669304
 41
1.570796326794896
 42
2.356194490192351
  0
ELLIPSE
  5
EB
100
AcDbEntity
  8
USP-GEO
100
AcDbEllipse
 10
2.593621169858613
 20
1.801776695296638
 30
0.0
 11
0.0
 21
0.125
 31
0.0
210
0.0
220
0.0
230
1.0
 40
0.1736481776669304
 41
1.570796326794896
 42
2.356194490192322
  0
LINE
  5
EC
100
AcDbEntity
  8
USP-HID
100
AcDbLine
 10
2.302500000000005
 20
2.343998663092037
 30
0.0
 11
2.302500000000005
 21
2.063001336907959
 31
0.0
  0
ELLIPSE
  5
ED
100
AcDbEntity
  8
USP-HID
100
AcDbEllipse
 10
2.311529705238685
 20
1.969501336898403
 30
0.0
 11
0.0
 21
0.0935000000095601
 31
0.0
210
0.0
220
0.0
230
1.0
 40
0.1736481776669304
 41
-1.570796326794896
 42
0.0
  0
LINE
  5
EE
100
AcDbEntity
  8
USP-HID
100
AcDbLine
 10
2.421204738690459
 20
2.00699999999998
 30
0.0
 11
2.472414741847094
 21
2.00699999999998
 31
0.0
  0
LINE
  5
EF
100
AcDbEntity
  8
USP-GEO
100
AcDbLine
 10
2.411827737096448
 20
2.00699999999998
 30
0.0
 11
2.421204738690459
 21
2.00699999999998
 31
0.0
  0
ELLIPSE
  5
F0
100
AcDbEntity
  8
USP-HID
100
AcDbEllipse
 10
2.311529705238685
 20
2.437498663101592
 30
0.0
 11
0.0
 21
0.0935000000095601
 31
0.0
210
0.0
220
0.0
230
1.0
 40
0.1736481776669304
 41
-3.141592653589793
 42
-1.570796326794896
  0
ELLIPSE
  5
F1
100
AcDbEntity
  8
USP-GEO
100
AcDbEllipse
 10
2.542411166701977
 20
2.323223304703361
 30
0.0
 11
0.0
 21
0.125
 31
0.0
210
0.0
220
0.0
230
1.0
 40
0.1736481776669304
 41
0.7853981633974705
 42
1.570796326794896
  0
ELLIPSE
  5
F2
100
AcDbEntity
  8
USP-GEO
100
AcDbEllipse
 10
2.593621169858613
 20
2.323223304703361
 30
0.0
 11
0.0
 21
0.125
 31
0.0
210
0.0
220
0.0
230
1.0
 40
0.1736481776669304
 41
0.7853981633974705
 42
1.570796326794896
  0
LINE
  5
F3
100
AcDbEntity
  8
USP-HID
100
AcDbLine
 10
2.260406526171138
 20
3.094000000000008
 30
0.0
 11
2.311442881149547
 21
3.094000000000008
 31
0.0
  0
LINE
  5
F4
100
AcDbEntity
  8
USP-HID
100
AcDbLine
 10
2.26031970208205
 20
3.094001336907969
 30
0.0
 11
2.311529705238685
 21
3.094001336907969
 31
0.0
  0
LINE
  5
F5
100
AcDbEntity
  8
USP-GEO
100
AcDbLine
 10
2.258866819178786
 20
3.375
 30
0.0
 11
2.650941277743809
 21
3.374999999999998
 31
0.0
  0
ARC
  5
F6
100
AcDbEntity
  8
USP-GEO
100
AcDbCircle
 10
2.250500000000005
 20
3.000501336898409
 30
0.0
 40
0.0935000000095601
100
AcDbArc
 50
89.69360399662866
 51
180.0
  0
ELLIPSE
  5
F7
100
AcDbEntity
  8
USP-GEO
100
AcDbEllipse
 10
2.26031970208205
 20
3.000501336898409
 30
0.0
 11
0.0
 21
0.0935000000095601
 31
0.0
210
0.0
220
0.0
230
1.0
 40
0.1736481776669304
 41
-1.570796326794896
 42
0.0053476190887224
  0
LINE
  5
F8
100
AcDbEntity
  8
USP-GEO
100
AcDbLine
 10
2.258866819178786
 20
3.375
 30
0.0
 11
2.258866819178786
 21
3.094000000000015
 31
0.0
  0
LINE
  5
F9
100
AcDbEntity
  8
USP-GEO
100
AcDbLine
 10
2.258866819178788
 20
3.094000000000015
 30
0.0
 11
2.251000000000363
 21
3.094000000000015
 31
0.0
  0
LINE
  5
FA
100
AcDbEntity
  8
USP-GEO
100
AcDbLine
 10
2.260232877992912
 20
3.094000000000008
 30
0.0
 11
2.260406526171138
 21
3.094000000000008
 31
0.0
  0
LINE
  5
FB
100
AcDbEntity
  8
USP-GEO
100
AcDbLine
 10
2.260232877992912
 20
3.094000000000008
 30
0.0
 11
2.258866819178786
 21
3.094000000000008
 31
0.0
  0
ELLIPSE
  5
FC
100
AcDbEntity
  8
USP-HID
100
AcDbEllipse
 10
2.616369081132981
 20
3.075000000000002
 30
0.0
 11
0.0
 21
0.082
 31
0.0
210
0.0
220
0.0
230
1.0
 40
0.1736481776669304
 41
0.0
 42
3.141592653589807
  0
ELLIPSE
  5
FD
100
AcDbEntity
  8
USP-HID
100
AcDbEllipse
 10
2.625746082726994
 20
3.074999999999988
 30
0.0
 11
0.0
 21
0.082
 31
0.0
210
0.0
220
0.0
230
1.0
 40
0.1736481776669304
 41
-3.141592653589793
 42
0.0
  0
ELLIPSE
  5
FE
100
AcDbEntity
  8
USP-HID
100
AcDbEllipse
 10
2.311529705238685
 20
3.000501336898409
 30
0.0
 11
0.0
 21
0.0935000000095601
 31
0.0
210
0.0
220
0.0
230
1.0
 40
0.1736481776669304
 41
-1.570796326794896
 42
0.0053476190887224
  0
ELLIPSE
  5
FF
100
AcDbEntity
  8
USP-GEO
100
AcDbEllipse
 10
2.565159077976346
 20
3.075000000000002
 30
0.0
 11
0.0
 21
0.082
 31
0.0
210
0.0
220
0.0
230
1.0
 40
0.1736481776669304
 41
0.0
 42
3.141592653589807
  0
ELLIPSE
  5
100
100
AcDbEntity
  8
USP-GEO
100
AcDbEllipse
 10
2.574536079570357
 20
3.074999999999988
 30
0.0
 11
0.0
 21
0.082
 31
0.0
210
0.0
220
0.0
230
1.0
 40
0.1736481776669304
 41
-3.141592653589793
 42
0.0
  0
LINE
  5
101
100
AcDbEntity
  8
USP-HID
100
AcDbLine
 10
2.574536079570357
 20
2.992999999999987
 30
0.0
 11
2.625746082726992
 21
2.992999999999987
 31
0.0
  0
LINE
  5
102
100
AcDbEntity
  8
USP-GEO
100
AcDbLine
 10
2.574536079570359
 20
2.993000000000002
 30
0.0
 11
2.565159077976346
 21
2.993000000000002
 31
0.0
  0
LINE
  5
103
100
AcDbEntity
  8
USP-HID
100
AcDbLine
 10
2.299620614758415
 20
3.094000000000015
 30
0.0
 11
2.299620614758415
 21
3.375
 31
0.0
  0
LINE
  5
104
100
AcDbEntity
  8
USP-HID
100
AcDbLine
 10
2.302413175911171
 20
3.375
 30
0.0
 11
2.302413175911171
 21
3.094000000000008
 31
0.0
  0
LINE
  5
105
100
AcDbEntity
  8
USP-GEO
100
AcDbLine
 10
2.702151280900444
 20
3.176776695296638
 30
0.0
 11
2.702151280900444
 21
3.375
 31
0.0
  0
LINE
  5
106
100
AcDbEntity
  8
USP-GEO
100
AcDbLine
 10
2.650941277743811
 20
3.375
 30
0.0
 11
2.650941277743811
 21
3.176776695296638
 31
0.0
  0
LINE
  5
107
100
AcDbEntity
  8
USP-HID
100
AcDbLine
 10
2.574536079570357
 20
3.156999999999989
 30
0.0
 11
2.625746082726992
 21
3.156999999999989
 31
0.0
  0
LINE
  5
108
100
AcDbEntity
  8
USP-GEO
100
AcDbLine
 10
2.565159077976346
 20
3.156999999999989
 30
0.0
 11
2.574536079570359
 21
3.156999999999989
 31
0.0
  0
ELLIPSE
  5
109
100
AcDbEntity
  8
USP-GEO
100
AcDbEllipse
 10
2.629235255535444
 20
3.176776695296638
 30
0.0
 11
0.0
 21
0.125
 31
0.0
210
0.0
220
0.0
230
1.0
 40
0.1736481776669304
 41
-2.356194490192349
 42
-1.570796326794896
  0
ELLIPSE
  5
10A
100
AcDbEntity
  8
USP-GEO
100
AcDbEllipse
 10
2.680445258692078
 20
3.176776695296638
 30
0.0
 11
0.0
 21
0.125
 31
0.0
210
0.0
220
0.0
230
1.0
 40
0.1736481776669304
 41
-2.356194490192322
 42
-1.570796326794896
  0
LINE
  5
10B
100
AcDbEntity
  8
USP-GEO
100
AcDbLine
 10
2.650941277743811
 20
3.375
 30
0.0
 11
2.702151280900446
 21
3.375
 31
0.0
  0
ENDBLK
  5
10D
100
AcDbEntity
  8
0
100
AcDbBlockEnd
  0
BLOCK
  5
12F
100
AcDbEntity
  8
0
100
AcDbBlockBegin
  2
MP3_T
 70
     0
 10
0.0
 20
0.0
 30
0.0
  3
MP3_T
  1

  0
TEXT
  5
110
100
AcDbEntity
  8
USP-TXT
100
AcDbText
 10
-0.752654361128093
 20
-1.318605004100867
 30
0.0
 40
0.296875
  1
MP3 - TOP VIEW
 72
     1
 11
1.325470638871907
 21
-1.318605004100867
 31
0.0
100
AcDbText
  0
LINE
  5
111
100
AcDbEntity
  8
USP-GEO
100
AcDbLine
 10
0.7500000000000054
 20
2.223564748796277
 30
0.0
 11
2.258866819178788
 21
2.223564748796277
 31
0.0
  0
LINE
  5
112
100
AcDbEntity
  8
USP-GEO
100
AcDbLine
 10
2.299620614758417
 20
2.275564748796284
 30
0.0
 11
0.7500000000000054
 21
2.275564748796284
 31
0.0
  0
LINE
  5
113
100
AcDbEntity
  8
USP-GEO
100
AcDbLine
 10
0.7133883476483245
 20
2.223564748796277
 30
0.0
 11
0.0366116523516809
 21
2.223564748796277
 31
0.0
  0
LINE
  5
114
100
AcDbEntity
  8
USP-GEO
100
AcDbLine
 10
0.7133883476483245
 20
2.275564748796284
 30
0.0
 11
0.0366116523516809
 21
2.275564748796284
 31
0.0
  0
LINE
  5
115
100
AcDbEntity
  8
USP-GEO
100
AcDbLine
 10
0.0366116523516809
 20
2.223564748796277
 30
0.0
 11
0.0
 21
2.223564748796277
 31
0.0
  0
LINE
  5
116
100
AcDbEntity
  8
USP-GEO
100
AcDbLine
 10
0.0366116523516809
 20
2.275564748796284
 30
0.0
 11
0.0
 21
2.275564748796284
 31
0.0
  0
LINE
  5
117
100
AcDbEntity
  8
USP-GEO
100
AcDbLine
 10
0.0000000000000018
 20
2.223564748796277
 30
0.0
 11
0.0000000000000018
 21
2.275564748796284
 31
0.0
  0
LINE
  5
118
100
AcDbEntity
  8
USP-HID
100
AcDbLine
 10
0.3910000000000036
 20
2.223564748796277
 30
0.0
 11
0.3910000000000036
 21
2.275564748796284
 31
0.0
  0
LINE
  5
119
100
AcDbEntity
  8
USP-HID
100
AcDbLine
 10
0.6090000000000071
 20
2.223564748796277
 30
0.0
 11
0.6090000000000071
 21
2.275564748796284
 31
0.0
  0
LINE
  5
11A
100
AcDbEntity
  8
USP-GEO
100
AcDbLine
 10
0.7133883476483245
 20
2.223564748796277
 30
0.0
 11
0.7500000000000054
 21
2.223564748796277
 31
0.0
  0
LINE
  5
11B
100
AcDbEntity
  8
USP-GEO
100
AcDbLine
 10
0.7500000000000054
 20
2.223564748796277
 30
0.0
 11
0.7500000000000054
 21
2.275564748796284
 31
0.0
  0
LINE
  5
11C
100
AcDbEntity
  8
USP-GEO
100
AcDbLine
 10
0.7500000000000054
 20
2.275564748796284
 30
0.0
 11
0.7133883476483245
 21
2.275564748796284
 31
0.0
  0
LINE
  5
11D
100
AcDbEntity
  8
USP-HID
100
AcDbLine
 10
0.9909999999999978
 20
2.223564748796277
 30
0.0
 11
0.9909999999999978
 21
2.275564748796284
 31
0.0
  0
LINE
  5
11E
100
AcDbEntity
  8
USP-HID
100
AcDbLine
 10
1.141000000000003
 20
2.223564748796277
 30
0.0
 11
1.141000000000003
 21
2.275564748796284
 31
0.0
  0
LINE
  5
11F
100
AcDbEntity
  8
USP-HID
100
AcDbLine
 10
1.209000000000001
 20
2.223564748796277
 30
0.0
 11
1.209000000000001
 21
2.275564748796284
 31
0.0
  0
LINE
  5
120
100
AcDbEntity
  8
USP-HID
100
AcDbLine
 10
1.359000000000007
 20
2.223564748796277
 30
0.0
 11
1.359000000000007
 21
2.275564748796284
 31
0.0
  0
LINE
  5
121
100
AcDbEntity
  8
USP-GEO
100
AcDbLine
 10
2.258866819178788
 20
2.223564748796277
 30
0.0
 11
2.650941277743813
 21
0.0
 31
0.0
  0
LINE
  5
122
100
AcDbEntity
  8
USP-GEO
100
AcDbLine
 10
2.702151280900446
 20
0.0090297052386887
 30
0.0
 11
2.302413175911173
 21
2.276057152672791
 31
0.0
  0
LINE
  5
123
100
AcDbEntity
  8
USP-GEO
100
AcDbLine
 10
2.650941277743813
 20
0.0
 30
0.0
 11
2.702151280900448
 21
0.0090297052386799
 31
0.0
  0
LINE
  5
124
100
AcDbEntity
  8
USP-HID
100
AcDbLine
 10
2.520705144493613
 20
0.7386058147591612
 30
0.0
 11
2.571915147650248
 21
0.7476355199978411
 31
0.0
  0
LINE
  5
125
100
AcDbEntity
  8
USP-HID
100
AcDbLine
 10
2.583044840276041
 20
0.3850598314277747
 30
0.0
 11
2.63425484343268
 21
0.3940895366664563
 31
0.0
  0
LINE
  5
126
100
AcDbEntity
  8
USP-HID
100
AcDbLine
 10
2.588775230139047
 20
0.3525611755783871
 30
0.0
 11
2.639985233295684
 21
0.3615908808170687
 31
0.0
  0
LINE
  5
127
100
AcDbEntity
  8
USP-HID
100
AcDbLine
 10
2.545189537544651
 20
0.599747921584445
 30
0.0
 11
2.596399540701284
 21
0.6087776268231249
 31
0.0
  0
LINE
  5
128
100
AcDbEntity
  8
USP-HID
100
AcDbLine
 10
2.55091992740766
 20
0.5672492657350361
 30
0.0
 11
2.602129930564295
 21
0.576278970973716
 31
0.0
  0
LINE
  5
129
100
AcDbEntity
  8
USP-HID
100
AcDbLine
 10
2.435443889259149
 20
1.222146421488162
 30
0.0
 11
2.486653892415784
 21
1.231176126726841
 31
0.0
  0
LINE
  5
12A
100
AcDbEntity
  8
USP-HID
100
AcDbLine
 10
2.397588586527762
 20
1.436834511644811
 30
0.0
 11
2.448798589684395
 21
1.44586421688349
 31
0.0
  0
LINE
  5
12B
100
AcDbEntity
  8
USP-HID
100
AcDbLine
 10
2.276555806693908
 20
2.123245515494332
 30
0.0
 11
2.327765809850543
 21
2.132275220733012
 31
0.0
  0
LINE
  5
12C
100
AcDbEntity
  8
USP-HID
100
AcDbLine
 10
2.156999999990446
 20
2.223564748796277
 30
0.0
 11
2.156999999990446
 21
2.275564748796284
 31
0.0
  0
LINE
  5
12D
100
AcDbEntity
  8
USP-HID
100
AcDbLine
 10
2.302500000000007
 20
2.275564748796284
 30
0.0
 11
2.299620614758417
 21
2.275564748796284
 31
0.0
  0
LINE
  5
12E
100
AcDbEntity
  8
USP-GEO
100
AcDbLine
 10
2.299620614758417
 20
2.275564748796281
 30
0.0
 11
2.302413175911173
 21
2.276057152672789
 31
0.0
  0
ENDBLK
  5
130
100
AcDbEntity
  8
0
100
AcDbBlockEnd
  0
ENDSEC
  0
SECTION
  2
ENTITIES
  0
INSERT
  5
3
100
AcDbEntity
  8
USP
100
AcDbBlockReference
  2
MP3_S
 10
0.9290971308986613
 20
1.105104114648462
 30
0.0
  0
INSERT
  5
88
100
AcDbEntity
  8
USP
100
AcDbBlockReference
  2
MP3_F
 10
8.404270349472451
 20
1.105104114648462
 30
0.0
  0
INSERT
  5
10E
100
AcDbEntity
  8
USP
100
AcDbBlockReference
  2
MP3_T
 10
8.404270349472449
 20
11.28892745238232
 30
0.0
  0
ENDSEC
  0
SECTION
  2
OBJECTS
  0
DICTIONARY
  5
145
102
{ACAD_XDICTIONARY
360
146
102
}
100
AcDbDictionary
  3
ACAD_GROUP
350
143
  3
ACAD_MLINESTYLE
350
144
1001
ACAD
1000
TREAT_AS_HARD
1070
     0
  0
DICTIONARY
  5
10
100
AcDbDictionary
280
     1
1001
ACAD
1000
TREAT_AS_HARD
1070
     1
  0
DICTIONARY
  5
131
100
AcDbDictionary
280
     1
  0
DICTIONARY
  5
135
100
AcDbDictionary
280
     1
  0
DICTIONARY
  5
146
100
AcDbDictionary
280
     1
  0
DICTIONARY
  5
143
102
{ACAD_REACTORS
330
145
102
}
100
AcDbDictionary
1001
ACAD
1000
TREAT_AS_HARD
1070
     0
  0
DICTIONARY
  5
144
102
{ACAD_REACTORS
330
145
102
}
100
AcDbDictionary
  3
STANDARD
350
147
1001
ACAD
1000
TREAT_AS_HARD
1070
     0
  0
MLINESTYLE
  5
147
102
{ACAD_REACTORS
330
144
102
}
100
AcDbMlineStyle
  2
STANDARD
 70
     0
  3

 62
     0
 51
90.0
 52
90.0
 71
     2
 49
0.5
 62
   256
  6
BYLAYER
 49
-0.5
 62
   256
  6
BYLAYER
  0
ENDSEC
  0
EOF
