  0
SECTION
  2
HEADER
  9
$ACADVER
  1
AC1014
  9
$ACADMAINTVER
 70
     8
  9
$DWGCODEPAGE
  3
ANSI_1252
  9
$INSBASE
 10
0.0
 20
0.0
 30
0.0
  9
$EXTMIN
 10
-0.2422037042501173
 20
0.0006101605659339
 30
0.0
  9
$EXTMAX
 10
14.24111738149083
 20
40.26510400033859
 30
0.0
  9
$LIMMIN
 10
0.0
 20
0.0
  9
$LIMMAX
 10
12.0
 20
9.0
  9
$ORTHOMODE
 70
     1
  9
$REGENMODE
 70
     1
  9
$FILLMODE
 70
     1
  9
$QTEXTMODE
 70
     0
  9
$MIRRTEXT
 70
     0
  9
$DRAGMODE
 70
     2
  9
$LTSCALE
 40
1.5
  9
$OSMODE
 70
     1
  9
$ATTMODE
 70
     1
  9
$TEXTSIZE
 40
0.25
  9
$TRACEWID
 40
0.05
  9
$TEXTSTYLE
  7
STANDARD
  9
$CLAYER
  8
USP
  9
$CELTYPE
  6
BYLAYER
  9
$CECOLOR
 62
   256
  9
$CELTSCALE
 40
1.0
  9
$DELOBJ
 70
     1
  9
$DISPSILH
 70
     1
  9
$DIMSCALE
 40
5.0
  9
$DIMASZ
 40
0.125
  9
$DIMEXO
 40
0.0625
  9
$DIMDLI
 40
0.38
  9
$DIMRND
 40
0.0
  9
$DIMDLE
 40
0.0
  9
$DIMEXE
 40
0.09375
  9
$DIMTP
 40
0.0
  9
$DIMTM
 40
0.0
  9
$DIMTXT
 40
0.109375
  9
$DIMCEN
 40
0.0
  9
$DIMTSZ
 40
0.0
  9
$DIMTOL
 70
     0
  9
$DIMLIM
 70
     0
  9
$DIMTIH
 70
     1
  9
$DIMTOH
 70
     1
  9
$DIMSE1
 70
     0
  9
$DIMSE2
 70
     0
  9
$DIMTAD
 70
     0
  9
$DIMZIN
 70
     8
  9
$DIMBLK
  1

  9
$DIMASO
 70
     1
  9
$DIMSHO
 70
     1
  9
$DIMPOST
  1

  9
$DIMAPOST
  1

  9
$DIMALT
 70
     0
  9
$DIMALTD
 70
     2
  9
$DIMALTF
 40
25.4
  9
$DIMLFAC
 40
1.0
  9
$DIMTOFL
 70
     0
  9
$DIMTVP
 40
0.0
  9
$DIMTIX
 70
     0
  9
$DIMSOXD
 70
     0
  9
$DIMSAH
 70
     0
  9
$DIMBLK1
  1

  9
$DIMBLK2
  1

  9
$DIMSTYLE
  2
STANDARD
  9
$DIMCLRD
 70
   256
  9
$DIMCLRE
 70
   256
  9
$DIMCLRT
 70
   256
  9
$DIMTFAC
 40
1.0
  9
$DIMGAP
 40
0.09
  9
$DIMJUST
 70
     0
  9
$DIMSD1
 70
     0
  9
$DIMSD2
 70
     0
  9
$DIMTOLJ
 70
     1
  9
$DIMTZIN
 70
     0
  9
$DIMALTZ
 70
     0
  9
$DIMALTTZ
 70
     0
  9
$DIMFIT
 70
     3
  9
$DIMUPT
 70
     1
  9
$DIMUNIT
 70
     7
  9
$DIMDEC
 70
     4
  9
$DIMTDEC
 70
     4
  9
$DIMALTU
 70
     2
  9
$DIMALTTD
 70
     2
  9
$DIMTXSTY
  7
STANDARD
  9
$DIMAUNIT
 70
     0
  9
$LUNITS
 70
     5
  9
$LUPREC
 70
     6
  9
$SKETCHINC
 40
0.1
  9
$FILLETRAD
 40
0.0
  9
$AUNITS
 70
     0
  9
$AUPREC
 70
     1
  9
$MENU
  1
CUSTOM
  9
$ELEVATION
 40
0.0
  9
$PELEVATION
 40
0.0
  9
$THICKNESS
 40
0.0
  9
$LIMCHECK
 70
     0
  9
$BLIPMODE
 70
     0
  9
$CHAMFERA
 40
0.0
  9
$CHAMFERB
 40
0.0
  9
$CHAMFERC
 40
0.0
  9
$CHAMFERD
 40
0.0
  9
$SKPOLY
 70
     0
  9
$TDCREATE
 40
2451263.621564698
  9
$TDUPDATE
 40
2452990.857489143
  9
$TDINDWG
 40
0.9662185301
  9
$TDUSRTIMER
 40
0.9662185301
  9
$USRTIMER
 70
     1
  9
$ANGBASE
 50
0.0
  9
$ANGDIR
 70
     0
  9
$PDMODE
 70
     0
  9
$PDSIZE
 40
0.0
  9
$PLINEWID
 40
0.0
  9
$COORDS
 70
     2
  9
$SPLFRAME
 70
     0
  9
$SPLINETYPE
 70
     6
  9
$SPLINESEGS
 70
     8
  9
$ATTDIA
 70
     0
  9
$ATTREQ
 70
     0
  9
$HANDLING
 70
     1
  9
$HANDSEED
  5
C1
  9
$SURFTAB1
 70
     6
  9
$SURFTAB2
 70
     6
  9
$SURFTYPE
 70
     6
  9
$SURFU
 70
     6
  9
$SURFV
 70
     6
  9
$UCSNAME
  2

  9
$UCSORG
 10
0.0
 20
0.0
 30
0.0
  9
$UCSXDIR
 10
1.0
 20
0.0
 30
0.0
  9
$UCSYDIR
 10
0.0
 20
1.0
 30
0.0
  9
$PUCSNAME
  2

  9
$PUCSORG
 10
0.0
 20
0.0
 30
0.0
  9
$PUCSXDIR
 10
1.0
 20
0.0
 30
0.0
  9
$PUCSYDIR
 10
0.0
 20
1.0
 30
0.0
  9
$USERI1
 70
     0
  9
$USERI2
 70
     0
  9
$USERI3
 70
     0
  9
$USERI4
 70
     0
  9
$USERI5
 70
     0
  9
$USERR1
 40
0.0
  9
$USERR2
 40
0.0
  9
$USERR3
 40
0.0
  9
$USERR4
 40
0.0
  9
$USERR5
 40
0.0
  9
$WORLDVIEW
 70
     1
  9
$SHADEDGE
 70
     3
  9
$SHADEDIF
 70
    70
  9
$TILEMODE
 70
     1
  9
$MAXACTVP
 70
    16
  9
$PINSBASE
 10
0.0
 20
0.0
 30
0.0
  9
$PLIMCHECK
 70
     0
  9
$PEXTMIN
 10
1.000000000000000E+20
 20
1.000000000000000E+20
 30
1.000000000000000E+20
  9
$PEXTMAX
 10
-1.000000000000000E+20
 20
-1.000000000000000E+20
 30
-1.000000000000000E+20
  9
$PLIMMIN
 10
0.0
 20
0.0
  9
$PLIMMAX
 10
12.0
 20
9.0
  9
$UNITMODE
 70
     0
  9
$VISRETAIN
 70
     0
  9
$PLINEGEN
 70
     0
  9
$PSLTSCALE
 70
     0
  9
$TREEDEPTH
 70
  3020
  9
$PICKSTYLE
 70
     1
  9
$CMLSTYLE
  2
STANDARD
  9
$CMLJUST
 70
     0
  9
$CMLSCALE
 40
1.0
  9
$PROXYGRAPHICS
 70
     1
  9
$MEASUREMENT
 70
     0
  0
ENDSEC
  0
SECTION
  2
CLASSES
  0
CLASS
  1
ACDBDICTIONARYWDFLT
  2
AcDbDictionaryWithDefault
  3
AutoCAD 2000
 90
        0
280
     0
281
     0
  0
CLASS
  1
ACDBPLACEHOLDER
  2
AcDbPlaceHolder
  3
AutoCAD 2000
 90
        0
280
     0
281
     0
  0
CLASS
  1
LAYOUT
  2
AcDbLayout
  3
AutoCAD 2000
 90
        0
280
     0
281
     0
  0
CLASS
  1
DICTIONARYVAR
  2
AcDbDictionaryVar
  3
"AutoCAD"
 90
        0
280
     0
281
     0
  0
CLASS
  1
SORTENTSTABLE
  2
AcDbSortentsTable
  3
"AutoCAD"
 90
        0
280
     0
281
     0
  0
CLASS
  1
LONG_TRANSACTION
  2
AcDbLongTransaction
  3
AutoCAD 2000
 90
        0
280
     0
281
     0
  0
CLASS
  1
LWPOLYLINE
  2
AcDbPolyline
  3
"AutoCAD"
 90
        0
280
     0
281
     1
  0
CLASS
  1
HATCH
  2
AcDbHatch
  3
"ACAD_SEDONA"
 90
        0
280
     0
281
     1
  0
CLASS
  1
XRECORD
  2
AcDbXrecord
  3
"<Built In>"
 90
        0
280
     0
281
     0
  0
CLASS
  1
LONG_TRANSACTION
  2
AcDbLongTransaction
  3
AutoCAD 2000
 90
        0
280
     0
281
     0
  0
CLASS
  1
LWPOLYLINE
  2
AcDbPolyline
  3
"AutoCAD"
 90
        0
280
     0
281
     1
  0
CLASS
  1
HATCH
  2
AcDbHatch
  3
"ACAD_SEDONA"
 90
        0
280
     0
281
     1
  0
CLASS
  1
XRECORD
  2
AcDbXrecord
  3
"<Built In>"
 90
        0
280
     0
281
     0
  0
CLASS
  1
LONG_TRANSACTION
  2
AcDbLongTransaction
  3
AutoCAD 2000
 90
        0
280
     0
281
     0
  0
CLASS
  1
LWPOLYLINE
  2
AcDbPolyline
  3
"AutoCAD"
 90
        0
280
     0
281
     1
  0
CLASS
  1
HATCH
  2
AcDbHatch
  3
"ACAD_SEDONA"
 90
        0
280
     0
281
     1
  0
CLASS
  1
XRECORD
  2
AcDbXrecord
  3
"<Built In>"
 90
        0
280
     0
281
     0
  0
CLASS
  1
LONG_TRANSACTION
  2
AcDbLongTransaction
  3
AutoCAD 2000
 90
        0
280
     0
281
     0
  0
CLASS
  1
LWPOLYLINE
  2
AcDbPolyline
  3
"AutoCAD"
 90
        0
280
     0
281
     1
  0
CLASS
  1
HATCH
  2
AcDbHatch
  3
"ACAD_SEDONA"
 90
        0
280
     0
281
     1
  0
CLASS
  1
XRECORD
  2
AcDbXrecord
  3
"<Built In>"
 90
        0
280
     0
281
     0
  0
ENDSEC
  0
SECTION
  2
TABLES
  0
TABLE
  2
VPORT
  5
AF
100
AcDbSymbolTable
 70
     1
  0
VPORT
  5
B0
100
AcDbSymbolTableRecord
100
AcDbViewportTableRecord
  2
*ACTIVE
 70
     0
 10
0.0
 20
0.0
 11
1.0
 21
1.0
 12
-12.86337156292881
 22
33.58729996337283
 13
0.0
 23
0.0
 14
1.0
 24
1.0
 15
0.0
 25
0.0
 16
0.0
 26
0.0
 36
1.0
 17
23.09603071721725
 27
-10.27010416511325
 37
-10.44050274849355
 40
46.87673927329121
 41
1.45617529880478
 42
50.0
 43
10.55307667737539
 44
10.55307667737539
 50
0.0
 51
0.0
 71
     0
 72
   100
 73
     1
 74
     1
 75
     0
 76
     0
 77
     0
 78
     0
  0
ENDTAB
  0
TABLE
  2
LTYPE
  5
AA
100
AcDbSymbolTable
 70
     1
  0
LTYPE
  5
AB
100
AcDbSymbolTableRecord
100
AcDbLinetypeTableRecord
  2
BYBLOCK
 70
     0
  3

 72
    65
 73
     0
 40
0.0
  0
LTYPE
  5
AC
100
AcDbSymbolTableRecord
100
AcDbLinetypeTableRecord
  2
BYLAYER
 70
     0
  3

 72
    65
 73
     0
 40
0.0
  0
LTYPE
  5
5
100
AcDbSymbolTableRecord
100
AcDbLinetypeTableRecord
  2
CONTINUOUS
 70
     0
  3
Solid line
 72
    65
 73
     0
 40
0.0
  0
ENDTAB
  0
TABLE
  2
LAYER
  5
A8
100
AcDbSymbolTable
 70
     5
  0
LAYER
  5
38
100
AcDbSymbolTableRecord
100
AcDbLayerTableRecord
  2
0
 70
     0
 62
     7
  6
CONTINUOUS
  0
LAYER
  5
18
102
{ACAD_XDICTIONARY
360
19
102
}
100
AcDbSymbolTableRecord
100
AcDbLayerTableRecord
  2
USP-GEO
 70
     0
 62
     7
  6
CONTINUOUS
  0
LAYER
  5
33
102
{ACAD_XDICTIONARY
360
34
102
}
100
AcDbSymbolTableRecord
100
AcDbLayerTableRecord
  2
USP-TXT
 70
     0
 62
     7
  6
CONTINUOUS
  0
LAYER
  5
8
102
{ACAD_XDICTIONARY
360
9
102
}
100
AcDbSymbolTableRecord
100
AcDbLayerTableRecord
  2
USP-HID
 70
     0
 62
     7
  6
CONTINUOUS
  0
LAYER
  5
4
100
AcDbSymbolTableRecord
100
AcDbLayerTableRecord
  2
USP
 70
     0
 62
     7
  6
CONTINUOUS
  0
ENDTAB
  0
TABLE
  2
STYLE
  5
A9
100
AcDbSymbolTable
 70
     1
  0
STYLE
  5
36
100
AcDbSymbolTableRecord
100
AcDbTextStyleTableRecord
  2
STANDARD
 70
     0
 40
0.0
 41
1.0
 50
0.0
 71
     0
 42
0.25
  3
txt
  4

  0
ENDTAB
  0
TABLE
  2
VIEW
  5
AD
100
AcDbSymbolTable
 70
     0
  0
ENDTAB
  0
TABLE
  2
UCS
  5
AE
100
AcDbSymbolTable
 70
     0
  0
ENDTAB
  0
TABLE
  2
APPID
  5
B1
100
AcDbSymbolTable
 70
     1
  0
APPID
  5
B2
100
AcDbSymbolTableRecord
100
AcDbRegAppTableRecord
  2
ACAD
 70
     0
  0
ENDTAB
  0
TABLE
  2
DIMSTYLE
  5
B3
100
AcDbSymbolTable
 70
     1
  0
DIMSTYLE
105
BB
102
{ACAD_XDICTIONARY
360
BC
102
}
100
AcDbSymbolTableRecord
100
AcDbDimStyleTableRecord
  2
STANDARD
 70
     0
  3

  4

  5

  6

  7

 40
1.0
 41
0.125
 42
0.0625
 43
0.38
 44
0.09375
 45
0.0
 46
0.0
 47
0.0
 48
0.0
140
0.109375
141
0.0
142
0.0
143
25.4
144
1.0
145
0.0
146
1.0
147
0.09
 71
     0
 72
     0
 73
     1
 74
     1
 75
     0
 76
     0
 77
     0
 78
     8
170
     0
171
     2
172
     0
173
     0
174
     0
175
     0
176
     0
177
     0
178
     0
270
     7
271
     4
272
     4
273
     2
274
     2
340
36
275
     0
280
     0
281
     0
282
     0
283
     1
284
     0
285
     0
286
     0
287
     3
288
     0
  0
ENDTAB
  0
TABLE
  2
BLOCK_RECORD
  5
1
100
AcDbSymbolTable
 70
     3
  0
BLOCK_RECORD
  5
2
102
{ACAD_XDICTIONARY
360
9F
102
}
100
AcDbSymbolTableRecord
100
AcDbBlockTableRecord
  2
*MODEL_SPACE
  0
BLOCK_RECORD
  5
A3
102
{ACAD_XDICTIONARY
360
A4
102
}
100
AcDbSymbolTableRecord
100
AcDbBlockTableRecord
  2
*PAPER_SPACE
  0
BLOCK_RECORD
  5
6
100
AcDbSymbolTableRecord
100
AcDbBlockTableRecord
  2
LTTI31PR_T
  0
BLOCK_RECORD
  5
3B
100
AcDbSymbolTableRecord
100
AcDbBlockTableRecord
  2
LTTI31PR_F
  0
BLOCK_RECORD
  5
6C
100
AcDbSymbolTableRecord
100
AcDbBlockTableRecord
  2
LTTI31PR_S
  0
ENDTAB
  0
ENDSEC
  0
SECTION
  2
BLOCKS
  0
BLOCK
  5
A1
100
AcDbEntity
  8
0
100
AcDbBlockBegin
  2
*MODEL_SPACE
 70
     0
 10
0.0
 20
0.0
 30
0.0
  3
*MODEL_SPACE
  1

  0
ENDBLK
  5
A2
100
AcDbEntity
  8
0
100
AcDbBlockEnd
  0
BLOCK
  5
A6
100
AcDbEntity
 67
     1
  8
0
100
AcDbBlockBegin
  2
*PAPER_SPACE
 70
     0
 10
0.0
 20
0.0
 30
0.0
  3
*PAPER_SPACE
  1

  0
ENDBLK
  5
A7
100
AcDbEntity
 67
     1
  8
0
100
AcDbBlockEnd
  0
BLOCK
  5
37
100
AcDbEntity
  8
0
100
AcDbBlockBegin
  2
LTTI31PR_T
 70
     0
 10
0.0
 20
0.0
 30
0.0
  3
LTTI31PR_T
  1

  0
LWPOLYLINE
  5
7
100
AcDbEntity
  8
USP-HID
100
AcDbPolyline
 90
        2
 70
   128
 43
0.0
 10
3.737564753572257
 20
0.0802914017953214
 10
0.0
 20
0.0802914017953214
  0
LWPOLYLINE
  5
B
100
AcDbEntity
  8
USP-HID
100
AcDbPolyline
 90
        2
 70
   128
 43
0.0
 10
2.049438030825605
 20
2.691769245188183
 10
1.728272423644312
 20
2.691769245188183
  0
LWPOLYLINE
  5
C
100
AcDbEntity
  8
USP-HID
100
AcDbPolyline
 90
        2
 70
   128
 43
0.0
 10
1.728272423644312
 20
2.611477843392854
 10
2.009292329927941
 20
2.611477843392854
  0
LWPOLYLINE
  5
D
100
AcDbEntity
  8
USP-HID
100
AcDbPolyline
 90
        2
 70
   128
 43
0.0
 10
3.737564753572257
 20
0.0401457008976607
 10
0.0
 20
0.0401457008976607
  0
LWPOLYLINE
  5
E
100
AcDbEntity
  8
USP-HID
100
AcDbPolyline
 90
        2
 70
   128
 43
0.0
 10
0.7647756021004462
 20
2.731914946085844
 10
0.7647756021004462
 20
2.691769245188183
  0
LWPOLYLINE
  5
F
100
AcDbEntity
  8
USP-HID
100
AcDbPolyline
 90
        2
 70
   128
 43
0.0
 10
0.6041927985098035
 20
2.731914946085844
 10
0.6041927985098035
 20
2.691769245188183
  0
LWPOLYLINE
  5
10
100
AcDbEntity
  8
USP-HID
100
AcDbPolyline
 90
        2
 70
   128
 43
0.0
 10
1.166232611077059
 20
2.731914946085844
 10
1.166232611077059
 20
2.691769245188183
  0
LWPOLYLINE
  5
11
100
AcDbEntity
  8
USP-HID
100
AcDbPolyline
 90
        2
 70
   128
 43
0.0
 10
0.965504106588753
 20
2.731914946085844
 10
0.965504106588753
 20
2.691769245188183
  0
LWPOLYLINE
  5
12
100
AcDbEntity
  8
USP-HID
100
AcDbPolyline
 90
        2
 70
   128
 43
0.0
 10
3.133371955062454
 20
2.731914946085844
 10
3.133371955062454
 20
2.691769245188183
  0
LWPOLYLINE
  5
13
100
AcDbEntity
  8
USP-HID
100
AcDbPolyline
 90
        2
 70
   128
 43
0.0
 10
2.972789151471811
 20
2.731914946085844
 10
2.972789151471811
 20
2.691769245188183
  0
LWPOLYLINE
  5
14
100
AcDbEntity
  8
USP-HID
100
AcDbPolyline
 90
        2
 70
   128
 43
0.0
 10
2.772060646983504
 20
2.731914946085844
 10
2.772060646983504
 20
2.691769245188183
  0
LWPOLYLINE
  5
15
100
AcDbEntity
  8
USP-HID
100
AcDbPolyline
 90
        2
 70
   128
 43
0.0
 10
2.611477843392862
 20
2.731914946085844
 10
2.611477843392862
 20
2.691769245188183
  0
ARC
  5
16
100
AcDbEntity
  8
USP-HID
100
AcDbCircle
 10
1.879434012313357
 20
2.72806361722786
 30
0.0
 40
0.1250000000000007
100
AcDbArc
 50
178.0131093576604
 51
1.698776241981777
  0
CIRCLE
  5
17
100
AcDbEntity
  8
USP-GEO
100
AcDbCircle
 10
1.879434012313236
 20
1.353063617227846
 30
0.0
 40
0.34375
  0
LWPOLYLINE
  5
1B
100
AcDbEntity
  8
USP-GEO
100
AcDbPolyline
 90
        2
 70
   128
 43
0.0
 10
3.737564753572257
 20
2.691769245188183
 10
2.049438030825605
 20
2.691769245188183
  0
LWPOLYLINE
  5
1C
100
AcDbEntity
  8
USP-GEO
100
AcDbPolyline
 90
        2
 70
   128
 43
0.0
 10
3.737564753572257
 20
2.691769245188183
 10
3.737564753572257
 20
0.4014570089766068
  0
LWPOLYLINE
  5
1D
100
AcDbEntity
  8
USP-GEO
100
AcDbPolyline
 90
        2
 70
   128
 43
0.0
 10
0.0
 20
0.4014570089766068
 10
0.0
 20
2.691769245188183
  0
LWPOLYLINE
  5
1E
100
AcDbEntity
  8
USP-GEO
100
AcDbPolyline
 90
        2
 70
   128
 43
0.0
 10
1.688126722746652
 20
2.691769245188183
 10
0.0
 20
2.691769245188183
  0
LWPOLYLINE
  5
1F
100
AcDbEntity
  8
USP-GEO
100
AcDbPolyline
 90
        2
 70
   128
 43
0.0
 10
2.049438030825605
 20
2.611477843392854
 10
2.049438030825605
 20
2.691769245188183
  0
LWPOLYLINE
  5
20
100
AcDbEntity
  8
USP-GEO
100
AcDbPolyline
 90
        2
 70
   128
 43
0.0
 10
1.688126722746652
 20
2.691769245188183
 10
1.688126722746652
 20
2.611477843392854
  0
LWPOLYLINE
  5
21
100
AcDbEntity
  8
USP-GEO
100
AcDbPolyline
 90
        2
 70
   128
 43
0.0
 10
1.728272423644312
 20
2.691769245188183
 10
1.688126722746652
 20
2.691769245188183
  0
LWPOLYLINE
  5
22
100
AcDbEntity
  8
USP-GEO
100
AcDbPolyline
 90
        2
 70
   128
 43
0.0
 10
2.049438030825605
 20
2.691769245188183
 10
2.051445315870488
 20
2.691769245188183
  0
LWPOLYLINE
  5
23
100
AcDbEntity
  8
USP-GEO
100
AcDbPolyline
 90
        2
 70
   128
 43
0.0
 10
2.009292329927941
 20
2.611477843392854
 10
2.049438030825605
 20
2.611477843392854
  0
LWPOLYLINE
  5
24
100
AcDbEntity
  8
USP-GEO
100
AcDbPolyline
 90
        2
 70
   128
 43
0.0
 10
1.688126722746652
 20
2.611477843392854
 10
1.728272423644312
 20
2.611477843392854
  0
LWPOLYLINE
  5
25
100
AcDbEntity
  8
USP-GEO
100
AcDbPolyline
 90
        2
 70
   128
 43
0.0
 10
3.737564753572257
 20
2.731914946085844
 10
0.0
 20
2.731914946085844
  0
LWPOLYLINE
  5
26
100
AcDbEntity
  8
USP-GEO
100
AcDbPolyline
 90
        2
 70
   128
 43
0.0
 10
3.737564753572257
 20
2.691769245188183
 10
3.737564753572257
 20
2.731914946085844
  0
LWPOLYLINE
  5
27
100
AcDbEntity
  8
USP-GEO
100
AcDbPolyline
 90
        2
 70
   128
 43
0.0
 10
0.0
 20
2.731914946085844
 10
0.0
 20
2.691769245188183
  0
LWPOLYLINE
  5
28
100
AcDbEntity
  8
USP-GEO
100
AcDbPolyline
 90
        2
 70
   128
 43
0.0
 10
0.0
 20
2.691769245188183
 10
0.0020072850448827
 20
2.691769245188183
  0
LWPOLYLINE
  5
29
100
AcDbEntity
  8
USP-GEO
100
AcDbPolyline
 90
        2
 70
   128
 43
0.0
 10
3.737564753572257
 20
2.691769245188183
 10
3.73957203861714
 20
2.691769245188183
  0
LWPOLYLINE
  5
2A
100
AcDbEntity
  8
USP-GEO
100
AcDbPolyline
 90
        2
 70
   128
 43
0.0
 10
0.0
 20
0.4014570089766068
 10
0.0
 20
0.120437102692982
  0
LWPOLYLINE
  5
2B
100
AcDbEntity
  8
USP-GEO
100
AcDbPolyline
 90
        2
 70
   128
 43
0.0
 10
3.737564753572257
 20
0.4014570089766068
 10
3.737564753572257
 20
0.120437102692982
  0
LWPOLYLINE
  5
2C
100
AcDbEntity
  8
USP-GEO
100
AcDbPolyline
 90
        2
 70
   128
 43
0.0
 10
0.0
 20
0.120437102692982
 10
0.0
 20
0.0
  0
LWPOLYLINE
  5
2D
100
AcDbEntity
  8
USP-GEO
100
AcDbPolyline
 90
        2
 70
   128
 43
0.0
 10
3.737564753572257
 20
0.120437102692982
 10
3.737564753572257
 20
0.0
  0
LWPOLYLINE
  5
2E
100
AcDbEntity
  8
USP-GEO
100
AcDbPolyline
 90
        2
 70
   128
 43
0.0
 10
3.737564753572257
 20
0.0
 10
0.0
 20
0.0
  0
LWPOLYLINE
  5
2F
100
AcDbEntity
  8
USP-GEO
100
AcDbPolyline
 90
        2
 70
   128
 43
0.0
 10
0.0
 20
2.691769245188183
 10
3.737564753572257
 20
2.691769245188183
  0
LWPOLYLINE
  5
30
100
AcDbEntity
  8
USP-GEO
100
AcDbPolyline
 90
        2
 70
   128
 43
0.0
 10
0.0
 20
0.4014570089766068
 10
3.737564753572257
 20
0.4014570089766068
  0
ARC
  5
31
100
AcDbEntity
  8
USP-GEO
100
AcDbCircle
 10
1.879434012313357
 20
2.72806361722786
 30
0.0
 40
0.1830000000000007
100
AcDbArc
 50
190.7423532371235
 51
347.9487705122754
  0
TEXT
  5
32
100
AcDbEntity
  8
USP-TXT
100
AcDbText
 10
-0.5556967898805368
 20
-1.582831673894183
 30
0.0
 40
0.296875
  1
LTTI31 - TOP VIEW
 72
     1
 11
1.868782376786128
 21
-1.582831673894183
 31
0.0
100
AcDbText
  0
ENDBLK
  5
39
100
AcDbEntity
  8
0
100
AcDbBlockEnd
  0
BLOCK
  5
69
100
AcDbEntity
  8
0
100
AcDbBlockBegin
  2
LTTI31PR_F
 70
     0
 10
0.0
 20
0.0
 30
0.0
  3
LTTI31PR_F
  1

  0
CIRCLE
  5
3C
100
AcDbEntity
  8
USP-HID
100
AcDbCircle
 10
1.879434012313357
 20
0.394506904633765
 30
0.0
 40
0.125
  0
LWPOLYLINE
  5
3D
100
AcDbEntity
  8
USP-HID
100
AcDbPolyline
 90
        2
 70
   128
 43
0.0
 10
3.737564753572257
 20
0.0401457008976607
 10
0.0
 20
0.0401457008976607
  0
LWPOLYLINE
  5
3E
100
AcDbEntity
  8
USP-HID
100
AcDbPolyline
 90
        2
 70
   128
 43
0.0
 10
3.737564753572257
 20
0.3211656071812925
 10
0.0
 20
0.3211656071812925
  0
ARC
  5
3F
100
AcDbEntity
  8
USP-HID
100
AcDbCircle
 10
1.879434012313357
 20
0.394506904633765
 30
0.0
 40
0.175456547327252
100
AcDbArc
 50
272.7834430411872
 51
2.341062422896625
  0
ARC
  5
40
100
AcDbEntity
  8
USP-HID
100
AcDbCircle
 10
1.879434012313357
 20
0.394506904633765
 30
0.0
 40
0.175456547327252
100
AcDbArc
 50
177.9193861649769
 51
272.7834430411872
  0
LWPOLYLINE
  5
41
100
AcDbEntity
  8
USP-HID
100
AcDbPolyline
 90
        2
 70
   128
 43
0.0
 10
3.737564753572257
 20
0.0802914017953214
 10
0.0
 20
0.0802914017953214
  0
LWPOLYLINE
  5
42
100
AcDbEntity
  8
USP-HID
100
AcDbPolyline
 90
        2
 70
   128
 43
0.0
 10
3.737564753572257
 20
0.3211656071812925
 10
0.0
 20
0.3211656071812925
  0
LWPOLYLINE
  5
43
100
AcDbEntity
  8
USP-HID
100
AcDbPolyline
 90
        2
 70
   128
 43
0.0
 10
2.049438030825605
 20
0.2408742053859711
 10
1.688126722746652
 20
0.2408742053859711
  0
LWPOLYLINE
  5
44
100
AcDbEntity
  8
USP-HID
100
AcDbPolyline
 90
        2
 70
   128
 43
0.0
 10
2.049438030825605
 20
0.2408742053859711
 10
2.049438030825605
 20
0.3211656071812925
  0
LWPOLYLINE
  5
45
100
AcDbEntity
  8
USP-HID
100
AcDbPolyline
 90
        2
 70
   128
 43
0.0
 10
1.688126722746652
 20
0.2408742053859711
 10
1.688126722746652
 20
0.3211656071812925
  0
LWPOLYLINE
  5
46
100
AcDbEntity
  8
USP-HID
100
AcDbPolyline
 90
        2
 70
   128
 43
0.0
 10
2.210020834416248
 20
0.3211656071812925
 10
2.210020834416248
 20
0.0802914017953214
  0
LWPOLYLINE
  5
47
100
AcDbEntity
  8
USP-HID
100
AcDbPolyline
 90
        2
 70
   128
 43
0.0
 10
1.527543919156009
 20
0.3211656071812925
 10
1.527543919156009
 20
0.0802914017953214
  0
LWPOLYLINE
  5
48
100
AcDbEntity
  8
USP-HID
100
AcDbPolyline
 90
        2
 70
   128
 43
0.0
 10
1.527543919156009
 20
0.0
 10
1.527543919156009
 20
0.0401457008976607
  0
LWPOLYLINE
  5
49
100
AcDbEntity
  8
USP-HID
100
AcDbPolyline
 90
        2
 70
   128
 43
0.0
 10
2.210020834416248
 20
0.0
 10
2.210020834416248
 20
0.0401457008976607
  0
LWPOLYLINE
  5
4A
100
AcDbEntity
  8
USP-GEO
100
AcDbPolyline
 90
        2
 70
   128
 43
0.0
 10
0.0
 20
0.4014570089766139
 10
0.0
 20
0.2810199062836318
  0
LWPOLYLINE
  5
4B
100
AcDbEntity
  8
USP-GEO
100
AcDbPolyline
 90
        2
 70
   128
 43
0.0
 10
3.737564753572257
 20
0.4014570089766139
 10
0.0
 20
0.4014570089766139
  0
LWPOLYLINE
  5
4C
100
AcDbEntity
  8
USP-GEO
100
AcDbPolyline
 90
        2
 70
   128
 43
0.0
 10
3.737564753572257
 20
0.4014570089766139
 10
3.737564753572257
 20
0.2810199062836318
  0
LWPOLYLINE
  5
4D
100
AcDbEntity
  8
USP-GEO
100
AcDbPolyline
 90
        2
 70
   128
 43
0.0
 10
0.0
 20
0.2810199062836318
 10
0.0
 20
0.120437102692982
  0
LWPOLYLINE
  5
4E
100
AcDbEntity
  8
USP-GEO
100
AcDbPolyline
 90
        2
 70
   128
 43
0.0
 10
3.737564753572257
 20
0.2810199062836318
 10
3.737564753572257
 20
0.120437102692982
  0
LWPOLYLINE
  5
4F
100
AcDbEntity
  8
USP-GEO
100
AcDbPolyline
 90
        2
 70
   128
 43
0.0
 10
3.737564753572257
 20
0.0
 10
0.0
 20
0.0
  0
LWPOLYLINE
  5
50
100
AcDbEntity
  8
USP-GEO
100
AcDbPolyline
 90
        2
 70
   128
 43
0.0
 10
0.0
 20
0.120437102692982
 10
0.0
 20
0.0
  0
LWPOLYLINE
  5
51
100
AcDbEntity
  8
USP-GEO
100
AcDbPolyline
 90
        2
 70
   128
 43
0.0
 10
3.737564753572257
 20
0.120437102692982
 10
3.737564753572257
 20
0.0
  0
ARC
  5
52
100
AcDbEntity
  8
USP-GEO
100
AcDbCircle
 10
1.879434012313357
 20
0.394506904633765
 30
0.0
 40
0.175456547327252
100
AcDbArc
 50
2.341062422896625
 51
177.9193861649769
  0
CIRCLE
  5
53
100
AcDbEntity
  8
USP-GEO
100
AcDbCircle
 10
1.066934012314927
 20
15.51010112111557
 30
0.0
 40
0.082
  0
CIRCLE
  5
54
100
AcDbEntity
  8
USP-GEO
100
AcDbCircle
 10
3.066934012314934
 20
15.51010112111557
 30
0.0
 40
0.082
  0
CIRCLE
  5
55
100
AcDbEntity
  8
USP-GEO
100
AcDbCircle
 10
0.6919340123149276
 20
6.510101121115576
 30
0.0
 40
0.082
  0
CIRCLE
  5
56
100
AcDbEntity
  8
USP-GEO
100
AcDbCircle
 10
0.6919340123149276
 20
12.51010112111557
 30
0.0
 40
0.082
  0
CIRCLE
  5
57
100
AcDbEntity
  8
USP-GEO
100
AcDbCircle
 10
1.066934012314927
 20
9.510101121115576
 30
0.0
 40
0.082
  0
CIRCLE
  5
58
100
AcDbEntity
  8
USP-GEO
100
AcDbCircle
 10
3.066934012314934
 20
9.510101121115576
 30
0.0
 40
0.082
  0
CIRCLE
  5
59
100
AcDbEntity
  8
USP-GEO
100
AcDbCircle
 10
2.691934012314934
 20
6.510101121115576
 30
0.0
 40
0.082
  0
CIRCLE
  5
5A
100
AcDbEntity
  8
USP-GEO
100
AcDbCircle
 10
2.691934012314934
 20
12.51010112111557
 30
0.0
 40
0.082
  0
CIRCLE
  5
5B
100
AcDbEntity
  8
USP-GEO
100
AcDbCircle
 10
0.6919340123149276
 20
18.51010112111557
 30
0.0
 40
0.082
  0
CIRCLE
  5
5C
100
AcDbEntity
  8
USP-GEO
100
AcDbCircle
 10
0.6919340123149276
 20
24.51010112111557
 30
0.0
 40
0.082
  0
CIRCLE
  5
5D
100
AcDbEntity
  8
USP-GEO
100
AcDbCircle
 10
2.691934012314934
 20
18.51010112111557
 30
0.0
 40
0.082
  0
CIRCLE
  5
5E
100
AcDbEntity
  8
USP-GEO
100
AcDbCircle
 10
1.066934012314927
 20
21.51010112111557
 30
0.0
 40
0.082
  0
CIRCLE
  5
5F
100
AcDbEntity
  8
USP-GEO
100
AcDbCircle
 10
2.691934012314934
 20
24.51010112111557
 30
0.0
 40
0.082
  0
CIRCLE
  5
60
100
AcDbEntity
  8
USP-GEO
100
AcDbCircle
 10
3.066934012314934
 20
21.51010112111557
 30
0.0
 40
0.082
  0
CIRCLE
  5
61
100
AcDbEntity
  8
USP-GEO
100
AcDbCircle
 10
0.6919340123149276
 20
30.51010112111557
 30
0.0
 40
0.082
  0
CIRCLE
  5
62
100
AcDbEntity
  8
USP-GEO
100
AcDbCircle
 10
1.066934012314927
 20
27.51010112111557
 30
0.0
 40
0.082
  0
CIRCLE
  5
63
100
AcDbEntity
  8
USP-GEO
100
AcDbCircle
 10
3.066934012314934
 20
27.51010112111557
 30
0.0
 40
0.082
  0
CIRCLE
  5
64
100
AcDbEntity
  8
USP-GEO
100
AcDbCircle
 10
2.691934012314934
 20
30.51010112111557
 30
0.0
 40
0.082
  0
LWPOLYLINE
  5
65
100
AcDbEntity
  8
USP-GEO
100
AcDbPolyline
 90
        2
 70
   128
 43
0.0
 10
3.737564753572257
 20
31.02058308362279
 10
3.737564753572257
 20
0.4014570089766139
  0
LWPOLYLINE
  5
66
100
AcDbEntity
  8
USP-GEO
100
AcDbPolyline
 90
        2
 70
   128
 43
0.0
 10
0.0
 20
31.02058308362279
 10
0.0
 20
0.4014570089766139
  0
LWPOLYLINE
  5
67
100
AcDbEntity
  8
USP-GEO
100
AcDbPolyline
 90
        2
 70
   128
 43
0.0
 10
0.0
 20
31.02058308362279
 10
3.737564753572257
 20
31.02058308362279
  0
TEXT
  5
68
100
AcDbEntity
  8
USP-TXT
100
AcDbText
 10
-0.8525717898805368
 20
-1.60748687696568
 30
0.0
 40
0.296875
  1
LTTI31 - FRONT VIEW
 72
     1
 11
1.868782376786128
 21
-1.60748687696568
 31
0.0
100
AcDbText
  0
ENDBLK
  5
6A
100
AcDbEntity
  8
0
100
AcDbBlockEnd
  0
BLOCK
  5
9D
100
AcDbEntity
  8
0
100
AcDbBlockBegin
  2
LTTI31PR_S
 70
     0
 10
0.0
 20
0.0
 30
0.0
  3
LTTI31PR_S
  1

  0
LWPOLYLINE
  5
6D
100
AcDbEntity
  8
USP-HID
100
AcDbPolyline
 90
        2
 70
   128
 43
0.0
 10
2.691769245188183
 20
0.2408742053859711
 10
2.651623544290522
 20
0.3211656071812925
  0
LWPOLYLINE
  5
6E
100
AcDbEntity
  8
USP-HID
100
AcDbPolyline
 90
        2
 70
   128
 43
0.0
 10
2.772060646983504
 20
15.43000014001607
 10
2.691769245188183
 20
15.43000014001607
  0
LWPOLYLINE
  5
6F
100
AcDbEntity
  8
USP-HID
100
AcDbPolyline
 90
        2
 70
   128
 43
0.0
 10
2.772060646983504
 20
15.59058294360672
 10
2.691769245188183
 20
15.59058294360672
  0
LWPOLYLINE
  5
70
100
AcDbEntity
  8
USP-HID
100
AcDbPolyline
 90
        2
 70
   128
 43
0.0
 10
2.772060646983504
 20
9.402123150232249
 10
2.691769245188183
 20
9.402123150232249
  0
LWPOLYLINE
  5
71
100
AcDbEntity
  8
USP-HID
100
AcDbPolyline
 90
        2
 70
   128
 43
0.0
 10
2.772060646983504
 20
9.602851654720552
 10
2.691769245188183
 20
9.602851654720552
  0
LWPOLYLINE
  5
72
100
AcDbEntity
  8
USP-HID
100
AcDbPolyline
 90
        2
 70
   128
 43
0.0
 10
2.772060646983504
 20
6.429333998760441
 10
2.691769245188183
 20
6.429333998760441
  0
LWPOLYLINE
  5
73
100
AcDbEntity
  8
USP-HID
100
AcDbPolyline
 90
        2
 70
   128
 43
0.0
 10
2.772060646983504
 20
6.589916802351083
 10
2.691769245188183
 20
6.589916802351083
  0
LWPOLYLINE
  5
74
100
AcDbEntity
  8
USP-HID
100
AcDbPolyline
 90
        2
 70
   128
 43
0.0
 10
2.772060646983504
 20
12.4170652876466
 10
2.691769245188183
 20
12.4170652876466
  0
LWPOLYLINE
  5
75
100
AcDbEntity
  8
USP-HID
100
AcDbPolyline
 90
        2
 70
   128
 43
0.0
 10
2.772060646983504
 20
12.57764809123724
 10
2.691769245188183
 20
12.57764809123724
  0
LWPOLYLINE
  5
76
100
AcDbEntity
  8
USP-HID
100
AcDbPolyline
 90
        2
 70
   128
 43
0.0
 10
2.772060646983504
 20
18.44293499238554
 10
2.691769245188183
 20
18.44293499238554
  0
LWPOLYLINE
  5
77
100
AcDbEntity
  8
USP-HID
100
AcDbPolyline
 90
        2
 70
   128
 43
0.0
 10
2.772060646983504
 20
18.60552508102107
 10
2.691769245188183
 20
18.60552508102107
  0
LWPOLYLINE
  5
78
100
AcDbEntity
  8
USP-HID
100
AcDbPolyline
 90
        2
 70
   128
 43
0.0
 10
2.772060646983504
 20
24.43066628127171
 10
2.691769245188183
 20
24.43066628127171
  0
LWPOLYLINE
  5
79
100
AcDbEntity
  8
USP-HID
100
AcDbPolyline
 90
        2
 70
   128
 43
0.0
 10
2.772060646983504
 20
24.59124908486235
 10
2.691769245188183
 20
24.59124908486235
  0
LWPOLYLINE
  5
7A
100
AcDbEntity
  8
USP-HID
100
AcDbPolyline
 90
        2
 70
   128
 43
0.0
 10
2.772060646983504
 20
21.41773142890223
 10
2.691769245188183
 20
21.41773142890223
  0
LWPOLYLINE
  5
7B
100
AcDbEntity
  8
USP-HID
100
AcDbPolyline
 90
        2
 70
   128
 43
0.0
 10
2.772060646983504
 20
21.57831423249288
 10
2.691769245188183
 20
21.57831423249288
  0
LWPOLYLINE
  5
7C
100
AcDbEntity
  8
USP-HID
100
AcDbPolyline
 90
        2
 70
   128
 43
0.0
 10
2.772060646983504
 20
27.44560841868606
 10
2.691769245188183
 20
27.44560841868606
  0
LWPOLYLINE
  5
7D
100
AcDbEntity
  8
USP-HID
100
AcDbPolyline
 90
        2
 70
   128
 43
0.0
 10
2.772060646983504
 20
27.6061912222767
 10
2.691769245188183
 20
27.6061912222767
  0
LWPOLYLINE
  5
7E
100
AcDbEntity
  8
USP-HID
100
AcDbPolyline
 90
        2
 70
   128
 43
0.0
 10
2.772060646983504
 20
30.45854327105553
 10
2.691769245188183
 20
30.45854327105553
  0
LWPOLYLINE
  5
7F
100
AcDbEntity
  8
USP-HID
100
AcDbPolyline
 90
        2
 70
   128
 43
0.0
 10
2.772060646983504
 20
30.61912607464618
 10
2.691769245188183
 20
30.61912607464618
  0
LWPOLYLINE
  5
80
100
AcDbEntity
  8
USP-HID
100
AcDbPolyline
 90
        2
 70
   128
 43
0.0
 10
1.045795508384074
 20
0.0
 10
1.045795508384074
 20
0.0401457008976607
  0
LWPOLYLINE
  5
81
100
AcDbEntity
  8
USP-HID
100
AcDbPolyline
 90
        2
 70
   128
 43
0.0
 10
1.728272423644312
 20
0.0
 10
1.728272423644312
 20
0.0401457008976607
  0
ARC
  5
82
100
AcDbEntity
  8
USP-HID
100
AcDbCircle
 10
2.759464424405553
 20
0.394506904633765
 30
0.0
 40
0.1250000000000007
100
AcDbArc
 50
84.3528716046395
 51
274.6871513607948
  0
ARC
  5
83
100
AcDbEntity
  8
USP-HID
100
AcDbCircle
 10
2.759464424405553
 20
0.394506904633765
 30
0.0
 40
0.1830000000000007
100
AcDbArc
 50
201.2977755487252
 51
250.7434823153066
  0
LWPOLYLINE
  5
84
100
AcDbEntity
  8
USP-HID
100
AcDbPolyline
 90
        2
 70
   128
 43
0.0
 10
1.728272423644312
 20
0.3211656071812925
 10
1.728272423644312
 20
0.0802914017953214
  0
LWPOLYLINE
  5
85
100
AcDbEntity
  8
USP-HID
100
AcDbPolyline
 90
        2
 70
   128
 43
0.0
 10
1.045795508384074
 20
0.3211656071812925
 10
1.045795508384074
 20
0.0802914017953214
  0
LWPOLYLINE
  5
86
100
AcDbEntity
  8
USP-GEO
100
AcDbPolyline
 90
        2
 70
   128
 43
0.0
 10
0.0802914017953214
 20
0.0802914017953214
 10
2.691769245188183
 20
0.0802914017953214
  0
LWPOLYLINE
  5
87
100
AcDbEntity
  8
USP-GEO
100
AcDbPolyline
 90
        2
 70
   128
 43
0.0
 10
2.691769245188183
 20
0.0802914017953214
 10
2.691769245188183
 20
0.3211656071812925
  0
LWPOLYLINE
  5
88
100
AcDbEntity
  8
USP-GEO
100
AcDbPolyline
 90
        2
 70
   128
 43
0.0
 10
0.0802914017953214
 20
0.3211656071812925
 10
0.0802914017953214
 20
0.0802914017953214
  0
LWPOLYLINE
  5
89
100
AcDbEntity
  8
USP-GEO
100
AcDbPolyline
 90
        2
 70
   128
 43
0.0
 10
2.691769245188183
 20
0.3211656071812925
 10
0.0802914017953214
 20
0.3211656071812925
  0
LWPOLYLINE
  5
8A
100
AcDbEntity
  8
USP-GEO
100
AcDbPolyline
 90
        2
 70
   128
 43
0.0
 10
2.772060646983504
 20
31.02058308362279
 10
2.772060646983504
 20
0.120437102692982
  0
LWPOLYLINE
  5
8B
100
AcDbEntity
  8
USP-GEO
100
AcDbPolyline
 90
        2
 70
   128
 43
0.0
 10
2.691769245188183
 20
31.02058308362279
 10
2.772060646983504
 20
31.02058308362279
  0
LWPOLYLINE
  5
8C
100
AcDbEntity
  8
USP-GEO
100
AcDbPolyline
 90
        2
 70
   128
 43
0.0
 10
0.1204371026929891
 20
0.0
 10
2.651623544290522
 20
0.0
  0
ARC
  5
8D
100
AcDbEntity
  8
USP-GEO
100
AcDbCircle
 10
2.639464424405549
 20
0.1301409799031674
 30
0.0
 40
0.12
100
AcDbArc
 50
275.3376706013757
 51
355.8143469376901
  0
ARC
  5
8E
100
AcDbEntity
  8
USP-GEO
100
AcDbCircle
 10
2.639464424405549
 20
0.1301409799031603
 30
0.0
 40
0.068
100
AcDbArc
 50
277.6945484600457
 51
349.4896729059298
  0
LWPOLYLINE
  5
8F
100
AcDbEntity
  8
USP-GEO
100
AcDbPolyline
 90
        2
 70
   128
 43
0.0
 10
2.651623544290522
 20
0.0401457008976607
 10
0.1204371026929891
 20
0.0401457008976607
  0
ARC
  5
90
100
AcDbEntity
  8
USP-GEO
100
AcDbCircle
 10
0.1294644244055583
 20
0.1301409799031603
 30
0.0
 40
0.068
100
AcDbArc
 50
191.1633946077053
 51
264.2718875784694
  0
LWPOLYLINE
  5
91
100
AcDbEntity
  8
USP-GEO
100
AcDbPolyline
 90
        2
 70
   128
 43
0.0
 10
0.0802914017953214
 20
0.120437102692982
 10
0.0802914017953214
 20
0.2810199062836318
  0
ARC
  5
92
100
AcDbEntity
  8
USP-GEO
100
AcDbCircle
 10
0.1294644244055583
 20
0.2839478774802231
 30
0.0
 40
0.068
100
AcDbArc
 50
103.6340347177917
 51
183.4076112884665
  0
LWPOLYLINE
  5
93
100
AcDbEntity
  8
USP-GEO
100
AcDbPolyline
 90
        2
 70
   128
 43
0.0
 10
0.1204371026929891
 20
0.3211656071812925
 10
0.4034642940214966
 20
0.3211656071812925
  0
LWPOLYLINE
  5
94
100
AcDbEntity
  8
USP-GEO
100
AcDbPolyline
 90
        2
 70
   128
 43
0.0
 10
0.4034642940214966
 20
0.4014570089766139
 10
0.1204371026929891
 20
0.4014570089766139
  0
ARC
  5
95
100
AcDbEntity
  8
USP-GEO
100
AcDbCircle
 10
0.1294644244055583
 20
0.2839478774802302
 30
0.0
 40
0.12
100
AcDbArc
 50
94.39296516428083
 51
181.295582159734
  0
LWPOLYLINE
  5
96
100
AcDbEntity
  8
USP-GEO
100
AcDbPolyline
 90
        2
 70
   128
 43
0.0
 10
0.0
 20
0.2810199062836318
 10
0.0
 20
0.120437102692982
  0
ARC
  5
97
100
AcDbEntity
  8
USP-GEO
100
AcDbCircle
 10
0.1294644244055583
 20
0.1301409799031603
 30
0.0
 40
0.12
100
AcDbArc
 50
184.286532783439
 51
266.0319934784737
  0
LWPOLYLINE
  5
98
100
AcDbEntity
  8
USP-GEO
100
AcDbPolyline
 90
        2
 70
   128
 43
0.0
 10
2.691769245188183
 20
31.02058308362279
 10
2.691769245188183
 20
0.120437102692982
  0
LWPOLYLINE
  5
99
100
AcDbEntity
  8
USP-GEO
100
AcDbPolyline
 90
        2
 70
   128
 43
0.0
 10
0.4034642940214966
 20
0.4014570089766139
 10
0.4034642940214966
 20
0.3211656071812925
  0
ARC
  5
9A
100
AcDbEntity
  8
USP-GEO
100
AcDbCircle
 10
2.759464424405553
 20
0.394506904633765
 30
0.0
 40
0.1830000000000007
100
AcDbArc
 50
250.7434823153066
 51
251.274132354573
  0
ARC
  5
9B
100
AcDbEntity
  8
USP-GEO
100
AcDbCircle
 10
2.759464424405553
 20
0.394506904633765
 30
0.0
 40
0.1830000000000007
100
AcDbArc
 50
112.0022022729813
 51
201.2977755487252
  0
TEXT
  5
9C
100
AcDbEntity
  8
USP-TXT
100
AcDbText
 10
-1.137407176508247
 20
-1.60748687696568
 30
0.0
 40
0.296875
  1
LTTI31 - SIDE VIEW
 72
     1
 11
1.386030323491752
 21
-1.60748687696568
 31
0.0
100
AcDbText
  0
ENDBLK
  5
9E
100
AcDbEntity
  8
0
100
AcDbBlockEnd
  0
ENDSEC
  0
SECTION
  2
ENTITIES
  0
INSERT
  5
3
100
AcDbEntity
  8
USP
100
AcDbBlockReference
  2
LTTI31PR_T
 10
0.6103680856304195
 20
37.41204038311073
 30
0.0
  0
INSERT
  5
3A
100
AcDbEntity
  8
USP
100
AcDbBlockReference
  2
LTTI31PR_F
 10
0.6103680856304195
 20
1.608097037531614
 30
0.0
  0
INSERT
  5
6B
100
AcDbEntity
  8
USP
100
AcDbBlockReference
  2
LTTI31PR_S
 10
10.33164955799907
 20
1.608097037531614
 30
0.0
  0
ENDSEC
  0
SECTION
  2
OBJECTS
  0
DICTIONARY
  5
B7
102
{ACAD_XDICTIONARY
360
B8
102
}
100
AcDbDictionary
  3
ACAD_GROUP
350
B5
  3
ACAD_MLINESTYLE
350
B6
  0
DICTIONARY
  5
19
100
AcDbDictionary
280
     1
  3
ACAD_XREC_ROUNDTRIP
360
1A
  0
DICTIONARY
  5
34
100
AcDbDictionary
280
     1
  3
ACAD_XREC_ROUNDTRIP
360
35
  0
DICTIONARY
  5
9
100
AcDbDictionary
280
     1
  3
ACAD_XREC_ROUNDTRIP
360
A
  0
DICTIONARY
  5
BC
100
AcDbDictionary
280
     1
  3
ACAD_XREC_ROUNDTRIP
360
BD
  0
DICTIONARY
  5
9F
100
AcDbDictionary
280
     1
  3
ACAD_LAYOUTSELFREF
360
A0
  0
DICTIONARY
  5
A4
100
AcDbDictionary
280
     1
  3
ACAD_LAYOUTSELFREF
360
A5
  0
DICTIONARY
  5
B8
100
AcDbDictionary
280
     1
  3
ACAD_XREC_ROUNDTRIP
360
B9
  0
DICTIONARY
  5
B5
102
{ACAD_REACTORS
330
B7
102
}
100
AcDbDictionary
  0
DICTIONARY
  5
B6
102
{ACAD_REACTORS
330
B7
102
}
100
AcDbDictionary
  3
STANDARD
350
BA
  0
XRECORD
  5
1A
102
{ACAD_REACTORS
330
19
102
}
100
AcDbXrecord
102
EXTNAMES
  1
USP-GEO
  2
USP-Geo
  0
XRECORD
  5
35
102
{ACAD_REACTORS
330
34
102
}
100
AcDbXrecord
102
EXTNAMES
  1
USP-TXT
  2
USP-Txt
  0
XRECORD
  5
A
102
{ACAD_REACTORS
330
9
102
}
100
AcDbXrecord
102
EXTNAMES
  1
USP-HID
  2
USP-Hid
  0
XRECORD
  5
BD
102
{ACAD_REACTORS
330
BC
102
}
100
AcDbXrecord
102
ACADR14ROUNDTRIP
1000
DSTYLE
1002
{
1070
   276
 70
     2
1070
   277
 70
     5
1002
}
  0
XRECORD
  5
A0
102
{ACAD_REACTORS
330
9F
102
}
100
AcDbXrecord
340
2
  0
XRECORD
  5
A5
102
{ACAD_REACTORS
330
A4
102
}
100
AcDbXrecord
340
A3
  0
XRECORD
  5
B9
102
{ACAD_REACTORS
330
B8
102
}
100
AcDbXrecord
102
EXTNAMES
  1
ACDBVARIABLEDICTIONARY
  2
AcDbVariableDictionary
  0
MLINESTYLE
  5
BA
102
{ACAD_REACTORS
330
B6
102
}
100
AcDbMlineStyle
  2
STANDARD
 70
     0
  3

 62
     0
 51
90.0
 52
90.0
 71
     2
 49
0.5
 62
   256
  6
BYLAYER
 49
-0.5
 62
   256
  6
BYLAYER
  0
ENDSEC
  0
EOF
