  0
SECTION
  2
HEADER
  9
$ACADVER
  1
AC1014
  9
$ACADMAINTVER
 70
     9
  9
$DWGCODEPAGE
  3
ANSI_1252
  9
$INSBASE
 10
0.0
 20
0.0
 30
0.0
  9
$EXTMIN
 10
0.0003661829982491
 20
0.0003049699162965
 30
0.0000000000000098
  9
$EXTMAX
 10
11.35405124211619
 20
9.991595599422094
 30
0.0000000000000107
  9
$LIMMIN
 10
0.0
 20
0.0
  9
$LIMMAX
 10
12.0
 20
9.0
  9
$ORTHOMODE
 70
     0
  9
$REGENMODE
 70
     1
  9
$FILLMODE
 70
     1
  9
$QTEXTMODE
 70
     0
  9
$MIRRTEXT
 70
     1
  9
$DRAGMODE
 70
     2
  9
$LTSCALE
 40
1.0
  9
$OSMODE
 70
    37
  9
$ATTMODE
 70
     1
  9
$TEXTSIZE
 40
0.25
  9
$TRACEWID
 40
0.05
  9
$TEXTSTYLE
  7
STANDARD
  9
$CLAYER
  8
0
  9
$CELTYPE
  6
BYLAYER
  9
$CECOLOR
 62
   256
  9
$CELTSCALE
 40
1.0
  9
$DELOBJ
 70
     1
  9
$DISPSILH
 70
     0
  9
$DIMSCALE
 40
1.0
  9
$DIMASZ
 40
0.18
  9
$DIMEXO
 40
0.0625
  9
$DIMDLI
 40
0.38
  9
$DIMRND
 40
0.0
  9
$DIMDLE
 40
0.0
  9
$DIMEXE
 40
0.18
  9
$DIMTP
 40
0.0
  9
$DIMTM
 40
0.0
  9
$DIMTXT
 40
0.18
  9
$DIMCEN
 40
0.09
  9
$DIMTSZ
 40
0.0
  9
$DIMTOL
 70
     0
  9
$DIMLIM
 70
     0
  9
$DIMTIH
 70
     1
  9
$DIMTOH
 70
     1
  9
$DIMSE1
 70
     0
  9
$DIMSE2
 70
     0
  9
$DIMTAD
 70
     0
  9
$DIMZIN
 70
     0
  9
$DIMBLK
  1

  9
$DIMASO
 70
     1
  9
$DIMSHO
 70
     1
  9
$DIMPOST
  1

  9
$DIMAPOST
  1

  9
$DIMALT
 70
     0
  9
$DIMALTD
 70
     2
  9
$DIMALTF
 40
25.4
  9
$DIMLFAC
 40
1.0
  9
$DIMTOFL
 70
     0
  9
$DIMTVP
 40
0.0
  9
$DIMTIX
 70
     0
  9
$DIMSOXD
 70
     0
  9
$DIMSAH
 70
     0
  9
$DIMBLK1
  1

  9
$DIMBLK2
  1

  9
$DIMSTYLE
  2
STANDARD
  9
$DIMCLRD
 70
     0
  9
$DIMCLRE
 70
     0
  9
$DIMCLRT
 70
     0
  9
$DIMTFAC
 40
1.0
  9
$DIMGAP
 40
0.09
  9
$DIMJUST
 70
     0
  9
$DIMSD1
 70
     0
  9
$DIMSD2
 70
     0
  9
$DIMTOLJ
 70
     1
  9
$DIMTZIN
 70
     0
  9
$DIMALTZ
 70
     0
  9
$DIMALTTZ
 70
     0
  9
$DIMFIT
 70
     3
  9
$DIMUPT
 70
     0
  9
$DIMUNIT
 70
     2
  9
$DIMDEC
 70
     4
  9
$DIMTDEC
 70
     4
  9
$DIMALTU
 70
     2
  9
$DIMALTTD
 70
     2
  9
$DIMTXSTY
  7
STANDARD
  9
$DIMAUNIT
 70
     0
  9
$LUNITS
 70
     2
  9
$LUPREC
 70
     4
  9
$SKETCHINC
 40
0.1
  9
$FILLETRAD
 40
0.5
  9
$AUNITS
 70
     0
  9
$AUPREC
 70
     0
  9
$MENU
  1
.
  9
$ELEVATION
 40
0.0
  9
$PELEVATION
 40
0.0
  9
$THICKNESS
 40
0.0
  9
$LIMCHECK
 70
     0
  9
$BLIPMODE
 70
     0
  9
$CHAMFERA
 40
0.5
  9
$CHAMFERB
 40
0.5
  9
$CHAMFERC
 40
1.0
  9
$CHAMFERD
 40
0.0
  9
$SKPOLY
 70
     0
  9
$TDCREATE
 40
2451667.537949421
  9
$TDUPDATE
 40
2452759.745465127
  9
$TDINDWG
 40
0.1923396759
  9
$TDUSRTIMER
 40
0.1923396759
  9
$USRTIMER
 70
     1
  9
$ANGBASE
 50
0.0
  9
$ANGDIR
 70
     0
  9
$PDMODE
 70
     0
  9
$PDSIZE
 40
0.0
  9
$PLINEWID
 40
0.0
  9
$COORDS
 70
     1
  9
$SPLFRAME
 70
     0
  9
$SPLINETYPE
 70
     6
  9
$SPLINESEGS
 70
     8
  9
$ATTDIA
 70
     0
  9
$ATTREQ
 70
     1
  9
$HANDLING
 70
     1
  9
$HANDSEED
  5
15D
  9
$SURFTAB1
 70
     6
  9
$SURFTAB2
 70
     6
  9
$SURFTYPE
 70
     6
  9
$SURFU
 70
     6
  9
$SURFV
 70
     6
  9
$UCSNAME
  2

  9
$UCSORG
 10
0.0
 20
0.0
 30
0.0
  9
$UCSXDIR
 10
1.0
 20
0.0
 30
0.0
  9
$UCSYDIR
 10
0.0
 20
1.0
 30
0.0
  9
$PUCSNAME
  2

  9
$PUCSORG
 10
0.0
 20
0.0
 30
0.0
  9
$PUCSXDIR
 10
1.0
 20
0.0
 30
0.0
  9
$PUCSYDIR
 10
0.0
 20
1.0
 30
0.0
  9
$USERI1
 70
     0
  9
$USERI2
 70
     0
  9
$USERI3
 70
     0
  9
$USERI4
 70
     0
  9
$USERI5
 70
     0
  9
$USERR1
 40
0.0
  9
$USERR2
 40
0.0
  9
$USERR3
 40
0.0
  9
$USERR4
 40
0.0
  9
$USERR5
 40
0.0
  9
$WORLDVIEW
 70
     1
  9
$SHADEDGE
 70
     3
  9
$SHADEDIF
 70
    70
  9
$TILEMODE
 70
     1
  9
$MAXACTVP
 70
    48
  9
$PINSBASE
 10
0.0
 20
0.0
 30
0.0
  9
$PLIMCHECK
 70
     0
  9
$PEXTMIN
 10
1.000000000000000E+20
 20
1.000000000000000E+20
 30
1.000000000000000E+20
  9
$PEXTMAX
 10
-1.000000000000000E+20
 20
-1.000000000000000E+20
 30
-1.000000000000000E+20
  9
$PLIMMIN
 10
0.0
 20
0.0
  9
$PLIMMAX
 10
12.0
 20
9.0
  9
$UNITMODE
 70
     0
  9
$VISRETAIN
 70
     1
  9
$PLINEGEN
 70
     0
  9
$PSLTSCALE
 70
     1
  9
$TREEDEPTH
 70
  3020
  9
$PICKSTYLE
 70
     1
  9
$CMLSTYLE
  2
STANDARD
  9
$CMLJUST
 70
     0
  9
$CMLSCALE
 40
1.0
  9
$PROXYGRAPHICS
 70
     1
  9
$MEASUREMENT
 70
     0
  0
ENDSEC
  0
SECTION
  2
CLASSES
  0
CLASS
  1
ACDBDICTIONARYWDFLT
  2
AcDbDictionaryWithDefault
  3
AutoCAD 2000
 90
        0
280
     1
281
     0
  0
CLASS
  1
ACDBPLACEHOLDER
  2
AcDbPlaceHolder
  3
AutoCAD 2000
 90
        0
280
     1
281
     0
  0
CLASS
  1
LAYOUT
  2
AcDbLayout
  3
AutoCAD 2000
 90
        0
280
     1
281
     0
  0
CLASS
  1
LONG_TRANSACTION
  2
AcDbLongTransaction
  3
AutoCAD 2000
 90
        0
280
     1
281
     0
  0
CLASS
  1
LWPOLYLINE
  2
AcDbPolyline
  3
"AutoCAD"
 90
        0
280
     1
281
     1
  0
CLASS
  1
HATCH
  2
AcDbHatch
  3
"ACAD_SEDONA"
 90
        0
280
     1
281
     1
  0
CLASS
  1
XRECORD
  2
AcDbXrecord
  3
"<Built In>"
 90
        0
280
     0
281
     0
  0
CLASS
  1
LONG_TRANSACTION
  2
AcDbLongTransaction
  3
AutoCAD 2000
 90
        0
280
     1
281
     0
  0
CLASS
  1
LWPOLYLINE
  2
AcDbPolyline
  3
"AutoCAD"
 90
        0
280
     1
281
     1
  0
CLASS
  1
HATCH
  2
AcDbHatch
  3
"ACAD_SEDONA"
 90
        0
280
     1
281
     1
  0
CLASS
  1
XRECORD
  2
AcDbXrecord
  3
"<Built In>"
 90
        0
280
     0
281
     0
  0
CLASS
  1
LONG_TRANSACTION
  2
AcDbLongTransaction
  3
AutoCAD 2000
 90
        0
280
     1
281
     0
  0
CLASS
  1
LWPOLYLINE
  2
AcDbPolyline
  3
"AutoCAD"
 90
        0
280
     1
281
     1
  0
CLASS
  1
HATCH
  2
AcDbHatch
  3
"ACAD_SEDONA"
 90
        0
280
     1
281
     1
  0
CLASS
  1
XRECORD
  2
AcDbXrecord
  3
"<Built In>"
 90
        0
280
     0
281
     0
  0
CLASS
  1
LONG_TRANSACTION
  2
AcDbLongTransaction
  3
AutoCAD 2000
 90
        0
280
     1
281
     0
  0
CLASS
  1
LWPOLYLINE
  2
AcDbPolyline
  3
"AutoCAD"
 90
        0
280
     1
281
     1
  0
CLASS
  1
HATCH
  2
AcDbHatch
  3
"ACAD_SEDONA"
 90
        0
280
     1
281
     1
  0
CLASS
  1
XRECORD
  2
AcDbXrecord
  3
"<Built In>"
 90
        0
280
     0
281
     0
  0
CLASS
  1
LONG_TRANSACTION
  2
AcDbLongTransaction
  3
AutoCAD 2000
 90
        0
280
     1
281
     0
  0
CLASS
  1
LWPOLYLINE
  2
AcDbPolyline
  3
"AutoCAD"
 90
        0
280
     1
281
     1
  0
CLASS
  1
HATCH
  2
AcDbHatch
  3
"ACAD_SEDONA"
 90
        0
280
     1
281
     1
  0
CLASS
  1
XRECORD
  2
AcDbXrecord
  3
"<Built In>"
 90
        0
280
     0
281
     0
  0
CLASS
  1
LONG_TRANSACTION
  2
AcDbLongTransaction
  3
AutoCAD 2000
 90
        0
280
     1
281
     0
  0
CLASS
  1
LWPOLYLINE
  2
AcDbPolyline
  3
"AutoCAD"
 90
        0
280
     1
281
     1
  0
CLASS
  1
HATCH
  2
AcDbHatch
  3
"ACAD_SEDONA"
 90
        0
280
     1
281
     1
  0
CLASS
  1
XRECORD
  2
AcDbXrecord
  3
"<Built In>"
 90
        0
280
     0
281
     0
  0
CLASS
  1
LONG_TRANSACTION
  2
AcDbLongTransaction
  3
AutoCAD 2000
 90
        0
280
     1
281
     0
  0
CLASS
  1
LWPOLYLINE
  2
AcDbPolyline
  3
"AutoCAD"
 90
        0
280
     1
281
     1
  0
CLASS
  1
HATCH
  2
AcDbHatch
  3
"ACAD_SEDONA"
 90
        0
280
     1
281
     1
  0
CLASS
  1
XRECORD
  2
AcDbXrecord
  3
"<Built In>"
 90
        0
280
     0
281
     0
  0
CLASS
  1
LONG_TRANSACTION
  2
AcDbLongTransaction
  3
AutoCAD 2000
 90
        0
280
     1
281
     0
  0
CLASS
  1
LWPOLYLINE
  2
AcDbPolyline
  3
"AutoCAD"
 90
        0
280
     1
281
     1
  0
CLASS
  1
HATCH
  2
AcDbHatch
  3
"ACAD_SEDONA"
 90
        0
280
     1
281
     1
  0
CLASS
  1
XRECORD
  2
AcDbXrecord
  3
"<Built In>"
 90
        0
280
     0
281
     0
  0
CLASS
  1
LONG_TRANSACTION
  2
AcDbLongTransaction
  3
AutoCAD 2000
 90
        0
280
     1
281
     0
  0
CLASS
  1
LWPOLYLINE
  2
AcDbPolyline
  3
"AutoCAD"
 90
        0
280
     1
281
     1
  0
CLASS
  1
HATCH
  2
AcDbHatch
  3
"ACAD_SEDONA"
 90
        0
280
     1
281
     1
  0
CLASS
  1
XRECORD
  2
AcDbXrecord
  3
"<Built In>"
 90
        0
280
     0
281
     0
  0
CLASS
  1
LONG_TRANSACTION
  2
AcDbLongTransaction
  3
AutoCAD 2000
 90
        0
280
     1
281
     0
  0
CLASS
  1
LWPOLYLINE
  2
AcDbPolyline
  3
"AutoCAD"
 90
        0
280
     1
281
     1
  0
CLASS
  1
HATCH
  2
AcDbHatch
  3
"ACAD_SEDONA"
 90
        0
280
     1
281
     1
  0
CLASS
  1
XRECORD
  2
AcDbXrecord
  3
"<Built In>"
 90
        0
280
     0
281
     0
  0
CLASS
  1
DICTIONARYVAR
  2
AcDbDictionaryVar
  3
"AutoCAD"
 90
        0
280
     0
281
     0
  0
CLASS
  1
LONG_TRANSACTION
  2
AcDbLongTransaction
  3
AutoCAD 2000
 90
        0
280
     0
281
     0
  0
CLASS
  1
LWPOLYLINE
  2
AcDbPolyline
  3
"AutoCAD"
 90
        0
280
     0
281
     1
  0
CLASS
  1
HATCH
  2
AcDbHatch
  3
"ACAD_SEDONA"
 90
        0
280
     0
281
     1
  0
CLASS
  1
XRECORD
  2
AcDbXrecord
  3
"<Built In>"
 90
        0
280
     0
281
     0
  0
CLASS
  1
LONG_TRANSACTION
  2
AcDbLongTransaction
  3
AutoCAD 2000
 90
        0
280
     0
281
     0
  0
CLASS
  1
LWPOLYLINE
  2
AcDbPolyline
  3
"AutoCAD"
 90
        0
280
     0
281
     1
  0
CLASS
  1
HATCH
  2
AcDbHatch
  3
"ACAD_SEDONA"
 90
        0
280
     0
281
     1
  0
CLASS
  1
XRECORD
  2
AcDbXrecord
  3
"<Built In>"
 90
        0
280
     0
281
     0
  0
ENDSEC
  0
SECTION
  2
TABLES
  0
TABLE
  2
VPORT
  5
13D
100
AcDbSymbolTable
 70
     1
  0
VPORT
  5
159
100
AcDbSymbolTableRecord
100
AcDbViewportTableRecord
  2
*ACTIVE
 70
     0
 10
0.0
 20
0.0
 11
1.0
 21
1.0
 12
5.654652594991125
 22
5.119234592953152
 13
0.0
 23
0.0
 14
0.5
 24
0.5
 15
0.5
 25
0.5
 16
0.0
 26
0.0
 36
1.0
 17
0.0
 27
0.0
 37
0.0
 40
10.31145545978882
 41
1.457627118644067
 42
50.0
 43
0.0
 44
0.0
 50
0.0
 51
0.0
 71
     0
 72
   100
 73
     1
 74
     3
 75
     0
 76
     0
 77
     0
 78
     0
  0
ENDTAB
  0
TABLE
  2
LTYPE
  5
136
100
AcDbSymbolTable
 70
     2
  0
LTYPE
  5
137
102
{ACAD_XDICTIONARY
360
138
102
}
100
AcDbSymbolTableRecord
100
AcDbLinetypeTableRecord
  2
BYBLOCK
 70
     0
  3

 72
    65
 73
     0
 40
0.0
  0
LTYPE
  5
139
102
{ACAD_XDICTIONARY
360
13A
102
}
100
AcDbSymbolTableRecord
100
AcDbLinetypeTableRecord
  2
BYLAYER
 70
     0
  3

 72
    65
 73
     0
 40
0.0
  0
LTYPE
  5
5
102
{ACAD_XDICTIONARY
360
6
102
}
100
AcDbSymbolTableRecord
100
AcDbLinetypeTableRecord
  2
CONTINUOUS
 70
     0
  3
Solid line
 72
    65
 73
     0
 40
0.0
  0
LTYPE
  5
F0
100
AcDbSymbolTableRecord
100
AcDbLinetypeTableRecord
  2
HIDDEN
 70
     0
  3
Hidden __ __ __ __ __ __ __ __ __ __ __ __ __ _
 72
    65
 73
     2
 40
0.375
 49
0.25
 74
     0
 49
-0.125
 74
     0
  0
ENDTAB
  0
TABLE
  2
LAYER
  5
134
100
AcDbSymbolTable
 70
     5
  0
LAYER
  5
5C
100
AcDbSymbolTableRecord
100
AcDbLayerTableRecord
  2
0
 70
     0
 62
     7
  6
CONTINUOUS
  0
LAYER
  5
4
100
AcDbSymbolTableRecord
100
AcDbLayerTableRecord
  2
USP
 70
     0
 62
     7
  6
CONTINUOUS
  0
LAYER
  5
EF
100
AcDbSymbolTableRecord
100
AcDbLayerTableRecord
  2
USP-HID
 70
     0
 62
     7
  6
HIDDEN
  0
LAYER
  5
D
100
AcDbSymbolTableRecord
100
AcDbLayerTableRecord
  2
USP-GEO
 70
     0
 62
     7
  6
CONTINUOUS
  0
LAYER
  5
9
100
AcDbSymbolTableRecord
100
AcDbLayerTableRecord
  2
USP-TXT
 70
     0
 62
     7
  6
CONTINUOUS
  0
ENDTAB
  0
TABLE
  2
STYLE
  5
135
100
AcDbSymbolTable
 70
     1
  0
STYLE
  5
A
102
{ACAD_XDICTIONARY
360
B
102
}
100
AcDbSymbolTableRecord
100
AcDbTextStyleTableRecord
  2
STANDARD
 70
     0
 40
0.0
 41
1.0
 50
0.0
 71
     0
 42
0.25
  3
txt
  4

  0
ENDTAB
  0
TABLE
  2
VIEW
  5
13B
100
AcDbSymbolTable
 70
     0
  0
ENDTAB
  0
TABLE
  2
UCS
  5
13C
100
AcDbSymbolTable
 70
     0
  0
ENDTAB
  0
TABLE
  2
APPID
  5
13F
100
AcDbSymbolTable
 70
     1
  0
APPID
  5
140
100
AcDbSymbolTableRecord
100
AcDbRegAppTableRecord
  2
ACAD
 70
     0
  0
ENDTAB
  0
TABLE
  2
DIMSTYLE
  5
141
100
AcDbSymbolTable
 70
     1
  0
DIMSTYLE
105
14A
102
{ACAD_XDICTIONARY
360
14B
102
}
100
AcDbSymbolTableRecord
100
AcDbDimStyleTableRecord
  2
STANDARD
 70
     0
  3

  4

  5

  6

  7

 40
1.0
 41
0.18
 42
0.0625
 43
0.38
 44
0.18
 45
0.0
 46
0.0
 47
0.0
 48
0.0
140
0.18
141
0.09
142
0.0
143
25.4
144
1.0
145
0.0
146
1.0
147
0.09
 71
     0
 72
     0
 73
     1
 74
     1
 75
     0
 76
     0
 77
     0
 78
     0
170
     0
171
     2
172
     0
173
     0
174
     0
175
     0
176
     0
177
     0
178
     0
270
     2
271
     4
272
     4
273
     2
274
     2
340
A
275
     0
280
     0
281
     0
282
     0
283
     1
284
     0
285
     0
286
     0
287
     3
288
     0
  0
ENDTAB
  0
TABLE
  2
BLOCK_RECORD
  5
1
100
AcDbSymbolTable
 70
     3
  0
BLOCK_RECORD
  5
2
102
{ACAD_XDICTIONARY
360
12B
102
}
100
AcDbSymbolTableRecord
100
AcDbBlockTableRecord
  2
*MODEL_SPACE
  0
BLOCK_RECORD
  5
12F
102
{ACAD_XDICTIONARY
360
130
102
}
100
AcDbSymbolTableRecord
100
AcDbBlockTableRecord
  2
*PAPER_SPACE
  0
BLOCK_RECORD
  5
7
100
AcDbSymbolTableRecord
100
AcDbBlockTableRecord
  2
JUS26-3_T
  0
BLOCK_RECORD
  5
5F
100
AcDbSymbolTableRecord
100
AcDbBlockTableRecord
  2
JUS26-3_F
  0
BLOCK_RECORD
  5
E6
100
AcDbSymbolTableRecord
100
AcDbBlockTableRecord
  2
JUS26-3_S
  0
ENDTAB
  0
ENDSEC
  0
SECTION
  2
BLOCKS
  0
BLOCK
  5
12D
100
AcDbEntity
  8
0
100
AcDbBlockBegin
  2
*MODEL_SPACE
 70
     0
 10
0.0
 20
0.0
 30
0.0
  3
*MODEL_SPACE
  1

  0
ENDBLK
  5
12E
100
AcDbEntity
  8
0
100
AcDbBlockEnd
  0
BLOCK
  5
132
100
AcDbEntity
 67
     1
  8
0
100
AcDbBlockBegin
  2
*PAPER_SPACE
 70
     0
 10
0.0
 20
0.0
 30
0.0
  3
*PAPER_SPACE
  1

  0
ENDBLK
  5
133
100
AcDbEntity
 67
     1
  8
0
100
AcDbBlockEnd
  0
BLOCK
  5
5B
100
AcDbEntity
  8
0
100
AcDbBlockBegin
  2
JUS26-3_T
 70
     0
 10
0.0
 20
0.0
 30
0.0
  3
JUS26-3_T
  1

  0
TEXT
  5
8
100
AcDbEntity
  8
USP-TXT
100
AcDbText
 10
1.110300000000009
 20
-0.8283711216027569
 30
0.0
 40
0.25
  1
JUS26-3 - TOP VIEW
 72
     1
 11
3.360300000000009
 21
-0.8283711216027569
 31
0.0
100
AcDbText
  0
LINE
  5
C
100
AcDbEntity
  8
USP-GEO
100
AcDbLine
 10
4.485300000000023
 20
2.000000000000028
 30
0.0
 11
5.672800000000052
 21
2.000000000000028
 31
0.0
  0
LINE
  5
E
100
AcDbEntity
  8
USP-GEO
100
AcDbLine
 10
5.672800000000037
 20
0.0000000000000284
 30
0.0
 11
4.485300000000023
 21
0.0000000000000284
 31
0.0
  0
LINE
  5
F
100
AcDbEntity
  8
USP-GEO
100
AcDbLine
 10
2.235299999999995
 20
2.000000000000028
 30
0.0
 11
1.047800000000009
 21
2.000000000000028
 31
0.0
  0
LINE
  5
10
100
AcDbEntity
  8
USP-GEO
100
AcDbLine
 10
2.235300000000009
 20
0.0000000000000284
 30
0.0
 11
1.047800000000009
 21
0.0000000000000284
 31
0.0
  0
ARC
  5
11
100
AcDbEntity
  8
USP-GEO
100
AcDbCircle
 10
1.047800000000009
 20
1.156734320410123
 30
0.0
 40
0.2977999999999987
100
AcDbArc
 50
99.23652345544919
 51
209.0169729401727
  0
LINE
  5
12
100
AcDbEntity
  8
USP-GEO
100
AcDbLine
 10
1.047800000000009
 20
2.297800000000023
 30
0.0
 11
1.047800000000009
 21
1.250000000000028
 31
0.0
  0
LINE
  5
13
100
AcDbEntity
  8
USP-GEO
100
AcDbLine
 10
1.000000000000014
 20
1.250000000000028
 30
0.0
 11
1.000000000000014
 21
2.250000000000028
 31
0.0
  0
LINE
  5
14
100
AcDbEntity
  8
USP-GEO
100
AcDbLine
 10
1.047800000000009
 20
0.8375000000000341
 30
0.0
 11
1.000000000000014
 21
0.8375000000000341
 31
0.0
  0
LINE
  5
15
100
AcDbEntity
  8
USP-GEO
100
AcDbLine
 10
0.7873810317671257
 20
1.012280864291824
 30
0.0
 11
0.9033465438817245
 21
0.8963153521772255
 31
0.0
  0
LINE
  5
16
100
AcDbEntity
  8
USP-GEO
100
AcDbLine
 10
1.000000000000028
 20
1.250000000000014
 30
0.0
 11
1.000000000000028
 21
1.066666666666691
 31
0.0
  0
LINE
  5
17
100
AcDbEntity
  8
USP-GEO
100
AcDbLine
 10
1.000000000000014
 20
1.066666666666691
 30
0.0
 11
1.000000000000014
 21
0.8375000000000341
 31
0.0
  0
LINE
  5
18
100
AcDbEntity
  8
USP-GEO
100
AcDbLine
 10
1.000000000000028
 20
0.8375000000000198
 30
0.0
 11
1.000000000000028
 21
0.0467990710866673
 31
0.0
  0
LINE
  5
19
100
AcDbEntity
  8
USP-GEO
100
AcDbLine
 10
1.000000000000014
 20
0.0467990710866673
 30
0.0
 11
1.000000000000014
 21
0.0
 31
0.0
  0
LINE
  5
1A
100
AcDbEntity
  8
USP-GEO
100
AcDbLine
 10
1.047800000000009
 20
0.0000000000000284
 30
0.0
 11
1.000000000000028
 21
0.0000000000000284
 31
0.0
  0
LINE
  5
1B
100
AcDbEntity
  8
USP-GEO
100
AcDbLine
 10
1.047800000000009
 20
0.0467990710866815
 30
0.0
 11
1.047800000000009
 21
0.0000000000000142
 31
0.0
  0
LINE
  5
1C
100
AcDbEntity
  8
USP-GEO
100
AcDbLine
 10
1.047800000000023
 20
0.8375000000000341
 30
0.0
 11
1.047800000000023
 21
0.0467990710866815
 31
0.0
  0
LINE
  5
1D
100
AcDbEntity
  8
USP-GEO
100
AcDbLine
 10
1.047799999999995
 20
1.066666666666691
 30
0.0
 11
1.047799999999995
 21
0.8375000000000341
 31
0.0
  0
LINE
  5
1E
100
AcDbEntity
  8
USP-GEO
100
AcDbLine
 10
1.047800000000009
 20
1.250000000000028
 30
0.0
 11
1.047800000000009
 21
1.066666666666691
 31
0.0
  0
LINE
  5
1F
100
AcDbEntity
  8
USP-GEO
100
AcDbLine
 10
1.047800000000009
 20
1.250000000000014
 30
0.0
 11
1.000000000000028
 21
1.250000000000014
 31
0.0
  0
ARC
  5
20
100
AcDbEntity
  8
USP-GEO
100
AcDbCircle
 10
1.047800000000009
 20
1.156734320410123
 30
0.0
 40
0.2977999999999987
100
AcDbArc
 50
240.9830270598272
 51
260.7634765445508
  0
LINE
  5
21
100
AcDbEntity
  8
USP-GEO
100
AcDbLine
 10
1.000000000000014
 20
2.250000000000028
 30
0.0
 11
0.0
 21
2.250000000000028
 31
0.0
  0
LINE
  5
22
100
AcDbEntity
  8
USP-GEO
100
AcDbLine
 10
0.0000000000000142
 20
2.297800000000023
 30
0.0
 11
1.047800000000009
 21
2.297800000000023
 31
0.0
  0
LINE
  5
23
100
AcDbEntity
  8
USP-GEO
100
AcDbLine
 10
0.0
 20
2.250000000000028
 30
0.0
 11
0.0
 21
2.297800000000009
 31
0.0
  0
LINE
  5
24
100
AcDbEntity
  8
USP-GEO
100
AcDbLine
 10
0.7874999999999944
 20
2.041028851245371
 30
0.0
 11
0.7874999999999944
 21
2.049673383528357
 31
0.0
  0
LINE
  5
25
100
AcDbEntity
  8
USP-GEO
100
AcDbLine
 10
0.7874999999999944
 20
2.250000000000028
 30
0.0
 11
0.7874999999999801
 21
2.049673383528357
 31
0.0
  0
LINE
  5
26
100
AcDbEntity
  8
USP-GEO
100
AcDbLine
 10
0.5875000000000199
 20
2.297800000000009
 30
0.0
 11
0.6875000000000142
 21
2.355157643635124
 31
0.0
  0
LINE
  5
27
100
AcDbEntity
  8
USP-GEO
100
AcDbLine
 10
0.5875000000000199
 20
2.049673383528343
 30
0.0
 11
0.5875000000000199
 21
2.041028851245357
 31
0.0
  0
LINE
  5
28
100
AcDbEntity
  8
USP-GEO
100
AcDbLine
 10
0.5875000000000199
 20
2.049673383528329
 30
0.0
 11
0.5875000000000199
 21
2.250000000000028
 31
0.0
  0
LINE
  5
29
100
AcDbEntity
  8
USP-GEO
100
AcDbLine
 10
0.6875000000000142
 20
2.355157643635124
 30
0.0
 11
0.7875000000000086
 21
2.297800000000023
 31
0.0
  0
LINE
  5
2A
100
AcDbEntity
  8
USP-GEO
100
AcDbLine
 10
0.5875000000000341
 20
2.041028851245371
 30
0.0
 11
0.7874999999999944
 21
2.041028851245371
 31
0.0
  0
LINE
  5
2B
100
AcDbEntity
  8
USP-GEO
100
AcDbLine
 10
2.485300000000009
 20
2.000000000000028
 30
0.0
 11
4.235300000000009
 21
2.000000000000028
 31
0.0
  0
LINE
  5
2C
100
AcDbEntity
  8
USP-GEO
100
AcDbLine
 10
4.235300000000009
 20
0.0
 30
0.0
 11
2.485300000000009
 21
0.0
 31
0.0
  0
LINE
  5
2D
100
AcDbEntity
  8
USP-GEO
100
AcDbLine
 10
2.485300000000009
 20
0.0000000000000142
 30
0.0
 11
2.485300000000009
 21
0.0312500000000284
 31
0.0
  0
ARC
  5
2E
100
AcDbEntity
  8
USP-GEO
100
AcDbCircle
 10
2.454050000000009
 20
0.0312500000000284
 30
0.0
 40
0.03125
100
AcDbArc
 50
0.0
 51
90.0
  0
LINE
  5
2F
100
AcDbEntity
  8
USP-GEO
100
AcDbLine
 10
2.454050000000009
 20
0.0625000000000284
 30
0.0
 11
2.266550000000009
 21
0.0625000000000284
 31
0.0
  0
ARC
  5
30
100
AcDbEntity
  8
USP-GEO
100
AcDbCircle
 10
2.266550000000009
 20
0.0312500000000142
 30
0.0
 40
0.03125
100
AcDbArc
 50
90.0
 51
180.0
  0
LINE
  5
31
100
AcDbEntity
  8
USP-GEO
100
AcDbLine
 10
2.235299999999995
 20
0.0312500000000142
 30
0.0
 11
2.235299999999995
 21
0.0000000000000142
 31
0.0
  0
LINE
  5
32
100
AcDbEntity
  8
USP-GEO
100
AcDbLine
 10
2.235299999999995
 20
2.000000000000028
 30
0.0
 11
2.235299999999995
 21
1.968750000000028
 31
0.0
  0
ARC
  5
33
100
AcDbEntity
  8
USP-GEO
100
AcDbCircle
 10
2.266550000000009
 20
1.968750000000028
 30
0.0
 40
0.03125
100
AcDbArc
 50
180.0
 51
270.0
  0
LINE
  5
34
100
AcDbEntity
  8
USP-GEO
100
AcDbLine
 10
2.266550000000009
 20
1.937500000000014
 30
0.0
 11
2.454050000000009
 21
1.937500000000014
 31
0.0
  0
ARC
  5
35
100
AcDbEntity
  8
USP-GEO
100
AcDbCircle
 10
2.454050000000009
 20
1.968750000000028
 30
0.0
 40
0.03125
100
AcDbArc
 50
270.0
 51
0.0
  0
LINE
  5
36
100
AcDbEntity
  8
USP-GEO
100
AcDbLine
 10
2.485300000000009
 20
1.968750000000028
 30
0.0
 11
2.485300000000009
 21
2.000000000000028
 31
0.0
  0
LINE
  5
37
100
AcDbEntity
  8
USP-GEO
100
AcDbLine
 10
4.485300000000023
 20
0.0000000000000284
 30
0.0
 11
4.485300000000023
 21
0.0312500000000142
 31
0.0
  0
ARC
  5
38
100
AcDbEntity
  8
USP-GEO
100
AcDbCircle
 10
4.454050000000023
 20
0.0312500000000284
 30
0.0
 40
0.03125
100
AcDbArc
 50
359.9999999999739
 51
90.0
  0
ARC
  5
39
100
AcDbEntity
  8
USP-GEO
100
AcDbCircle
 10
4.266549999999995
 20
0.0312500000000284
 30
0.0
 40
0.03125
100
AcDbArc
 50
89.99999999994789
 51
180.000000000039
  0
LINE
  5
3A
100
AcDbEntity
  8
USP-GEO
100
AcDbLine
 10
4.235300000000009
 20
0.0312500000000142
 30
0.0
 11
4.235300000000009
 21
0.0
 31
0.0
  0
LINE
  5
3B
100
AcDbEntity
  8
USP-GEO
100
AcDbLine
 10
4.454050000000023
 20
0.0625000000000284
 30
0.0
 11
4.266550000000023
 21
0.0625000000000284
 31
0.0
  0
ARC
  5
3C
100
AcDbEntity
  8
USP-GEO
100
AcDbCircle
 10
4.454050000000023
 20
1.968750000000028
 30
0.0
 40
0.03125
100
AcDbArc
 50
270.0
 51
0.0
  0
LINE
  5
3D
100
AcDbEntity
  8
USP-GEO
100
AcDbLine
 10
4.485300000000023
 20
1.968750000000028
 30
0.0
 11
4.485300000000023
 21
2.000000000000028
 31
0.0
  0
LINE
  5
3E
100
AcDbEntity
  8
USP-GEO
100
AcDbLine
 10
4.235300000000009
 20
2.000000000000028
 30
0.0
 11
4.235300000000009
 21
1.968750000000028
 31
0.0
  0
ARC
  5
3F
100
AcDbEntity
  8
USP-GEO
100
AcDbCircle
 10
4.266550000000023
 20
1.968750000000028
 30
0.0
 40
0.03125
100
AcDbArc
 50
180.0
 51
270.0
  0
LINE
  5
40
100
AcDbEntity
  8
USP-GEO
100
AcDbLine
 10
4.266550000000023
 20
1.937500000000014
 30
0.0
 11
4.454050000000023
 21
1.937500000000014
 31
0.0
  0
LINE
  5
41
100
AcDbEntity
  8
USP-GEO
100
AcDbLine
 10
6.720600000000047
 20
2.250000000000028
 30
0.0
 11
5.720600000000032
 21
2.250000000000028
 31
0.0
  0
LINE
  5
42
100
AcDbEntity
  8
USP-GEO
100
AcDbLine
 10
5.672800000000023
 20
2.297800000000023
 30
0.0
 11
6.720600000000061
 21
2.297800000000023
 31
0.0
  0
ARC
  5
43
100
AcDbEntity
  8
USP-GEO
100
AcDbCircle
 10
5.672800000000037
 20
1.156734320410095
 30
0.0
 40
0.2977999999999987
100
AcDbArc
 50
330.983027059829
 51
80.76347654455082
  0
LINE
  5
44
100
AcDbEntity
  8
USP-GEO
100
AcDbLine
 10
5.720600000000047
 20
2.250000000000028
 30
0.0
 11
5.720600000000047
 21
1.250000000000028
 31
0.0
  0
LINE
  5
45
100
AcDbEntity
  8
USP-GEO
100
AcDbLine
 10
5.672800000000037
 20
1.250000000000014
 30
0.0
 11
5.672800000000037
 21
2.297800000000023
 31
0.0
  0
ARC
  5
46
100
AcDbEntity
  8
USP-GEO
100
AcDbCircle
 10
5.672800000000037
 20
1.156734320410095
 30
0.0
 40
0.2977999999999987
100
AcDbArc
 50
279.2365234554491
 51
299.0169729401727
  0
LINE
  5
47
100
AcDbEntity
  8
USP-GEO
100
AcDbLine
 10
5.672800000000037
 20
1.25
 30
0.0
 11
5.672800000000037
 21
1.066666666666662
 31
0.0
  0
LINE
  5
48
100
AcDbEntity
  8
USP-GEO
100
AcDbLine
 10
5.672800000000052
 20
0.0467990710866673
 30
0.0
 11
5.672800000000052
 21
0.0
 31
0.0
  0
LINE
  5
49
100
AcDbEntity
  8
USP-GEO
100
AcDbLine
 10
5.672800000000037
 20
0.8375000000000056
 30
0.0
 11
5.672800000000037
 21
0.0467990710866815
 31
0.0
  0
LINE
  5
4A
100
AcDbEntity
  8
USP-GEO
100
AcDbLine
 10
5.672800000000037
 20
0.8375000000000056
 30
0.0
 11
5.720600000000032
 21
0.8375000000000056
 31
0.0
  0
LINE
  5
4B
100
AcDbEntity
  8
USP-GEO
100
AcDbLine
 10
5.672800000000037
 20
1.066666666666677
 30
0.0
 11
5.672800000000037
 21
0.8375000000000198
 31
0.0
  0
LINE
  5
4C
100
AcDbEntity
  8
USP-GEO
100
AcDbLine
 10
5.720600000000032
 20
0.0000000000000284
 30
0.0
 11
5.720600000000032
 21
0.0467990710866673
 31
0.0
  0
LINE
  5
4D
100
AcDbEntity
  8
USP-GEO
100
AcDbLine
 10
5.720600000000047
 20
0.0467990710866673
 30
0.0
 11
5.720600000000047
 21
0.8375000000000198
 31
0.0
  0
LINE
  5
4E
100
AcDbEntity
  8
USP-GEO
100
AcDbLine
 10
5.720600000000032
 20
0.8375000000000341
 30
0.0
 11
5.720600000000032
 21
1.066666666666691
 31
0.0
  0
LINE
  5
4F
100
AcDbEntity
  8
USP-GEO
100
AcDbLine
 10
5.720600000000032
 20
1.066666666666691
 30
0.0
 11
5.720600000000032
 21
1.250000000000028
 31
0.0
  0
LINE
  5
50
100
AcDbEntity
  8
USP-GEO
100
AcDbLine
 10
5.672800000000037
 20
0.0000000000000284
 30
0.0
 11
5.720600000000047
 21
0.0000000000000284
 31
0.0
  0
LINE
  5
51
100
AcDbEntity
  8
USP-GEO
100
AcDbLine
 10
5.720600000000047
 20
1.250000000000028
 30
0.0
 11
5.672800000000052
 21
1.250000000000028
 31
0.0
  0
LINE
  5
52
100
AcDbEntity
  8
USP-GEO
100
AcDbLine
 10
5.933218968232907
 20
1.012280864291824
 30
0.0
 11
5.817253456118308
 21
0.8963153521772255
 31
0.0
  0
LINE
  5
53
100
AcDbEntity
  8
USP-GEO
100
AcDbLine
 10
6.133100000000027
 20
2.250000000000028
 30
0.0
 11
6.133100000000013
 21
2.049673383528343
 31
0.0
  0
LINE
  5
54
100
AcDbEntity
  8
USP-GEO
100
AcDbLine
 10
6.133100000000027
 20
2.041028851245357
 30
0.0
 11
6.133100000000027
 21
2.049673383528343
 31
0.0
  0
LINE
  5
55
100
AcDbEntity
  8
USP-GEO
100
AcDbLine
 10
6.033100000000032
 20
2.355157643635124
 30
0.0
 11
6.133100000000013
 21
2.297800000000023
 31
0.0
  0
LINE
  5
56
100
AcDbEntity
  8
USP-GEO
100
AcDbLine
 10
5.933100000000038
 20
2.297800000000023
 30
0.0
 11
6.033100000000032
 21
2.355157643635124
 31
0.0
  0
LINE
  5
57
100
AcDbEntity
  8
USP-GEO
100
AcDbLine
 10
5.933100000000024
 20
2.049673383528357
 30
0.0
 11
5.933100000000024
 21
2.250000000000028
 31
0.0
  0
LINE
  5
58
100
AcDbEntity
  8
USP-GEO
100
AcDbLine
 10
5.933100000000052
 20
2.049673383528343
 30
0.0
 11
5.933100000000052
 21
2.041028851245357
 31
0.0
  0
LINE
  5
59
100
AcDbEntity
  8
USP-GEO
100
AcDbLine
 10
5.933100000000052
 20
2.041028851245357
 30
0.0
 11
6.133100000000013
 21
2.041028851245357
 31
0.0
  0
LINE
  5
5A
100
AcDbEntity
  8
USP-GEO
100
AcDbLine
 10
6.720600000000032
 20
2.297800000000023
 30
0.0
 11
6.720600000000032
 21
2.250000000000028
 31
0.0
  0
ENDBLK
  5
5D
100
AcDbEntity
  8
0
100
AcDbBlockEnd
  0
BLOCK
  5
E3
100
AcDbEntity
  8
0
100
AcDbBlockBegin
  2
JUS26-3_F
 70
     0
 10
0.0
 20
0.0
 30
0.0
  3
JUS26-3_F
  1

  0
LINE
  5
60
100
AcDbEntity
  8
USP-GEO
100
AcDbLine
 10
2.485300000000009
 20
0.0
 30
0.0000000000000002
 11
4.235300000000009
 21
0.0
 31
0.0000000000000004
210
0.0
220
1.0
230
0.0
  0
LINE
  5
61
100
AcDbEntity
  8
USP-GEO
100
AcDbLine
 10
4.235300000000009
 20
0.0478000000000094
 30
0.0000000000000004
 11
2.485300000000009
 21
0.0478000000000094
 31
0.0000000000000002
210
0.0
220
1.0
230
0.0
  0
ELLIPSE
  5
62
100
AcDbEntity
  8
USP-GEO
100
AcDbEllipse
 10
5.839797005961216
 20
1.422800000000009
 30
0.0000000000000006
 11
-0.0000000000000251
 21
0.0820000000000143
 31
0.0
210
-0.0000000000000001
220
0.0
230
1.0
 40
0.7071067811864547
 41
-1.570796326795113
 42
-0.3105698314581573
  0
ELLIPSE
  5
63
100
AcDbEntity
  8
USP-GEO
100
AcDbEllipse
 10
5.839797005961216
 20
1.422800000000009
 30
0.0000000000000006
 11
0.0000000000000251
 21
0.0820000000000143
 31
0.0
210
-0.0000000000000001
220
0.0
230
1.0
 40
0.7071067811864548
 41
-2.831022822131636
 42
-1.57079632679468
  0
ELLIPSE
  5
64
100
AcDbEntity
  8
USP-GEO
100
AcDbEllipse
 10
5.875236212175607
 20
1.422800000000009
 30
0.0000000000000006
 11
0.0
 21
-0.0820000000000036
 31
0.0
210
-0.0000000000000001
220
0.0
230
1.0
 40
0.7071067811865475
 41
0.0000000000000001
 42
6.283185307179586
  0
ELLIPSE
  5
65
100
AcDbEntity
  8
USP-GEO
100
AcDbEllipse
 10
5.839797005961216
 20
3.46493121105496
 30
0.0000000000000006
 11
-0.0000000000000251
 21
0.0820000000000143
 31
0.0
210
-0.0000000000000001
220
0.0
230
1.0
 40
0.7071067811864547
 41
-1.570796326795113
 42
-0.3105698314581573
  0
ELLIPSE
  5
66
100
AcDbEntity
  8
USP-GEO
100
AcDbEllipse
 10
5.839797005961216
 20
3.46493121105496
 30
0.0000000000000006
 11
0.0000000000000251
 21
0.0820000000000143
 31
0.0
210
-0.0000000000000001
220
0.0
230
1.0
 40
0.7071067811864548
 41
-2.831022822131636
 42
-1.57079632679468
  0
ELLIPSE
  5
67
100
AcDbEntity
  8
USP-GEO
100
AcDbEllipse
 10
5.875236212175607
 20
3.46493121105496
 30
0.0000000000000006
 11
0.0
 21
-0.0820000000000036
 31
0.0
210
-0.0000000000000001
220
0.0
230
1.0
 40
0.7071067811865475
 41
0.0000000000000001
 42
6.283185307179586
  0
ELLIPSE
  5
68
100
AcDbEntity
  8
USP-GEO
100
AcDbEllipse
 10
0.8453637878244251
 20
3.71493121105496
 30
0.0
 11
0.0
 21
-0.0820000000000036
 31
0.0
210
-0.0000000000000001
220
0.0
230
1.0
 40
0.7071067811865474
 41
0.0000000000000001
 42
6.283185307179586
  0
ELLIPSE
  5
69
100
AcDbEntity
  8
USP-GEO
100
AcDbEllipse
 10
0.8808029940388308
 20
3.71493121105496
 30
0.0
 11
-0.0000000000000488
 21
0.0819999999999894
 31
0.0
210
-0.0000000000000001
220
0.0
230
1.0
 40
0.70710678118667
 41
0.3105698314571394
 42
1.570796326794475
  0
ELLIPSE
  5
6A
100
AcDbEntity
  8
USP-GEO
100
AcDbEllipse
 10
0.8808029940388308
 20
3.71493121105496
 30
0.0
 11
0.0000000000000489
 21
0.0819999999999894
 31
0.0
210
-0.0000000000000001
220
0.0
230
1.0
 40
0.7071067811866698
 41
1.570796326795317
 42
2.831022822132654
  0
ELLIPSE
  5
6B
100
AcDbEntity
  8
USP-GEO
100
AcDbEllipse
 10
0.8453637878244251
 20
1.547800000000009
 30
0.0
 11
0.0
 21
-0.0820000000000036
 31
0.0
210
-0.0000000000000001
220
0.0
230
1.0
 40
0.7071067811865474
 41
0.0000000000000001
 42
6.283185307179586
  0
ELLIPSE
  5
6C
100
AcDbEntity
  8
USP-GEO
100
AcDbEllipse
 10
0.8808029940388308
 20
1.547800000000009
 30
0.0
 11
-0.0000000000000488
 21
0.0819999999999894
 31
0.0
210
-0.0000000000000001
220
0.0
230
1.0
 40
0.70710678118667
 41
0.310569831457142
 42
1.570796326794475
  0
ELLIPSE
  5
6D
100
AcDbEntity
  8
USP-GEO
100
AcDbEllipse
 10
0.8808029940388308
 20
1.547800000000009
 30
0.0
 11
0.0000000000000489
 21
0.0819999999999894
 31
0.0
210
-0.0000000000000001
220
0.0
230
1.0
 40
0.7071067811866698
 41
1.570796326795315
 42
2.831022822132653
  0
TEXT
  5
6E
100
AcDbEntity
  8
USP-TXT
100
AcDbText
 10
0.8603000000000102
 20
-0.8283711216027569
 30
0.0000000000000003
 40
0.25
  1
JUS26-3 - FRONT VIEW
 72
     1
 11
3.360300000000009
 21
-0.8283711216027569
 31
0.0000000000000003
100
AcDbText
  0
LINE
  5
6F
100
AcDbEntity
  8
USP-GEO
100
AcDbLine
 10
1.000000000000014
 20
0.5684344138202136
 30
0.0
 11
1.000000000000014
 21
0.0478000000000094
 31
0.0
210
0.0
220
1.0
230
0.0
  0
LINE
  5
70
100
AcDbEntity
  8
USP-GEO
100
AcDbLine
 10
1.047800000000009
 20
0.5684344138202136
 30
0.0
 11
1.047800000000009
 21
0.0478000000000094
 31
0.0
210
0.0
220
1.0
230
0.0
  0
LINE
  5
71
100
AcDbEntity
  8
USP-GEO
100
AcDbLine
 10
2.235300000000009
 20
0.0478000000000094
 30
0.0000000000000002
 11
1.047800000000009
 21
0.0478000000000094
 31
0.0
210
0.0
220
1.0
230
0.0
  0
LINE
  5
72
100
AcDbEntity
  8
USP-GEO
100
AcDbLine
 10
1.000000000000028
 20
0.0
 30
0.0
 11
2.235300000000009
 21
0.0
 31
0.0000000000000002
210
0.0
220
1.0
230
0.0
  0
LINE
  5
73
100
AcDbEntity
  8
USP-GEO
100
AcDbLine
 10
1.000000000000028
 20
0.0
 30
0.0
 11
1.000000000000028
 21
0.0478000000000094
 31
0.0
210
0.0
220
1.0
230
0.0
  0
LINE
  5
74
100
AcDbEntity
  8
USP-GEO
100
AcDbLine
 10
2.485300000000009
 20
0.0478000000000094
 30
0.0000000000000002
 11
2.485300000000009
 21
0.0
 31
0.0000000000000002
210
0.0
220
1.0
230
0.0
  0
LINE
  5
75
100
AcDbEntity
  8
USP-GEO
100
AcDbLine
 10
2.235300000000009
 20
0.0478000000000094
 30
0.0000000000000002
 11
2.235300000000009
 21
0.0
 31
0.0000000000000002
210
0.0
220
1.0
230
0.0
  0
LINE
  5
76
100
AcDbEntity
  8
USP-GEO
100
AcDbLine
 10
2.235300000000009
 20
0.0
 30
0.0000000000000002
 11
2.266550000000009
 21
0.0
 31
0.0000000000000002
210
0.0
220
1.0
230
0.0
  0
LINE
  5
77
100
AcDbEntity
  8
USP-GEO
100
AcDbLine
 10
2.266550000000009
 20
0.0478000000000094
 30
0.0000000000000002
 11
2.235300000000009
 21
0.0478000000000094
 31
0.0000000000000002
210
0.0
220
1.0
230
0.0
  0
LINE
  5
78
100
AcDbEntity
  8
USP-GEO
100
AcDbLine
 10
2.266550000000009
 20
0.0
 30
0.0000000000000002
 11
2.454050000000009
 21
0.0
 31
0.0000000000000002
210
0.0
220
1.0
230
0.0
  0
LINE
  5
79
100
AcDbEntity
  8
USP-GEO
100
AcDbLine
 10
2.454050000000009
 20
0.0478000000000094
 30
0.0000000000000002
 11
2.266550000000009
 21
0.0478000000000094
 31
0.0000000000000002
210
0.0
220
1.0
230
0.0
  0
LINE
  5
7A
100
AcDbEntity
  8
USP-GEO
100
AcDbLine
 10
2.454050000000009
 20
0.0
 30
0.0000000000000002
 11
2.485300000000009
 21
0.0
 31
0.0000000000000002
210
0.0
220
1.0
230
0.0
  0
LINE
  5
7B
100
AcDbEntity
  8
USP-GEO
100
AcDbLine
 10
2.485300000000009
 20
0.0478000000000094
 30
0.0000000000000002
 11
2.454050000000009
 21
0.0478000000000094
 31
0.0000000000000002
210
0.0
220
1.0
230
0.0
  0
LINE
  5
7C
100
AcDbEntity
  8
USP-GEO
100
AcDbLine
 10
1.000000000000014
 20
3.83993121105496
 30
0.0
 11
1.000000000000014
 21
3.58993121105496
 31
0.0
210
0.0
220
1.0
230
0.0
  0
LINE
  5
7D
100
AcDbEntity
  8
USP-GEO
100
AcDbLine
 10
1.047800000000009
 20
3.839931211054945
 30
0.0
 11
1.047800000000009
 21
3.589931211054945
 31
0.0
210
0.0
220
1.0
230
0.0
  0
LINE
  5
7E
100
AcDbEntity
  8
USP-GEO
100
AcDbLine
 10
0.5875000000000199
 20
3.477976469825364
 30
-0.0000000000000001
 11
0.5875000000000199
 21
3.764072527836773
 31
-0.0000000000000001
210
0.0
220
1.0
230
0.0
  0
LINE
  5
7F
100
AcDbEntity
  8
USP-GEO
100
AcDbLine
 10
0.4125000000000228
 20
3.589931211054945
 30
-0.0000000000000001
 11
0.4125000000000228
 21
3.839931211054945
 31
-0.0000000000000001
210
0.0
220
1.0
230
0.0
  0
ARC
  5
80
100
AcDbEntity
  8
USP-GEO
100
AcDbCircle
 10
1.047800000000009
 20
3.714931211054945
 30
0.0
 40
0.2977999999999988
100
AcDbArc
 50
99.23652345544919
 51
260.7634765445508
  0
LINE
  5
81
100
AcDbEntity
  8
USP-GEO
100
AcDbLine
 10
1.000000000000028
 20
1.98604637888161
 30
0.0
 11
1.000000000000028
 21
0.5684344138202136
 31
0.0
210
0.0
220
1.0
230
0.0
  0
LINE
  5
82
100
AcDbEntity
  8
USP-GEO
100
AcDbLine
 10
1.047800000000023
 20
1.986046378881596
 30
0.0
 11
1.047800000000023
 21
0.5684344138202136
 31
0.0
210
0.0
220
1.0
230
0.0
  0
LINE
  5
83
100
AcDbEntity
  8
USP-GEO
100
AcDbLine
 10
1.0
 20
0.85195680683249
 30
0.0
 11
0.1871962843466406
 21
1.986046378881596
 31
-0.0000000000000001
210
0.0
220
1.0
230
0.0
  0
ARC
  5
84
100
AcDbEntity
  8
USP-GEO
100
AcDbCircle
 10
1.047800000000009
 20
1.547799999999995
 30
0.0
 40
0.2977999999999988
100
AcDbArc
 50
99.23652345544919
 51
260.7634765445508
  0
ARC
  5
85
100
AcDbEntity
  8
USP-GEO
100
AcDbCircle
 10
0.1000000000000369
 20
3.589931211055031
 30
-0.0000000000000001
 40
0.3124999999999597
100
AcDbArc
 50
285.4660099534163
 51
359.9999999999845
  0
CIRCLE
  5
86
100
AcDbEntity
  8
USP-GEO
100
AcDbCircle
 10
0.3125000000000142
 20
2.422800000000023
 30
-0.0000000000000001
 40
0.086
  0
LINE
  5
87
100
AcDbEntity
  8
USP-GEO
100
AcDbLine
 10
0.0
 20
2.568584034162412
 30
-0.0000000000000001
 11
0.0
 21
3.047800000000009
 31
-0.0000000000000001
210
0.0
220
1.0
230
0.0
  0
ARC
  5
88
100
AcDbEntity
  8
USP-GEO
100
AcDbCircle
 10
1.000000000000014
 20
2.568584034162441
 30
0.0
 40
0.999999999999998
100
AcDbArc
 50
180.0000000000016
 51
215.6292264487012
  0
ARC
  5
89
100
AcDbEntity
  8
USP-GEO
100
AcDbCircle
 10
0.25
 20
3.047800000000023
 30
-0.0000000000000001
 40
0.2499999999999962
100
AcDbArc
 50
105.4660099534204
 51
180.0000000000032
  0
LINE
  5
8A
100
AcDbEntity
  8
USP-GEO
100
AcDbLine
 10
0.7875000000000086
 20
3.570263488324556
 30
0.0
 11
0.7875000000000086
 21
3.477976469825335
 31
0.0
210
0.0
220
1.0
230
0.0
  0
LINE
  5
8B
100
AcDbEntity
  8
USP-GEO
100
AcDbLine
 10
0.7874999999999944
 20
3.47797646982535
 30
0.0
 11
0.7874999999999944
 21
3.389931211054943
 31
0.0
210
0.0
220
1.0
230
0.0
  0
LINE
  5
8C
100
AcDbEntity
  8
USP-GEO
100
AcDbLine
 10
1.000000000000014
 20
3.58993121105496
 30
0.0
 11
1.000000000000014
 21
3.288747204913278
 31
0.0
210
0.0
220
1.0
230
0.0
  0
LINE
  5
8D
100
AcDbEntity
  8
USP-GEO
100
AcDbLine
 10
1.047800000000009
 20
3.589931211054945
 30
0.0
 11
1.047800000000009
 21
3.288747204913249
 31
0.0
210
0.0
220
1.0
230
0.0
  0
LINE
  5
8E
100
AcDbEntity
  8
USP-GEO
100
AcDbLine
 10
0.6875000000000142
 20
3.383715593847298
 30
0.0
 11
0.5875000000000199
 21
3.465630798276194
 31
-0.0000000000000001
210
0.0
220
1.0
230
0.0
  0
LINE
  5
8F
100
AcDbEntity
  8
USP-GEO
100
AcDbLine
 10
0.5875000000000199
 20
3.389931211054943
 30
-0.0000000000000001
 11
0.5875000000000199
 21
3.477976469825364
 31
-0.0000000000000001
210
0.0
220
1.0
230
0.0
  0
LINE
  5
90
100
AcDbEntity
  8
USP-GEO
100
AcDbLine
 10
0.6875000000000142
 20
3.289931211054963
 30
0.0
 11
0.5875000000000199
 21
3.389931211054957
 31
-0.0000000000000001
210
0.0
220
1.0
230
0.0
  0
LINE
  5
91
100
AcDbEntity
  8
USP-GEO
100
AcDbLine
 10
0.7874999999999944
 20
3.46563079827618
 30
0.0
 11
0.6875000000000142
 21
3.383715593847298
 31
0.0
210
0.0
220
1.0
230
0.0
  0
LINE
  5
92
100
AcDbEntity
  8
USP-GEO
100
AcDbLine
 10
0.7875000000000086
 20
3.389931211054928
 30
0.0
 11
0.6875000000000285
 21
3.289931211054934
 31
0.0
210
0.0
220
1.0
230
0.0
  0
LINE
  5
93
100
AcDbEntity
  8
USP-GEO
100
AcDbLine
 10
1.000000000000028
 20
3.047799999999895
 30
0.0
 11
1.000000000000028
 21
2.568584034162412
 31
0.0
210
0.0
220
1.0
230
0.0
  0
LINE
  5
94
100
AcDbEntity
  8
USP-GEO
100
AcDbLine
 10
1.047800000000009
 20
3.047799999999895
 30
0.0
 11
1.047800000000009
 21
2.568584034162412
 31
0.0
210
0.0
220
1.0
230
0.0
  0
LINE
  5
95
100
AcDbEntity
  8
USP-GEO
100
AcDbLine
 10
1.0
 20
2.568584034162412
 30
0.0
 11
1.0
 21
1.98604637888161
 31
0.0
210
0.0
220
1.0
230
0.0
  0
LINE
  5
96
100
AcDbEntity
  8
USP-GEO
100
AcDbLine
 10
1.047800000000009
 20
2.568584034162412
 30
0.0
 11
1.047800000000009
 21
1.98604637888161
 31
0.0
210
0.0
220
1.0
230
0.0
  0
LINE
  5
97
100
AcDbEntity
  8
USP-GEO
100
AcDbLine
 10
1.000000000000014
 20
3.288747204913249
 30
0.0
 11
1.000000000000014
 21
3.047799999999895
 31
0.0
210
0.0
220
1.0
230
0.0
  0
LINE
  5
98
100
AcDbEntity
  8
USP-GEO
100
AcDbLine
 10
1.047799999999995
 20
3.288747204913249
 30
0.0
 11
1.047799999999995
 21
3.047799999999895
 31
0.0
210
0.0
220
1.0
230
0.0
  0
ARC
  5
99
100
AcDbEntity
  8
USP-GEO
100
AcDbCircle
 10
0.1000000000000369
 20
3.83993121105496
 30
-0.0000000000000001
 40
0.3124999999999979
100
AcDbArc
 50
359.9999999999975
 51
74.53399004658037
  0
CIRCLE
  5
9A
100
AcDbEntity
  8
USP-GEO
100
AcDbCircle
 10
0.3125000000000142
 20
4.339931211054945
 30
-0.0000000000000001
 40
0.086
  0
LINE
  5
9B
100
AcDbEntity
  8
USP-GEO
100
AcDbLine
 10
1.000000000000014
 20
4.547800000000023
 30
0.0
 11
0.0
 21
4.547800000000023
 31
-0.0000000000000001
210
0.0
220
1.0
230
0.0
  0
LINE
  5
9C
100
AcDbEntity
  8
USP-GEO
100
AcDbLine
 10
0.0
 20
4.382062422109896
 30
-0.0000000000000001
 11
0.0
 21
4.547800000000009
 31
-0.0000000000000001
210
0.0
220
1.0
230
0.0
  0
ARC
  5
9D
100
AcDbEntity
  8
USP-GEO
100
AcDbCircle
 10
0.2499999999999716
 20
4.382062422109967
 30
-0.0000000000000001
 40
0.2499999999999579
100
AcDbArc
 50
180.0000000000162
 51
254.5339900465948
  0
LINE
  5
9E
100
AcDbEntity
  8
USP-GEO
100
AcDbLine
 10
1.000000000000014
 20
4.547800000000009
 30
0.0
 11
1.000000000000014
 21
4.382062422109981
 31
0.0
210
0.0
220
1.0
230
0.0
  0
LINE
  5
9F
100
AcDbEntity
  8
USP-GEO
100
AcDbLine
 10
1.047800000000009
 20
4.547800000000009
 30
0.0
 11
1.047800000000009
 21
4.382062422109981
 31
0.0
210
0.0
220
1.0
230
0.0
  0
LINE
  5
A0
100
AcDbEntity
  8
USP-GEO
100
AcDbLine
 10
1.047800000000009
 20
4.547800000000023
 30
0.0
 11
1.000000000000028
 21
4.547800000000023
 31
0.0
210
0.0
220
1.0
230
0.0
  0
LINE
  5
A1
100
AcDbEntity
  8
USP-GEO
100
AcDbLine
 10
0.7874999999999944
 20
4.105002493163354
 30
0.0
 11
0.7874999999999801
 21
3.859598933785292
 31
0.0
210
0.0
220
1.0
230
0.0
  0
LINE
  5
A2
100
AcDbEntity
  8
USP-GEO
100
AcDbLine
 10
1.000000000000014
 20
4.141115217196642
 30
0.0
 11
1.000000000000014
 21
3.83993121105496
 31
0.0
210
0.0
220
1.0
230
0.0
  0
LINE
  5
A3
100
AcDbEntity
  8
USP-GEO
100
AcDbLine
 10
1.047799999999995
 20
4.141115217196627
 30
0.0
 11
1.047799999999995
 21
3.839931211054945
 31
0.0
210
0.0
220
1.0
230
0.0
  0
LINE
  5
A4
100
AcDbEntity
  8
USP-GEO
100
AcDbLine
 10
1.000000000000028
 20
4.382062422109981
 30
0.0
 11
1.000000000000028
 21
4.141115217196656
 31
0.0
210
0.0
220
1.0
230
0.0
  0
LINE
  5
A5
100
AcDbEntity
  8
USP-GEO
100
AcDbLine
 10
1.047800000000009
 20
4.382062422109981
 30
0.0
 11
1.047800000000009
 21
4.141115217196656
 31
0.0
210
0.0
220
1.0
230
0.0
  0
LINE
  5
A6
100
AcDbEntity
  8
USP-GEO
100
AcDbLine
 10
0.5875000000000199
 20
3.818906435151916
 30
-0.0000000000000001
 11
0.5875000000000199
 21
3.764072527836773
 31
-0.0000000000000001
210
0.0
220
1.0
230
0.0
  0
LINE
  5
A7
100
AcDbEntity
  8
USP-GEO
100
AcDbLine
 10
0.5875000000000199
 20
3.81890643515193
 30
-0.0000000000000001
 11
0.5875000000000199
 21
4.105002493163354
 31
-0.0000000000000001
210
0.0
220
1.0
230
0.0
  0
LINE
  5
A8
100
AcDbEntity
  8
USP-GEO
100
AcDbLine
 10
0.5875000000000199
 20
4.105002493163354
 30
-0.0000000000000001
 11
0.7874999999999944
 21
4.105002493163354
 31
0.0
210
0.0
220
1.0
230
0.0
  0
LINE
  5
A9
100
AcDbEntity
  8
USP-GEO
100
AcDbLine
 10
5.720600000000047
 20
0.0
 30
0.0000000000000006
 11
4.485300000000023
 21
0.0
 31
0.0000000000000004
210
0.0
220
1.0
230
0.0
  0
LINE
  5
AA
100
AcDbEntity
  8
USP-GEO
100
AcDbLine
 10
5.672800000000037
 20
0.0478000000000094
 30
0.0000000000000006
 11
4.485300000000023
 21
0.0478000000000094
 31
0.0000000000000004
210
0.0
220
1.0
230
0.0
  0
LINE
  5
AB
100
AcDbEntity
  8
USP-GEO
100
AcDbLine
 10
4.266550000000023
 20
0.0
 30
0.0000000000000004
 11
4.454050000000023
 21
0.0
 31
0.0000000000000004
210
0.0
220
1.0
230
0.0
  0
LINE
  5
AC
100
AcDbEntity
  8
USP-GEO
100
AcDbLine
 10
4.454050000000023
 20
0.0478000000000094
 30
0.0000000000000004
 11
4.266550000000023
 21
0.0478000000000094
 31
0.0000000000000004
210
0.0
220
1.0
230
0.0
  0
LINE
  5
AD
100
AcDbEntity
  8
USP-GEO
100
AcDbLine
 10
4.235300000000009
 20
0.0478000000000094
 30
0.0000000000000004
 11
4.235300000000009
 21
0.0
 31
0.0000000000000004
210
0.0
220
1.0
230
0.0
  0
LINE
  5
AE
100
AcDbEntity
  8
USP-GEO
100
AcDbLine
 10
4.235299999999995
 20
0.0
 30
0.0000000000000004
 11
4.266550000000023
 21
0.0
 31
0.0000000000000004
210
0.0
220
1.0
230
0.0
  0
LINE
  5
AF
100
AcDbEntity
  8
USP-GEO
100
AcDbLine
 10
4.266550000000023
 20
0.0478000000000094
 30
0.0000000000000004
 11
4.235299999999995
 21
0.0478000000000094
 31
0.0000000000000004
210
0.0
220
1.0
230
0.0
  0
LINE
  5
B0
100
AcDbEntity
  8
USP-GEO
100
AcDbLine
 10
4.454050000000023
 20
0.0
 30
0.0000000000000004
 11
4.485300000000023
 21
0.0
 31
0.0000000000000004
210
0.0
220
1.0
230
0.0
  0
LINE
  5
B1
100
AcDbEntity
  8
USP-GEO
100
AcDbLine
 10
4.485300000000023
 20
0.0478000000000094
 30
0.0000000000000004
 11
4.454050000000023
 21
0.0478000000000094
 31
0.0000000000000004
210
0.0
220
1.0
230
0.0
  0
LINE
  5
B2
100
AcDbEntity
  8
USP-GEO
100
AcDbLine
 10
4.485300000000023
 20
0.0478000000000094
 30
0.0000000000000004
 11
4.485300000000023
 21
0.0
 31
0.0000000000000004
210
0.0
220
1.0
230
0.0
  0
LINE
  5
B3
100
AcDbEntity
  8
USP-GEO
100
AcDbLine
 10
5.672800000000052
 20
0.5684344138202278
 30
0.0000000000000006
 11
5.672800000000052
 21
0.0478000000000094
 31
0.0000000000000006
210
0.0
220
1.0
230
0.0
  0
LINE
  5
B4
100
AcDbEntity
  8
USP-GEO
100
AcDbLine
 10
5.720600000000032
 20
0.0478000000000094
 30
0.0000000000000006
 11
5.720600000000032
 21
0.5684344138202136
 31
0.0000000000000006
210
0.0
220
1.0
230
0.0
  0
LINE
  5
B5
100
AcDbEntity
  8
USP-GEO
100
AcDbLine
 10
5.720600000000047
 20
0.0478000000000094
 30
0.0000000000000006
 11
5.720600000000047
 21
0.0
 31
0.0000000000000006
210
0.0
220
1.0
230
0.0
  0
ARC
  5
B6
100
AcDbEntity
  8
USP-GEO
100
AcDbCircle
 10
6.620600000000024
 20
3.58993121105496
 30
0.0000000000000007
 40
0.312499999999998
100
AcDbArc
 50
105.4660099534222
 51
180.0
  0
LINE
  5
B7
100
AcDbEntity
  8
USP-GEO
100
AcDbLine
 10
6.133100000000027
 20
3.855002493163354
 30
0.0000000000000006
 11
6.133100000000013
 21
3.568906435151944
 31
0.0000000000000006
210
0.0
220
1.0
230
0.0
  0
LINE
  5
B8
100
AcDbEntity
  8
USP-GEO
100
AcDbLine
 10
5.933100000000024
 20
3.609598933785392
 30
0.0000000000000006
 11
5.933100000000024
 21
3.855002493163354
 31
0.0000000000000006
210
0.0
220
1.0
230
0.0
  0
LINE
  5
B9
100
AcDbEntity
  8
USP-GEO
100
AcDbLine
 10
5.672800000000037
 20
3.891115217196642
 30
0.0000000000000006
 11
5.672800000000037
 21
3.58993121105496
 31
0.0000000000000006
210
0.0
220
1.0
230
0.0
  0
LINE
  5
BA
100
AcDbEntity
  8
USP-GEO
100
AcDbLine
 10
5.720600000000032
 20
3.589931211054945
 30
0.0000000000000006
 11
5.720600000000032
 21
3.891115217196642
 31
0.0000000000000006
210
0.0
220
1.0
230
0.0
  0
ARC
  5
BB
100
AcDbEntity
  8
USP-GEO
100
AcDbCircle
 10
5.672800000000037
 20
3.46493121105496
 30
0.0000000000000006
 40
0.2977999999999988
100
AcDbArc
 50
279.2365234554491
 51
80.76347654455082
  0
ARC
  5
BC
100
AcDbEntity
  8
USP-GEO
100
AcDbCircle
 10
6.470600000000047
 20
2.797800000000023
 30
0.0000000000000007
 40
0.2499999999999961
100
AcDbArc
 50
0.0
 51
74.533990046577
  0
ARC
  5
BD
100
AcDbEntity
  8
USP-GEO
100
AcDbCircle
 10
5.720600000000047
 20
2.568584034162441
 30
0.0000000000000006
 40
0.999999999999998
100
AcDbArc
 50
324.3707735512987
 51
359.9999999999992
  0
LINE
  5
BE
100
AcDbEntity
  8
USP-GEO
100
AcDbLine
 10
5.672800000000037
 20
1.98604637888161
 30
0.0000000000000006
 11
5.672800000000037
 21
0.5684344138202136
 31
0.0000000000000006
210
0.0
220
1.0
230
0.0
  0
LINE
  5
BF
100
AcDbEntity
  8
USP-GEO
100
AcDbLine
 10
5.720600000000047
 20
0.5684344138202136
 30
0.0000000000000006
 11
5.720600000000047
 21
1.986046378881596
 31
0.0000000000000006
210
0.0
220
1.0
230
0.0
  0
LINE
  5
C0
100
AcDbEntity
  8
USP-GEO
100
AcDbLine
 10
6.533403715653406
 20
1.98604637888161
 30
0.0000000000000007
 11
5.720600000000032
 21
0.85195680683249
 31
0.0000000000000006
210
0.0
220
1.0
230
0.0
  0
ARC
  5
C1
100
AcDbEntity
  8
USP-GEO
100
AcDbCircle
 10
5.672800000000052
 20
1.422800000000009
 30
0.0000000000000006
 40
0.2977999999999988
100
AcDbArc
 50
279.2365234554491
 51
80.76347654455082
  0
LINE
  5
C2
100
AcDbEntity
  8
USP-GEO
100
AcDbLine
 10
5.672800000000037
 20
3.58993121105496
 30
0.0000000000000006
 11
5.672800000000037
 21
3.339931211054945
 31
0.0000000000000006
210
0.0
220
1.0
230
0.0
  0
LINE
  5
C3
100
AcDbEntity
  8
USP-GEO
100
AcDbLine
 10
5.720600000000032
 20
3.33993121105496
 30
0.0000000000000006
 11
5.720600000000032
 21
3.589931211054945
 31
0.0000000000000006
210
0.0
220
1.0
230
0.0
  0
LINE
  5
C4
100
AcDbEntity
  8
USP-GEO
100
AcDbLine
 10
5.672800000000052
 20
2.797800000000023
 30
0.0000000000000006
 11
5.672800000000052
 21
2.568584034162412
 31
0.0000000000000006
210
0.0
220
1.0
230
0.0
  0
LINE
  5
C5
100
AcDbEntity
  8
USP-GEO
100
AcDbLine
 10
5.672800000000037
 20
3.038747204913263
 30
0.0000000000000006
 11
5.672800000000037
 21
2.797800000000023
 31
0.0000000000000006
210
0.0
220
1.0
230
0.0
  0
LINE
  5
C6
100
AcDbEntity
  8
USP-GEO
100
AcDbLine
 10
5.720600000000047
 20
2.568584034162412
 30
0.0000000000000006
 11
5.720600000000047
 21
2.797800000000009
 31
0.0000000000000006
210
0.0
220
1.0
230
0.0
  0
LINE
  5
C7
100
AcDbEntity
  8
USP-GEO
100
AcDbLine
 10
5.720600000000032
 20
2.797800000000009
 30
0.0000000000000006
 11
5.720600000000032
 21
3.038747204913249
 31
0.0000000000000006
210
0.0
220
1.0
230
0.0
  0
LINE
  5
C8
100
AcDbEntity
  8
USP-GEO
100
AcDbLine
 10
5.672800000000037
 20
2.568584034162412
 30
0.0000000000000006
 11
5.672800000000037
 21
1.98604637888161
 31
0.0000000000000006
210
0.0
220
1.0
230
0.0
  0
LINE
  5
C9
100
AcDbEntity
  8
USP-GEO
100
AcDbLine
 10
5.720600000000032
 20
1.986046378881596
 30
0.0000000000000006
 11
5.720600000000032
 21
2.568584034162412
 31
0.0000000000000006
210
0.0
220
1.0
230
0.0
  0
LINE
  5
CA
100
AcDbEntity
  8
USP-GEO
100
AcDbLine
 10
5.672800000000052
 20
3.339931211054945
 30
0.0000000000000006
 11
5.672800000000052
 21
3.038747204913278
 31
0.0000000000000006
210
0.0
220
1.0
230
0.0
  0
LINE
  5
CB
100
AcDbEntity
  8
USP-GEO
100
AcDbLine
 10
5.720600000000047
 20
3.038747204913278
 30
0.0000000000000006
 11
5.720600000000047
 21
3.33993121105496
 31
0.0000000000000006
210
0.0
220
1.0
230
0.0
  0
LINE
  5
CC
100
AcDbEntity
  8
USP-GEO
100
AcDbLine
 10
6.308100000000052
 20
3.58993121105496
 30
0.0000000000000007
 11
6.308100000000052
 21
3.33993121105496
 31
0.0000000000000007
210
0.0
220
1.0
230
0.0
  0
LINE
  5
CD
100
AcDbEntity
  8
USP-GEO
100
AcDbLine
 10
6.133100000000027
 20
3.514072527836773
 30
0.0000000000000006
 11
6.133100000000027
 21
3.568906435151944
 31
0.0000000000000006
210
0.0
220
1.0
230
0.0
  0
LINE
  5
CE
100
AcDbEntity
  8
USP-GEO
100
AcDbLine
 10
6.133100000000027
 20
3.21563079827618
 30
0.0000000000000006
 11
6.033100000000032
 21
3.133715593847284
 31
0.0000000000000006
210
0.0
220
1.0
230
0.0
  0
LINE
  5
CF
100
AcDbEntity
  8
USP-GEO
100
AcDbLine
 10
6.033100000000032
 20
3.133715593847284
 30
0.0000000000000006
 11
5.933100000000038
 21
3.21563079827618
 31
0.0000000000000006
210
0.0
220
1.0
230
0.0
  0
LINE
  5
D0
100
AcDbEntity
  8
USP-GEO
100
AcDbLine
 10
5.933100000000052
 20
3.139931211054943
 30
0.0000000000000006
 11
5.933100000000052
 21
3.22797646982535
 31
0.0000000000000006
210
0.0
220
1.0
230
0.0
  0
LINE
  5
D1
100
AcDbEntity
  8
USP-GEO
100
AcDbLine
 10
6.033100000000047
 20
3.039931211054948
 30
0.0000000000000006
 11
5.933100000000052
 21
3.139931211054943
 31
0.0000000000000006
210
0.0
220
1.0
230
0.0
  0
LINE
  5
D2
100
AcDbEntity
  8
USP-GEO
100
AcDbLine
 10
6.133100000000027
 20
3.139931211054943
 30
0.0000000000000006
 11
6.033100000000047
 21
3.039931211054963
 31
0.0000000000000006
210
0.0
220
1.0
230
0.0
  0
LINE
  5
D3
100
AcDbEntity
  8
USP-GEO
100
AcDbLine
 10
6.133100000000027
 20
3.22797646982535
 30
0.0000000000000006
 11
6.133100000000027
 21
3.139931211054943
 31
0.0000000000000006
210
0.0
220
1.0
230
0.0
  0
CIRCLE
  5
D4
100
AcDbEntity
  8
USP-GEO
100
AcDbCircle
 10
6.408100000000032
 20
2.297800000000023
 30
0.0000000000000007
 40
0.086
  0
ARC
  5
D5
100
AcDbEntity
  8
USP-GEO
100
AcDbCircle
 10
6.620599999999981
 20
3.339931211055031
 30
0.0000000000000007
 40
0.3124999999999596
100
AcDbArc
 50
180.000000000013
 51
254.5339900465922
  0
LINE
  5
D6
100
AcDbEntity
  8
USP-GEO
100
AcDbLine
 10
6.133100000000027
 20
3.514072527836759
 30
0.0000000000000006
 11
6.133100000000027
 21
3.22797646982535
 31
0.0000000000000006
210
0.0
220
1.0
230
0.0
  0
LINE
  5
D7
100
AcDbEntity
  8
USP-GEO
100
AcDbLine
 10
5.933100000000038
 20
3.22797646982535
 30
0.0000000000000006
 11
5.933100000000038
 21
3.32026348832457
 31
0.0000000000000006
210
0.0
220
1.0
230
0.0
  0
LINE
  5
D8
100
AcDbEntity
  8
USP-GEO
100
AcDbLine
 10
6.720600000000032
 20
2.797800000000023
 30
0.0000000000000007
 11
6.720600000000032
 21
2.568584034162427
 31
0.0000000000000007
210
0.0
220
1.0
230
0.0
  0
ARC
  5
D9
100
AcDbEntity
  8
USP-GEO
100
AcDbCircle
 10
6.470600000000089
 20
4.132062422109967
 30
0.0000000000000007
 40
0.2499999999999579
100
AcDbArc
 50
285.4660099534044
 51
359.9999999999837
  0
LINE
  5
DA
100
AcDbEntity
  8
USP-GEO
100
AcDbLine
 10
6.720600000000047
 20
4.547800000000023
 30
0.0000000000000007
 11
5.720600000000032
 21
4.547800000000023
 31
0.0000000000000006
210
0.0
220
1.0
230
0.0
  0
LINE
  5
DB
100
AcDbEntity
  8
USP-GEO
100
AcDbLine
 10
5.720600000000047
 20
4.547800000000023
 30
0.0000000000000006
 11
5.672800000000052
 21
4.547800000000023
 31
0.0000000000000006
210
0.0
220
1.0
230
0.0
  0
LINE
  5
DC
100
AcDbEntity
  8
USP-GEO
100
AcDbLine
 10
5.672800000000037
 20
4.132062422109996
 30
0.0000000000000006
 11
5.672800000000037
 21
3.891115217196656
 31
0.0000000000000006
210
0.0
220
1.0
230
0.0
  0
LINE
  5
DD
100
AcDbEntity
  8
USP-GEO
100
AcDbLine
 10
5.720600000000032
 20
3.891115217196627
 30
0.0000000000000006
 11
5.720600000000032
 21
4.132062422109996
 31
0.0000000000000006
210
0.0
220
1.0
230
0.0
  0
LINE
  5
DE
100
AcDbEntity
  8
USP-GEO
100
AcDbLine
 10
5.672800000000052
 20
4.547800000000023
 30
0.0000000000000006
 11
5.672800000000052
 21
4.132062422109996
 31
0.0000000000000006
210
0.0
220
1.0
230
0.0
  0
LINE
  5
DF
100
AcDbEntity
  8
USP-GEO
100
AcDbLine
 10
5.720600000000047
 20
4.132062422109996
 30
0.0000000000000006
 11
5.720600000000047
 21
4.547800000000023
 31
0.0000000000000006
210
0.0
220
1.0
230
0.0
  0
CIRCLE
  5
E0
100
AcDbEntity
  8
USP-GEO
100
AcDbCircle
 10
6.408100000000032
 20
4.089931211054945
 30
0.0000000000000007
 40
0.086
  0
LINE
  5
E1
100
AcDbEntity
  8
USP-GEO
100
AcDbLine
 10
5.933100000000052
 20
3.855002493163354
 30
0.0000000000000006
 11
6.133100000000027
 21
3.855002493163354
 31
0.0000000000000006
210
0.0
220
1.0
230
0.0
  0
LINE
  5
E2
100
AcDbEntity
  8
USP-GEO
100
AcDbLine
 10
6.720600000000032
 20
4.547800000000023
 30
0.0000000000000007
 11
6.720600000000032
 21
4.132062422109896
 31
0.0000000000000007
210
0.0
220
1.0
230
0.0
  0
ENDBLK
  5
E4
100
AcDbEntity
  8
0
100
AcDbBlockEnd
  0
BLOCK
  5
129
100
AcDbEntity
  8
0
100
AcDbBlockBegin
  2
JUS26-3_S
 70
     0
 10
0.0
 20
0.0
 30
0.0
  3
JUS26-3_S
  1

  0
LINE
  5
E7
100
AcDbEntity
  8
USP-GEO
100
AcDbLine
 10
2.297799999999995
 20
0.0
 30
0.0000000000000004
 11
0.297799999999981
 21
0.0
 31
0.0
210
0.0
220
1.0
230
0.0
  0
LINE
  5
E8
100
AcDbEntity
  8
USP-GEO
100
AcDbLine
 10
1.047799999999995
 20
4.547800000000023
 30
0.0000000000000001
 11
0.047799999999981
 21
4.547800000000023
 31
0.0
210
0.0
220
1.0
230
0.0
  0
ELLIPSE
  5
E9
100
AcDbEntity
  8
USP-GEO
100
AcDbEllipse
 10
1.343501891765484
 20
1.422800000000009
 30
0.0000000000000002
 11
-0.0000000000000817
 21
0.0819999999998956
 31
0.0
210
-0.0000000000000002
220
0.0
230
1.0
 40
0.7071067811874789
 41
0.9886479737551916
 42
1.570796326794192
  0
ELLIPSE
  5
EA
100
AcDbEntity
  8
USP-GEO
100
AcDbEllipse
 10
1.343501891765484
 20
3.71493121105496
 30
0.0000000000000002
 11
0.0
 21
-0.0820000000000036
 31
0.0
210
-0.0000000000000002
220
0.0
230
1.0
 40
0.7071067811865474
 41
-0.0000000000000001
 42
6.283185307179586
  0
ELLIPSE
  5
EB
100
AcDbEntity
  8
USP-GEO
100
AcDbEllipse
 10
1.308062685551078
 20
3.71493121105496
 30
0.0000000000000002
 11
0.0
 21
0.0820000000000086
 31
0.0
210
-0.0000000000000002
220
0.0
230
1.0
 40
0.707106781186504
 41
-2.831022822132069
 42
-0.3105698314577237
  0
ELLIPSE
  5
EC
100
AcDbEntity
  8
USP-GEO
100
AcDbEllipse
 10
1.343501891765484
 20
1.547800000000009
 30
0.0000000000000002
 11
0.0
 21
-0.0820000000000036
 31
0.0
210
-0.0000000000000002
220
0.0
230
1.0
 40
0.7071067811865474
 41
-0.0000000000000001
 42
6.283185307179586
  0
ELLIPSE
  5
ED
100
AcDbEntity
  8
USP-GEO
100
AcDbEllipse
 10
1.308062685551078
 20
1.547800000000009
 30
0.0000000000000002
 11
0.0
 21
0.0820000000000086
 31
0.0
210
-0.0000000000000002
220
0.0
230
1.0
 40
0.707106781186504
 41
-2.831022822132069
 42
-0.3105698314577237
  0
LINE
  5
EE
100
AcDbEntity
  8
USP-HID
100
AcDbLine
 10
2.297799999999995
 20
0.0747000000000071
 30
0.0000000000000004
 11
0.297799999999981
 21
0.0747000000000071
 31
0.0
210
0.0
220
1.0
230
0.0
  0
ARC
  5
F1
100
AcDbEntity
  8
USP-GEO
100
AcDbCircle
 10
-2.55759646690852
 20
0.0535531170420285
 30
0.0
 40
2.855402262657458
100
AcDbArc
 50
359.8845593306116
 51
10.38830072870394
  0
LINE
  5
F2
100
AcDbEntity
  8
USP-GEO
100
AcDbLine
 10
0.297799999999981
 20
0.0478000000000094
 30
0.0
 11
0.297799999999981
 21
0.0
 31
0.0
210
0.0
220
1.0
230
0.0
  0
LINE
  5
F3
100
AcDbEntity
  8
USP-GEO
100
AcDbLine
 10
0.1897735911288691
 20
3.764072527836759
 30
0.0
 11
0.047799999999981
 21
3.561313226656025
 31
0.0
210
0.0
220
1.0
230
0.0
  0
LINE
  5
F4
100
AcDbEntity
  8
USP-GEO
100
AcDbLine
 10
0.0477999999999952
 20
3.477976469825364
 30
0.0
 11
0.2481266164716658
 21
3.764072527836773
 31
0.0
210
0.0
220
1.0
230
0.0
  0
LINE
  5
F5
100
AcDbEntity
  8
USP-GEO
100
AcDbLine
 10
0.0477999999999668
 20
3.589931211054945
 30
0.0
 11
0.0477999999999668
 21
3.839931211054945
 31
0.0
210
0.0
220
1.0
230
0.0
  0
LINE
  5
F6
100
AcDbEntity
  8
USP-GEO
100
AcDbLine
 10
-0.0000000000000142
 20
3.589931211054945
 30
-0.0000000000000001
 11
-0.0000000000000142
 21
3.839931211054945
 31
-0.0000000000000001
210
0.0
220
1.0
230
0.0
  0
LINE
  5
F7
100
AcDbEntity
  8
USP-GEO
100
AcDbLine
 10
0.0477999999999952
 20
0.85195680683249
 30
0.0
 11
0.0477999999999952
 21
1.986046378881596
 31
0.0
210
0.0
220
1.0
230
0.0
  0
LINE
  5
F8
100
AcDbEntity
  8
USP-GEO
100
AcDbLine
 10
0.0
 20
0.85195680683249
 30
-0.0000000000000001
 11
0.0
 21
1.98604637888161
 31
-0.0000000000000001
210
0.0
220
1.0
230
0.0
  0
LINE
  5
F9
100
AcDbEntity
  8
USP-GEO
100
AcDbLine
 10
0.047799999999981
 20
0.85195680683249
 30
0.0
 11
0.0
 21
0.85195680683249
 31
-0.0000000000000001
210
0.0
220
1.0
230
0.0
  0
LINE
  5
FA
100
AcDbEntity
  8
USP-GEO
100
AcDbLine
 10
0.2510009289133279
 20
0.5684344138202136
 30
0.0
 11
0.0477999999999952
 21
0.85195680683249
 31
0.0
210
0.0
220
1.0
230
0.0
  0
LINE
  5
FB
100
AcDbEntity
  8
USP-GEO
100
AcDbLine
 10
-0.0182021759181055
 20
3.383715593847298
 30
-0.0000000000000001
 11
-0.0573576436351004
 21
3.411132547504863
 31
-0.0000000000000001
210
0.0
220
1.0
230
0.0
  0
LINE
  5
FC
100
AcDbEntity
  8
USP-GEO
100
AcDbLine
 10
0.0
 20
3.493047751933758
 30
-0.0000000000000001
 11
-0.0573576436351004
 21
3.411132547504863
 31
-0.0000000000000001
210
0.0
220
1.0
230
0.0
  0
LINE
  5
FD
100
AcDbEntity
  8
USP-GEO
100
AcDbLine
 10
-0.0182021759181055
 20
3.383715593847298
 30
-0.0000000000000001
 11
-0.0000000000000142
 21
3.409710995103083
 31
-0.0000000000000001
210
0.0
220
1.0
230
0.0
  0
LINE
  5
FE
100
AcDbEntity
  8
USP-GEO
100
AcDbLine
 10
0.0477999999999668
 20
3.288747204913377
 30
0.0
 11
0.0477999999999668
 21
3.589931211054945
 31
0.0
210
0.0
220
1.0
230
0.0
  0
LINE
  5
FF
100
AcDbEntity
  8
USP-GEO
100
AcDbLine
 10
-0.0000000000000142
 20
3.288747204913363
 30
-0.0000000000000001
 11
-0.0000000000000142
 21
3.589931211054945
 31
-0.0000000000000001
210
0.0
220
1.0
230
0.0
  0
LINE
  5
100
100
AcDbEntity
  8
USP-GEO
100
AcDbLine
 10
0.0477999999999952
 20
2.568584034162412
 30
0.0
 11
0.0477999999999952
 21
3.047800000000009
 31
0.0
210
0.0
220
1.0
230
0.0
  0
LINE
  5
101
100
AcDbEntity
  8
USP-GEO
100
AcDbLine
 10
-0.0182021759181055
 20
3.133715593847284
 30
-0.0000000000000001
 11
-0.0000000000000284
 21
3.159710995103068
 31
-0.0000000000000001
210
0.0
220
1.0
230
0.0
  0
LINE
  5
102
100
AcDbEntity
  8
USP-GEO
100
AcDbLine
 10
-0.0182021759181055
 20
3.133715593847284
 30
-0.0000000000000001
 11
-0.0573576436351147
 21
3.161132547504863
 31
-0.0000000000000001
210
0.0
220
1.0
230
0.0
  0
LINE
  5
103
100
AcDbEntity
  8
USP-GEO
100
AcDbLine
 10
0.0
 20
2.568584034162412
 30
-0.0000000000000001
 11
0.0
 21
3.047800000000009
 31
-0.0000000000000001
210
0.0
220
1.0
230
0.0
  0
LINE
  5
104
100
AcDbEntity
  8
USP-GEO
100
AcDbLine
 10
0.0477999999999952
 20
1.98604637888161
 30
0.0
 11
0.0477999999999952
 21
2.568584034162412
 31
0.0
210
0.0
220
1.0
230
0.0
  0
LINE
  5
105
100
AcDbEntity
  8
USP-GEO
100
AcDbLine
 10
0.0
 20
1.98604637888161
 30
-0.0000000000000001
 11
0.0
 21
2.568584034162412
 31
-0.0000000000000001
210
0.0
220
1.0
230
0.0
  0
LINE
  5
106
100
AcDbEntity
  8
USP-GEO
100
AcDbLine
 10
0.0477999999999952
 20
3.047800000000009
 30
0.0
 11
0.0477999999999952
 21
3.288747204913363
 31
0.0
210
0.0
220
1.0
230
0.0
  0
LINE
  5
107
100
AcDbEntity
  8
USP-GEO
100
AcDbLine
 10
-0.0000000000000142
 20
3.243047751933758
 30
-0.0000000000000001
 11
-0.0573576436351147
 21
3.161132547504863
 31
-0.0000000000000001
210
0.0
220
1.0
230
0.0
  0
LINE
  5
108
100
AcDbEntity
  8
USP-GEO
100
AcDbLine
 10
-0.0000000000000284
 20
3.047800000000009
 30
-0.0000000000000001
 11
-0.0000000000000284
 21
3.288747204913377
 31
-0.0000000000000001
210
0.0
220
1.0
230
0.0
  0
LINE
  5
109
100
AcDbEntity
  8
USP-GEO
100
AcDbLine
 10
0.0477999999999952
 20
4.382062422109896
 30
0.0
 11
0.0477999999999952
 21
4.547800000000009
 31
0.0
210
0.0
220
1.0
230
0.0
  0
LINE
  5
10A
100
AcDbEntity
  8
USP-GEO
100
AcDbLine
 10
0.047799999999981
 20
4.547800000000023
 30
0.0
 11
0.0
 21
4.547800000000023
 31
-0.0000000000000001
210
0.0
220
1.0
230
0.0
  0
LINE
  5
10B
100
AcDbEntity
  8
USP-GEO
100
AcDbLine
 10
0.0
 20
4.382062422109896
 30
-0.0000000000000001
 11
0.0
 21
4.547800000000009
 31
-0.0000000000000001
210
0.0
220
1.0
230
0.0
  0
LINE
  5
10C
100
AcDbEntity
  8
USP-GEO
100
AcDbLine
 10
0.047799999999981
 20
4.021665736332678
 30
0.0
 11
0.1897735911288691
 21
3.81890643515193
 31
0.0
210
0.0
220
1.0
230
0.0
  0
ARC
  5
10D
100
AcDbEntity
  8
USP-GEO
100
AcDbCircle
 10
0.15061812341186
 20
3.791489481494352
 30
0.0
 40
0.0478
100
AcDbArc
 50
324.9999999999792
 51
34.99999999999689
  0
ARC
  5
10E
100
AcDbEntity
  8
USP-GEO
100
AcDbCircle
 10
0.2089711487546424
 20
3.791489481494352
 30
0.0
 40
0.0478
100
AcDbArc
 50
325.0000000000078
 51
34.99999999997815
  0
LINE
  5
10F
100
AcDbEntity
  8
USP-GEO
100
AcDbLine
 10
0.2481266164716658
 20
3.81890643515193
 30
0.0
 11
0.0477999999999952
 21
4.105002493163354
 31
0.0
210
0.0
220
1.0
230
0.0
  0
LINE
  5
110
100
AcDbEntity
  8
USP-GEO
100
AcDbLine
 10
0.047799999999981
 20
3.839931211054945
 30
0.0
 11
0.047799999999981
 21
4.141115217196642
 31
0.0
210
0.0
220
1.0
230
0.0
  0
LINE
  5
111
100
AcDbEntity
  8
USP-GEO
100
AcDbLine
 10
-0.0000000000000284
 20
3.839931211054945
 30
-0.0000000000000001
 11
-0.0000000000000284
 21
4.141115217196642
 31
-0.0000000000000001
210
0.0
220
1.0
230
0.0
  0
LINE
  5
112
100
AcDbEntity
  8
USP-GEO
100
AcDbLine
 10
0.047799999999981
 20
4.141115217196642
 30
0.0
 11
0.047799999999981
 21
4.382062422109896
 31
0.0
210
0.0
220
1.0
230
0.0
  0
CIRCLE
  5
113
100
AcDbEntity
  8
USP-GEO
100
AcDbCircle
 10
0.235299999999981
 20
4.235300000000009
 30
0.0
 40
0.1535000000000001
  0
LINE
  5
114
100
AcDbEntity
  8
USP-GEO
100
AcDbLine
 10
0.0
 20
4.141115217196642
 30
-0.0000000000000001
 11
0.0
 21
4.382062422109896
 31
-0.0000000000000001
210
0.0
220
1.0
230
0.0
  0
TEXT
  5
115
100
AcDbEntity
  8
USP-TXT
100
AcDbText
 10
-1.035533333333337
 20
-0.8283711216027569
 30
0.0000000000000002
 40
0.25
  1
JUS26-3 - SIDE VIEW
 72
     1
 11
1.297799999999995
 21
-0.8283711216027569
 31
0.0000000000000002
100
AcDbText
  0
ARC
  5
116
100
AcDbEntity
  8
USP-GEO
100
AcDbCircle
 10
-0.5575964669083647
 20
0.0535531170419716
 30
0.0000000000000003
 40
2.855402262657302
100
AcDbArc
 50
359.8845593306123
 51
10.38830072870554
  0
LINE
  5
117
100
AcDbEntity
  8
USP-GEO
100
AcDbLine
 10
2.297799999999995
 20
0.0
 30
0.0000000000000004
 11
2.297799999999995
 21
0.0478000000000094
 31
0.0000000000000004
210
0.0
220
1.0
230
0.0
  0
LINE
  5
118
100
AcDbEntity
  8
USP-GEO
100
AcDbLine
 10
1.460299999999989
 20
3.83993121105496
 30
0.0000000000000002
 11
1.460299999999989
 21
3.58993121105496
 31
0.0000000000000002
210
0.0
220
1.0
230
0.0
  0
CIRCLE
  5
119
100
AcDbEntity
  8
USP-GEO
100
AcDbCircle
 10
1.1410656795899
 20
3.71493121105496
 30
0.0000000000000002
 40
0.293938769133981
  0
LINE
  5
11A
100
AcDbEntity
  8
USP-GEO
100
AcDbLine
 10
1.234996284346635
 20
1.98604637888161
 30
0.0000000000000002
 11
2.251000928913342
 21
0.5684344138202136
 31
0.0000000000000004
210
0.0
220
1.0
230
0.0
  0
ARC
  5
11B
100
AcDbEntity
  8
USP-GEO
100
AcDbCircle
 10
1.141065679589914
 20
1.422800000000009
 30
0.0000000000000002
 40
0.2500000000000001
100
AcDbArc
 50
26.30903480975427
 51
48.67096500962637
  0
CIRCLE
  5
11C
100
AcDbEntity
  8
USP-GEO
100
AcDbCircle
 10
1.1410656795899
 20
1.547800000000009
 30
0.0000000000000002
 40
0.293938769133981
  0
ARC
  5
11D
100
AcDbEntity
  8
USP-GEO
100
AcDbCircle
 10
1.147799999999975
 20
3.58993121105496
 30
0.0000000000000002
 40
0.3125000000000059
100
AcDbArc
 50
285.4660099534238
 51
0.0
  0
ARC
  5
11E
100
AcDbEntity
  8
USP-GEO
100
AcDbCircle
 10
1.141065679589914
 20
3.46493121105496
 30
0.0000000000000002
 40
0.2500000000000001
100
AcDbArc
 50
263.6191508634913
 51
338.7772229973507
  0
ARC
  5
11F
100
AcDbEntity
  8
USP-GEO
100
AcDbCircle
 10
1.147799999999989
 20
3.33993121105496
 30
0.0000000000000002
 40
0.3125000000000057
100
AcDbArc
 50
285.4660099534214
 51
359.9999999999975
  0
ARC
  5
120
100
AcDbEntity
  8
USP-GEO
100
AcDbCircle
 10
1.141065679589914
 20
3.46493121105496
 30
0.0000000000000002
 40
0.2500000000000001
100
AcDbArc
 50
44.6884625069202
 51
49.07055207080142
  0
LINE
  5
121
100
AcDbEntity
  8
USP-GEO
100
AcDbLine
 10
1.047799999999995
 20
3.047799999999895
 30
0.0000000000000001
 11
1.047799999999995
 21
2.568584034162412
 31
0.0000000000000001
210
0.0
220
1.0
230
0.0
  0
ARC
  5
122
100
AcDbEntity
  8
USP-GEO
100
AcDbCircle
 10
1.297799999999938
 20
2.797799999999966
 30
0.0000000000000002
 40
0.2499999999999323
100
AcDbArc
 50
105.4660099534085
 51
179.9999999999869
  0
ARC
  5
123
100
AcDbEntity
  8
USP-GEO
100
AcDbCircle
 10
2.047799999999966
 20
2.568584034162441
 30
0.0000000000000003
 40
0.999999999999998
100
AcDbArc
 50
180.0000000000016
 51
215.6292264487012
  0
ARC
  5
124
100
AcDbEntity
  8
USP-GEO
100
AcDbCircle
 10
1.297799999999995
 20
3.047799999999895
 30
0.0000000000000002
 40
0.250000000000007
100
AcDbArc
 50
105.4660099534214
 51
180.0
  0
LINE
  5
125
100
AcDbEntity
  8
USP-GEO
100
AcDbLine
 10
1.460300000000003
 20
3.58993121105496
 30
0.0000000000000002
 11
1.460300000000003
 21
3.339931211054945
 31
0.0000000000000002
210
0.0
220
1.0
230
0.0
  0
ARC
  5
126
100
AcDbEntity
  8
USP-GEO
100
AcDbCircle
 10
1.147799999999989
 20
3.83993121105496
 30
0.0000000000000002
 40
0.3125000000000012
100
AcDbArc
 50
0.0
 51
74.5339900465778
  0
LINE
  5
127
100
AcDbEntity
  8
USP-GEO
100
AcDbLine
 10
1.047799999999995
 20
4.547800000000009
 30
0.0000000000000001
 11
1.047799999999995
 21
4.382062422109981
 31
0.0000000000000001
210
0.0
220
1.0
230
0.0
  0
ARC
  5
128
100
AcDbEntity
  8
USP-GEO
100
AcDbCircle
 10
1.297799999999995
 20
4.382062422109996
 30
0.0000000000000002
 40
0.2499999999999976
100
AcDbArc
 50
180.0000000000032
 51
254.5339900465795
  0
ENDBLK
  5
12A
100
AcDbEntity
  8
0
100
AcDbBlockEnd
  0
ENDSEC
  0
SECTION
  2
ENTITIES
  0
INSERT
  5
3
100
AcDbEntity
  8
USP
100
AcDbBlockReference
  2
JUS26-3_T
 10
4.587801705412748
 20
7.63643795578697
 30
0.0000000000000103
  0
INSERT
  5
5E
100
AcDbEntity
  8
USP
100
AcDbBlockReference
  2
JUS26-3_F
 10
4.587801705412748
 20
0.8286760915190534
 30
0.00000000000001
  0
INSERT
  5
E5
100
AcDbEntity
  8
USP
100
AcDbBlockReference
  2
JUS26-3_S
 10
1.035899516331586
 20
0.8286760915190534
 30
0.0000000000000103
  0
ENDSEC
  0
SECTION
  2
OBJECTS
  0
DICTIONARY
  5
146
102
{ACAD_XDICTIONARY
360
147
102
}
100
AcDbDictionary
  3
ACAD_GROUP
350
143
  3
ACAD_MLINESTYLE
350
144
  0
DICTIONARY
  5
138
100
AcDbDictionary
280
     1
  0
DICTIONARY
  5
13A
100
AcDbDictionary
280
     1
  0
DICTIONARY
  5
6
100
AcDbDictionary
280
     1
  0
DICTIONARY
  5
B
100
AcDbDictionary
280
     1
  0
DICTIONARY
  5
14B
100
AcDbDictionary
280
     1
  0
DICTIONARY
  5
12B
100
AcDbDictionary
280
     1
  3
ACAD_LAYOUTSELFREF
360
12C
  0
DICTIONARY
  5
130
100
AcDbDictionary
280
     1
  3
ACAD_LAYOUTSELFREF
360
131
  0
DICTIONARY
  5
147
100
AcDbDictionary
280
     1
  3
ACAD_XREC_ROUNDTRIP
360
148
  0
DICTIONARY
  5
143
102
{ACAD_REACTORS
330
146
102
}
100
AcDbDictionary
  0
DICTIONARY
  5
144
102
{ACAD_XDICTIONARY
360
145
102
}
102
{ACAD_REACTORS
330
146
102
}
100
AcDbDictionary
  3
STANDARD
350
149
  0
XRECORD
  5
12C
102
{ACAD_REACTORS
330
12B
102
}
100
AcDbXrecord
340
2
  0
XRECORD
  5
131
102
{ACAD_REACTORS
330
130
102
}
100
AcDbXrecord
340
131
  0
XRECORD
  5
148
102
{ACAD_REACTORS
330
147
102
}
100
AcDbXrecord
102
EXTNAMES
  1
ACDBVARIABLEDICTIONARY
  2
AcDbVariableDictionary
  0
DICTIONARY
  5
145
100
AcDbDictionary
280
     1
  0
MLINESTYLE
  5
149
102
{ACAD_REACTORS
330
144
102
}
100
AcDbMlineStyle
  2
STANDARD
 70
     0
  3

 62
   256
 51
90.0
 52
90.0
 71
     2
 49
0.5
 62
   256
  6
BYLAYER
 49
-0.5
 62
   256
  6
BYLAYER
  0
ENDSEC
  0
EOF
