  0
SECTION
  2
HEADER
  9
$ACADVER
  1
AC1014
  9
$ACADMAINTVER
 70
     9
  9
$DWGCODEPAGE
  3
ANSI_1252
  9
$INSBASE
 10
0.0
 20
0.0
 30
0.0
  9
$EXTMIN
 10
0.0003661829982491
 20
0.000306622466649
 30
0.000000000000011
  9
$EXTMAX
 10
10.63787127061351
 20
10.04412933192015
 30
0.0000000000000117
  9
$LIMMIN
 10
0.0
 20
0.0
  9
$LIMMAX
 10
12.0
 20
9.0
  9
$ORTHOMODE
 70
     0
  9
$REGENMODE
 70
     1
  9
$FILLMODE
 70
     1
  9
$QTEXTMODE
 70
     0
  9
$MIRRTEXT
 70
     1
  9
$DRAGMODE
 70
     2
  9
$LTSCALE
 40
1.0
  9
$OSMODE
 70
    37
  9
$ATTMODE
 70
     1
  9
$TEXTSIZE
 40
0.25
  9
$TRACEWID
 40
0.05
  9
$TEXTSTYLE
  7
STANDARD
  9
$CLAYER
  8
0
  9
$CELTYPE
  6
BYLAYER
  9
$CECOLOR
 62
   256
  9
$CELTSCALE
 40
1.0
  9
$DELOBJ
 70
     1
  9
$DISPSILH
 70
     0
  9
$DIMSCALE
 40
1.0
  9
$DIMASZ
 40
0.18
  9
$DIMEXO
 40
0.0625
  9
$DIMDLI
 40
0.38
  9
$DIMRND
 40
0.0
  9
$DIMDLE
 40
0.0
  9
$DIMEXE
 40
0.18
  9
$DIMTP
 40
0.0
  9
$DIMTM
 40
0.0
  9
$DIMTXT
 40
0.18
  9
$DIMCEN
 40
0.09
  9
$DIMTSZ
 40
0.0
  9
$DIMTOL
 70
     0
  9
$DIMLIM
 70
     0
  9
$DIMTIH
 70
     1
  9
$DIMTOH
 70
     1
  9
$DIMSE1
 70
     0
  9
$DIMSE2
 70
     0
  9
$DIMTAD
 70
     0
  9
$DIMZIN
 70
     0
  9
$DIMBLK
  1

  9
$DIMASO
 70
     1
  9
$DIMSHO
 70
     1
  9
$DIMPOST
  1

  9
$DIMAPOST
  1

  9
$DIMALT
 70
     0
  9
$DIMALTD
 70
     2
  9
$DIMALTF
 40
25.4
  9
$DIMLFAC
 40
1.0
  9
$DIMTOFL
 70
     0
  9
$DIMTVP
 40
0.0
  9
$DIMTIX
 70
     0
  9
$DIMSOXD
 70
     0
  9
$DIMSAH
 70
     0
  9
$DIMBLK1
  1

  9
$DIMBLK2
  1

  9
$DIMSTYLE
  2
STANDARD
  9
$DIMCLRD
 70
     0
  9
$DIMCLRE
 70
     0
  9
$DIMCLRT
 70
     0
  9
$DIMTFAC
 40
1.0
  9
$DIMGAP
 40
0.09
  9
$DIMJUST
 70
     0
  9
$DIMSD1
 70
     0
  9
$DIMSD2
 70
     0
  9
$DIMTOLJ
 70
     1
  9
$DIMTZIN
 70
     0
  9
$DIMALTZ
 70
     0
  9
$DIMALTTZ
 70
     0
  9
$DIMFIT
 70
     3
  9
$DIMUPT
 70
     0
  9
$DIMUNIT
 70
     2
  9
$DIMDEC
 70
     4
  9
$DIMTDEC
 70
     4
  9
$DIMALTU
 70
     2
  9
$DIMALTTD
 70
     2
  9
$DIMTXSTY
  7
STANDARD
  9
$DIMAUNIT
 70
     0
  9
$LUNITS
 70
     2
  9
$LUPREC
 70
     4
  9
$SKETCHINC
 40
0.1
  9
$FILLETRAD
 40
0.5
  9
$AUNITS
 70
     0
  9
$AUPREC
 70
     0
  9
$MENU
  1
.
  9
$ELEVATION
 40
0.0
  9
$PELEVATION
 40
0.0
  9
$THICKNESS
 40
0.0
  9
$LIMCHECK
 70
     0
  9
$BLIPMODE
 70
     0
  9
$CHAMFERA
 40
0.5
  9
$CHAMFERB
 40
0.5
  9
$CHAMFERC
 40
1.0
  9
$CHAMFERD
 40
0.0
  9
$SKPOLY
 70
     0
  9
$TDCREATE
 40
2451667.537949421
  9
$TDUPDATE
 40
2452759.745453553
  9
$TDINDWG
 40
0.2145395023
  9
$TDUSRTIMER
 40
0.2145395023
  9
$USRTIMER
 70
     1
  9
$ANGBASE
 50
0.0
  9
$ANGDIR
 70
     0
  9
$PDMODE
 70
     0
  9
$PDSIZE
 40
0.0
  9
$PLINEWID
 40
0.0
  9
$COORDS
 70
     1
  9
$SPLFRAME
 70
     0
  9
$SPLINETYPE
 70
     6
  9
$SPLINESEGS
 70
     8
  9
$ATTDIA
 70
     0
  9
$ATTREQ
 70
     1
  9
$HANDLING
 70
     1
  9
$HANDSEED
  5
15F
  9
$SURFTAB1
 70
     6
  9
$SURFTAB2
 70
     6
  9
$SURFTYPE
 70
     6
  9
$SURFU
 70
     6
  9
$SURFV
 70
     6
  9
$UCSNAME
  2

  9
$UCSORG
 10
0.0
 20
0.0
 30
0.0
  9
$UCSXDIR
 10
1.0
 20
0.0
 30
0.0
  9
$UCSYDIR
 10
0.0
 20
1.0
 30
0.0
  9
$PUCSNAME
  2

  9
$PUCSORG
 10
0.0
 20
0.0
 30
0.0
  9
$PUCSXDIR
 10
1.0
 20
0.0
 30
0.0
  9
$PUCSYDIR
 10
0.0
 20
1.0
 30
0.0
  9
$USERI1
 70
     0
  9
$USERI2
 70
     0
  9
$USERI3
 70
     0
  9
$USERI4
 70
     0
  9
$USERI5
 70
     0
  9
$USERR1
 40
0.0
  9
$USERR2
 40
0.0
  9
$USERR3
 40
0.0
  9
$USERR4
 40
0.0
  9
$USERR5
 40
0.0
  9
$WORLDVIEW
 70
     1
  9
$SHADEDGE
 70
     3
  9
$SHADEDIF
 70
    70
  9
$TILEMODE
 70
     1
  9
$MAXACTVP
 70
    48
  9
$PINSBASE
 10
0.0
 20
0.0
 30
0.0
  9
$PLIMCHECK
 70
     0
  9
$PEXTMIN
 10
1.000000000000000E+20
 20
1.000000000000000E+20
 30
1.000000000000000E+20
  9
$PEXTMAX
 10
-1.000000000000000E+20
 20
-1.000000000000000E+20
 30
-1.000000000000000E+20
  9
$PLIMMIN
 10
0.0
 20
0.0
  9
$PLIMMAX
 10
12.0
 20
9.0
  9
$UNITMODE
 70
     0
  9
$VISRETAIN
 70
     1
  9
$PLINEGEN
 70
     0
  9
$PSLTSCALE
 70
     1
  9
$TREEDEPTH
 70
  3020
  9
$PICKSTYLE
 70
     1
  9
$CMLSTYLE
  2
STANDARD
  9
$CMLJUST
 70
     0
  9
$CMLSCALE
 40
1.0
  9
$PROXYGRAPHICS
 70
     1
  9
$MEASUREMENT
 70
     0
  0
ENDSEC
  0
SECTION
  2
CLASSES
  0
CLASS
  1
ACDBDICTIONARYWDFLT
  2
AcDbDictionaryWithDefault
  3
AutoCAD 2000
 90
        0
280
     1
281
     0
  0
CLASS
  1
ACDBPLACEHOLDER
  2
AcDbPlaceHolder
  3
AutoCAD 2000
 90
        0
280
     1
281
     0
  0
CLASS
  1
LAYOUT
  2
AcDbLayout
  3
AutoCAD 2000
 90
        0
280
     1
281
     0
  0
CLASS
  1
LONG_TRANSACTION
  2
AcDbLongTransaction
  3
AutoCAD 2000
 90
        0
280
     1
281
     0
  0
CLASS
  1
LWPOLYLINE
  2
AcDbPolyline
  3
"AutoCAD"
 90
        0
280
     1
281
     1
  0
CLASS
  1
HATCH
  2
AcDbHatch
  3
"ACAD_SEDONA"
 90
        0
280
     1
281
     1
  0
CLASS
  1
XRECORD
  2
AcDbXrecord
  3
"<Built In>"
 90
        0
280
     0
281
     0
  0
CLASS
  1
LONG_TRANSACTION
  2
AcDbLongTransaction
  3
AutoCAD 2000
 90
        0
280
     1
281
     0
  0
CLASS
  1
LWPOLYLINE
  2
AcDbPolyline
  3
"AutoCAD"
 90
        0
280
     1
281
     1
  0
CLASS
  1
HATCH
  2
AcDbHatch
  3
"ACAD_SEDONA"
 90
        0
280
     1
281
     1
  0
CLASS
  1
XRECORD
  2
AcDbXrecord
  3
"<Built In>"
 90
        0
280
     0
281
     0
  0
CLASS
  1
LONG_TRANSACTION
  2
AcDbLongTransaction
  3
AutoCAD 2000
 90
        0
280
     1
281
     0
  0
CLASS
  1
LWPOLYLINE
  2
AcDbPolyline
  3
"AutoCAD"
 90
        0
280
     1
281
     1
  0
CLASS
  1
HATCH
  2
AcDbHatch
  3
"ACAD_SEDONA"
 90
        0
280
     1
281
     1
  0
CLASS
  1
XRECORD
  2
AcDbXrecord
  3
"<Built In>"
 90
        0
280
     0
281
     0
  0
CLASS
  1
LONG_TRANSACTION
  2
AcDbLongTransaction
  3
AutoCAD 2000
 90
        0
280
     1
281
     0
  0
CLASS
  1
LWPOLYLINE
  2
AcDbPolyline
  3
"AutoCAD"
 90
        0
280
     1
281
     1
  0
CLASS
  1
HATCH
  2
AcDbHatch
  3
"ACAD_SEDONA"
 90
        0
280
     1
281
     1
  0
CLASS
  1
XRECORD
  2
AcDbXrecord
  3
"<Built In>"
 90
        0
280
     0
281
     0
  0
CLASS
  1
LONG_TRANSACTION
  2
AcDbLongTransaction
  3
AutoCAD 2000
 90
        0
280
     1
281
     0
  0
CLASS
  1
LWPOLYLINE
  2
AcDbPolyline
  3
"AutoCAD"
 90
        0
280
     1
281
     1
  0
CLASS
  1
HATCH
  2
AcDbHatch
  3
"ACAD_SEDONA"
 90
        0
280
     1
281
     1
  0
CLASS
  1
XRECORD
  2
AcDbXrecord
  3
"<Built In>"
 90
        0
280
     0
281
     0
  0
CLASS
  1
LONG_TRANSACTION
  2
AcDbLongTransaction
  3
AutoCAD 2000
 90
        0
280
     1
281
     0
  0
CLASS
  1
LWPOLYLINE
  2
AcDbPolyline
  3
"AutoCAD"
 90
        0
280
     1
281
     1
  0
CLASS
  1
HATCH
  2
AcDbHatch
  3
"ACAD_SEDONA"
 90
        0
280
     1
281
     1
  0
CLASS
  1
XRECORD
  2
AcDbXrecord
  3
"<Built In>"
 90
        0
280
     0
281
     0
  0
CLASS
  1
LONG_TRANSACTION
  2
AcDbLongTransaction
  3
AutoCAD 2000
 90
        0
280
     1
281
     0
  0
CLASS
  1
LWPOLYLINE
  2
AcDbPolyline
  3
"AutoCAD"
 90
        0
280
     1
281
     1
  0
CLASS
  1
HATCH
  2
AcDbHatch
  3
"ACAD_SEDONA"
 90
        0
280
     1
281
     1
  0
CLASS
  1
XRECORD
  2
AcDbXrecord
  3
"<Built In>"
 90
        0
280
     0
281
     0
  0
CLASS
  1
LONG_TRANSACTION
  2
AcDbLongTransaction
  3
AutoCAD 2000
 90
        0
280
     1
281
     0
  0
CLASS
  1
LWPOLYLINE
  2
AcDbPolyline
  3
"AutoCAD"
 90
        0
280
     1
281
     1
  0
CLASS
  1
HATCH
  2
AcDbHatch
  3
"ACAD_SEDONA"
 90
        0
280
     1
281
     1
  0
CLASS
  1
XRECORD
  2
AcDbXrecord
  3
"<Built In>"
 90
        0
280
     0
281
     0
  0
CLASS
  1
LONG_TRANSACTION
  2
AcDbLongTransaction
  3
AutoCAD 2000
 90
        0
280
     1
281
     0
  0
CLASS
  1
LWPOLYLINE
  2
AcDbPolyline
  3
"AutoCAD"
 90
        0
280
     1
281
     1
  0
CLASS
  1
HATCH
  2
AcDbHatch
  3
"ACAD_SEDONA"
 90
        0
280
     1
281
     1
  0
CLASS
  1
XRECORD
  2
AcDbXrecord
  3
"<Built In>"
 90
        0
280
     0
281
     0
  0
CLASS
  1
DICTIONARYVAR
  2
AcDbDictionaryVar
  3
"AutoCAD"
 90
        0
280
     0
281
     0
  0
CLASS
  1
LONG_TRANSACTION
  2
AcDbLongTransaction
  3
AutoCAD 2000
 90
        0
280
     0
281
     0
  0
CLASS
  1
LWPOLYLINE
  2
AcDbPolyline
  3
"AutoCAD"
 90
        0
280
     0
281
     1
  0
CLASS
  1
HATCH
  2
AcDbHatch
  3
"ACAD_SEDONA"
 90
        0
280
     0
281
     1
  0
CLASS
  1
XRECORD
  2
AcDbXrecord
  3
"<Built In>"
 90
        0
280
     0
281
     0
  0
CLASS
  1
LONG_TRANSACTION
  2
AcDbLongTransaction
  3
AutoCAD 2000
 90
        0
280
     0
281
     0
  0
CLASS
  1
LWPOLYLINE
  2
AcDbPolyline
  3
"AutoCAD"
 90
        0
280
     0
281
     1
  0
CLASS
  1
HATCH
  2
AcDbHatch
  3
"ACAD_SEDONA"
 90
        0
280
     0
281
     1
  0
CLASS
  1
XRECORD
  2
AcDbXrecord
  3
"<Built In>"
 90
        0
280
     0
281
     0
  0
ENDSEC
  0
SECTION
  2
TABLES
  0
TABLE
  2
VPORT
  5
13F
100
AcDbSymbolTable
 70
     1
  0
VPORT
  5
15B
100
AcDbSymbolTableRecord
100
AcDbViewportTableRecord
  2
*ACTIVE
 70
     0
 10
0.0
 20
0.0
 11
1.0
 21
1.0
 12
5.296212701946602
 22
5.146150464199641
 13
0.0
 23
0.0
 14
0.5
 24
0.5
 15
0.5
 25
0.5
 16
0.0
 26
0.0
 36
1.0
 17
0.0
 27
0.0
 37
0.0
 40
10.36567094893667
 41
1.457627118644067
 42
50.0
 43
0.0
 44
0.0
 50
0.0
 51
0.0
 71
     0
 72
   100
 73
     1
 74
     3
 75
     0
 76
     0
 77
     0
 78
     0
  0
ENDTAB
  0
TABLE
  2
LTYPE
  5
138
100
AcDbSymbolTable
 70
     2
  0
LTYPE
  5
139
102
{ACAD_XDICTIONARY
360
13A
102
}
100
AcDbSymbolTableRecord
100
AcDbLinetypeTableRecord
  2
BYBLOCK
 70
     0
  3

 72
    65
 73
     0
 40
0.0
  0
LTYPE
  5
13B
102
{ACAD_XDICTIONARY
360
13C
102
}
100
AcDbSymbolTableRecord
100
AcDbLinetypeTableRecord
  2
BYLAYER
 70
     0
  3

 72
    65
 73
     0
 40
0.0
  0
LTYPE
  5
5
102
{ACAD_XDICTIONARY
360
6
102
}
100
AcDbSymbolTableRecord
100
AcDbLinetypeTableRecord
  2
CONTINUOUS
 70
     0
  3
Solid line
 72
    65
 73
     0
 40
0.0
  0
LTYPE
  5
119
100
AcDbSymbolTableRecord
100
AcDbLinetypeTableRecord
  2
HIDDEN
 70
     0
  3
Hidden __ __ __ __ __ __ __ __ __ __ __ __ __ _
 72
    65
 73
     2
 40
0.375
 49
0.25
 74
     0
 49
-0.125
 74
     0
  0
ENDTAB
  0
TABLE
  2
LAYER
  5
136
100
AcDbSymbolTable
 70
     5
  0
LAYER
  5
5C
100
AcDbSymbolTableRecord
100
AcDbLayerTableRecord
  2
0
 70
     0
 62
     7
  6
CONTINUOUS
  0
LAYER
  5
4
100
AcDbSymbolTableRecord
100
AcDbLayerTableRecord
  2
USP
 70
     0
 62
     7
  6
CONTINUOUS
  0
LAYER
  5
118
100
AcDbSymbolTableRecord
100
AcDbLayerTableRecord
  2
USP-HID
 70
     0
 62
     7
  6
HIDDEN
  0
LAYER
  5
D
100
AcDbSymbolTableRecord
100
AcDbLayerTableRecord
  2
USP-GEO
 70
     0
 62
     7
  6
CONTINUOUS
  0
LAYER
  5
9
100
AcDbSymbolTableRecord
100
AcDbLayerTableRecord
  2
USP-TXT
 70
     0
 62
     7
  6
CONTINUOUS
  0
ENDTAB
  0
TABLE
  2
STYLE
  5
137
100
AcDbSymbolTable
 70
     1
  0
STYLE
  5
A
102
{ACAD_XDICTIONARY
360
B
102
}
100
AcDbSymbolTableRecord
100
AcDbTextStyleTableRecord
  2
STANDARD
 70
     0
 40
0.0
 41
1.0
 50
0.0
 71
     0
 42
0.25
  3
txt
  4

  0
ENDTAB
  0
TABLE
  2
VIEW
  5
13D
100
AcDbSymbolTable
 70
     0
  0
ENDTAB
  0
TABLE
  2
UCS
  5
13E
100
AcDbSymbolTable
 70
     0
  0
ENDTAB
  0
TABLE
  2
APPID
  5
141
100
AcDbSymbolTable
 70
     1
  0
APPID
  5
142
100
AcDbSymbolTableRecord
100
AcDbRegAppTableRecord
  2
ACAD
 70
     0
  0
ENDTAB
  0
TABLE
  2
DIMSTYLE
  5
143
100
AcDbSymbolTable
 70
     1
  0
DIMSTYLE
105
14C
102
{ACAD_XDICTIONARY
360
14D
102
}
100
AcDbSymbolTableRecord
100
AcDbDimStyleTableRecord
  2
STANDARD
 70
     0
  3

  4

  5

  6

  7

 40
1.0
 41
0.18
 42
0.0625
 43
0.38
 44
0.18
 45
0.0
 46
0.0
 47
0.0
 48
0.0
140
0.18
141
0.09
142
0.0
143
25.4
144
1.0
145
0.0
146
1.0
147
0.09
 71
     0
 72
     0
 73
     1
 74
     1
 75
     0
 76
     0
 77
     0
 78
     0
170
     0
171
     2
172
     0
173
     0
174
     0
175
     0
176
     0
177
     0
178
     0
270
     2
271
     4
272
     4
273
     2
274
     2
340
A
275
     0
280
     0
281
     0
282
     0
283
     1
284
     0
285
     0
286
     0
287
     3
288
     0
  0
ENDTAB
  0
TABLE
  2
BLOCK_RECORD
  5
1
100
AcDbSymbolTable
 70
     3
  0
BLOCK_RECORD
  5
2
102
{ACAD_XDICTIONARY
360
12D
102
}
100
AcDbSymbolTableRecord
100
AcDbBlockTableRecord
  2
*MODEL_SPACE
  0
BLOCK_RECORD
  5
131
102
{ACAD_XDICTIONARY
360
132
102
}
100
AcDbSymbolTableRecord
100
AcDbBlockTableRecord
  2
*PAPER_SPACE
  0
BLOCK_RECORD
  5
7
100
AcDbSymbolTableRecord
100
AcDbBlockTableRecord
  2
JUS26-2_T
  0
BLOCK_RECORD
  5
5F
100
AcDbSymbolTableRecord
100
AcDbBlockTableRecord
  2
JUS26-2_F
  0
BLOCK_RECORD
  5
E8
100
AcDbSymbolTableRecord
100
AcDbBlockTableRecord
  2
JUS26-2_S
  0
ENDTAB
  0
ENDSEC
  0
SECTION
  2
BLOCKS
  0
BLOCK
  5
12F
100
AcDbEntity
  8
0
100
AcDbBlockBegin
  2
*MODEL_SPACE
 70
     0
 10
0.0
 20
0.0
 30
0.0
  3
*MODEL_SPACE
  1

  0
ENDBLK
  5
130
100
AcDbEntity
  8
0
100
AcDbBlockEnd
  0
BLOCK
  5
134
100
AcDbEntity
 67
     1
  8
0
100
AcDbBlockBegin
  2
*PAPER_SPACE
 70
     0
 10
0.0
 20
0.0
 30
0.0
  3
*PAPER_SPACE
  1

  0
ENDBLK
  5
135
100
AcDbEntity
 67
     1
  8
0
100
AcDbBlockEnd
  0
BLOCK
  5
5B
100
AcDbEntity
  8
0
100
AcDbBlockBegin
  2
JUS26-2_T
 70
     0
 10
0.0
 20
0.0
 30
0.0
  3
JUS26-2_T
  1

  0
TEXT
  5
8
100
AcDbEntity
  8
USP-TXT
100
AcDbText
 10
0.3603000000000098
 20
-0.7595444216453302
 30
0.0
 40
0.25
  1
JUS26-2 - TOP VIEW
 72
     1
 11
2.610300000000009
 21
-0.7595444216453302
 31
0.0
100
AcDbText
  0
LINE
  5
C
100
AcDbEntity
  8
USP-GEO
100
AcDbLine
 10
1.735300000000009
 20
2.0
 30
0.0
 11
3.485300000000009
 21
2.0
 31
0.0
  0
LINE
  5
E
100
AcDbEntity
  8
USP-GEO
100
AcDbLine
 10
3.485300000000009
 20
0.0
 30
0.0
 11
1.735300000000009
 21
0.0
 31
0.0
  0
LINE
  5
F
100
AcDbEntity
  8
USP-GEO
100
AcDbLine
 10
-0.0000000000000284
 20
2.297800000000009
 30
0.0
 11
1.047799999999995
 21
2.297800000000009
 31
0.0
  0
LINE
  5
10
100
AcDbEntity
  8
USP-GEO
100
AcDbLine
 10
1.0
 20
2.250000000000014
 30
0.0
 11
0.0
 21
2.250000000000014
 31
0.0
  0
LINE
  5
11
100
AcDbEntity
  8
USP-GEO
100
AcDbLine
 10
0.0
 20
2.250000000000014
 30
0.0
 11
0.0
 21
2.297800000000009
 31
0.0
  0
LINE
  5
12
100
AcDbEntity
  8
USP-GEO
100
AcDbLine
 10
1.0
 20
1.249999999999985
 30
0.0
 11
1.0
 21
1.066666666666677
 31
0.0
  0
LINE
  5
13
100
AcDbEntity
  8
USP-GEO
100
AcDbLine
 10
1.047799999999995
 20
1.25
 30
0.0
 11
1.047799999999995
 21
1.066666666666677
 31
0.0
  0
ARC
  5
14
100
AcDbEntity
  8
USP-GEO
100
AcDbCircle
 10
1.047799999999995
 20
1.156734320410095
 30
0.0
 40
0.2977999999999987
100
AcDbArc
 50
99.23652345544919
 51
209.0169729401727
  0
ARC
  5
15
100
AcDbEntity
  8
USP-GEO
100
AcDbCircle
 10
1.047799999999995
 20
1.156734320410095
 30
0.0
 40
0.2977999999999987
100
AcDbArc
 50
240.9830270598272
 51
260.7634765445508
  0
LINE
  5
16
100
AcDbEntity
  8
USP-GEO
100
AcDbLine
 10
0.7873810317671115
 20
1.01228086429181
 30
0.0
 11
0.9033465438817103
 21
0.8963153521772113
 31
0.0
  0
LINE
  5
17
100
AcDbEntity
  8
USP-GEO
100
AcDbLine
 10
1.0
 20
1.066666666666677
 30
0.0
 11
1.0
 21
0.8375000000000198
 31
0.0
  0
LINE
  5
18
100
AcDbEntity
  8
USP-GEO
100
AcDbLine
 10
1.047800000000009
 20
1.066666666666677
 30
0.0
 11
1.047800000000009
 21
0.8374999999999914
 31
0.0
  0
LINE
  5
19
100
AcDbEntity
  8
USP-GEO
100
AcDbLine
 10
1.047799999999995
 20
0.8375000000000198
 30
0.0
 11
1.0
 21
0.8375000000000198
 31
0.0
  0
LINE
  5
1A
100
AcDbEntity
  8
USP-GEO
100
AcDbLine
 10
1.047799999999995
 20
0.0
 30
0.0
 11
1.0
 21
0.0
 31
0.0
  0
LINE
  5
1B
100
AcDbEntity
  8
USP-GEO
100
AcDbLine
 10
1.0
 20
0.0467990710866531
 30
0.0
 11
1.0
 21
0.0
 31
0.0
  0
LINE
  5
1C
100
AcDbEntity
  8
USP-GEO
100
AcDbLine
 10
1.000000000000014
 20
0.8375000000000056
 30
0.0
 11
1.000000000000014
 21
0.0467990710866531
 31
0.0
  0
LINE
  5
1D
100
AcDbEntity
  8
USP-GEO
100
AcDbLine
 10
1.485299999999995
 20
0.0000000000000142
 30
0.0
 11
1.047800000000009
 21
0.0000000000000142
 31
0.0
  0
LINE
  5
1E
100
AcDbEntity
  8
USP-GEO
100
AcDbLine
 10
1.48529999999998
 20
0.0312500000000142
 30
0.0
 11
1.48529999999998
 21
0.0000000000000142
 31
0.0
  0
ARC
  5
1F
100
AcDbEntity
  8
USP-GEO
100
AcDbCircle
 10
1.516549999999995
 20
0.0312500000000142
 30
0.0
 40
0.03125
100
AcDbArc
 50
90.0
 51
180.0
  0
LINE
  5
20
100
AcDbEntity
  8
USP-GEO
100
AcDbLine
 10
1.704050000000009
 20
0.0625
 30
0.0
 11
1.516549999999995
 21
0.0625
 31
0.0
  0
ARC
  5
21
100
AcDbEntity
  8
USP-GEO
100
AcDbCircle
 10
1.704049999999995
 20
0.0312500000000142
 30
0.0
 40
0.03125
100
AcDbArc
 50
359.9999999999869
 51
90.0
  0
LINE
  5
22
100
AcDbEntity
  8
USP-GEO
100
AcDbLine
 10
1.735300000000009
 20
-0.0000000000000142
 30
0.0
 11
1.735300000000009
 21
0.0312500000000142
 31
0.0
  0
LINE
  5
23
100
AcDbEntity
  8
USP-GEO
100
AcDbLine
 10
1.047799999999995
 20
0.8375000000000198
 30
0.0
 11
1.047799999999995
 21
0.0467990710866531
 31
0.0
  0
LINE
  5
24
100
AcDbEntity
  8
USP-GEO
100
AcDbLine
 10
1.047799999999995
 20
0.0467990710866531
 30
0.0
 11
1.047799999999995
 21
0.0
 31
0.0
  0
LINE
  5
25
100
AcDbEntity
  8
USP-GEO
100
AcDbLine
 10
0.5875000000000199
 20
2.041028851245329
 30
0.0
 11
0.7875000000000086
 21
2.041028851245329
 31
0.0
  0
LINE
  5
26
100
AcDbEntity
  8
USP-GEO
100
AcDbLine
 10
0.5875000000000057
 20
2.049673383528315
 30
0.0
 11
0.5875000000000057
 21
2.250000000000014
 31
0.0
  0
LINE
  5
27
100
AcDbEntity
  8
USP-GEO
100
AcDbLine
 10
0.7875000000000086
 20
2.25
 30
0.0
 11
0.7874999999999944
 21
2.049673383528315
 31
0.0
  0
LINE
  5
28
100
AcDbEntity
  8
USP-GEO
100
AcDbLine
 10
0.7874999999999944
 20
2.041028851245329
 30
0.0
 11
0.7874999999999944
 21
2.049673383528315
 31
0.0
  0
LINE
  5
29
100
AcDbEntity
  8
USP-GEO
100
AcDbLine
 10
0.5875000000000199
 20
2.049673383528315
 30
0.0
 11
0.5875000000000199
 21
2.041028851245314
 31
0.0
  0
LINE
  5
2A
100
AcDbEntity
  8
USP-GEO
100
AcDbLine
 10
0.6875000000000142
 20
2.355157643635109
 30
0.0
 11
0.7874999999999944
 21
2.297800000000009
 31
0.0
  0
LINE
  5
2B
100
AcDbEntity
  8
USP-GEO
100
AcDbLine
 10
0.5875000000000199
 20
2.297800000000009
 30
0.0
 11
0.6875000000000142
 21
2.355157643635109
 31
0.0
  0
LINE
  5
2C
100
AcDbEntity
  8
USP-GEO
100
AcDbLine
 10
1.735300000000009
 20
1.968749999999985
 30
0.0
 11
1.735300000000009
 21
2.0
 31
0.0
  0
ARC
  5
2D
100
AcDbEntity
  8
USP-GEO
100
AcDbCircle
 10
1.704050000000009
 20
1.96875
 30
0.0
 40
0.03125
100
AcDbArc
 50
269.9999999999478
 51
0.0
  0
LINE
  5
2E
100
AcDbEntity
  8
USP-GEO
100
AcDbLine
 10
1.516549999999995
 20
1.937500000000014
 30
0.0
 11
1.704049999999995
 21
1.937500000000014
 31
0.0
  0
ARC
  5
2F
100
AcDbEntity
  8
USP-GEO
100
AcDbCircle
 10
1.51654999999998
 20
1.968750000000014
 30
0.0
 40
0.03125
100
AcDbArc
 50
180.0
 51
270.000000000026
  0
LINE
  5
30
100
AcDbEntity
  8
USP-GEO
100
AcDbLine
 10
1.48529999999998
 20
2.000000000000014
 30
0.0
 11
1.48529999999998
 21
1.968750000000014
 31
0.0
  0
LINE
  5
31
100
AcDbEntity
  8
USP-GEO
100
AcDbLine
 10
1.047799999999995
 20
2.000000000000014
 30
0.0
 11
1.48529999999998
 21
2.000000000000014
 31
0.0
  0
LINE
  5
32
100
AcDbEntity
  8
USP-GEO
100
AcDbLine
 10
1.047800000000009
 20
1.25
 30
0.0
 11
1.0
 21
1.25
 31
0.0
  0
LINE
  5
33
100
AcDbEntity
  8
USP-GEO
100
AcDbLine
 10
1.0
 20
1.25
 30
0.0
 11
1.0
 21
2.250000000000014
 31
0.0
  0
LINE
  5
34
100
AcDbEntity
  8
USP-GEO
100
AcDbLine
 10
1.047800000000009
 20
2.297800000000009
 30
0.0
 11
1.047800000000009
 21
1.249999999999985
 31
0.0
  0
LINE
  5
35
100
AcDbEntity
  8
USP-GEO
100
AcDbLine
 10
4.172800000000037
 20
2.297800000000009
 30
0.0
 11
5.220600000000032
 21
2.297800000000009
 31
0.0
  0
LINE
  5
36
100
AcDbEntity
  8
USP-GEO
100
AcDbLine
 10
5.220600000000032
 20
2.250000000000014
 30
0.0
 11
4.220600000000018
 21
2.250000000000014
 31
0.0
  0
LINE
  5
37
100
AcDbEntity
  8
USP-GEO
100
AcDbLine
 10
4.172800000000023
 20
1.25
 30
0.0
 11
4.172800000000023
 21
1.066666666666662
 31
0.0
  0
LINE
  5
38
100
AcDbEntity
  8
USP-GEO
100
AcDbLine
 10
4.220600000000032
 20
1.066666666666677
 30
0.0
 11
4.220600000000032
 21
1.249999999999985
 31
0.0
  0
ARC
  5
39
100
AcDbEntity
  8
USP-GEO
100
AcDbCircle
 10
4.172800000000023
 20
1.156734320410095
 30
0.0
 40
0.2977999999999987
100
AcDbArc
 50
330.9830270598254
 51
80.76347654455082
  0
LINE
  5
3A
100
AcDbEntity
  8
USP-GEO
100
AcDbLine
 10
4.172800000000037
 20
0.0000000000000142
 30
0.0
 11
3.735300000000023
 21
0.0000000000000142
 31
0.0
  0
LINE
  5
3B
100
AcDbEntity
  8
USP-GEO
100
AcDbLine
 10
3.485300000000009
 20
0.0312500000000142
 30
0.0
 11
3.485300000000009
 21
0.0
 31
0.0
  0
ARC
  5
3C
100
AcDbEntity
  8
USP-GEO
100
AcDbCircle
 10
3.516550000000009
 20
0.03125
 30
0.0
 40
0.03125
100
AcDbArc
 50
90.0
 51
180.0
  0
LINE
  5
3D
100
AcDbEntity
  8
USP-GEO
100
AcDbLine
 10
3.704050000000023
 20
0.0625
 30
0.0
 11
3.516550000000009
 21
0.0625
 31
0.0
  0
ARC
  5
3E
100
AcDbEntity
  8
USP-GEO
100
AcDbCircle
 10
3.704050000000009
 20
0.0312500000000142
 30
0.0
 40
0.03125
100
AcDbArc
 50
0.0
 51
89.99999999997395
  0
LINE
  5
3F
100
AcDbEntity
  8
USP-GEO
100
AcDbLine
 10
3.735300000000023
 20
0.0000000000000142
 30
0.0
 11
3.735300000000023
 21
0.0312500000000142
 31
0.0
  0
LINE
  5
40
100
AcDbEntity
  8
USP-GEO
100
AcDbLine
 10
4.172800000000037
 20
1.066666666666677
 30
0.0
 11
4.172800000000037
 21
0.8374999999999914
 31
0.0
  0
LINE
  5
41
100
AcDbEntity
  8
USP-GEO
100
AcDbLine
 10
4.433218968232921
 20
1.01228086429181
 30
0.0
 11
4.317253456118322
 21
0.8963153521772113
 31
0.0
  0
LINE
  5
42
100
AcDbEntity
  8
USP-GEO
100
AcDbLine
 10
4.220600000000032
 20
0.8375000000000056
 30
0.0
 11
4.220600000000032
 21
1.066666666666677
 31
0.0
  0
ARC
  5
43
100
AcDbEntity
  8
USP-GEO
100
AcDbCircle
 10
4.172800000000023
 20
1.156734320410095
 30
0.0
 40
0.2977999999999987
100
AcDbArc
 50
279.2365234554491
 51
299.0169729401727
  0
LINE
  5
44
100
AcDbEntity
  8
USP-GEO
100
AcDbLine
 10
4.172800000000037
 20
0.0467990710866531
 30
0.0
 11
4.172800000000037
 21
0.0000000000000142
 31
0.0
  0
LINE
  5
45
100
AcDbEntity
  8
USP-GEO
100
AcDbLine
 10
4.172800000000037
 20
0.8374999999999914
 30
0.0
 11
4.172800000000037
 21
0.0467990710866531
 31
0.0
  0
LINE
  5
46
100
AcDbEntity
  8
USP-GEO
100
AcDbLine
 10
4.220600000000018
 20
0.0467990710866531
 30
0.0
 11
4.220600000000018
 21
0.8374999999999914
 31
0.0
  0
LINE
  5
47
100
AcDbEntity
  8
USP-GEO
100
AcDbLine
 10
4.220600000000032
 20
0.0000000000000142
 30
0.0
 11
4.220600000000032
 21
0.0467990710866815
 31
0.0
  0
LINE
  5
48
100
AcDbEntity
  8
USP-GEO
100
AcDbLine
 10
4.172800000000037
 20
0.0000000000000142
 30
0.0
 11
4.220600000000032
 21
0.0000000000000142
 31
0.0
  0
LINE
  5
49
100
AcDbEntity
  8
USP-GEO
100
AcDbLine
 10
4.172800000000023
 20
0.8375000000000056
 30
0.0
 11
4.220600000000047
 21
0.8375000000000056
 31
0.0
  0
LINE
  5
4A
100
AcDbEntity
  8
USP-GEO
100
AcDbLine
 10
3.735300000000023
 20
2.0
 30
0.0
 11
4.172800000000023
 21
2.0
 31
0.0
  0
LINE
  5
4B
100
AcDbEntity
  8
USP-GEO
100
AcDbLine
 10
3.735300000000023
 20
1.968749999999985
 30
0.0
 11
3.735300000000023
 21
2.0
 31
0.0
  0
ARC
  5
4C
100
AcDbEntity
  8
USP-GEO
100
AcDbCircle
 10
3.704050000000023
 20
1.96875
 30
0.0
 40
0.03125
100
AcDbArc
 50
269.9999999999739
 51
0.0
  0
LINE
  5
4D
100
AcDbEntity
  8
USP-GEO
100
AcDbLine
 10
3.516550000000009
 20
1.9375
 30
0.0
 11
3.704050000000009
 21
1.9375
 31
0.0
  0
ARC
  5
4E
100
AcDbEntity
  8
USP-GEO
100
AcDbCircle
 10
3.516549999999995
 20
1.968750000000014
 30
0.0
 40
0.03125
100
AcDbArc
 50
179.9999999999869
 51
270.000000000026
  0
LINE
  5
4F
100
AcDbEntity
  8
USP-GEO
100
AcDbLine
 10
3.485300000000009
 20
2.000000000000014
 30
0.0
 11
3.485300000000009
 21
1.968750000000014
 31
0.0
  0
LINE
  5
50
100
AcDbEntity
  8
USP-GEO
100
AcDbLine
 10
4.433100000000038
 20
2.041028851245343
 30
0.0
 11
4.633099999999998
 21
2.041028851245343
 31
0.0
  0
LINE
  5
51
100
AcDbEntity
  8
USP-GEO
100
AcDbLine
 10
4.433100000000038
 20
2.049673383528329
 30
0.0
 11
4.433100000000038
 21
2.250000000000014
 31
0.0
  0
LINE
  5
52
100
AcDbEntity
  8
USP-GEO
100
AcDbLine
 10
4.633100000000013
 20
2.250000000000014
 30
0.0
 11
4.633099999999998
 21
2.049673383528343
 31
0.0
  0
LINE
  5
53
100
AcDbEntity
  8
USP-GEO
100
AcDbLine
 10
4.633099999999998
 20
2.041028851245343
 30
0.0
 11
4.633099999999998
 21
2.049673383528343
 31
0.0
  0
LINE
  5
54
100
AcDbEntity
  8
USP-GEO
100
AcDbLine
 10
4.433100000000038
 20
2.049673383528343
 30
0.0
 11
4.433100000000038
 21
2.041028851245343
 31
0.0
  0
LINE
  5
55
100
AcDbEntity
  8
USP-GEO
100
AcDbLine
 10
4.533100000000032
 20
2.355157643635095
 30
0.0
 11
4.633100000000013
 21
2.297800000000009
 31
0.0
  0
LINE
  5
56
100
AcDbEntity
  8
USP-GEO
100
AcDbLine
 10
4.433100000000038
 20
2.297799999999995
 30
0.0
 11
4.533100000000032
 21
2.355157643635095
 31
0.0
  0
LINE
  5
57
100
AcDbEntity
  8
USP-GEO
100
AcDbLine
 10
4.220600000000018
 20
1.250000000000014
 30
0.0
 11
4.172800000000037
 21
1.250000000000014
 31
0.0
  0
LINE
  5
58
100
AcDbEntity
  8
USP-GEO
100
AcDbLine
 10
4.172800000000037
 20
1.250000000000014
 30
0.0
 11
4.172800000000037
 21
2.297799999999995
 31
0.0
  0
LINE
  5
59
100
AcDbEntity
  8
USP-GEO
100
AcDbLine
 10
4.220600000000032
 20
2.250000000000014
 30
0.0
 11
4.220600000000032
 21
1.250000000000014
 31
0.0
  0
LINE
  5
5A
100
AcDbEntity
  8
USP-GEO
100
AcDbLine
 10
5.220600000000032
 20
2.297800000000009
 30
0.0
 11
5.220600000000032
 21
2.250000000000014
 31
0.0
  0
ENDBLK
  5
5D
100
AcDbEntity
  8
0
100
AcDbBlockEnd
  0
BLOCK
  5
E5
100
AcDbEntity
  8
0
100
AcDbBlockBegin
  2
JUS26-2_F
 70
     0
 10
0.0
 20
0.0
 30
0.0
  3
JUS26-2_F
  1

  0
LINE
  5
60
100
AcDbEntity
  8
USP-GEO
100
AcDbLine
 10
3.485300000000023
 20
0.0477999999999952
 30
0.0000000000000003
 11
1.735300000000023
 21
0.0477999999999952
 31
0.0000000000000001
210
0.0
220
1.0
230
0.0
  0
LINE
  5
61
100
AcDbEntity
  8
USP-GEO
100
AcDbLine
 10
1.735300000000037
 20
0.0
 30
0.0000000000000001
 11
3.485300000000009
 21
0.0
 31
0.0000000000000003
210
0.0
220
1.0
230
0.0
  0
ELLIPSE
  5
62
100
AcDbEntity
  8
USP-GEO
100
AcDbEllipse
 10
4.375236212175636
 20
4.214931211054931
 30
0.0000000000000004
 11
0.0
 21
-0.0820000000000036
 31
0.0
210
-0.0000000000000001
220
0.0
230
1.0
 40
0.7071067811865475
 41
0.0
 42
6.283185307179586
  0
ELLIPSE
  5
63
100
AcDbEntity
  8
USP-GEO
100
AcDbEllipse
 10
4.339797005961216
 20
4.214931211054931
 30
0.0000000000000004
 11
0.0000000000000072
 21
0.0820000000000056
 31
0.0
210
-0.0000000000000001
220
0.0
230
1.0
 40
0.70710678118653
 41
-1.570796326795007
 42
-0.3105698314581138
  0
ELLIPSE
  5
64
100
AcDbEntity
  8
USP-GEO
100
AcDbEllipse
 10
4.339797005961216
 20
4.214931211054931
 30
0.0000000000000004
 11
0.0000000000000251
 21
0.0820000000000143
 31
0.0
210
-0.0000000000000001
220
0.0
230
1.0
 40
0.7071067811864547
 41
-2.831022822131636
 42
-1.570796326794853
  0
ELLIPSE
  5
65
100
AcDbEntity
  8
USP-GEO
100
AcDbEllipse
 10
4.375236212175636
 20
2.17279999999998
 30
0.0000000000000004
 11
0.0
 21
-0.0820000000000036
 31
0.0
210
-0.0000000000000001
220
0.0
230
1.0
 40
0.7071067811865475
 41
0.0
 42
6.283185307179586
  0
ELLIPSE
  5
66
100
AcDbEntity
  8
USP-GEO
100
AcDbEllipse
 10
4.339797005961216
 20
2.172799999999995
 30
0.0000000000000004
 11
0.0000000000000072
 21
0.0820000000000056
 31
0.0
210
-0.0000000000000001
220
0.0
230
1.0
 40
0.70710678118653
 41
-1.570796326795012
 42
-0.3105698314581138
  0
ELLIPSE
  5
67
100
AcDbEntity
  8
USP-GEO
100
AcDbEllipse
 10
4.339797005961216
 20
2.172799999999995
 30
0.0000000000000004
 11
0.0000000000000251
 21
0.0820000000000143
 31
0.0
210
-0.0000000000000001
220
0.0
230
1.0
 40
0.7071067811864547
 41
-2.831022822131636
 42
-1.570796326794853
  0
ELLIPSE
  5
68
100
AcDbEntity
  8
USP-GEO
100
AcDbEllipse
 10
0.8808029940388308
 20
4.464931211054945
 30
0.0
 11
0.0000000000000251
 21
0.0820000000000143
 31
0.0
210
-0.0000000000000001
220
0.0
230
1.0
 40
0.7071067811864548
 41
0.3105698314581571
 42
1.570796326795113
  0
ELLIPSE
  5
69
100
AcDbEntity
  8
USP-GEO
100
AcDbEllipse
 10
0.8453637878244251
 20
4.46493121105496
 30
0.0
 11
0.0
 21
-0.0820000000000036
 31
0.0
210
-0.0000000000000001
220
0.0
230
1.0
 40
0.7071067811865474
 41
0.0
 42
6.283185307179586
  0
ELLIPSE
  5
6A
100
AcDbEntity
  8
USP-GEO
100
AcDbEllipse
 10
0.8808029940388308
 20
4.464931211054945
 30
0.0
 11
0.0000000000000072
 21
0.0820000000000056
 31
0.0
210
-0.0000000000000001
220
0.0
230
1.0
 40
0.70710678118653
 41
1.570796326794959
 42
2.831022822131679
  0
ELLIPSE
  5
6B
100
AcDbEntity
  8
USP-GEO
100
AcDbEllipse
 10
0.8453637878244251
 20
2.297799999999995
 30
0.0
 11
0.0
 21
-0.0820000000000036
 31
0.0
210
-0.0000000000000001
220
0.0
230
1.0
 40
0.7071067811865474
 41
0.0
 42
6.283185307179586
  0
ELLIPSE
  5
6C
100
AcDbEntity
  8
USP-GEO
100
AcDbEllipse
 10
0.8808029940388308
 20
2.297799999999995
 30
0.0
 11
-0.0000000000000488
 21
0.0819999999999894
 31
0.0
210
-0.0000000000000001
220
0.0
230
1.0
 40
0.70710678118667
 41
0.3105698314571394
 42
1.570796326794475
  0
ELLIPSE
  5
6D
100
AcDbEntity
  8
USP-GEO
100
AcDbEllipse
 10
0.8808029940388308
 20
2.297799999999995
 30
0.0
 11
0.0000000000000489
 21
0.0819999999999894
 31
0.0
210
-0.0000000000000001
220
0.0
230
1.0
 40
0.7071067811866698
 41
1.570796326795317
 42
2.831022822132654
  0
TEXT
  5
6E
100
AcDbEntity
  8
USP-TXT
100
AcDbText
 10
0.1103000000000245
 20
-0.7595444216453302
 30
0.0000000000000002
 40
0.25
  1
JUS26-2 - FRONT VIEW
 72
     1
 11
2.610300000000023
 21
-0.7595444216453302
 31
0.0000000000000002
100
AcDbText
  0
LINE
  5
6F
100
AcDbEntity
  8
USP-GEO
100
AcDbLine
 10
1.000000000000014
 20
1.601956806832475
 30
0.0
 11
0.1871962843466548
 21
2.736046378881596
 31
-0.0000000000000001
210
0.0
220
1.0
230
0.0
  0
LINE
  5
70
100
AcDbEntity
  8
USP-GEO
100
AcDbLine
 10
1.047800000000009
 20
2.736046378881596
 30
0.0
 11
1.047800000000009
 21
1.318434413820199
 31
0.0
210
0.0
220
1.0
230
0.0
  0
LINE
  5
71
100
AcDbEntity
  8
USP-GEO
100
AcDbLine
 10
1.000000000000028
 20
2.736046378881596
 30
0.0
 11
1.000000000000028
 21
1.318434413820199
 31
0.0
210
0.0
220
1.0
230
0.0
  0
LINE
  5
72
100
AcDbEntity
  8
USP-GEO
100
AcDbLine
 10
1.047800000000009
 20
1.172799999999995
 30
0.0
 11
1.047800000000009
 21
0.0477999999999952
 31
0.0
210
0.0
220
1.0
230
0.0
  0
LINE
  5
73
100
AcDbEntity
  8
USP-GEO
100
AcDbLine
 10
1.000000000000014
 20
1.172799999999995
 30
0.0
 11
1.000000000000014
 21
0.0
 31
0.0
210
0.0
220
1.0
230
0.0
  0
LINE
  5
74
100
AcDbEntity
  8
USP-GEO
100
AcDbLine
 10
1.000000000000028
 20
0.0
 30
0.0
 11
1.485300000000009
 21
0.0
 31
0.0000000000000001
210
0.0
220
1.0
230
0.0
  0
LINE
  5
75
100
AcDbEntity
  8
USP-GEO
100
AcDbLine
 10
1.485300000000009
 20
0.0477999999999952
 30
0.0000000000000001
 11
1.047800000000023
 21
0.0477999999999952
 31
0.0
210
0.0
220
1.0
230
0.0
  0
LINE
  5
76
100
AcDbEntity
  8
USP-GEO
100
AcDbLine
 10
1.516550000000009
 20
0.0477999999999952
 30
0.0000000000000001
 11
1.485300000000009
 21
0.0477999999999952
 31
0.0000000000000001
210
0.0
220
1.0
230
0.0
  0
LINE
  5
77
100
AcDbEntity
  8
USP-GEO
100
AcDbLine
 10
1.704050000000023
 20
0.0477999999999952
 30
0.0000000000000001
 11
1.516550000000009
 21
0.0477999999999952
 31
0.0000000000000001
210
0.0
220
1.0
230
0.0
  0
LINE
  5
78
100
AcDbEntity
  8
USP-GEO
100
AcDbLine
 10
1.735300000000009
 20
0.0477999999999952
 30
0.0000000000000001
 11
1.704050000000009
 21
0.0477999999999952
 31
0.0000000000000001
210
0.0
220
1.0
230
0.0
  0
LINE
  5
79
100
AcDbEntity
  8
USP-GEO
100
AcDbLine
 10
1.735300000000023
 20
0.0477999999999952
 30
0.0000000000000001
 11
1.735300000000023
 21
0.0
 31
0.0000000000000001
210
0.0
220
1.0
230
0.0
  0
LINE
  5
7A
100
AcDbEntity
  8
USP-GEO
100
AcDbLine
 10
1.485300000000009
 20
0.0477999999999952
 30
0.0000000000000001
 11
1.485300000000009
 21
0.0
 31
0.0000000000000001
210
0.0
220
1.0
230
0.0
  0
LINE
  5
7B
100
AcDbEntity
  8
USP-GEO
100
AcDbLine
 10
1.485300000000009
 20
0.0
 30
0.0000000000000001
 11
1.516550000000009
 21
0.0
 31
0.0000000000000001
210
0.0
220
1.0
230
0.0
  0
LINE
  5
7C
100
AcDbEntity
  8
USP-GEO
100
AcDbLine
 10
1.516550000000009
 20
0.0
 30
0.0000000000000001
 11
1.704050000000023
 21
0.0
 31
0.0000000000000001
210
0.0
220
1.0
230
0.0
  0
LINE
  5
7D
100
AcDbEntity
  8
USP-GEO
100
AcDbLine
 10
1.704050000000009
 20
0.0
 30
0.0000000000000001
 11
1.735300000000009
 21
0.0
 31
0.0000000000000001
210
0.0
220
1.0
230
0.0
  0
ARC
  5
7E
100
AcDbEntity
  8
USP-GEO
100
AcDbCircle
 10
1.047800000000009
 20
2.297799999999995
 30
0.0
 40
0.2977999999999987
100
AcDbArc
 50
99.23652345544919
 51
260.7634765445508
  0
LINE
  5
7F
100
AcDbEntity
  8
USP-GEO
100
AcDbLine
 10
1.047800000000009
 20
1.318434413820199
 30
0.0
 11
1.047800000000009
 21
1.172799999999995
 31
0.0
210
0.0
220
1.0
230
0.0
  0
LINE
  5
80
100
AcDbEntity
  8
USP-GEO
100
AcDbLine
 10
1.000000000000014
 20
1.318434413820199
 30
0.0
 11
1.000000000000014
 21
1.172799999999995
 31
0.0
210
0.0
220
1.0
230
0.0
  0
ARC
  5
81
100
AcDbEntity
  8
USP-GEO
100
AcDbCircle
 10
0.2499999999999716
 20
5.132062422109953
 30
-0.0000000000000001
 40
0.2499999999999579
100
AcDbArc
 50
180.0000000000162
 51
254.5339900465948
  0
LINE
  5
82
100
AcDbEntity
  8
USP-GEO
100
AcDbLine
 10
1.000000000000014
 20
5.297799999999995
 30
0.0
 11
0.0000000000000142
 21
5.297799999999995
 31
-0.0000000000000001
210
0.0
220
1.0
230
0.0
  0
ARC
  5
83
100
AcDbEntity
  8
USP-GEO
100
AcDbCircle
 10
1.000000000000014
 20
3.318584034162427
 30
0.0
 40
0.9999999999999978
100
AcDbArc
 50
180.0000000000008
 51
215.6292264487012
  0
ARC
  5
84
100
AcDbEntity
  8
USP-GEO
100
AcDbCircle
 10
0.2500000000000142
 20
3.797800000000009
 30
-0.0000000000000001
 40
0.2499999999999962
100
AcDbArc
 50
105.4660099534229
 51
180.0
  0
LINE
  5
85
100
AcDbEntity
  8
USP-GEO
100
AcDbLine
 10
0.0
 20
3.318584034162412
 30
-0.0000000000000001
 11
0.0
 21
3.797800000000009
 31
-0.0000000000000001
210
0.0
220
1.0
230
0.0
  0
LINE
  5
86
100
AcDbEntity
  8
USP-GEO
100
AcDbLine
 10
0.0
 20
5.132062422109882
 30
-0.0000000000000001
 11
0.0
 21
5.297799999999995
 31
-0.0000000000000001
210
0.0
220
1.0
230
0.0
  0
ARC
  5
87
100
AcDbEntity
  8
USP-GEO
100
AcDbCircle
 10
1.047800000000009
 20
4.464931211054945
 30
0.0
 40
0.2977999999999987
100
AcDbArc
 50
99.23652345544919
 51
260.7634765445508
  0
LINE
  5
88
100
AcDbEntity
  8
USP-GEO
100
AcDbLine
 10
0.5875000000000199
 20
4.227976469825335
 30
-0.0000000000000001
 11
0.5875000000000199
 21
4.514072527836759
 31
-0.0000000000000001
210
0.0
220
1.0
230
0.0
  0
LINE
  5
89
100
AcDbEntity
  8
USP-GEO
100
AcDbLine
 10
0.412500000000037
 20
4.339931211054945
 30
-0.0000000000000001
 11
0.412500000000037
 21
4.589931211054945
 31
-0.0000000000000001
210
0.0
220
1.0
230
0.0
  0
LINE
  5
8A
100
AcDbEntity
  8
USP-GEO
100
AcDbLine
 10
1.047800000000009
 20
4.589931211054945
 30
0.0
 11
1.047800000000009
 21
4.339931211054945
 31
0.0
210
0.0
220
1.0
230
0.0
  0
LINE
  5
8B
100
AcDbEntity
  8
USP-GEO
100
AcDbLine
 10
1.000000000000014
 20
4.589931211054945
 30
0.0
 11
1.000000000000014
 21
4.339931211054945
 31
0.0
210
0.0
220
1.0
230
0.0
  0
LINE
  5
8C
100
AcDbEntity
  8
USP-GEO
100
AcDbLine
 10
0.7875000000000228
 20
4.215630798276166
 30
0.0
 11
0.6875000000000142
 21
4.133715593847256
 31
0.0
210
0.0
220
1.0
230
0.0
  0
LINE
  5
8D
100
AcDbEntity
  8
USP-GEO
100
AcDbLine
 10
0.6875000000000142
 20
4.133715593847284
 30
0.0
 11
0.5875000000000199
 21
4.21563079827618
 31
-0.0000000000000001
210
0.0
220
1.0
230
0.0
  0
LINE
  5
8E
100
AcDbEntity
  8
USP-GEO
100
AcDbLine
 10
0.7875000000000228
 20
4.320263488324513
 30
0.0
 11
0.7875000000000228
 21
4.227976469825335
 31
0.0
210
0.0
220
1.0
230
0.0
  0
LINE
  5
8F
100
AcDbEntity
  8
USP-GEO
100
AcDbLine
 10
0.5875000000000199
 20
4.139931211054943
 30
-0.0000000000000001
 11
0.5875000000000199
 21
4.227976469825335
 31
-0.0000000000000001
210
0.0
220
1.0
230
0.0
  0
LINE
  5
90
100
AcDbEntity
  8
USP-GEO
100
AcDbLine
 10
0.6875000000000142
 20
4.039931211054934
 30
0.0
 11
0.5875000000000199
 21
4.139931211054928
 31
-0.0000000000000001
210
0.0
220
1.0
230
0.0
  0
LINE
  5
91
100
AcDbEntity
  8
USP-GEO
100
AcDbLine
 10
0.7875000000000086
 20
4.139931211054943
 30
0.0
 11
0.6875000000000142
 21
4.039931211054934
 31
0.0
210
0.0
220
1.0
230
0.0
  0
LINE
  5
92
100
AcDbEntity
  8
USP-GEO
100
AcDbLine
 10
0.7875000000000228
 20
4.227976469825335
 30
0.0
 11
0.7875000000000228
 21
4.139931211054928
 31
0.0
210
0.0
220
1.0
230
0.0
  0
CIRCLE
  5
93
100
AcDbEntity
  8
USP-GEO
100
AcDbCircle
 10
0.3124999999999858
 20
3.172800000000009
 30
-0.0000000000000001
 40
0.0860000000000001
  0
ARC
  5
94
100
AcDbEntity
  8
USP-GEO
100
AcDbCircle
 10
0.1000000000000654
 20
4.339931211055017
 30
-0.0000000000000001
 40
0.3124999999999597
100
AcDbArc
 50
285.4660099534111
 51
359.9999999999869
  0
LINE
  5
95
100
AcDbEntity
  8
USP-GEO
100
AcDbLine
 10
1.047800000000009
 20
3.318584034162412
 30
0.0
 11
1.047800000000009
 21
2.736046378881582
 31
0.0
210
0.0
220
1.0
230
0.0
  0
LINE
  5
96
100
AcDbEntity
  8
USP-GEO
100
AcDbLine
 10
1.000000000000028
 20
3.318584034162412
 30
0.0
 11
1.000000000000028
 21
2.736046378881596
 31
0.0
210
0.0
220
1.0
230
0.0
  0
LINE
  5
97
100
AcDbEntity
  8
USP-GEO
100
AcDbLine
 10
1.047800000000023
 20
3.797799999999881
 30
0.0
 11
1.047800000000023
 21
3.318584034162412
 31
0.0
210
0.0
220
1.0
230
0.0
  0
LINE
  5
98
100
AcDbEntity
  8
USP-GEO
100
AcDbLine
 10
1.047800000000009
 20
4.038747204913249
 30
0.0
 11
1.047800000000009
 21
3.797799999999881
 31
0.0
210
0.0
220
1.0
230
0.0
  0
LINE
  5
99
100
AcDbEntity
  8
USP-GEO
100
AcDbLine
 10
1.047800000000023
 20
4.339931211054945
 30
0.0
 11
1.047800000000023
 21
4.038747204913249
 31
0.0
210
0.0
220
1.0
230
0.0
  0
LINE
  5
9A
100
AcDbEntity
  8
USP-GEO
100
AcDbLine
 10
1.000000000000014
 20
4.339931211054945
 30
0.0
 11
1.000000000000014
 21
4.038747204913249
 31
0.0
210
0.0
220
1.0
230
0.0
  0
LINE
  5
9B
100
AcDbEntity
  8
USP-GEO
100
AcDbLine
 10
1.000000000000014
 20
4.038747204913249
 30
0.0
 11
1.000000000000014
 21
3.797799999999881
 31
0.0
210
0.0
220
1.0
230
0.0
  0
LINE
  5
9C
100
AcDbEntity
  8
USP-GEO
100
AcDbLine
 10
1.000000000000014
 20
3.797799999999881
 30
0.0
 11
1.000000000000014
 21
3.318584034162412
 31
0.0
210
0.0
220
1.0
230
0.0
  0
LINE
  5
9D
100
AcDbEntity
  8
USP-GEO
100
AcDbLine
 10
0.7875000000000228
 20
4.85500249316334
 30
0.0
 11
0.7875000000000086
 21
4.609598933785349
 31
0.0
210
0.0
220
1.0
230
0.0
  0
LINE
  5
9E
100
AcDbEntity
  8
USP-GEO
100
AcDbLine
 10
0.5875000000000199
 20
4.568906435151916
 30
-0.0000000000000001
 11
0.5875000000000199
 21
4.855002493163354
 31
-0.0000000000000001
210
0.0
220
1.0
230
0.0
  0
ARC
  5
9F
100
AcDbEntity
  8
USP-GEO
100
AcDbCircle
 10
0.1000000000000369
 20
4.589931211054945
 30
-0.0000000000000001
 40
0.3124999999999979
100
AcDbArc
 50
0.0
 51
74.5339900465778
  0
LINE
  5
A0
100
AcDbEntity
  8
USP-GEO
100
AcDbLine
 10
0.5875000000000341
 20
4.56890643515193
 30
-0.0000000000000001
 11
0.5875000000000341
 21
4.514072527836759
 31
-0.0000000000000001
210
0.0
220
1.0
230
0.0
  0
LINE
  5
A1
100
AcDbEntity
  8
USP-GEO
100
AcDbLine
 10
0.5875000000000199
 20
4.85500249316334
 30
-0.0000000000000001
 11
0.7875000000000228
 21
4.85500249316334
 31
0.0
210
0.0
220
1.0
230
0.0
  0
CIRCLE
  5
A2
100
AcDbEntity
  8
USP-GEO
100
AcDbCircle
 10
0.3125
 20
5.089931211054931
 30
-0.0000000000000001
 40
0.0860000000000001
  0
LINE
  5
A3
100
AcDbEntity
  8
USP-GEO
100
AcDbLine
 10
1.047800000000023
 20
4.891115217196642
 30
0.0
 11
1.047800000000023
 21
4.589931211054945
 31
0.0
210
0.0
220
1.0
230
0.0
  0
LINE
  5
A4
100
AcDbEntity
  8
USP-GEO
100
AcDbLine
 10
1.000000000000014
 20
4.891115217196627
 30
0.0
 11
1.000000000000014
 21
4.589931211054945
 31
0.0
210
0.0
220
1.0
230
0.0
  0
LINE
  5
A5
100
AcDbEntity
  8
USP-GEO
100
AcDbLine
 10
1.047800000000009
 20
5.132062422109981
 30
0.0
 11
1.047800000000009
 21
4.891115217196642
 31
0.0
210
0.0
220
1.0
230
0.0
  0
LINE
  5
A6
100
AcDbEntity
  8
USP-GEO
100
AcDbLine
 10
1.047800000000023
 20
5.297799999999995
 30
0.0
 11
1.047800000000023
 21
5.132062422109981
 31
0.0
210
0.0
220
1.0
230
0.0
  0
LINE
  5
A7
100
AcDbEntity
  8
USP-GEO
100
AcDbLine
 10
1.000000000000014
 20
5.132062422109981
 30
0.0
 11
1.000000000000014
 21
4.891115217196642
 31
0.0
210
0.0
220
1.0
230
0.0
  0
LINE
  5
A8
100
AcDbEntity
  8
USP-GEO
100
AcDbLine
 10
1.000000000000014
 20
5.297799999999995
 30
0.0
 11
1.000000000000014
 21
5.132062422109981
 31
0.0
210
0.0
220
1.0
230
0.0
  0
LINE
  5
A9
100
AcDbEntity
  8
USP-GEO
100
AcDbLine
 10
1.047800000000023
 20
5.297799999999995
 30
0.0
 11
1.000000000000014
 21
5.297799999999995
 31
0.0
210
0.0
220
1.0
230
0.0
  0
CIRCLE
  5
AA
100
AcDbEntity
  8
USP-GEO
100
AcDbCircle
 10
4.908100000000032
 20
4.839931211054917
 30
0.0000000000000005
 40
0.0860000000000001
  0
LINE
  5
AB
100
AcDbEntity
  8
USP-GEO
100
AcDbLine
 10
5.220600000000047
 20
5.297799999999995
 30
0.0000000000000005
 11
4.220600000000032
 21
5.297799999999995
 31
0.0000000000000004
210
0.0
220
1.0
230
0.0
  0
ARC
  5
AC
100
AcDbEntity
  8
USP-GEO
100
AcDbCircle
 10
5.120599999999981
 20
4.089931211055002
 30
0.0000000000000005
 40
0.3124999999999597
100
AcDbArc
 50
180.000000000013
 51
254.5339900465922
  0
CIRCLE
  5
AD
100
AcDbEntity
  8
USP-GEO
100
AcDbCircle
 10
4.908100000000032
 20
3.047799999999995
 30
0.0000000000000005
 40
0.0860000000000001
  0
LINE
  5
AE
100
AcDbEntity
  8
USP-GEO
100
AcDbLine
 10
5.03340371565342
 20
2.736046378881582
 30
0.0000000000000005
 11
4.220600000000047
 21
1.601956806832447
 31
0.0000000000000004
210
0.0
220
1.0
230
0.0
  0
ARC
  5
AF
100
AcDbEntity
  8
USP-GEO
100
AcDbCircle
 10
5.120600000000038
 20
4.339931211054931
 30
0.0000000000000005
 40
0.3124999999999979
100
AcDbArc
 50
105.4660099534222
 51
180.0000000000024
  0
LINE
  5
B0
100
AcDbEntity
  8
USP-GEO
100
AcDbLine
 10
4.220600000000032
 20
1.318434413820185
 30
0.0000000000000004
 11
4.220600000000032
 21
2.736046378881582
 31
0.0000000000000004
210
0.0
220
1.0
230
0.0
  0
LINE
  5
B1
100
AcDbEntity
  8
USP-GEO
100
AcDbLine
 10
4.172800000000052
 20
2.736046378881582
 30
0.0000000000000004
 11
4.172800000000052
 21
1.318434413820185
 31
0.0000000000000004
210
0.0
220
1.0
230
0.0
  0
LINE
  5
B2
100
AcDbEntity
  8
USP-GEO
100
AcDbLine
 10
4.220600000000047
 20
0.0
 30
0.0000000000000004
 11
4.220600000000047
 21
1.17279999999998
 31
0.0000000000000004
210
0.0
220
1.0
230
0.0
  0
LINE
  5
B3
100
AcDbEntity
  8
USP-GEO
100
AcDbLine
 10
4.172800000000052
 20
1.17279999999998
 30
0.0000000000000004
 11
4.172800000000052
 21
0.0477999999999952
 31
0.0000000000000004
210
0.0
220
1.0
230
0.0
  0
LINE
  5
B4
100
AcDbEntity
  8
USP-GEO
100
AcDbLine
 10
4.172800000000052
 20
0.0477999999999952
 30
0.0000000000000004
 11
3.735300000000037
 21
0.0477999999999952
 31
0.0000000000000003
210
0.0
220
1.0
230
0.0
  0
LINE
  5
B5
100
AcDbEntity
  8
USP-GEO
100
AcDbLine
 10
3.735300000000037
 20
0.0
 30
0.0000000000000003
 11
4.220600000000047
 21
0.0
 31
0.0000000000000004
210
0.0
220
1.0
230
0.0
  0
LINE
  5
B6
100
AcDbEntity
  8
USP-GEO
100
AcDbLine
 10
3.516550000000023
 20
0.0477999999999952
 30
0.0000000000000003
 11
3.485300000000023
 21
0.0477999999999952
 31
0.0000000000000003
210
0.0
220
1.0
230
0.0
  0
LINE
  5
B7
100
AcDbEntity
  8
USP-GEO
100
AcDbLine
 10
3.704050000000037
 20
0.0477999999999952
 30
0.0000000000000003
 11
3.516550000000023
 21
0.0477999999999952
 31
0.0000000000000003
210
0.0
220
1.0
230
0.0
  0
LINE
  5
B8
100
AcDbEntity
  8
USP-GEO
100
AcDbLine
 10
3.735300000000023
 20
0.0477999999999952
 30
0.0000000000000003
 11
3.704050000000037
 21
0.0477999999999952
 31
0.0000000000000003
210
0.0
220
1.0
230
0.0
  0
LINE
  5
B9
100
AcDbEntity
  8
USP-GEO
100
AcDbLine
 10
3.485300000000023
 20
0.0477999999999952
 30
0.0000000000000003
 11
3.485300000000023
 21
0.0
 31
0.0000000000000003
210
0.0
220
1.0
230
0.0
  0
LINE
  5
BA
100
AcDbEntity
  8
USP-GEO
100
AcDbLine
 10
3.485300000000023
 20
0.0
 30
0.0000000000000003
 11
3.516550000000023
 21
0.0
 31
0.0000000000000003
210
0.0
220
1.0
230
0.0
  0
LINE
  5
BB
100
AcDbEntity
  8
USP-GEO
100
AcDbLine
 10
3.516550000000023
 20
0.0
 30
0.0000000000000003
 11
3.704050000000037
 21
0.0
 31
0.0000000000000003
210
0.0
220
1.0
230
0.0
  0
LINE
  5
BC
100
AcDbEntity
  8
USP-GEO
100
AcDbLine
 10
3.704050000000037
 20
0.0
 30
0.0000000000000003
 11
3.735300000000023
 21
0.0
 31
0.0000000000000003
210
0.0
220
1.0
230
0.0
  0
LINE
  5
BD
100
AcDbEntity
  8
USP-GEO
100
AcDbLine
 10
3.735300000000037
 20
0.0477999999999952
 30
0.0000000000000003
 11
3.735300000000037
 21
0.0
 31
0.0000000000000003
210
0.0
220
1.0
230
0.0
  0
LINE
  5
BE
100
AcDbEntity
  8
USP-GEO
100
AcDbLine
 10
4.220600000000047
 20
1.17279999999998
 30
0.0000000000000004
 11
4.220600000000047
 21
1.31843441382017
 31
0.0000000000000004
210
0.0
220
1.0
230
0.0
  0
LINE
  5
BF
100
AcDbEntity
  8
USP-GEO
100
AcDbLine
 10
4.172800000000052
 20
1.31843441382017
 30
0.0000000000000004
 11
4.172800000000052
 21
1.17279999999998
 31
0.0000000000000004
210
0.0
220
1.0
230
0.0
  0
ARC
  5
C0
100
AcDbEntity
  8
USP-GEO
100
AcDbCircle
 10
4.172800000000037
 20
2.17279999999998
 30
0.0000000000000004
 40
0.2977999999999987
100
AcDbArc
 50
279.2365234554491
 51
80.76347654455082
  0
LINE
  5
C1
100
AcDbEntity
  8
USP-GEO
100
AcDbLine
 10
4.633100000000027
 20
4.60500249316334
 30
0.0000000000000004
 11
4.633100000000013
 21
4.318906435151916
 31
0.0000000000000004
210
0.0
220
1.0
230
0.0
  0
LINE
  5
C2
100
AcDbEntity
  8
USP-GEO
100
AcDbLine
 10
4.433100000000052
 20
4.359598933785292
 30
0.0000000000000004
 11
4.433100000000052
 21
4.60500249316334
 31
0.0000000000000004
210
0.0
220
1.0
230
0.0
  0
LINE
  5
C3
100
AcDbEntity
  8
USP-GEO
100
AcDbLine
 10
4.220600000000047
 20
4.339931211054931
 30
0.0000000000000004
 11
4.220600000000047
 21
4.641115217196613
 31
0.0000000000000004
210
0.0
220
1.0
230
0.0
  0
LINE
  5
C4
100
AcDbEntity
  8
USP-GEO
100
AcDbLine
 10
4.172800000000052
 20
4.641115217196613
 30
0.0000000000000004
 11
4.172800000000052
 21
4.339931211054931
 31
0.0000000000000004
210
0.0
220
1.0
230
0.0
  0
ARC
  5
C5
100
AcDbEntity
  8
USP-GEO
100
AcDbCircle
 10
4.172800000000037
 20
4.214931211054931
 30
0.0000000000000004
 40
0.2977999999999987
100
AcDbArc
 50
279.2365234554491
 51
80.76347654455082
  0
LINE
  5
C6
100
AcDbEntity
  8
USP-GEO
100
AcDbLine
 10
4.220600000000047
 20
2.736046378881582
 30
0.0000000000000004
 11
4.220600000000047
 21
3.318584034162398
 31
0.0000000000000004
210
0.0
220
1.0
230
0.0
  0
LINE
  5
C7
100
AcDbEntity
  8
USP-GEO
100
AcDbLine
 10
4.172800000000052
 20
3.318584034162398
 30
0.0000000000000004
 11
4.172800000000052
 21
2.736046378881582
 31
0.0000000000000004
210
0.0
220
1.0
230
0.0
  0
LINE
  5
C8
100
AcDbEntity
  8
USP-GEO
100
AcDbLine
 10
4.808100000000038
 20
4.339931211054931
 30
0.0000000000000005
 11
4.808100000000038
 21
4.089931211054931
 31
0.0000000000000005
210
0.0
220
1.0
230
0.0
  0
LINE
  5
C9
100
AcDbEntity
  8
USP-GEO
100
AcDbLine
 10
4.633100000000027
 20
3.889931211054914
 30
0.0000000000000004
 11
4.533100000000032
 21
3.78993121105492
 31
0.0000000000000004
210
0.0
220
1.0
230
0.0
  0
LINE
  5
CA
100
AcDbEntity
  8
USP-GEO
100
AcDbLine
 10
4.633100000000027
 20
3.977976469825321
 30
0.0000000000000004
 11
4.633100000000027
 21
3.889931211054914
 31
0.0000000000000004
210
0.0
220
1.0
230
0.0
  0
LINE
  5
CB
100
AcDbEntity
  8
USP-GEO
100
AcDbLine
 10
4.433100000000052
 20
3.889931211054914
 30
0.0000000000000004
 11
4.433100000000052
 21
3.977976469825335
 31
0.0000000000000004
210
0.0
220
1.0
230
0.0
  0
LINE
  5
CC
100
AcDbEntity
  8
USP-GEO
100
AcDbLine
 10
4.533100000000047
 20
3.78993121105492
 30
0.0000000000000004
 11
4.433100000000052
 21
3.889931211054914
 31
0.0000000000000004
210
0.0
220
1.0
230
0.0
  0
LINE
  5
CD
100
AcDbEntity
  8
USP-GEO
100
AcDbLine
 10
4.633100000000041
 20
3.965630798276151
 30
0.0000000000000004
 11
4.533100000000032
 21
3.883715593847256
 31
0.0000000000000004
210
0.0
220
1.0
230
0.0
  0
LINE
  5
CE
100
AcDbEntity
  8
USP-GEO
100
AcDbLine
 10
4.533100000000032
 20
3.883715593847256
 30
0.0000000000000004
 11
4.433100000000038
 21
3.965630798276151
 31
0.0000000000000004
210
0.0
220
1.0
230
0.0
  0
LINE
  5
CF
100
AcDbEntity
  8
USP-GEO
100
AcDbLine
 10
4.433100000000038
 20
3.977976469825335
 30
0.0000000000000004
 11
4.433100000000038
 21
4.070263488324528
 31
0.0000000000000004
210
0.0
220
1.0
230
0.0
  0
LINE
  5
D0
100
AcDbEntity
  8
USP-GEO
100
AcDbLine
 10
4.633100000000027
 20
4.264072527836731
 30
0.0000000000000004
 11
4.633100000000027
 21
3.977976469825307
 31
0.0000000000000004
210
0.0
220
1.0
230
0.0
  0
LINE
  5
D1
100
AcDbEntity
  8
USP-GEO
100
AcDbLine
 10
4.633100000000013
 20
4.264072527836731
 30
0.0000000000000004
 11
4.633100000000013
 21
4.318906435151916
 31
0.0000000000000004
210
0.0
220
1.0
230
0.0
  0
LINE
  5
D2
100
AcDbEntity
  8
USP-GEO
100
AcDbLine
 10
4.220600000000032
 20
3.318584034162398
 30
0.0000000000000004
 11
4.220600000000032
 21
3.547799999999995
 31
0.0000000000000004
210
0.0
220
1.0
230
0.0
  0
LINE
  5
D3
100
AcDbEntity
  8
USP-GEO
100
AcDbLine
 10
4.220600000000047
 20
3.547799999999995
 30
0.0000000000000004
 11
4.220600000000047
 21
3.788747204913221
 31
0.0000000000000004
210
0.0
220
1.0
230
0.0
  0
LINE
  5
D4
100
AcDbEntity
  8
USP-GEO
100
AcDbLine
 10
4.220600000000032
 20
3.788747204913235
 30
0.0000000000000004
 11
4.220600000000032
 21
4.089931211054931
 31
0.0000000000000004
210
0.0
220
1.0
230
0.0
  0
LINE
  5
D5
100
AcDbEntity
  8
USP-GEO
100
AcDbLine
 10
4.220600000000061
 20
4.089931211054931
 30
0.0000000000000004
 11
4.220600000000061
 21
4.339931211054931
 31
0.0000000000000004
210
0.0
220
1.0
230
0.0
  0
LINE
  5
D6
100
AcDbEntity
  8
USP-GEO
100
AcDbLine
 10
4.172800000000037
 20
4.339931211054931
 30
0.0000000000000004
 11
4.172800000000037
 21
4.089931211054931
 31
0.0000000000000004
210
0.0
220
1.0
230
0.0
  0
LINE
  5
D7
100
AcDbEntity
  8
USP-GEO
100
AcDbLine
 10
4.172800000000037
 20
4.089931211054931
 30
0.0000000000000004
 11
4.172800000000037
 21
3.788747204913235
 31
0.0000000000000004
210
0.0
220
1.0
230
0.0
  0
LINE
  5
D8
100
AcDbEntity
  8
USP-GEO
100
AcDbLine
 10
4.172800000000037
 20
3.788747204913249
 30
0.0000000000000004
 11
4.172800000000037
 21
3.547799999999995
 31
0.0000000000000004
210
0.0
220
1.0
230
0.0
  0
LINE
  5
D9
100
AcDbEntity
  8
USP-GEO
100
AcDbLine
 10
4.172800000000052
 20
3.547799999999995
 30
0.0000000000000004
 11
4.172800000000052
 21
3.318584034162398
 31
0.0000000000000004
210
0.0
220
1.0
230
0.0
  0
LINE
  5
DA
100
AcDbEntity
  8
USP-GEO
100
AcDbLine
 10
4.220600000000047
 20
4.641115217196642
 30
0.0000000000000004
 11
4.220600000000047
 21
4.882062422109953
 31
0.0000000000000004
210
0.0
220
1.0
230
0.0
  0
LINE
  5
DB
100
AcDbEntity
  8
USP-GEO
100
AcDbLine
 10
4.172800000000037
 20
4.882062422109967
 30
0.0000000000000004
 11
4.172800000000037
 21
4.641115217196642
 31
0.0000000000000004
210
0.0
220
1.0
230
0.0
  0
LINE
  5
DC
100
AcDbEntity
  8
USP-GEO
100
AcDbLine
 10
4.433100000000052
 20
4.605002493163325
 30
0.0000000000000004
 11
4.633100000000027
 21
4.605002493163325
 31
0.0000000000000004
210
0.0
220
1.0
230
0.0
  0
LINE
  5
DD
100
AcDbEntity
  8
USP-GEO
100
AcDbLine
 10
4.220600000000032
 20
4.882062422109953
 30
0.0000000000000004
 11
4.220600000000032
 21
5.297799999999995
 31
0.0000000000000004
210
0.0
220
1.0
230
0.0
  0
LINE
  5
DE
100
AcDbEntity
  8
USP-GEO
100
AcDbLine
 10
4.172800000000052
 20
5.297799999999995
 30
0.0000000000000004
 11
4.172800000000052
 21
4.882062422109967
 31
0.0000000000000004
210
0.0
220
1.0
230
0.0
  0
LINE
  5
DF
100
AcDbEntity
  8
USP-GEO
100
AcDbLine
 10
4.220600000000032
 20
5.297799999999995
 30
0.0000000000000004
 11
4.172800000000052
 21
5.297799999999995
 31
0.0000000000000004
210
0.0
220
1.0
230
0.0
  0
ARC
  5
E0
100
AcDbEntity
  8
USP-GEO
100
AcDbCircle
 10
4.220600000000047
 20
3.318584034162412
 30
0.0000000000000004
 40
0.9999999999999978
100
AcDbArc
 50
324.3707735512987
 51
359.9999999999992
  0
LINE
  5
E1
100
AcDbEntity
  8
USP-GEO
100
AcDbLine
 10
5.220600000000032
 20
3.547799999999995
 30
0.0000000000000005
 11
5.220600000000032
 21
3.318584034162398
 31
0.0000000000000005
210
0.0
220
1.0
230
0.0
  0
ARC
  5
E2
100
AcDbEntity
  8
USP-GEO
100
AcDbCircle
 10
4.970600000000061
 20
3.547799999999995
 30
0.0000000000000005
 40
0.2499999999999961
100
AcDbArc
 50
0.0
 51
74.53399004658037
  0
ARC
  5
E3
100
AcDbEntity
  8
USP-GEO
100
AcDbCircle
 10
4.970600000000089
 20
4.882062422109953
 30
0.0000000000000005
 40
0.2499999999999579
100
AcDbArc
 50
285.4660099534052
 51
359.9999999999821
  0
LINE
  5
E4
100
AcDbEntity
  8
USP-GEO
100
AcDbLine
 10
5.220600000000032
 20
5.297799999999995
 30
0.0000000000000005
 11
5.220600000000032
 21
4.882062422109868
 31
0.0000000000000005
210
0.0
220
1.0
230
0.0
  0
ENDBLK
  5
E6
100
AcDbEntity
  8
0
100
AcDbBlockEnd
  0
BLOCK
  5
12B
100
AcDbEntity
  8
0
100
AcDbBlockBegin
  2
JUS26-2_S
 70
     0
 10
0.0
 20
0.0
 30
0.0
  3
JUS26-2_S
  1

  0
LINE
  5
E9
100
AcDbEntity
  8
USP-GEO
100
AcDbLine
 10
2.297800000000009
 20
0.0
 30
0.0000000000000004
 11
0.2978000000000236
 21
0.0
 31
0.0
210
0.0
220
1.0
230
0.0
  0
LINE
  5
EA
100
AcDbEntity
  8
USP-GEO
100
AcDbLine
 10
1.047800000000009
 20
5.297799999999995
 30
0.0000000000000001
 11
0.0477999999999952
 21
5.297799999999995
 31
0.0
210
0.0
220
1.0
230
0.0
  0
ELLIPSE
  5
EB
100
AcDbEntity
  8
USP-GEO
100
AcDbEllipse
 10
1.343501891765512
 20
2.17279999999998
 30
0.0000000000000002
 11
0.0000000000000817
 21
0.0820000000000969
 31
0.0
210
-0.0000000000000002
220
0.0
230
1.0
 40
0.7071067811857427
 41
0.988647973758009
 42
1.5707963267956
  0
ELLIPSE
  5
EC
100
AcDbEntity
  8
USP-GEO
100
AcDbEllipse
 10
1.343501891765498
 20
2.297799999999995
 30
0.0000000000000002
 11
0.0
 21
-0.0820000000000036
 31
0.0
210
-0.0000000000000002
220
0.0
230
1.0
 40
0.7071067811865474
 41
0.0
 42
6.283185307179586
  0
ELLIPSE
  5
ED
100
AcDbEntity
  8
USP-GEO
100
AcDbEllipse
 10
1.308062685551092
 20
2.297799999999995
 30
0.0000000000000002
 11
0.0
 21
0.0820000000000005
 31
0.0
210
-0.0000000000000002
220
0.0
230
1.0
 40
0.7071067811865744
 41
-2.831022822131811
 42
-0.3105698314579814
  0
ELLIPSE
  5
EE
100
AcDbEntity
  8
USP-GEO
100
AcDbEllipse
 10
1.343501891765498
 20
4.46493121105496
 30
0.0000000000000002
 11
0.0
 21
-0.0820000000000036
 31
0.0
210
-0.0000000000000002
220
0.0
230
1.0
 40
0.7071067811865474
 41
0.0
 42
6.283185307179586
  0
ELLIPSE
  5
EF
100
AcDbEntity
  8
USP-GEO
100
AcDbEllipse
 10
1.308062685551092
 20
4.464931211054945
 30
0.0000000000000002
 11
0.000000000000003
 21
0.082000000000008
 31
0.0
210
-0.0000000000000002
220
0.0
230
1.0
 40
0.7071067811865098
 41
-2.831022822131501
 42
-0.3105698314576716
  0
LINE
  5
F0
100
AcDbEntity
  8
USP-GEO
100
AcDbLine
 10
0.0478000000000094
 20
1.601956806832475
 30
0.0
 11
0.0478000000000094
 21
2.736046378881596
 31
0.0
210
0.0
220
1.0
230
0.0
  0
LINE
  5
F1
100
AcDbEntity
  8
USP-GEO
100
AcDbLine
 10
0.0
 20
1.601956806832475
 30
-0.0000000000000001
 11
0.0
 21
2.736046378881582
 31
-0.0000000000000001
210
0.0
220
1.0
230
0.0
  0
LINE
  5
F2
100
AcDbEntity
  8
USP-GEO
100
AcDbLine
 10
0.2978000000000236
 20
0.0
 30
0.0
 11
0.2978000000000236
 21
1.172799999999995
 31
0.0
210
0.0
220
1.0
230
0.0
  0
LINE
  5
F3
100
AcDbEntity
  8
USP-GEO
100
AcDbLine
 10
0.2510009289133421
 20
1.318434413820199
 30
0.0
 11
0.0478000000000094
 21
1.601956806832475
 31
0.0
210
0.0
220
1.0
230
0.0
  0
LINE
  5
F4
100
AcDbEntity
  8
USP-GEO
100
AcDbLine
 10
0.0478000000000094
 20
1.601956806832475
 30
0.0
 11
0.0000000000000142
 21
1.601956806832475
 31
-0.0000000000000001
210
0.0
220
1.0
230
0.0
  0
ARC
  5
F5
100
AcDbEntity
  8
USP-GEO
100
AcDbCircle
 10
0.0478000000000094
 20
1.172799999999995
 30
0.0
 40
0.249999999999998
100
AcDbArc
 50
0.0
 51
35.62922644869827
  0
LINE
  5
F6
100
AcDbEntity
  8
USP-GEO
100
AcDbLine
 10
0.1897735911288834
 20
4.514072527836759
 30
0.0
 11
0.0477999999999952
 21
4.311313226656011
 31
0.0
210
0.0
220
1.0
230
0.0
  0
LINE
  5
F7
100
AcDbEntity
  8
USP-GEO
100
AcDbLine
 10
0.0478000000000094
 20
4.227976469825335
 30
0.0
 11
0.24812661647168
 21
4.514072527836759
 31
0.0
210
0.0
220
1.0
230
0.0
  0
LINE
  5
F8
100
AcDbEntity
  8
USP-GEO
100
AcDbLine
 10
0.0478000000000094
 20
4.339931211054945
 30
0.0
 11
0.0478000000000094
 21
4.589931211054945
 31
0.0
210
0.0
220
1.0
230
0.0
  0
LINE
  5
F9
100
AcDbEntity
  8
USP-GEO
100
AcDbLine
 10
0.0
 20
4.339931211054945
 30
-0.0000000000000001
 11
0.0
 21
4.589931211054945
 31
-0.0000000000000001
210
0.0
220
1.0
230
0.0
  0
LINE
  5
FA
100
AcDbEntity
  8
USP-GEO
100
AcDbLine
 10
0.0478000000000094
 20
2.736046378881596
 30
0.0
 11
0.0478000000000094
 21
3.318584034162412
 31
0.0
210
0.0
220
1.0
230
0.0
  0
LINE
  5
FB
100
AcDbEntity
  8
USP-GEO
100
AcDbLine
 10
-0.0000000000000142
 20
2.736046378881582
 30
-0.0000000000000001
 11
-0.0000000000000142
 21
3.318584034162412
 31
-0.0000000000000001
210
0.0
220
1.0
230
0.0
  0
LINE
  5
FC
100
AcDbEntity
  8
USP-GEO
100
AcDbLine
 10
-0.0182021759181197
 20
3.883715593847256
 30
-0.0000000000000001
 11
-0.0573576436351004
 21
3.91113254750482
 31
-0.0000000000000001
210
0.0
220
1.0
230
0.0
  0
LINE
  5
FD
100
AcDbEntity
  8
USP-GEO
100
AcDbLine
 10
0.0000000000000142
 20
3.993047751933744
 30
-0.0000000000000001
 11
-0.0573576436350862
 21
3.911132547504848
 31
-0.0000000000000001
210
0.0
220
1.0
230
0.0
  0
LINE
  5
FE
100
AcDbEntity
  8
USP-GEO
100
AcDbLine
 10
-0.0182021759181197
 20
3.883715593847256
 30
-0.0000000000000001
 11
0.0000000000000142
 21
3.909710995103097
 31
-0.0000000000000001
210
0.0
220
1.0
230
0.0
  0
LINE
  5
FF
100
AcDbEntity
  8
USP-GEO
100
AcDbLine
 10
-0.0182021759180913
 20
4.133715593847284
 30
-0.0000000000000001
 11
-0.0573576436350862
 21
4.161132547504848
 31
-0.0000000000000001
210
0.0
220
1.0
230
0.0
  0
LINE
  5
100
100
AcDbEntity
  8
USP-GEO
100
AcDbLine
 10
0.0000000000000142
 20
4.243047751933744
 30
-0.0000000000000001
 11
-0.0573576436350862
 21
4.161132547504848
 31
-0.0000000000000001
210
0.0
220
1.0
230
0.0
  0
LINE
  5
101
100
AcDbEntity
  8
USP-GEO
100
AcDbLine
 10
-0.0182021759180913
 20
4.133715593847284
 30
-0.0000000000000001
 11
0.0
 21
4.159710995103068
 31
-0.0000000000000001
210
0.0
220
1.0
230
0.0
  0
LINE
  5
102
100
AcDbEntity
  8
USP-GEO
100
AcDbLine
 10
0.0478000000000094
 20
3.318584034162412
 30
0.0
 11
0.0478000000000094
 21
3.797800000000009
 31
0.0
210
0.0
220
1.0
230
0.0
  0
LINE
  5
103
100
AcDbEntity
  8
USP-GEO
100
AcDbLine
 10
0.0478000000000094
 20
3.797800000000009
 30
0.0
 11
0.0478000000000094
 21
4.038747204913363
 31
0.0
210
0.0
220
1.0
230
0.0
  0
LINE
  5
104
100
AcDbEntity
  8
USP-GEO
100
AcDbLine
 10
0.0478000000000094
 20
4.038747204913363
 30
0.0
 11
0.0478000000000094
 21
4.339931211054945
 31
0.0
210
0.0
220
1.0
230
0.0
  0
LINE
  5
105
100
AcDbEntity
  8
USP-GEO
100
AcDbLine
 10
0.0
 20
4.038747204913363
 30
-0.0000000000000001
 11
0.0
 21
4.339931211054945
 31
-0.0000000000000001
210
0.0
220
1.0
230
0.0
  0
LINE
  5
106
100
AcDbEntity
  8
USP-GEO
100
AcDbLine
 10
0.0000000000000142
 20
3.797800000000009
 30
-0.0000000000000001
 11
0.0000000000000142
 21
4.038747204913363
 31
-0.0000000000000001
210
0.0
220
1.0
230
0.0
  0
LINE
  5
107
100
AcDbEntity
  8
USP-GEO
100
AcDbLine
 10
-0.0000000000000142
 20
3.318584034162412
 30
-0.0000000000000001
 11
-0.0000000000000142
 21
3.797800000000009
 31
-0.0000000000000001
210
0.0
220
1.0
230
0.0
  0
CIRCLE
  5
108
100
AcDbEntity
  8
USP-GEO
100
AcDbCircle
 10
0.2353000000000094
 20
4.985300000000009
 30
0.0
 40
0.1535000000000001
  0
LINE
  5
109
100
AcDbEntity
  8
USP-GEO
100
AcDbLine
 10
0.24812661647168
 20
4.568906435151916
 30
0.0
 11
0.0478000000000094
 21
4.855002493163354
 31
0.0
210
0.0
220
1.0
230
0.0
  0
LINE
  5
10A
100
AcDbEntity
  8
USP-GEO
100
AcDbLine
 10
0.0478000000000094
 20
4.771665736332664
 30
0.0
 11
0.1897735911288976
 21
4.56890643515193
 31
0.0
210
0.0
220
1.0
230
0.0
  0
LINE
  5
10B
100
AcDbEntity
  8
USP-GEO
100
AcDbLine
 10
0.0478000000000094
 20
4.589931211054945
 30
0.0
 11
0.0478000000000094
 21
4.891115217196627
 31
0.0
210
0.0
220
1.0
230
0.0
  0
LINE
  5
10C
100
AcDbEntity
  8
USP-GEO
100
AcDbLine
 10
0.0000000000000142
 20
4.589931211054945
 30
-0.0000000000000001
 11
0.0000000000000142
 21
4.891115217196627
 31
-0.0000000000000001
210
0.0
220
1.0
230
0.0
  0
LINE
  5
10D
100
AcDbEntity
  8
USP-GEO
100
AcDbLine
 10
0.0477999999999952
 20
4.891115217196627
 30
0.0
 11
0.0477999999999952
 21
5.132062422109882
 31
0.0
210
0.0
220
1.0
230
0.0
  0
LINE
  5
10E
100
AcDbEntity
  8
USP-GEO
100
AcDbLine
 10
0.0478000000000094
 20
5.132062422109882
 30
0.0
 11
0.0478000000000094
 21
5.297799999999995
 31
0.0
210
0.0
220
1.0
230
0.0
  0
LINE
  5
10F
100
AcDbEntity
  8
USP-GEO
100
AcDbLine
 10
0.0478000000000094
 20
5.297799999999995
 30
0.0
 11
-0.0000000000000142
 21
5.297799999999995
 31
-0.0000000000000001
210
0.0
220
1.0
230
0.0
  0
LINE
  5
110
100
AcDbEntity
  8
USP-GEO
100
AcDbLine
 10
-0.0000000000000142
 20
5.132062422109882
 30
-0.0000000000000001
 11
-0.0000000000000142
 21
5.297799999999995
 31
-0.0000000000000001
210
0.0
220
1.0
230
0.0
  0
LINE
  5
111
100
AcDbEntity
  8
USP-GEO
100
AcDbLine
 10
0.0000000000000142
 20
4.891115217196642
 30
-0.0000000000000001
 11
0.0000000000000142
 21
5.132062422109882
 31
-0.0000000000000001
210
0.0
220
1.0
230
0.0
  0
ARC
  5
112
100
AcDbEntity
  8
USP-GEO
100
AcDbCircle
 10
0.1506181234118884
 20
4.541489481494352
 30
0.0
 40
0.0478
100
AcDbArc
 50
324.9999999999792
 51
34.99999999999623
  0
ARC
  5
113
100
AcDbEntity
  8
USP-GEO
100
AcDbCircle
 10
0.208971148754685
 20
4.541489481494352
 30
0.0
 40
0.0478
100
AcDbArc
 50
324.9999999999843
 51
35.0000000000091
  0
TEXT
  5
114
100
AcDbEntity
  8
USP-TXT
100
AcDbText
 10
-1.035533333333323
 20
-0.7595444216453302
 30
0.0000000000000002
 40
0.25
  1
JUS26-2 - SIDE VIEW
 72
     1
 11
1.297800000000009
 21
-0.7595444216453302
 31
0.0000000000000002
100
AcDbText
  0
CIRCLE
  5
115
100
AcDbEntity
  8
USP-GEO
100
AcDbCircle
 10
1.141065679589914
 20
2.297799999999995
 30
0.0000000000000002
 40
0.293938769133981
  0
CIRCLE
  5
116
100
AcDbEntity
  8
USP-GEO
100
AcDbCircle
 10
1.141065679589914
 20
4.464931211054945
 30
0.0000000000000002
 40
0.293938769133981
  0
LINE
  5
117
100
AcDbEntity
  8
USP-HID
100
AcDbLine
 10
0.2978000000000236
 20
0.0478000000000094
 30
0.0000000000000002
 11
2.297800000000009
 21
0.0477999999999952
 31
0.0000000000000002
  0
LINE
  5
11A
100
AcDbEntity
  8
USP-GEO
100
AcDbLine
 10
1.234996284346649
 20
2.736046378881596
 30
0.0000000000000002
 11
2.251000928913356
 21
1.318434413820199
 31
0.0000000000000004
210
0.0
220
1.0
230
0.0
  0
LINE
  5
11B
100
AcDbEntity
  8
USP-GEO
100
AcDbLine
 10
2.297800000000009
 20
1.172799999999995
 30
0.0000000000000004
 11
2.297800000000009
 21
0.0
 31
0.0000000000000004
210
0.0
220
1.0
230
0.0
  0
ARC
  5
11C
100
AcDbEntity
  8
USP-GEO
100
AcDbCircle
 10
1.141065679589914
 20
2.17279999999998
 30
0.0000000000000002
 40
0.2500000000000001
100
AcDbArc
 50
26.30903480975608
 51
48.67096500962813
  0
ARC
  5
11D
100
AcDbEntity
  8
USP-GEO
100
AcDbCircle
 10
2.047800000000009
 20
1.172799999999995
 30
0.0000000000000003
 40
0.249999999999998
100
AcDbArc
 50
0.0
 51
35.62922644869827
  0
LINE
  5
11E
100
AcDbEntity
  8
USP-GEO
100
AcDbLine
 10
1.460300000000003
 20
4.589931211054945
 30
0.0000000000000002
 11
1.460300000000003
 21
4.339931211054945
 31
0.0000000000000002
210
0.0
220
1.0
230
0.0
  0
ARC
  5
11F
100
AcDbEntity
  8
USP-GEO
100
AcDbCircle
 10
2.047800000000009
 20
3.318584034162427
 30
0.0000000000000003
 40
0.9999999999999978
100
AcDbArc
 50
180.0000000000008
 51
215.6292264487012
  0
ARC
  5
120
100
AcDbEntity
  8
USP-GEO
100
AcDbCircle
 10
1.147800000000003
 20
4.339931211054945
 30
0.0000000000000002
 40
0.3125000000000059
100
AcDbArc
 50
285.4660099534204
 51
0.0
  0
ARC
  5
121
100
AcDbEntity
  8
USP-GEO
100
AcDbCircle
 10
1.141065679589914
 20
4.214931211054931
 30
0.0000000000000002
 40
0.2500000000000001
100
AcDbArc
 50
263.6191508634881
 51
338.7772229973471
  0
LINE
  5
122
100
AcDbEntity
  8
USP-GEO
100
AcDbLine
 10
1.460300000000003
 20
4.339931211054931
 30
0.0000000000000002
 11
1.460300000000003
 21
4.089931211054931
 31
0.0000000000000002
210
0.0
220
1.0
230
0.0
  0
ARC
  5
123
100
AcDbEntity
  8
USP-GEO
100
AcDbCircle
 10
1.147800000000003
 20
4.089931211054931
 30
0.0000000000000002
 40
0.3125000000000058
100
AcDbArc
 50
285.4660099534204
 51
0.0
  0
LINE
  5
124
100
AcDbEntity
  8
USP-GEO
100
AcDbLine
 10
1.047800000000009
 20
3.797799999999881
 30
0.0000000000000001
 11
1.047800000000009
 21
3.318584034162412
 31
0.0000000000000001
210
0.0
220
1.0
230
0.0
  0
ARC
  5
125
100
AcDbEntity
  8
USP-GEO
100
AcDbCircle
 10
1.297800000000009
 20
3.797799999999881
 30
0.0000000000000002
 40
0.250000000000007
100
AcDbArc
 50
105.4660099534214
 51
180.0
  0
ARC
  5
126
100
AcDbEntity
  8
USP-GEO
100
AcDbCircle
 10
1.297799999999938
 20
3.547799999999938
 30
0.0000000000000002
 40
0.2499999999999324
100
AcDbArc
 50
105.4660099534085
 51
179.9999999999886
  0
ARC
  5
127
100
AcDbEntity
  8
USP-GEO
100
AcDbCircle
 10
1.141065679589914
 20
4.214931211054931
 30
0.0000000000000002
 40
0.2500000000000001
100
AcDbArc
 50
44.68846250694898
 51
49.0705520707714
  0
ARC
  5
128
100
AcDbEntity
  8
USP-GEO
100
AcDbCircle
 10
1.147800000000003
 20
4.589931211054945
 30
0.0000000000000002
 40
0.3125000000000012
100
AcDbArc
 50
0.0
 51
74.53399004657857
  0
LINE
  5
129
100
AcDbEntity
  8
USP-GEO
100
AcDbLine
 10
1.047800000000009
 20
5.297799999999995
 30
0.0000000000000001
 11
1.047800000000009
 21
5.132062422109981
 31
0.0000000000000001
210
0.0
220
1.0
230
0.0
  0
ARC
  5
12A
100
AcDbEntity
  8
USP-GEO
100
AcDbCircle
 10
1.297800000000009
 20
5.132062422109981
 30
0.0000000000000002
 40
0.2499999999999977
100
AcDbArc
 50
180.0000000000032
 51
254.533990046577
  0
ENDBLK
  5
12C
100
AcDbEntity
  8
0
100
AcDbBlockEnd
  0
ENDSEC
  0
SECTION
  2
ENTITIES
  0
INSERT
  5
3
100
AcDbEntity
  8
USP
100
AcDbBlockReference
  2
JUS26-2_T
 10
5.371621733910079
 20
7.688971688285047
 30
0.0000000000000113
  0
INSERT
  5
5E
100
AcDbEntity
  8
USP
100
AcDbBlockReference
  2
JUS26-2_F
 10
5.371621733910065
 20
0.7598510441119793
 30
0.0000000000000111
  0
INSERT
  5
E7
100
AcDbEntity
  8
USP
100
AcDbBlockReference
  2
JUS26-2_S
 10
1.035899516331572
 20
0.7598510441119793
 30
0.0000000000000113
  0
ENDSEC
  0
SECTION
  2
OBJECTS
  0
DICTIONARY
  5
148
102
{ACAD_XDICTIONARY
360
149
102
}
100
AcDbDictionary
  3
ACAD_GROUP
350
145
  3
ACAD_MLINESTYLE
350
146
  0
DICTIONARY
  5
13A
100
AcDbDictionary
280
     1
  0
DICTIONARY
  5
13C
100
AcDbDictionary
280
     1
  0
DICTIONARY
  5
6
100
AcDbDictionary
280
     1
  0
DICTIONARY
  5
B
100
AcDbDictionary
280
     1
  0
DICTIONARY
  5
14D
100
AcDbDictionary
280
     1
  0
DICTIONARY
  5
12D
100
AcDbDictionary
280
     1
  3
ACAD_LAYOUTSELFREF
360
12E
  0
DICTIONARY
  5
132
100
AcDbDictionary
280
     1
  3
ACAD_LAYOUTSELFREF
360
133
  0
DICTIONARY
  5
149
100
AcDbDictionary
280
     1
  3
ACAD_XREC_ROUNDTRIP
360
14A
  0
DICTIONARY
  5
145
102
{ACAD_REACTORS
330
148
102
}
100
AcDbDictionary
  0
DICTIONARY
  5
146
102
{ACAD_XDICTIONARY
360
147
102
}
102
{ACAD_REACTORS
330
148
102
}
100
AcDbDictionary
  3
STANDARD
350
14B
  0
XRECORD
  5
12E
102
{ACAD_REACTORS
330
12D
102
}
100
AcDbXrecord
340
2
  0
XRECORD
  5
133
102
{ACAD_REACTORS
330
132
102
}
100
AcDbXrecord
340
133
  0
XRECORD
  5
14A
102
{ACAD_REACTORS
330
149
102
}
100
AcDbXrecord
102
EXTNAMES
  1
ACDBVARIABLEDICTIONARY
  2
AcDbVariableDictionary
  0
DICTIONARY
  5
147
100
AcDbDictionary
280
     1
  0
MLINESTYLE
  5
14B
102
{ACAD_REACTORS
330
146
102
}
100
AcDbMlineStyle
  2
STANDARD
 70
     0
  3

 62
   256
 51
90.0
 52
90.0
 71
     2
 49
0.5
 62
   256
  6
BYLAYER
 49
-0.5
 62
   256
  6
BYLAYER
  0
ENDSEC
  0
EOF
