  0
SECTION
  2
HEADER
  9
$ACADVER
  1
AC1015
  9
$ACADMAINTVER
 70
    20
  9
$DWGCODEPAGE
  3
ANSI_1252
  9
$INSBASE
 10
0.0
 20
0.0
 30
0.0
  9
$EXTMIN
 10
0.0003661829982491
 20
0.0002816960736176
 30
0.0000000000000016
  9
$EXTMAX
 10
9.266915511397039
 20
9.24760705127904
 30
0.0000000000000022
  9
$LIMMIN
 10
0.0
 20
0.0
  9
$LIMMAX
 10
12.0
 20
9.0
  9
$ORTHOMODE
 70
     0
  9
$REGENMODE
 70
     1
  9
$FILLMODE
 70
     1
  9
$QTEXTMODE
 70
     0
  9
$MIRRTEXT
 70
     1
  9
$LTSCALE
 40
1.0
  9
$ATTMODE
 70
     1
  9
$TEXTSIZE
 40
0.25
  9
$TRACEWID
 40
0.05
  9
$TEXTSTYLE
  7
STANDARD
  9
$CLAYER
  8
0
  9
$CELTYPE
  6
BYLAYER
  9
$CECOLOR
 62
   256
  9
$CELTSCALE
 40
1.0
  9
$DISPSILH
 70
     0
  9
$DIMSCALE
 40
1.0
  9
$DIMASZ
 40
0.18
  9
$DIMEXO
 40
0.0625
  9
$DIMDLI
 40
0.38
  9
$DIMRND
 40
0.0
  9
$DIMDLE
 40
0.0
  9
$DIMEXE
 40
0.18
  9
$DIMTP
 40
0.0
  9
$DIMTM
 40
0.0
  9
$DIMTXT
 40
0.18
  9
$DIMCEN
 40
0.09
  9
$DIMTSZ
 40
0.0
  9
$DIMTOL
 70
     0
  9
$DIMLIM
 70
     0
  9
$DIMTIH
 70
     1
  9
$DIMTOH
 70
     1
  9
$DIMSE1
 70
     0
  9
$DIMSE2
 70
     0
  9
$DIMTAD
 70
     0
  9
$DIMZIN
 70
     0
  9
$DIMBLK
  1

  9
$DIMASO
 70
     1
  9
$DIMSHO
 70
     1
  9
$DIMPOST
  1

  9
$DIMAPOST
  1

  9
$DIMALT
 70
     0
  9
$DIMALTD
 70
     2
  9
$DIMALTF
 40
25.4
  9
$DIMLFAC
 40
1.0
  9
$DIMTOFL
 70
     0
  9
$DIMTVP
 40
0.0
  9
$DIMTIX
 70
     0
  9
$DIMSOXD
 70
     0
  9
$DIMSAH
 70
     0
  9
$DIMBLK1
  1

  9
$DIMBLK2
  1

  9
$DIMSTYLE
  2
STANDARD
  9
$DIMCLRD
 70
     0
  9
$DIMCLRE
 70
     0
  9
$DIMCLRT
 70
     0
  9
$DIMTFAC
 40
1.0
  9
$DIMGAP
 40
0.09
  9
$DIMJUST
 70
     0
  9
$DIMSD1
 70
     0
  9
$DIMSD2
 70
     0
  9
$DIMTOLJ
 70
     1
  9
$DIMTZIN
 70
     0
  9
$DIMALTZ
 70
     0
  9
$DIMALTTZ
 70
     0
  9
$DIMUPT
 70
     0
  9
$DIMDEC
 70
     4
  9
$DIMTDEC
 70
     4
  9
$DIMALTU
 70
     2
  9
$DIMALTTD
 70
     2
  9
$DIMTXSTY
  7
STANDARD
  9
$DIMAUNIT
 70
     0
  9
$DIMADEC
 70
     0
  9
$DIMALTRND
 40
0.0
  9
$DIMAZIN
 70
     0
  9
$DIMDSEP
 70
    46
  9
$DIMATFIT
 70
     3
  9
$DIMFRAC
 70
     0
  9
$DIMLDRBLK
  1

  9
$DIMLUNIT
 70
     2
  9
$DIMLWD
 70
    -2
  9
$DIMLWE
 70
    -2
  9
$DIMTMOVE
 70
     0
  9
$LUNITS
 70
     2
  9
$LUPREC
 70
     4
  9
$SKETCHINC
 40
0.1
  9
$FILLETRAD
 40
0.5
  9
$AUNITS
 70
     0
  9
$AUPREC
 70
     0
  9
$MENU
  1
.
  9
$ELEVATION
 40
0.0
  9
$PELEVATION
 40
0.0
  9
$THICKNESS
 40
0.0
  9
$LIMCHECK
 70
     0
  9
$CHAMFERA
 40
0.5
  9
$CHAMFERB
 40
0.5
  9
$CHAMFERC
 40
1.0
  9
$CHAMFERD
 40
0.0
  9
$SKPOLY
 70
     0
  9
$TDCREATE
 40
2451667.537949422
  9
$TDUCREATE
 40
2451667.746282755
  9
$TDUPDATE
 40
2455846.456561921
  9
$TDUUPDATE
 40
2455846.664895255
  9
$TDINDWG
 40
0.1924655556
  9
$TDUSRTIMER
 40
0.1924655556
  9
$USRTIMER
 70
     1
  9
$ANGBASE
 50
0.0
  9
$ANGDIR
 70
     0
  9
$PDMODE
 70
     0
  9
$PDSIZE
 40
0.0
  9
$PLINEWID
 40
0.0
  9
$SPLFRAME
 70
     0
  9
$SPLINETYPE
 70
     6
  9
$SPLINESEGS
 70
     8
  9
$HANDSEED
  5
15D
  9
$SURFTAB1
 70
     6
  9
$SURFTAB2
 70
     6
  9
$SURFTYPE
 70
     6
  9
$SURFU
 70
     6
  9
$SURFV
 70
     6
  9
$UCSBASE
  2

  9
$UCSNAME
  2

  9
$UCSORG
 10
0.0
 20
0.0
 30
0.0
  9
$UCSXDIR
 10
1.0
 20
0.0
 30
0.0
  9
$UCSYDIR
 10
0.0
 20
1.0
 30
0.0
  9
$UCSORTHOREF
  2

  9
$UCSORTHOVIEW
 70
     0
  9
$UCSORGTOP
 10
0.0
 20
0.0
 30
0.0
  9
$UCSORGBOTTOM
 10
0.0
 20
0.0
 30
0.0
  9
$UCSORGLEFT
 10
0.0
 20
0.0
 30
0.0
  9
$UCSORGRIGHT
 10
0.0
 20
0.0
 30
0.0
  9
$UCSORGFRONT
 10
0.0
 20
0.0
 30
0.0
  9
$UCSORGBACK
 10
0.0
 20
0.0
 30
0.0
  9
$PUCSBASE
  2

  9
$PUCSNAME
  2

  9
$PUCSORG
 10
0.0
 20
0.0
 30
0.0
  9
$PUCSXDIR
 10
1.0
 20
0.0
 30
0.0
  9
$PUCSYDIR
 10
0.0
 20
1.0
 30
0.0
  9
$PUCSORTHOREF
  2

  9
$PUCSORTHOVIEW
 70
     0
  9
$PUCSORGTOP
 10
0.0
 20
0.0
 30
0.0
  9
$PUCSORGBOTTOM
 10
0.0
 20
0.0
 30
0.0
  9
$PUCSORGLEFT
 10
0.0
 20
0.0
 30
0.0
  9
$PUCSORGRIGHT
 10
0.0
 20
0.0
 30
0.0
  9
$PUCSORGFRONT
 10
0.0
 20
0.0
 30
0.0
  9
$PUCSORGBACK
 10
0.0
 20
0.0
 30
0.0
  9
$USERI1
 70
     0
  9
$USERI2
 70
     0
  9
$USERI3
 70
     0
  9
$USERI4
 70
     0
  9
$USERI5
 70
     0
  9
$USERR1
 40
0.0
  9
$USERR2
 40
0.0
  9
$USERR3
 40
0.0
  9
$USERR4
 40
0.0
  9
$USERR5
 40
0.0
  9
$WORLDVIEW
 70
     1
  9
$SHADEDGE
 70
     3
  9
$SHADEDIF
 70
    70
  9
$TILEMODE
 70
     1
  9
$MAXACTVP
 70
    48
  9
$PINSBASE
 10
0.0
 20
0.0
 30
0.0
  9
$PLIMCHECK
 70
     0
  9
$PEXTMIN
 10
1.000000000000000E+20
 20
1.000000000000000E+20
 30
1.000000000000000E+20
  9
$PEXTMAX
 10
-1.000000000000000E+20
 20
-1.000000000000000E+20
 30
-1.000000000000000E+20
  9
$PLIMMIN
 10
0.0
 20
0.0
  9
$PLIMMAX
 10
12.0
 20
9.0
  9
$UNITMODE
 70
     0
  9
$VISRETAIN
 70
     1
  9
$PLINEGEN
 70
     0
  9
$PSLTSCALE
 70
     1
  9
$TREEDEPTH
 70
  3020
  9
$CMLSTYLE
  2
STANDARD
  9
$CMLJUST
 70
     0
  9
$CMLSCALE
 40
1.0
  9
$PROXYGRAPHICS
 70
     1
  9
$MEASUREMENT
 70
     0
  9
$CELWEIGHT
370
    -1
  9
$ENDCAPS
280
     0
  9
$JOINSTYLE
280
     0
  9
$LWDISPLAY
290
     0
  9
$INSUNITS
 70
     0
  9
$HYPERLINKBASE
  1

  9
$STYLESHEET
  1

  9
$XEDIT
290
     1
  9
$CEPSNTYPE
380
     0
  9
$PSTYLEMODE
290
     1
  9
$FINGERPRINTGUID
  2
{323CCA62-BB2E-4CE6-ACE9-FCF803EB3B46}
  9
$VERSIONGUID
  2
{00699AD6-30D3-41D7-903F-C69603DEE229}
  9
$EXTNAMES
290
     1
  9
$PSVPSCALE
 40
0.0
  9
$OLESTARTUP
290
     0
  0
ENDSEC
  0
SECTION
  2
CLASSES
  0
CLASS
  1
ACDBDICTIONARYWDFLT
  2
AcDbDictionaryWithDefault
  3
ObjectDBX Classes
 90
        0
280
     1
281
     0
  0
CLASS
  1
ACDBPLACEHOLDER
  2
AcDbPlaceHolder
  3
ObjectDBX Classes
 90
        0
280
     0
281
     0
  0
CLASS
  1
LAYOUT
  2
AcDbLayout
  3
ObjectDBX Classes
 90
        0
280
     0
281
     0
  0
CLASS
  1
DICTIONARYVAR
  2
AcDbDictionaryVar
  3
ObjectDBX Classes
 90
        0
280
     0
281
     0
  0
ENDSEC
  0
SECTION
  2
TABLES
  0
TABLE
  2
VPORT
  5
12A
330
0
100
AcDbSymbolTable
 70
     2
  0
VPORT
  5
155
330
12A
100
AcDbSymbolTableRecord
100
AcDbViewportTableRecord
  2
*Active
 70
     0
 10
0.0
 20
0.0
 11
1.0
 21
1.0
 12
7.821499414318455
 22
4.729374062989903
 13
0.0
 23
0.0
 14
0.5
 24
0.5
 15
0.5
 25
0.5
 16
0.0
 26
0.0
 36
1.0
 17
0.0
 27
0.0
 37
0.0
 40
9.526177031462486
 41
2.1268758526603
 42
50.0
 43
0.0
 44
0.0
 50
0.0
 51
0.0
 71
     0
 72
   100
 73
     1
 74
     3
 75
     0
 76
     0
 77
     0
 78
     0
281
     0
 65
     1
110
0.0
120
0.0
130
0.0
111
1.0
121
0.0
131
0.0
112
0.0
122
1.0
132
0.0
 79
     0
146
0.0
  0
ENDTAB
  0
TABLE
  2
LTYPE
  5
123
330
0
100
AcDbSymbolTable
 70
     2
  0
LTYPE
  5
124
102
{ACAD_XDICTIONARY
360
125
102
}
330
123
100
AcDbSymbolTableRecord
100
AcDbLinetypeTableRecord
  2
BYBLOCK
 70
     0
  3

 72
    65
 73
     0
 40
0.0
  0
LTYPE
  5
126
102
{ACAD_XDICTIONARY
360
127
102
}
330
123
100
AcDbSymbolTableRecord
100
AcDbLinetypeTableRecord
  2
BYLAYER
 70
     0
  3

 72
    65
 73
     0
 40
0.0
  0
LTYPE
  5
5
102
{ACAD_XDICTIONARY
360
6
102
}
330
123
100
AcDbSymbolTableRecord
100
AcDbLinetypeTableRecord
  2
CONTINUOUS
 70
     0
  3
Solid line
 72
    65
 73
     0
 40
0.0
  0
LTYPE
  5
DD
330
123
100
AcDbSymbolTableRecord
100
AcDbLinetypeTableRecord
  2
HIDDEN
 70
     0
  3
Hidden __ __ __ __ __ __ __ __ __ __ __ __ __ _
 72
    65
 73
     2
 40
0.375
 49
0.25
 74
     0
 49
-0.125
 74
     0
  0
ENDTAB
  0
TABLE
  2
LAYER
  5
121
330
0
100
AcDbSymbolTable
 70
     5
  0
LAYER
  5
54
330
121
100
AcDbSymbolTableRecord
100
AcDbLayerTableRecord
  2
0
 70
     0
 62
     7
  6
CONTINUOUS
370
    -3
390
149
  0
LAYER
  5
4
330
121
100
AcDbSymbolTableRecord
100
AcDbLayerTableRecord
  2
USP
 70
     0
 62
     7
  6
CONTINUOUS
370
    -3
390
149
  0
LAYER
  5
DC
330
121
100
AcDbSymbolTableRecord
100
AcDbLayerTableRecord
  2
USP-HID
 70
     0
 62
     7
  6
HIDDEN
370
    -3
390
149
  0
LAYER
  5
D
330
121
100
AcDbSymbolTableRecord
100
AcDbLayerTableRecord
  2
USP-GEO
 70
     0
 62
     7
  6
CONTINUOUS
370
    -3
390
149
  0
LAYER
  5
9
330
121
100
AcDbSymbolTableRecord
100
AcDbLayerTableRecord
  2
USP-TXT
 70
     0
 62
     7
  6
CONTINUOUS
370
    -3
390
149
  0
ENDTAB
  0
TABLE
  2
STYLE
  5
122
330
0
100
AcDbSymbolTable
 70
     1
  0
STYLE
  5
A
102
{ACAD_XDICTIONARY
360
B
102
}
330
122
100
AcDbSymbolTableRecord
100
AcDbTextStyleTableRecord
  2
STANDARD
 70
     0
 40
0.0
 41
1.0
 50
0.0
 71
     0
 42
0.25
  3
txt
  4

  0
ENDTAB
  0
TABLE
  2
VIEW
  5
128
330
0
100
AcDbSymbolTable
 70
     0
  0
ENDTAB
  0
TABLE
  2
UCS
  5
129
330
0
100
AcDbSymbolTable
 70
     0
  0
ENDTAB
  0
TABLE
  2
APPID
  5
12C
330
0
100
AcDbSymbolTable
 70
     1
  0
APPID
  5
12D
330
12C
100
AcDbSymbolTableRecord
100
AcDbRegAppTableRecord
  2
ACAD
 70
     0
  0
ENDTAB
  0
TABLE
  2
DIMSTYLE
  5
12E
330
0
100
AcDbSymbolTable
 70
     1
100
AcDbDimStyleTable
 71
     0
  0
DIMSTYLE
105
137
102
{ACAD_XDICTIONARY
360
138
102
}
330
12E
100
AcDbSymbolTableRecord
100
AcDbDimStyleTableRecord
  2
STANDARD
 70
     0
340
A
  0
ENDTAB
  0
TABLE
  2
BLOCK_RECORD
  5
1
330
0
100
AcDbSymbolTable
 70
     3
  0
BLOCK_RECORD
  5
2
102
{ACAD_XDICTIONARY
360
118
102
}
330
1
100
AcDbSymbolTableRecord
100
AcDbBlockTableRecord
  2
*MODEL_SPACE
340
14E
  0
BLOCK_RECORD
  5
11C
102
{ACAD_XDICTIONARY
360
11D
102
}
330
1
100
AcDbSymbolTableRecord
100
AcDbBlockTableRecord
  2
*PAPER_SPACE
340
14F
  0
BLOCK_RECORD
  5
7
330
1
100
AcDbSymbolTableRecord
100
AcDbBlockTableRecord
  2
JUS24_T
340
0
102
{BLKREFS
331
3
102
}
  0
BLOCK_RECORD
  5
57
330
1
100
AcDbSymbolTableRecord
100
AcDbBlockTableRecord
  2
JUS24_F
340
0
102
{BLKREFS
331
56
102
}
  0
BLOCK_RECORD
  5
D4
330
1
100
AcDbSymbolTableRecord
100
AcDbBlockTableRecord
  2
JUS24_S
340
0
102
{BLKREFS
331
D3
102
}
  0
ENDTAB
  0
ENDSEC
  0
SECTION
  2
BLOCKS
  0
BLOCK
  5
11A
330
2
100
AcDbEntity
  8
0
100
AcDbBlockBegin
  2
*MODEL_SPACE
 70
     0
 10
0.0
 20
0.0
 30
0.0
  3
*MODEL_SPACE
  1

  0
ENDBLK
  5
11B
330
2
100
AcDbEntity
  8
0
100
AcDbBlockEnd
  0
BLOCK
  5
11F
330
11C
100
AcDbEntity
 67
     1
  8
0
100
AcDbBlockBegin
  2
*PAPER_SPACE
 70
     0
 10
0.0
 20
0.0
 30
0.0
  3
*PAPER_SPACE
  1

  0
ENDBLK
  5
120
330
11C
100
AcDbEntity
 67
     1
  8
0
100
AcDbBlockEnd
  0
BLOCK
  5
53
330
7
100
AcDbEntity
  8
0
100
AcDbBlockBegin
  2
JUS24_T
 70
     0
 10
0.0
 20
0.0
 30
0.0
  3
JUS24_T
  1

  0
TEXT
  5
8
330
7
100
AcDbEntity
  8
USP-TXT
100
AcDbText
 10
-0.1709500000000048
 20
-1.499999999999985
 30
0.0
 40
0.25
  1
JUS24 - TOP VIEW
 72
     1
 11
1.829049999999995
 21
-1.499999999999985
 31
0.0
100
AcDbText
  0
LINE
  5
C
330
7
100
AcDbEntity
  8
USP-GEO
100
AcDbLine
 10
0.9677999999999968
 20
1.985964537035741
 30
0.0
 11
0.0
 21
1.985964537035741
 31
0.0
  0
LINE
  5
E
330
7
100
AcDbEntity
  8
USP-GEO
100
AcDbLine
 10
0.0
 20
1.938164537035746
 30
0.0
 11
0.9600000000000079
 21
1.938164537035746
 31
0.0
  0
LINE
  5
F
330
7
100
AcDbEntity
  8
USP-GEO
100
AcDbLine
 10
0.0
 20
1.985964537035741
 30
0.0
 11
0.0
 21
1.938164537035746
 31
0.0
  0
LINE
  5
10
330
7
100
AcDbEntity
  8
USP-GEO
100
AcDbLine
 10
3.65809999999999
 20
1.938164537036215
 30
0.0
 11
2.698099999999982
 21
1.938164537036215
 31
0.0
  0
LINE
  5
11
330
7
100
AcDbEntity
  8
USP-GEO
100
AcDbLine
 10
2.690299999999993
 20
1.98596453703621
 30
0.0
 11
3.65809999999999
 21
1.98596453703621
 31
0.0
  0
LINE
  5
12
330
7
100
AcDbEntity
  8
USP-GEO
100
AcDbLine
 10
2.520299999999991
 20
1.750000000000014
 30
0.0
 11
1.137799999999984
 21
1.750000000000014
 31
0.0
  0
LINE
  5
13
330
7
100
AcDbEntity
  8
USP-GEO
100
AcDbLine
 10
1.137799999999998
 20
0.0000000000000142
 30
0.0
 11
2.520299999999991
 21
0.0000000000000142
 31
0.0
  0
LINE
  5
14
330
7
100
AcDbEntity
  8
USP-GEO
100
AcDbLine
 10
0.9999999999999857
 20
1.004831203702408
 30
0.0
 11
0.9999999999999857
 21
0.7756645370357376
 31
0.0
  0
LINE
  5
15
330
7
100
AcDbEntity
  8
USP-GEO
100
AcDbLine
 10
1.04779999999998
 20
0.7756645370357376
 30
0.0
 11
1.04779999999998
 21
1.004831203702408
 31
0.0
  0
ARC
  5
16
330
7
100
AcDbEntity
  8
USP-GEO
100
AcDbCircle
 10
1.04779999999998
 20
1.088164537035737
 30
0.0
 40
0.25
100
AcDbArc
 50
101.0228231074045
 51
225.5224878140725
  0
LINE
  5
17
330
7
100
AcDbEntity
  8
USP-GEO
100
AcDbLine
 10
1.087799999999987
 20
0.0762571963810643
 30
0.0
 11
1.04779999999998
 21
0.0762571963810643
 31
0.0
  0
LINE
  5
18
330
7
100
AcDbEntity
  8
USP-GEO
100
AcDbLine
 10
0.8726426826944759
 20
0.909783164145125
 30
0.0
 11
0.9808958581675426
 21
0.847283164145125
 31
0.0
  0
ARC
  5
19
330
7
100
AcDbEntity
  8
USP-GEO
100
AcDbCircle
 10
1.04779999999998
 20
1.088164537035737
 30
0.0
 40
0.25
100
AcDbArc
 50
254.4775121859329
 51
258.9771768925963
  0
LINE
  5
1A
330
7
100
AcDbEntity
  8
USP-GEO
100
AcDbLine
 10
1.04779999999998
 20
0.7756645370357376
 30
0.0
 11
0.9999999999999857
 21
0.7756645370357376
 31
0.0
  0
LINE
  5
1B
330
7
100
AcDbEntity
  8
USP-GEO
100
AcDbLine
 10
1.047799999999995
 20
0.0513016220255906
 30
0.0
 11
1.0
 21
0.0513016220255906
 31
0.0
  0
LINE
  5
1C
330
7
100
AcDbEntity
  8
USP-GEO
100
AcDbLine
 10
1.0
 20
0.7756645370357376
 30
0.0
 11
1.0
 21
0.0513016220255906
 31
0.0
  0
LINE
  5
1D
330
7
100
AcDbEntity
  8
USP-GEO
100
AcDbLine
 10
1.047799999999995
 20
0.0513016220255906
 30
0.0
 11
1.047799999999995
 21
0.7756645370357376
 31
0.0
  0
ARC
  5
1E
330
7
100
AcDbEntity
  8
USP-GEO
100
AcDbCircle
 10
1.047800000000279
 20
-0.0000000000004974
 30
0.0
 40
0.089999999999718
100
AcDbArc
 50
0.0000000003208035
 51
57.9194410907618
  0
LINE
  5
1F
330
7
100
AcDbEntity
  8
USP-GEO
100
AcDbLine
 10
1.087799999999987
 20
0.0762571963810643
 30
0.0
 11
1.09559999999999
 21
0.0762571963810643
 31
0.0
  0
ARC
  5
20
330
7
100
AcDbEntity
  8
USP-GEO
100
AcDbCircle
 10
0.9677999999999968
 20
1.905964537035742
 30
0.0
 40
0.0800000000000001
100
AcDbArc
 50
359.9999999999984
 51
90.0
  0
LINE
  5
21
330
7
100
AcDbEntity
  8
USP-GEO
100
AcDbLine
 10
1.04779999999998
 20
1.604695092532722
 30
0.0
 11
1.087799999999987
 21
1.604695092532722
 31
0.0
  0
LINE
  5
22
330
7
100
AcDbEntity
  8
USP-GEO
100
AcDbLine
 10
0.7139999999999987
 20
1.714657219661347
 30
0.0
 11
0.7139999999999987
 21
1.731404044188295
 31
0.0
  0
LINE
  5
23
330
7
100
AcDbEntity
  8
USP-GEO
100
AcDbLine
 10
0.7139999999999987
 20
1.731404044188295
 30
0.0
 11
0.7139999999999987
 21
1.925751506248175
 31
0.0
  0
LINE
  5
24
330
7
100
AcDbEntity
  8
USP-GEO
100
AcDbLine
 10
0.5360000000000014
 20
1.731404044188295
 30
0.0
 11
0.5360000000000014
 21
1.925751506248161
 31
0.0
  0
LINE
  5
25
330
7
100
AcDbEntity
  8
USP-GEO
100
AcDbLine
 10
0.5360000000000014
 20
1.714657219661347
 30
0.0
 11
0.5360000000000014
 21
1.731404044188295
 31
0.0
  0
LINE
  5
26
330
7
100
AcDbEntity
  8
USP-GEO
100
AcDbLine
 10
0.5360000000000014
 20
1.925751506248161
 30
0.0
 11
0.5360000000000014
 21
1.938164537035746
 31
0.0
  0
LINE
  5
27
330
7
100
AcDbEntity
  8
USP-GEO
100
AcDbLine
 10
0.7139999999999845
 20
1.938164537035746
 30
0.0
 11
0.7139999999999845
 21
1.925751506248161
 31
0.0
  0
LINE
  5
28
330
7
100
AcDbEntity
  8
USP-GEO
100
AcDbLine
 10
0.7139999999999987
 20
1.925751506248161
 30
0.0
 11
0.5360000000000014
 21
1.925751506248161
 31
0.0
  0
LINE
  5
29
330
7
100
AcDbEntity
  8
USP-GEO
100
AcDbLine
 10
1.0
 20
1.898164537035739
 30
0.0
 11
1.0
 21
1.188164537035731
 31
0.0
  0
LINE
  5
2A
330
7
100
AcDbEntity
  8
USP-GEO
100
AcDbLine
 10
1.047799999999995
 20
1.188164537035731
 30
0.0
 11
1.0
 21
1.188164537035731
 31
0.0
  0
LINE
  5
2B
330
7
100
AcDbEntity
  8
USP-GEO
100
AcDbLine
 10
0.9999999999999857
 20
1.188164537035746
 30
0.0
 11
0.9999999999999857
 21
1.004831203702408
 31
0.0
  0
ARC
  5
2C
330
7
100
AcDbEntity
  8
USP-GEO
100
AcDbCircle
 10
0.9600000000000079
 20
1.898164537035739
 30
0.0
 40
0.04
100
AcDbArc
 50
0.0000000000048853
 51
90.00000000000488
  0
LINE
  5
2D
330
7
100
AcDbEntity
  8
USP-GEO
100
AcDbLine
 10
1.047799999999995
 20
1.004831203702408
 30
0.0
 11
1.047799999999995
 21
1.188164537035746
 31
0.0
  0
LINE
  5
2E
330
7
100
AcDbEntity
  8
USP-GEO
100
AcDbLine
 10
1.047799999999995
 20
1.188164537035731
 30
0.0
 11
1.047799999999995
 21
1.905964537035742
 31
0.0
  0
LINE
  5
2F
330
7
100
AcDbEntity
  8
USP-GEO
100
AcDbLine
 10
0.5360000000000014
 20
1.714657219661347
 30
0.0
 11
0.7139999999999987
 21
1.714657219661347
 31
0.0
  0
ARC
  5
30
330
7
100
AcDbEntity
  8
USP-GEO
100
AcDbCircle
 10
1.047799999999952
 20
1.749999999999943
 30
0.0
 40
0.0900000000000337
100
AcDbArc
 50
302.0805589093516
 51
0.0000000000455964
  0
LINE
  5
31
330
7
100
AcDbEntity
  8
USP-GEO
100
AcDbLine
 10
1.09559999999999
 20
1.673742803618196
 30
0.0
 11
1.09559999999999
 21
1.604695092532722
 31
0.0
  0
LINE
  5
32
330
7
100
AcDbEntity
  8
USP-GEO
100
AcDbLine
 10
1.09559999999999
 20
1.604695092532722
 30
0.0
 11
1.087799999999987
 21
1.604695092532722
 31
0.0
  0
LINE
  5
33
330
7
100
AcDbEntity
  8
USP-GEO
100
AcDbLine
 10
2.65809999999999
 20
1.004831203702863
 30
0.0
 11
2.65809999999999
 21
0.7756645370362066
 31
0.0
  0
LINE
  5
34
330
7
100
AcDbEntity
  8
USP-GEO
100
AcDbLine
 10
2.610299999999995
 20
0.7756645370362066
 30
0.0
 11
2.610299999999995
 21
1.004831203702877
 31
0.0
  0
ARC
  5
35
330
7
100
AcDbEntity
  8
USP-GEO
100
AcDbCircle
 10
2.610299999999995
 20
1.088164537036206
 30
0.0
 40
0.25
100
AcDbArc
 50
314.4775121859286
 51
78.97717689259626
  0
LINE
  5
36
330
7
100
AcDbEntity
  8
USP-GEO
100
AcDbLine
 10
2.7854573173055
 20
0.909783164145594
 30
0.0
 11
2.677204141832433
 21
0.847283164145594
 31
0.0
  0
ARC
  5
37
330
7
100
AcDbEntity
  8
USP-GEO
100
AcDbCircle
 10
2.610299999999995
 20
1.088164537036206
 30
0.0
 40
0.25
100
AcDbArc
 50
281.0228231074037
 51
285.5224878140679
  0
LINE
  5
38
330
7
100
AcDbEntity
  8
USP-GEO
100
AcDbLine
 10
2.65809999999999
 20
0.7756645370362066
 30
0.0
 11
2.610299999999995
 21
0.7756645370362066
 31
0.0
  0
ARC
  5
39
330
7
100
AcDbEntity
  8
USP-GEO
100
AcDbCircle
 10
2.61029999999998
 20
0.0000000000000142
 30
0.0
 40
0.089999999999998
100
AcDbArc
 50
122.080558909566
 51
180.0000000000032
  0
LINE
  5
3A
330
7
100
AcDbEntity
  8
USP-GEO
100
AcDbLine
 10
2.562499999999687
 20
0.0762571963815333
 30
0.0
 11
2.570299999999988
 21
0.0762571963815333
 31
0.0
  0
LINE
  5
3B
330
7
100
AcDbEntity
  8
USP-GEO
100
AcDbLine
 10
2.61029999999998
 20
0.0513016220260596
 30
0.0
 11
2.65809999999999
 21
0.0513016220260596
 31
0.0
  0
LINE
  5
3C
330
7
100
AcDbEntity
  8
USP-GEO
100
AcDbLine
 10
2.61029999999998
 20
0.0762571963815475
 30
0.0
 11
2.570299999999988
 21
0.0762571963815475
 31
0.0
  0
LINE
  5
3D
330
7
100
AcDbEntity
  8
USP-GEO
100
AcDbLine
 10
2.65809999999999
 20
0.7756645370362066
 30
0.0
 11
2.65809999999999
 21
0.0513016220260596
 31
0.0
  0
LINE
  5
3E
330
7
100
AcDbEntity
  8
USP-GEO
100
AcDbLine
 10
2.61029999999998
 20
0.0513016220260596
 30
0.0
 11
2.61029999999998
 21
0.7756645370362066
 31
0.0
  0
ARC
  5
3F
330
7
100
AcDbEntity
  8
USP-GEO
100
AcDbCircle
 10
2.698099999999982
 20
1.898164537036208
 30
0.0
 40
0.04
100
AcDbArc
 50
90.00000000000245
 51
179.9999999999975
  0
ARC
  5
40
330
7
100
AcDbEntity
  8
USP-GEO
100
AcDbCircle
 10
2.690299999999979
 20
1.905964537036211
 30
0.0
 40
0.0800000000000001
100
AcDbArc
 50
89.99999999999756
 51
179.9999999999975
  0
ARC
  5
41
330
7
100
AcDbEntity
  8
USP-GEO
100
AcDbCircle
 10
2.61029999999998
 20
1.750000000000014
 30
0.0
 40
0.0899999999999981
100
AcDbArc
 50
180.0000000000024
 51
237.9194410906927
  0
LINE
  5
42
330
7
100
AcDbEntity
  8
USP-GEO
100
AcDbLine
 10
2.5625
 20
1.604695092533191
 30
0.0
 11
2.5625
 21
1.673742803618267
 31
0.0
  0
LINE
  5
43
330
7
100
AcDbEntity
  8
USP-GEO
100
AcDbLine
 10
2.65809999999999
 20
1.898164537036208
 30
0.0
 11
2.65809999999999
 21
1.1881645370362
 31
0.0
  0
LINE
  5
44
330
7
100
AcDbEntity
  8
USP-GEO
100
AcDbLine
 10
2.610299999999995
 20
1.188164537036215
 30
0.0
 11
2.65809999999999
 21
1.188164537036215
 31
0.0
  0
LINE
  5
45
330
7
100
AcDbEntity
  8
USP-GEO
100
AcDbLine
 10
2.65809999999999
 20
1.1881645370362
 30
0.0
 11
2.65809999999999
 21
1.004831203702863
 31
0.0
  0
LINE
  5
46
330
7
100
AcDbEntity
  8
USP-GEO
100
AcDbLine
 10
2.610299999999995
 20
1.188164537036215
 30
0.0
 11
2.610299999999995
 21
1.905964537036211
 31
0.0
  0
LINE
  5
47
330
7
100
AcDbEntity
  8
USP-GEO
100
AcDbLine
 10
2.610299999999995
 20
1.004831203702877
 30
0.0
 11
2.610299999999995
 21
1.1881645370362
 31
0.0
  0
LINE
  5
48
330
7
100
AcDbEntity
  8
USP-GEO
100
AcDbLine
 10
2.570299999999988
 20
1.604695092533191
 30
0.0
 11
2.610299999999995
 21
1.604695092533191
 31
0.0
  0
LINE
  5
49
330
7
100
AcDbEntity
  8
USP-GEO
100
AcDbLine
 10
2.570299999999988
 20
1.604695092533191
 30
0.0
 11
2.5625
 21
1.604695092533191
 31
0.0
  0
LINE
  5
4A
330
7
100
AcDbEntity
  8
USP-GEO
100
AcDbLine
 10
3.122099999999988
 20
1.714657219661816
 30
0.0
 11
3.122099999999988
 21
1.731404044188764
 31
0.0
  0
LINE
  5
4B
330
7
100
AcDbEntity
  8
USP-GEO
100
AcDbLine
 10
3.122099999999988
 20
1.731404044188764
 30
0.0
 11
3.122099999999988
 21
1.92575150624863
 31
0.0
  0
LINE
  5
4C
330
7
100
AcDbEntity
  8
USP-GEO
100
AcDbLine
 10
2.944099999999991
 20
1.731404044188764
 30
0.0
 11
2.944099999999991
 21
1.92575150624863
 31
0.0
  0
LINE
  5
4D
330
7
100
AcDbEntity
  8
USP-GEO
100
AcDbLine
 10
2.944099999999991
 20
1.714657219661816
 30
0.0
 11
2.944099999999991
 21
1.731404044188764
 31
0.0
  0
LINE
  5
4E
330
7
100
AcDbEntity
  8
USP-GEO
100
AcDbLine
 10
2.944099999999991
 20
1.92575150624863
 30
0.0
 11
2.944099999999991
 21
1.938164537036215
 31
0.0
  0
LINE
  5
4F
330
7
100
AcDbEntity
  8
USP-GEO
100
AcDbLine
 10
3.122099999999988
 20
1.938164537036215
 30
0.0
 11
3.122099999999988
 21
1.92575150624863
 31
0.0
  0
LINE
  5
50
330
7
100
AcDbEntity
  8
USP-GEO
100
AcDbLine
 10
3.122099999999988
 20
1.92575150624863
 30
0.0
 11
2.944099999999991
 21
1.92575150624863
 31
0.0
  0
LINE
  5
51
330
7
100
AcDbEntity
  8
USP-GEO
100
AcDbLine
 10
2.944099999999991
 20
1.714657219661816
 30
0.0
 11
3.122099999999988
 21
1.714657219661816
 31
0.0
  0
LINE
  5
52
330
7
100
AcDbEntity
  8
USP-GEO
100
AcDbLine
 10
3.65809999999999
 20
1.98596453703621
 30
0.0
 11
3.65809999999999
 21
1.938164537036215
 31
0.0
  0
ENDBLK
  5
55
330
7
100
AcDbEntity
  8
0
100
AcDbBlockEnd
  0
BLOCK
  5
D1
330
57
100
AcDbEntity
  8
0
100
AcDbBlockBegin
  2
JUS24_F
 70
     0
 10
0.0
 20
0.0
 30
0.0
  3
JUS24_F
  1

  0
TEXT
  5
58
330
57
100
AcDbEntity
  8
USP-TXT
100
AcDbText
 10
-0.4209500000000186
 20
-1.5
 30
0.0000000000000001
 40
0.25
  1
JUS24 - FRONT VIEW
 72
     1
 11
1.82904999999998
 21
-1.5
 31
0.0000000000000001
100
AcDbText
  0
LINE
  5
59
330
57
100
AcDbEntity
  8
USP-GEO
100
AcDbLine
 10
0.0
 20
3.186942135623738
 30
-0.0000000000000001
 11
0.9599999999999937
 21
3.186942135623738
 31
0.0
210
0.0
220
1.0
230
0.0
  0
ARC
  5
5A
330
57
100
AcDbEntity
  8
USP-GEO
100
AcDbCircle
 10
0.0999999999999943
 20
2.313582580011001
 30
-0.0000000000000001
 40
0.312500000000006
100
AcDbArc
 50
285.4660099534222
 51
74.5339900465778
  0
CIRCLE
  5
5B
330
57
100
AcDbEntity
  8
USP-GEO
100
AcDbCircle
 10
0.3124999999999858
 20
1.561942135623738
 30
-0.0000000000000001
 40
0.0860000000000001
  0
CIRCLE
  5
5C
330
57
100
AcDbEntity
  8
USP-GEO
100
AcDbCircle
 10
0.3125
 20
2.876082580010987
 30
-0.0000000000000001
 40
0.0860000000000001
  0
LINE
  5
5D
330
57
100
AcDbEntity
  8
USP-GEO
100
AcDbLine
 10
0.9043999999999954
 20
0.4075421356237286
 30
0.0
 11
0.0732233047033475
 21
1.238718830920376
 31
-0.0000000000000001
210
0.0
220
1.0
230
0.0
  0
LINE
  5
5E
330
57
100
AcDbEntity
  8
USP-GEO
100
AcDbLine
 10
0.0
 20
1.415495526217
 30
-0.0000000000000001
 11
0.0
 21
1.771451368955951
 31
-0.0000000000000001
210
0.0
220
1.0
230
0.0
  0
ARC
  5
5F
330
57
100
AcDbEntity
  8
USP-GEO
100
AcDbCircle
 10
0.2499999999999858
 20
1.771451368955951
 30
-0.0000000000000001
 40
0.2499999999999996
100
AcDbArc
 50
105.4660099534178
 51
180.0000000000008
  0
ARC
  5
60
330
57
100
AcDbEntity
  8
USP-GEO
100
AcDbCircle
 10
0.2499999999999858
 20
1.415495526217
 30
-0.0000000000000001
 40
0.2500000000000004
100
AcDbArc
 50
179.9999999999992
 51
224.9999999999983
  0
ARC
  5
61
330
57
100
AcDbEntity
  8
USP-GEO
100
AcDbCircle
 10
0.2499999999999858
 20
2.855713791066037
 30
-0.0000000000000001
 40
0.2500000000000005
100
AcDbArc
 50
179.9999999999992
 51
254.5339900465803
  0
LINE
  5
62
330
57
100
AcDbEntity
  8
USP-GEO
100
AcDbLine
 10
0.0
 20
2.855713791066037
 30
-0.0000000000000001
 11
0.0
 21
3.186942135623738
 31
-0.0000000000000001
210
0.0
220
1.0
230
0.0
  0
ARC
  5
63
330
57
100
AcDbEntity
  8
USP-GEO
100
AcDbCircle
 10
3.408099999999976
 20
2.855713791066037
 30
0.0000000000000003
 40
0.2500000000000005
100
AcDbArc
 50
285.4660099534196
 51
0.0000000000008142
  0
ARC
  5
64
330
57
100
AcDbEntity
  8
USP-GEO
100
AcDbCircle
 10
3.408099999999976
 20
1.771451368955951
 30
0.0000000000000003
 40
0.2499999999999996
100
AcDbArc
 50
0.0
 51
74.53399004657857
  0
LINE
  5
65
330
57
100
AcDbEntity
  8
USP-GEO
100
AcDbLine
 10
3.65809999999999
 20
3.186942135623738
 30
0.0000000000000003
 11
2.698099999999968
 21
3.186942135623738
 31
0.0000000000000002
210
0.0
220
1.0
230
0.0
  0
LINE
  5
66
330
57
100
AcDbEntity
  8
USP-GEO
100
AcDbLine
 10
2.75369999999998
 20
0.4075421356237286
 30
0.0000000000000002
 11
3.584876695296614
 21
1.238718830920376
 31
0.0000000000000003
210
0.0
220
1.0
230
0.0
  0
LINE
  5
67
330
57
100
AcDbEntity
  8
USP-GEO
100
AcDbLine
 10
2.658099999999976
 20
1.238718830920376
 30
0.0000000000000002
 11
2.658099999999976
 21
0.1750792206135827
 31
0.0000000000000002
210
0.0
220
1.0
230
0.0
  0
LINE
  5
68
330
57
100
AcDbEntity
  8
USP-GEO
100
AcDbLine
 10
2.61029999999998
 20
0.1750792206135827
 30
0.0000000000000002
 11
2.61029999999998
 21
1.238718830920376
 31
0.0000000000000002
210
0.0
220
1.0
230
0.0
  0
LINE
  5
69
330
57
100
AcDbEntity
  8
USP-GEO
100
AcDbLine
 10
0.9999999999999857
 20
1.238718830920376
 30
0.0
 11
0.9999999999999857
 21
0.1750792206135827
 31
0.0
210
0.0
220
1.0
230
0.0
  0
LINE
  5
6A
330
57
100
AcDbEntity
  8
USP-GEO
100
AcDbLine
 10
1.047799999999995
 20
0.1750792206135827
 30
0.0
 11
1.047799999999995
 21
1.238718830920376
 31
0.0
210
0.0
220
1.0
230
0.0
  0
LINE
  5
6B
330
57
100
AcDbEntity
  8
USP-GEO
100
AcDbLine
 10
1.137799999999984
 20
0.0477999999999952
 30
0.0
 11
2.520299999999991
 21
0.0477999999999952
 31
0.0000000000000002
210
0.0
220
1.0
230
0.0
  0
LINE
  5
6C
330
57
100
AcDbEntity
  8
USP-GEO
100
AcDbLine
 10
1.137799999999984
 20
0.0
 30
0.0
 11
2.520299999999991
 21
0.0
 31
0.0000000000000002
210
0.0
220
1.0
230
0.0
  0
ARC
  5
6D
330
57
100
AcDbEntity
  8
USP-GEO
100
AcDbCircle
 10
1.079999999999984
 20
0.0799999999999983
 30
0.0
 40
0.0800000000000001
100
AcDbArc
 50
180.0
 51
270.0000000000065
  0
ARC
  5
6E
330
57
100
AcDbEntity
  8
USP-GEO
100
AcDbCircle
 10
1.087799999999987
 20
0.0878000000000015
 30
0.0
 40
0.04
100
AcDbArc
 50
180.0
 51
270.0
  0
LINE
  5
6F
330
57
100
AcDbEntity
  8
USP-GEO
100
AcDbLine
 10
1.047799999999995
 20
0.1750792206135827
 30
0.0
 11
0.9999999999999857
 21
0.1750792206135827
 31
0.0
210
0.0
220
1.0
230
0.0
  0
LINE
  5
70
330
57
100
AcDbEntity
  8
USP-GEO
100
AcDbLine
 10
0.9999999999999857
 20
0.1750792206135827
 30
0.0
 11
0.9999999999999857
 21
0.0956000000000046
 31
0.0
210
0.0
220
1.0
230
0.0
  0
LINE
  5
71
330
57
100
AcDbEntity
  8
USP-GEO
100
AcDbLine
 10
0.9999999999999857
 20
0.0956000000000046
 30
0.0
 11
0.9999999999999857
 21
0.0799999999999983
 31
0.0
210
0.0
220
1.0
230
0.0
  0
LINE
  5
72
330
57
100
AcDbEntity
  8
USP-GEO
100
AcDbLine
 10
1.047799999999995
 20
0.0956000000000046
 30
0.0
 11
1.0
 21
0.0956000000000046
 31
0.0
210
0.0
220
1.0
230
0.0
  0
LINE
  5
73
330
57
100
AcDbEntity
  8
USP-GEO
100
AcDbLine
 10
1.047799999999995
 20
0.0878000000000015
 30
0.0
 11
1.047799999999995
 21
0.0956000000000046
 31
0.0
210
0.0
220
1.0
230
0.0
  0
LINE
  5
74
330
57
100
AcDbEntity
  8
USP-GEO
100
AcDbLine
 10
1.047799999999995
 20
0.0956000000000046
 30
0.0
 11
1.047799999999995
 21
0.1750792206135827
 31
0.0
210
0.0
220
1.0
230
0.0
  0
LINE
  5
75
330
57
100
AcDbEntity
  8
USP-GEO
100
AcDbLine
 10
0.9599999999999937
 20
0.4075421356237286
 30
0.0
 11
0.9043999999999812
 21
0.4075421356237286
 31
0.0
210
0.0
220
1.0
230
0.0
  0
LINE
  5
76
330
57
100
AcDbEntity
  8
USP-GEO
100
AcDbLine
 10
1.0
 20
0.4075421356237286
 30
0.0
 11
0.9599999999999937
 21
0.4075421356237286
 31
0.0
210
0.0
220
1.0
230
0.0
  0
LINE
  5
77
330
57
100
AcDbEntity
  8
USP-GEO
100
AcDbLine
 10
1.137799999999984
 20
0.0477999999999952
 30
0.0
 11
1.137799999999984
 21
0.0
 31
0.0
210
0.0
220
1.0
230
0.0
  0
LINE
  5
78
330
57
100
AcDbEntity
  8
USP-GEO
100
AcDbLine
 10
1.09559999999999
 20
0.0477999999999952
 30
0.0
 11
1.137799999999998
 21
0.0477999999999952
 31
0.0
210
0.0
220
1.0
230
0.0
  0
LINE
  5
79
330
57
100
AcDbEntity
  8
USP-GEO
100
AcDbLine
 10
1.09559999999999
 20
0.0
 30
0.0
 11
1.137799999999998
 21
0.0
 31
0.0
210
0.0
220
1.0
230
0.0
  0
LINE
  5
7A
330
57
100
AcDbEntity
  8
USP-GEO
100
AcDbLine
 10
1.087799999999987
 20
0.0477999999999952
 30
0.0
 11
1.09559999999999
 21
0.0477999999999952
 31
0.0
210
0.0
220
1.0
230
0.0
  0
LINE
  5
7B
330
57
100
AcDbEntity
  8
USP-GEO
100
AcDbLine
 10
1.09559999999999
 20
0.0477999999999952
 30
0.0
 11
1.09559999999999
 21
0.0
 31
0.0
210
0.0
220
1.0
230
0.0
  0
LINE
  5
7C
330
57
100
AcDbEntity
  8
USP-GEO
100
AcDbLine
 10
1.079999999999998
 20
0.0
 30
0.0
 11
1.09559999999999
 21
0.0
 31
0.0
210
0.0
220
1.0
230
0.0
  0
LINE
  5
7D
330
57
100
AcDbEntity
  8
USP-GEO
100
AcDbLine
 10
2.698099999999968
 20
0.4075421356237286
 30
0.0000000000000002
 11
2.658099999999976
 21
0.4075421356237286
 31
0.0000000000000002
210
0.0
220
1.0
230
0.0
  0
LINE
  5
7E
330
57
100
AcDbEntity
  8
USP-GEO
100
AcDbLine
 10
2.520299999999991
 20
0.0477999999999952
 30
0.0000000000000002
 11
2.520299999999991
 21
0.0
 31
0.0000000000000002
210
0.0
220
1.0
230
0.0
  0
LINE
  5
7F
330
57
100
AcDbEntity
  8
USP-GEO
100
AcDbLine
 10
2.520299999999991
 20
0.0477999999999952
 30
0.0000000000000002
 11
2.562499999999687
 21
0.0477999999999952
 31
0.0000000000000002
210
0.0
220
1.0
230
0.0
  0
LINE
  5
80
330
57
100
AcDbEntity
  8
USP-GEO
100
AcDbLine
 10
2.562499999999687
 20
0.0477999999999952
 30
0.0000000000000002
 11
2.562499999999687
 21
0.0
 31
0.0000000000000002
210
0.0
220
1.0
230
0.0
  0
LINE
  5
81
330
57
100
AcDbEntity
  8
USP-GEO
100
AcDbLine
 10
2.562499999999687
 20
0.0477999999999952
 30
0.0000000000000002
 11
2.570299999999988
 21
0.0477999999999952
 31
0.0000000000000002
210
0.0
220
1.0
230
0.0
  0
LINE
  5
82
330
57
100
AcDbEntity
  8
USP-GEO
100
AcDbLine
 10
2.658099999999976
 20
0.0956000000000188
 30
0.0000000000000002
 11
2.658099999999976
 21
0.0799999999999983
 31
0.0000000000000002
210
0.0
220
1.0
230
0.0
  0
LINE
  5
83
330
57
100
AcDbEntity
  8
USP-GEO
100
AcDbLine
 10
2.610299999999995
 20
0.0956000000000188
 30
0.0000000000000002
 11
2.65809999999999
 21
0.0956000000000188
 31
0.0000000000000002
210
0.0
220
1.0
230
0.0
  0
LINE
  5
84
330
57
100
AcDbEntity
  8
USP-GEO
100
AcDbLine
 10
2.61029999999998
 20
0.1750792206135827
 30
0.0000000000000002
 11
2.658099999999976
 21
0.1750792206135827
 31
0.0000000000000002
210
0.0
220
1.0
230
0.0
  0
LINE
  5
85
330
57
100
AcDbEntity
  8
USP-GEO
100
AcDbLine
 10
2.65809999999999
 20
0.1750792206135827
 30
0.0000000000000002
 11
2.65809999999999
 21
0.0956000000000188
 31
0.0000000000000002
210
0.0
220
1.0
230
0.0
  0
LINE
  5
86
330
57
100
AcDbEntity
  8
USP-GEO
100
AcDbLine
 10
2.610299999999995
 20
0.0956000000000188
 30
0.0000000000000002
 11
2.610299999999995
 21
0.1750792206135827
 31
0.0000000000000002
210
0.0
220
1.0
230
0.0
  0
LINE
  5
87
330
57
100
AcDbEntity
  8
USP-GEO
100
AcDbLine
 10
2.610299999999995
 20
0.0878000000000015
 30
0.0000000000000002
 11
2.610299999999995
 21
0.0956000000000188
 31
0.0000000000000002
210
0.0
220
1.0
230
0.0
  0
ARC
  5
88
330
57
100
AcDbEntity
  8
USP-GEO
100
AcDbCircle
 10
2.570299999999988
 20
0.0878000000000015
 30
0.0000000000000002
 40
0.04
100
AcDbArc
 50
270.0
 51
0.0
  0
ARC
  5
89
330
57
100
AcDbEntity
  8
USP-GEO
100
AcDbCircle
 10
2.578099999999992
 20
0.0799999999999983
 30
0.0000000000000002
 40
0.0800000000000001
100
AcDbArc
 50
270.0
 51
0.0000000000024427
  0
LINE
  5
8A
330
57
100
AcDbEntity
  8
USP-GEO
100
AcDbLine
 10
2.520299999999991
 20
0.0
 30
0.0000000000000002
 11
2.562499999999687
 21
0.0
 31
0.0000000000000002
210
0.0
220
1.0
230
0.0
  0
LINE
  5
8B
330
57
100
AcDbEntity
  8
USP-GEO
100
AcDbLine
 10
2.562499999999687
 20
0.0
 30
0.0000000000000002
 11
2.578099999999992
 21
0.0
 31
0.0000000000000002
210
0.0
220
1.0
230
0.0
  0
LINE
  5
8C
330
57
100
AcDbEntity
  8
USP-GEO
100
AcDbLine
 10
2.698099999999968
 20
0.4075421356237286
 30
0.0000000000000002
 11
2.75369999999998
 21
0.4075421356237286
 31
0.0000000000000002
210
0.0
220
1.0
230
0.0
  0
LINE
  5
8D
330
57
100
AcDbEntity
  8
USP-GEO
100
AcDbLine
 10
0.9999999999999857
 20
2.614766586152697
 30
0.0
 11
0.9999999999999857
 21
2.012398573869305
 31
0.0
210
0.0
220
1.0
230
0.0
  0
LINE
  5
8E
330
57
100
AcDbEntity
  8
USP-GEO
100
AcDbLine
 10
0.5250000000000057
 20
2.236942135623735
 30
-0.0000000000000001
 11
0.5250000000000057
 21
2.936942135623738
 31
-0.0000000000000001
210
0.0
220
1.0
230
0.0
  0
LINE
  5
8F
330
57
100
AcDbEntity
  8
USP-GEO
100
AcDbLine
 10
0.7249999999999944
 20
2.936942135623738
 30
-0.0000000000000001
 11
0.7249999999999944
 21
2.236942135623735
 31
-0.0000000000000001
210
0.0
220
1.0
230
0.0
  0
LINE
  5
90
330
57
100
AcDbEntity
  8
USP-GEO
100
AcDbLine
 10
1.04779999999998
 20
2.012398573869305
 30
0.0
 11
1.04779999999998
 21
2.614766586152683
 31
0.0
210
0.0
220
1.0
230
0.0
  0
ELLIPSE
  5
91
330
57
100
AcDbEntity
  8
USP-GEO
100
AcDbEllipse
 10
0.9267692704310093
 20
2.313582580011001
 30
0.0
 11
0.0
 21
-0.0625000000000019
 31
0.0
210
-0.0000000000000001
220
0.0
230
1.0
 40
0.8660254037844472
 41
0.0
 42
6.283185307179586
  0
ELLIPSE
  5
92
330
57
100
AcDbEntity
  8
USP-GEO
100
AcDbEllipse
 10
0.9516509100406977
 20
2.313582580011015
 30
0.0
 11
0.0
 21
0.0625000000000009
 31
0.0
210
-0.0000000000000001
220
0.0
230
1.0
 40
0.8660254037844426
 41
1.57079632679501
 42
2.909672448532338
  0
ARC
  5
93
330
57
100
AcDbEntity
  8
USP-GEO
100
AcDbCircle
 10
1.04779999999998
 20
2.313582580010987
 30
0.0
 40
0.25
100
AcDbArc
 50
101.0228231074028
 51
258.9771768925954
  0
LINE
  5
94
330
57
100
AcDbEntity
  8
USP-GEO
100
AcDbLine
 10
1.0
 20
2.012398573869305
 30
0.0
 11
1.0
 21
1.771451368955951
 31
0.0
210
0.0
220
1.0
230
0.0
  0
LINE
  5
95
330
57
100
AcDbEntity
  8
USP-GEO
100
AcDbLine
 10
0.9999999999999857
 20
1.771451368955951
 30
0.0
 11
0.9999999999999857
 21
1.415495526217014
 31
0.0
210
0.0
220
1.0
230
0.0
  0
LINE
  5
96
330
57
100
AcDbEntity
  8
USP-GEO
100
AcDbLine
 10
0.6249999999999858
 20
2.059342135623737
 30
-0.0000000000000001
 11
0.5249999999999915
 21
2.236942135623735
 31
-0.0000000000000001
210
0.0
220
1.0
230
0.0
  0
LINE
  5
97
330
57
100
AcDbEntity
  8
USP-GEO
100
AcDbLine
 10
0.7249999999999801
 20
2.236942135623735
 30
-0.0000000000000001
 11
0.625
 21
2.059342135623737
 31
-0.0000000000000001
210
0.0
220
1.0
230
0.0
  0
LINE
  5
98
330
57
100
AcDbEntity
  8
USP-GEO
100
AcDbLine
 10
1.047799999999995
 20
1.415495526217014
 30
0.0
 11
1.047799999999995
 21
1.771451368955936
 31
0.0
210
0.0
220
1.0
230
0.0
  0
LINE
  5
99
330
57
100
AcDbEntity
  8
USP-GEO
100
AcDbLine
 10
1.047799999999995
 20
1.771451368955936
 30
0.0
 11
1.047799999999995
 21
2.012398573869305
 31
0.0
210
0.0
220
1.0
230
0.0
  0
LINE
  5
9A
330
57
100
AcDbEntity
  8
USP-GEO
100
AcDbLine
 10
1.0
 20
1.415495526217014
 30
0.0
 11
1.0
 21
1.238718830920376
 31
0.0
210
0.0
220
1.0
230
0.0
  0
LINE
  5
9B
330
57
100
AcDbEntity
  8
USP-GEO
100
AcDbLine
 10
1.047799999999995
 20
1.238718830920376
 30
0.0
 11
1.047799999999995
 21
1.415495526217014
 31
0.0
210
0.0
220
1.0
230
0.0
  0
LINE
  5
9C
330
57
100
AcDbEntity
  8
USP-GEO
100
AcDbLine
 10
1.04779999999998
 20
3.186942135623738
 30
0.0
 11
0.9999999999999857
 21
3.186942135623738
 31
0.0
210
0.0
220
1.0
230
0.0
  0
LINE
  5
9D
330
57
100
AcDbEntity
  8
USP-GEO
100
AcDbLine
 10
0.9599999999999937
 20
3.186942135623738
 30
0.0
 11
1.0
 21
3.186942135623738
 31
0.0
210
0.0
220
1.0
230
0.0
  0
LINE
  5
9E
330
57
100
AcDbEntity
  8
USP-GEO
100
AcDbLine
 10
0.7139999999999987
 20
2.412789700126054
 30
-0.0000000000000001
 11
0.7139999999999987
 21
2.596030428412191
 31
-0.0000000000000001
210
0.0
220
1.0
230
0.0
  0
LINE
  5
9F
330
57
100
AcDbEntity
  8
USP-GEO
100
AcDbLine
 10
0.7139999999999987
 20
2.596030428412191
 30
-0.0000000000000001
 11
0.7139999999999987
 21
2.932650107021927
 31
-0.0000000000000001
210
0.0
220
1.0
230
0.0
  0
LINE
  5
A0
330
57
100
AcDbEntity
  8
USP-GEO
100
AcDbLine
 10
0.5359999999999872
 20
2.412789700126054
 30
-0.0000000000000001
 11
0.6113463669035469
 21
2.377725949721892
 31
-0.0000000000000001
210
0.0
220
1.0
230
0.0
  0
LINE
  5
A1
330
57
100
AcDbEntity
  8
USP-GEO
100
AcDbLine
 10
0.638653633096439
 20
2.377725949721892
 30
-0.0000000000000001
 11
0.7139999999999703
 21
2.412789700126069
 31
-0.0000000000000001
210
0.0
220
1.0
230
0.0
  0
LINE
  5
A2
330
57
100
AcDbEntity
  8
USP-GEO
100
AcDbLine
 10
0.638653633096439
 20
2.377725949721892
 30
-0.0000000000000001
 11
0.6113463669035469
 21
2.377725949721892
 31
-0.0000000000000001
210
0.0
220
1.0
230
0.0
  0
LINE
  5
A3
330
57
100
AcDbEntity
  8
USP-GEO
100
AcDbLine
 10
0.5360000000000014
 20
2.596030428412191
 30
-0.0000000000000001
 11
0.5360000000000014
 21
2.932650107021927
 31
-0.0000000000000001
210
0.0
220
1.0
230
0.0
  0
LINE
  5
A4
330
57
100
AcDbEntity
  8
USP-GEO
100
AcDbLine
 10
0.5360000000000014
 20
2.412789700126054
 30
-0.0000000000000001
 11
0.5360000000000014
 21
2.596030428412191
 31
-0.0000000000000001
210
0.0
220
1.0
230
0.0
  0
LINE
  5
A5
330
57
100
AcDbEntity
  8
USP-GEO
100
AcDbLine
 10
0.7139999999999987
 20
2.932650107021927
 30
-0.0000000000000001
 11
0.5359999999999872
 21
2.932650107021927
 31
-0.0000000000000001
210
0.0
220
1.0
230
0.0
  0
LINE
  5
A6
330
57
100
AcDbEntity
  8
USP-GEO
100
AcDbLine
 10
0.9999999999999857
 20
2.855713791066037
 30
0.0
 11
0.9999999999999857
 21
2.614766586152683
 31
0.0
210
0.0
220
1.0
230
0.0
  0
LINE
  5
A7
330
57
100
AcDbEntity
  8
USP-GEO
100
AcDbLine
 10
0.5249999999999915
 20
2.936942135623738
 30
-0.0000000000000001
 11
0.7249999999999944
 21
2.936942135623738
 31
-0.0000000000000001
210
0.0
220
1.0
230
0.0
  0
LINE
  5
A8
330
57
100
AcDbEntity
  8
USP-GEO
100
AcDbLine
 10
1.04779999999998
 20
2.614766586152697
 30
0.0
 11
1.04779999999998
 21
2.855713791066037
 31
0.0
210
0.0
220
1.0
230
0.0
  0
ELLIPSE
  5
A9
330
57
100
AcDbEntity
  8
USP-GEO
100
AcDbEllipse
 10
0.9516509100406977
 20
2.313582580011015
 30
0.0
 11
0.0
 21
0.0625000000000009
 31
0.0
210
-0.0000000000000001
220
0.0
230
1.0
 40
0.8660254037844426
 41
0.2319202050577211
 42
1.57079632679501
  0
LINE
  5
AA
330
57
100
AcDbEntity
  8
USP-GEO
100
AcDbLine
 10
0.9999999999999857
 20
3.186942135623738
 30
0.0
 11
0.9999999999999857
 21
2.855713791066037
 31
0.0
210
0.0
220
1.0
230
0.0
  0
LINE
  5
AB
330
57
100
AcDbEntity
  8
USP-GEO
100
AcDbLine
 10
1.047799999999995
 20
2.855713791066037
 30
0.0
 11
1.047799999999995
 21
3.186942135623738
 31
0.0
210
0.0
220
1.0
230
0.0
  0
LINE
  5
AC
330
57
100
AcDbEntity
  8
USP-GEO
100
AcDbLine
 10
3.133099999999998
 20
2.936942135623738
 30
0.0000000000000002
 11
3.133099999999998
 21
2.236942135623735
 31
0.0000000000000002
210
0.0
220
1.0
230
0.0
  0
ARC
  5
AD
330
57
100
AcDbEntity
  8
USP-GEO
100
AcDbCircle
 10
3.558099999999996
 20
2.313582580011001
 30
0.0000000000000003
 40
0.312500000000006
100
AcDbArc
 50
105.466009953423
 51
254.5339900465778
  0
LINE
  5
AE
330
57
100
AcDbEntity
  8
USP-GEO
100
AcDbLine
 10
2.65809999999999
 20
2.614766586152697
 30
0.0000000000000002
 11
2.65809999999999
 21
2.012398573869305
 31
0.0000000000000002
210
0.0
220
1.0
230
0.0
  0
LINE
  5
AF
330
57
100
AcDbEntity
  8
USP-GEO
100
AcDbLine
 10
2.610299999999995
 20
2.012398573869305
 30
0.0000000000000002
 11
2.610299999999995
 21
2.614766586152697
 31
0.0000000000000002
210
0.0
220
1.0
230
0.0
  0
LINE
  5
B0
330
57
100
AcDbEntity
  8
USP-GEO
100
AcDbLine
 10
2.933099999999981
 20
2.236942135623735
 30
0.0000000000000002
 11
2.933099999999981
 21
2.936942135623738
 31
0.0000000000000002
210
0.0
220
1.0
230
0.0
  0
ELLIPSE
  5
B1
330
57
100
AcDbEntity
  8
USP-GEO
100
AcDbEllipse
 10
2.731330729568966
 20
2.313582580011001
 30
0.0000000000000002
 11
0.0
 21
-0.0625000000000019
 31
0.0
210
-0.0000000000000001
220
0.0
230
1.0
 40
0.866025403784447
 41
0.0
 42
6.283185307179586
  0
ELLIPSE
  5
B2
330
57
100
AcDbEntity
  8
USP-GEO
100
AcDbEllipse
 10
2.706449089959278
 20
2.313582580011001
 30
0.0000000000000002
 11
0.0
 21
0.0625000000000009
 31
0.0
210
-0.0000000000000001
220
0.0
230
1.0
 40
0.8660254037844424
 41
-2.909672448532208
 42
-1.570796326794896
  0
ARC
  5
B3
330
57
100
AcDbEntity
  8
USP-GEO
100
AcDbCircle
 10
2.610299999999995
 20
2.313582580011001
 30
0.0000000000000002
 40
0.25
100
AcDbArc
 50
281.0228231074037
 51
78.97717689259626
  0
LINE
  5
B4
330
57
100
AcDbEntity
  8
USP-GEO
100
AcDbLine
 10
2.65809999999999
 20
2.012398573869305
 30
0.0000000000000002
 11
2.65809999999999
 21
1.771451368955936
 31
0.0000000000000002
210
0.0
220
1.0
230
0.0
  0
LINE
  5
B5
330
57
100
AcDbEntity
  8
USP-GEO
100
AcDbLine
 10
2.658099999999976
 20
1.771451368955936
 30
0.0000000000000002
 11
2.658099999999976
 21
1.415495526217014
 31
0.0000000000000002
210
0.0
220
1.0
230
0.0
  0
LINE
  5
B6
330
57
100
AcDbEntity
  8
USP-GEO
100
AcDbLine
 10
2.610299999999995
 20
1.771451368955936
 30
0.0000000000000002
 11
2.610299999999995
 21
2.012398573869305
 31
0.0000000000000002
210
0.0
220
1.0
230
0.0
  0
LINE
  5
B7
330
57
100
AcDbEntity
  8
USP-GEO
100
AcDbLine
 10
2.610299999999995
 20
1.415495526217014
 30
0.0000000000000002
 11
2.610299999999995
 21
1.771451368955936
 31
0.0000000000000002
210
0.0
220
1.0
230
0.0
  0
LINE
  5
B8
330
57
100
AcDbEntity
  8
USP-GEO
100
AcDbLine
 10
2.658099999999976
 20
1.415495526217014
 30
0.0000000000000002
 11
2.658099999999976
 21
1.238718830920376
 31
0.0000000000000002
210
0.0
220
1.0
230
0.0
  0
LINE
  5
B9
330
57
100
AcDbEntity
  8
USP-GEO
100
AcDbLine
 10
2.610299999999995
 20
1.238718830920376
 30
0.0000000000000002
 11
2.610299999999995
 21
1.415495526217014
 31
0.0000000000000002
210
0.0
220
1.0
230
0.0
  0
LINE
  5
BA
330
57
100
AcDbEntity
  8
USP-GEO
100
AcDbLine
 10
3.133099999999998
 20
2.236942135623735
 30
0.0000000000000002
 11
3.033100000000004
 21
2.059342135623737
 31
0.0000000000000002
210
0.0
220
1.0
230
0.0
  0
CIRCLE
  5
BB
330
57
100
AcDbEntity
  8
USP-GEO
100
AcDbCircle
 10
3.345599999999976
 20
1.561942135623738
 30
0.0000000000000003
 40
0.0860000000000001
  0
LINE
  5
BC
330
57
100
AcDbEntity
  8
USP-GEO
100
AcDbLine
 10
3.033100000000004
 20
2.059342135623737
 30
0.0000000000000002
 11
2.933099999999996
 21
2.236942135623735
 31
0.0000000000000002
210
0.0
220
1.0
230
0.0
  0
LINE
  5
BD
330
57
100
AcDbEntity
  8
USP-GEO
100
AcDbLine
 10
2.658099999999976
 20
3.186942135623738
 30
0.0000000000000002
 11
2.698099999999968
 21
3.186942135623738
 31
0.0000000000000002
210
0.0
220
1.0
230
0.0
  0
LINE
  5
BE
330
57
100
AcDbEntity
  8
USP-GEO
100
AcDbLine
 10
2.610299999999995
 20
3.186942135623738
 30
0.0000000000000002
 11
2.658099999999976
 21
3.186942135623738
 31
0.0000000000000002
210
0.0
220
1.0
230
0.0
  0
LINE
  5
BF
330
57
100
AcDbEntity
  8
USP-GEO
100
AcDbLine
 10
2.658099999999976
 20
2.855713791066037
 30
0.0000000000000002
 11
2.658099999999976
 21
2.614766586152683
 31
0.0000000000000002
210
0.0
220
1.0
230
0.0
  0
LINE
  5
C0
330
57
100
AcDbEntity
  8
USP-GEO
100
AcDbLine
 10
2.610299999999995
 20
2.614766586152683
 30
0.0000000000000002
 11
2.610299999999995
 21
2.855713791066037
 31
0.0000000000000002
210
0.0
220
1.0
230
0.0
  0
LINE
  5
C1
330
57
100
AcDbEntity
  8
USP-GEO
100
AcDbLine
 10
2.658099999999976
 20
3.186942135623738
 30
0.0000000000000002
 11
2.658099999999976
 21
2.855713791066037
 31
0.0000000000000002
210
0.0
220
1.0
230
0.0
  0
LINE
  5
C2
330
57
100
AcDbEntity
  8
USP-GEO
100
AcDbLine
 10
2.61029999999998
 20
2.855713791066037
 30
0.0000000000000002
 11
2.61029999999998
 21
3.186942135623738
 31
0.0000000000000002
210
0.0
220
1.0
230
0.0
  0
LINE
  5
C3
330
57
100
AcDbEntity
  8
USP-GEO
100
AcDbLine
 10
2.944099999999991
 20
2.596030428412191
 30
0.0000000000000002
 11
2.944099999999991
 21
2.932650107021927
 31
0.0000000000000002
210
0.0
220
1.0
230
0.0
  0
LINE
  5
C4
330
57
100
AcDbEntity
  8
USP-GEO
100
AcDbLine
 10
2.944099999999991
 20
2.412789700126054
 30
0.0000000000000002
 11
2.944099999999991
 21
2.596030428412191
 31
0.0000000000000002
210
0.0
220
1.0
230
0.0
  0
LINE
  5
C5
330
57
100
AcDbEntity
  8
USP-GEO
100
AcDbLine
 10
3.122099999999988
 20
2.932650107021927
 30
0.0000000000000002
 11
2.944099999999991
 21
2.932650107021927
 31
0.0000000000000002
210
0.0
220
1.0
230
0.0
  0
CIRCLE
  5
C6
330
57
100
AcDbEntity
  8
USP-GEO
100
AcDbCircle
 10
3.345599999999976
 20
2.876082580010987
 30
0.0000000000000003
 40
0.0860000000000001
  0
ELLIPSE
  5
C7
330
57
100
AcDbEntity
  8
USP-GEO
100
AcDbEllipse
 10
2.706449089959278
 20
2.313582580011001
 30
0.0000000000000002
 11
0.0
 21
0.0625000000000009
 31
0.0
210
-0.0000000000000001
220
0.0
230
1.0
 40
0.8660254037844424
 41
-1.570796326794896
 42
-0.2319202050575848
  0
LINE
  5
C8
330
57
100
AcDbEntity
  8
USP-GEO
100
AcDbLine
 10
2.933099999999981
 20
2.936942135623738
 30
0.0000000000000002
 11
3.133099999999998
 21
2.936942135623738
 31
0.0000000000000002
210
0.0
220
1.0
230
0.0
  0
LINE
  5
C9
330
57
100
AcDbEntity
  8
USP-GEO
100
AcDbLine
 10
3.122099999999988
 20
2.412789700126054
 30
0.0000000000000002
 11
3.122099999999988
 21
2.596030428412191
 31
0.0000000000000002
210
0.0
220
1.0
230
0.0
  0
LINE
  5
CA
330
57
100
AcDbEntity
  8
USP-GEO
100
AcDbLine
 10
3.122099999999988
 20
2.596030428412191
 30
0.0000000000000002
 11
3.122099999999988
 21
2.932650107021927
 31
0.0000000000000002
210
0.0
220
1.0
230
0.0
  0
LINE
  5
CB
330
57
100
AcDbEntity
  8
USP-GEO
100
AcDbLine
 10
2.944099999999991
 20
2.412789700126069
 30
0.0000000000000002
 11
3.019446366903537
 21
2.377725949721892
 31
0.0000000000000002
210
0.0
220
1.0
230
0.0
  0
LINE
  5
CC
330
57
100
AcDbEntity
  8
USP-GEO
100
AcDbLine
 10
3.046753633096429
 20
2.377725949721892
 30
0.0000000000000002
 11
3.122099999999974
 21
2.412789700126054
 31
0.0000000000000002
210
0.0
220
1.0
230
0.0
  0
LINE
  5
CD
330
57
100
AcDbEntity
  8
USP-GEO
100
AcDbLine
 10
3.046753633096429
 20
2.377725949721892
 30
0.0000000000000002
 11
3.019446366903551
 21
2.377725949721892
 31
0.0000000000000002
210
0.0
220
1.0
230
0.0
  0
LINE
  5
CE
330
57
100
AcDbEntity
  8
USP-GEO
100
AcDbLine
 10
3.658099999999976
 20
1.415495526217014
 30
0.0000000000000003
 11
3.658099999999976
 21
1.771451368955951
 31
0.0000000000000003
210
0.0
220
1.0
230
0.0
  0
ARC
  5
CF
330
57
100
AcDbEntity
  8
USP-GEO
100
AcDbCircle
 10
3.408099999999976
 20
1.415495526217014
 30
0.0000000000000003
 40
0.2500000000000004
100
AcDbArc
 50
315.0000000000006
 51
0.0000000000008142
  0
LINE
  5
D0
330
57
100
AcDbEntity
  8
USP-GEO
100
AcDbLine
 10
3.65809999999999
 20
2.855713791066037
 30
0.0000000000000003
 11
3.65809999999999
 21
3.186942135623738
 31
0.0000000000000003
210
0.0
220
1.0
230
0.0
  0
ENDBLK
  5
D2
330
57
100
AcDbEntity
  8
0
100
AcDbBlockEnd
  0
BLOCK
  5
116
330
D4
100
AcDbEntity
  8
0
100
AcDbBlockBegin
  2
JUS24_S
 70
     0
 10
0.0
 20
0.0
 30
0.0
  3
JUS24_S
  1

  0
LINE
  5
D5
330
D4
100
AcDbEntity
  8
USP-GEO
100
AcDbLine
 10
0.0
 20
3.186942135623738
 30
0.0
 11
0.0
 21
2.855713791066037
 31
0.0
210
0.0
220
1.0
230
0.0
  0
LINE
  5
D6
330
D4
100
AcDbEntity
  8
USP-GEO
100
AcDbLine
 10
0.0477999999999952
 20
2.855713791066037
 30
0.0
 11
0.0477999999999952
 21
3.186942135623738
 31
0.0
210
0.0
220
1.0
230
0.0
  0
LINE
  5
D7
330
D4
100
AcDbEntity
  8
USP-GEO
100
AcDbLine
 10
0.7978000000000094
 20
3.186942135623738
 30
0.0000000000000001
 11
0.7978000000000094
 21
2.855713791066037
 31
0.0000000000000001
210
0.0
220
1.0
230
0.0
  0
TEXT
  5
D8
330
D4
100
AcDbEntity
  8
USP-TXT
100
AcDbText
 10
-0.9378449407544792
 20
-1.5
 30
0.0000000000000002
 40
0.25
  1
JUS24 - SIDE VIEW
 72
     1
 11
1.145488392578855
 21
-1.5
 31
0.0000000000000002
100
AcDbText
  0
LINE
  5
D9
330
D4
100
AcDbEntity
  8
USP-GEO
100
AcDbLine
 10
0.3812694445030189
 20
0.0
 30
0.0
 11
1.909707340654676
 21
0.0
 31
0.0000000000000003
210
0.0
220
1.0
230
0.0
  0
LINE
  5
DA
330
D4
100
AcDbEntity
  8
USP-GEO
100
AcDbLine
 10
0.8710233047033568
 20
1.238718830920376
 30
0.0000000000000001
 11
1.93466291501015
 21
0.1750792206135827
 31
0.0000000000000003
210
0.0
220
1.0
230
0.0
  0
LINE
  5
DB
330
D4
100
AcDbEntity
  8
USP-HID
100
AcDbLine
 10
0.3812694445030189
 20
0.0477999999999952
 30
0.0
 11
1.909707340654676
 21
0.0477999999999952
 31
0.0000000000000003
  0
LINE
  5
DE
330
D4
100
AcDbEntity
  8
USP-GEO
100
AcDbLine
 10
0.1433999999999997
 20
0.2163421356237336
 30
0.0
 11
0.1433999999999997
 21
0.4075421356237286
 31
0.0
210
0.0
220
1.0
230
0.0
  0
ARC
  5
DF
330
D4
100
AcDbEntity
  8
USP-GEO
100
AcDbCircle
 10
0.2977999999999952
 20
0.0619421356237382
 30
0.0
 40
0.0899999999999999
100
AcDbArc
 50
21.96105425357024
 51
44.99999999999942
  0
LINE
  5
E0
330
D4
100
AcDbEntity
  8
USP-GEO
100
AcDbLine
 10
0.3122217334175446
 20
0.0477999999999952
 30
0.0
 11
0.3812694445030189
 21
0.0477999999999952
 31
0.0
210
0.0
220
1.0
230
0.0
  0
LINE
  5
E1
330
D4
100
AcDbEntity
  8
USP-GEO
100
AcDbLine
 10
0.3812694445030189
 20
0.0
 30
0.0
 11
0.3122217334175446
 21
0.0
 31
0.0
210
0.0
220
1.0
230
0.0
  0
LINE
  5
E2
330
D4
100
AcDbEntity
  8
USP-GEO
100
AcDbLine
 10
0.2359645370357271
 20
0.0477999999999952
 30
0.0
 11
0.3122217334175446
 21
0.0477999999999952
 31
0.0
210
0.0
220
1.0
230
0.0
  0
LINE
  5
E3
330
D4
100
AcDbEntity
  8
USP-GEO
100
AcDbLine
 10
0.2359645370357271
 20
0.0
 30
0.0
 11
0.3122217334175446
 21
0.0
 31
0.0
210
0.0
220
1.0
230
0.0
  0
LINE
  5
E4
330
D4
100
AcDbEntity
  8
USP-GEO
100
AcDbLine
 10
0.2359645370357271
 20
0.0477999999999952
 30
0.0
 11
0.2359645370357271
 21
0.0
 31
0.0
210
0.0
220
1.0
230
0.0
  0
LINE
  5
E5
330
D4
100
AcDbEntity
  8
USP-GEO
100
AcDbLine
 10
0.3122217334175446
 20
0.0477999999999952
 30
0.0
 11
0.3122217334175446
 21
0.0
 31
0.0
210
0.0
220
1.0
230
0.0
  0
ARC
  5
E6
330
D4
100
AcDbEntity
  8
USP-GEO
100
AcDbCircle
 10
0.2483025253169444
 20
0.1114396103067889
 30
0.0
 40
0.0900000000000013
100
AcDbArc
 50
44.99999999999712
 51
135.0000000000006
  0
LINE
  5
E7
330
D4
100
AcDbEntity
  8
USP-GEO
100
AcDbLine
 10
0.1846629150101506
 20
0.1750792206135827
 30
0.0
 11
0.1433999999999997
 21
0.2163421356237336
 31
0.0
210
0.0
220
1.0
230
0.0
  0
LINE
  5
E8
330
D4
100
AcDbEntity
  8
USP-GEO
100
AcDbLine
 10
0.3614396103067889
 20
0.1255817459305177
 30
0.0
 11
0.3119421356237382
 21
0.1750792206135827
 31
0.0
210
0.0
220
1.0
230
0.0
  0
LINE
  5
E9
330
D4
100
AcDbEntity
  8
USP-GEO
100
AcDbLine
 10
0.3812694445030189
 20
0.0799999999999983
 30
0.0
 11
0.3812694445030189
 21
0.0
 31
0.0
210
0.0
220
1.0
230
0.0
  0
LINE
  5
EA
330
D4
100
AcDbEntity
  8
USP-GEO
100
AcDbLine
 10
0.3812694445030047
 20
0.0955999999999762
 30
0.0
 11
0.3812694445030047
 21
0.0799999999999983
 31
0.0
210
0.0
220
1.0
230
0.0
  0
LINE
  5
EB
330
D4
100
AcDbEntity
  8
USP-GEO
100
AcDbLine
 10
0.0
 20
1.771451368955951
 30
0.0
 11
0.0
 21
1.415495526217014
 31
0.0
210
0.0
220
1.0
230
0.0
  0
LINE
  5
EC
330
D4
100
AcDbEntity
  8
USP-GEO
100
AcDbLine
 10
0.0477999999999952
 20
1.415495526217
 30
0.0
 11
0.0477999999999952
 21
1.771451368955951
 31
0.0
210
0.0
220
1.0
230
0.0
  0
LINE
  5
ED
330
D4
100
AcDbEntity
  8
USP-GEO
100
AcDbLine
 10
0.7978000000000094
 20
1.771451368955951
 30
0.0000000000000001
 11
0.7978000000000094
 21
1.415495526217014
 31
0.0000000000000001
210
0.0
220
1.0
230
0.0
  0
LINE
  5
EE
330
D4
100
AcDbEntity
  8
USP-GEO
100
AcDbLine
 10
0.0
 20
1.238718830920376
 30
0.0
 11
0.0
 21
0.4075421356237286
 31
0.0
210
0.0
220
1.0
230
0.0
  0
LINE
  5
EF
330
D4
100
AcDbEntity
  8
USP-GEO
100
AcDbLine
 10
0.0477999999999952
 20
0.4075421356237286
 30
0.0
 11
0.0477999999999952
 21
1.238718830920376
 31
0.0
210
0.0
220
1.0
230
0.0
  0
LINE
  5
F0
330
D4
100
AcDbEntity
  8
USP-GEO
100
AcDbLine
 10
0.1433999999999997
 20
0.4075421356237286
 30
0.0
 11
0.0878000000000015
 21
0.4075421356237286
 31
0.0
210
0.0
220
1.0
230
0.0
  0
LINE
  5
F1
330
D4
100
AcDbEntity
  8
USP-GEO
100
AcDbLine
 10
0.0
 20
0.4075421356237286
 30
0.0
 11
0.0478000000000094
 21
0.4075421356237286
 31
0.0
210
0.0
220
1.0
230
0.0
  0
LINE
  5
F2
330
D4
100
AcDbEntity
  8
USP-GEO
100
AcDbLine
 10
0.0878000000000015
 20
0.4075421356237286
 30
0.0
 11
0.0477999999999952
 21
0.4075421356237286
 31
0.0
210
0.0
220
1.0
230
0.0
  0
LINE
  5
F3
330
D4
100
AcDbEntity
  8
USP-GEO
100
AcDbLine
 10
0.0
 20
1.415495526217014
 30
0.0
 11
0.0
 21
1.238718830920376
 31
0.0
210
0.0
220
1.0
230
0.0
  0
LINE
  5
F4
330
D4
100
AcDbEntity
  8
USP-GEO
100
AcDbLine
 10
0.0477999999999952
 20
1.238718830920376
 30
0.0
 11
0.0477999999999952
 21
1.415495526217
 31
0.0
210
0.0
220
1.0
230
0.0
  0
ARC
  5
F5
330
D4
100
AcDbEntity
  8
USP-GEO
100
AcDbCircle
 10
1.047800000000009
 20
1.415495526217014
 30
0.0000000000000001
 40
0.2500000000000017
100
AcDbArc
 50
180.0
 51
224.9999999999982
  0
CIRCLE
  5
F6
330
D4
100
AcDbEntity
  8
USP-GEO
100
AcDbCircle
 10
0.2978000000000094
 20
2.874442135623738
 30
0.0
 40
0.1535000000000001
  0
LINE
  5
F7
330
D4
100
AcDbEntity
  8
USP-GEO
100
AcDbLine
 10
0.0
 20
2.614766586152683
 30
0.0
 11
0.0
 21
2.012398573869305
 31
0.0
210
0.0
220
1.0
230
0.0
  0
LINE
  5
F8
330
D4
100
AcDbEntity
  8
USP-GEO
100
AcDbLine
 10
0.0477999999999952
 20
2.012398573869305
 30
0.0
 11
0.0477999999999952
 21
2.614766586152683
 31
0.0
210
0.0
220
1.0
230
0.0
  0
LINE
  5
F9
330
D4
100
AcDbEntity
  8
USP-GEO
100
AcDbLine
 10
0.1786596980122113
 20
2.412789700126054
 30
0.0
 11
0.0477999999999952
 21
2.377725949721892
 31
0.0
210
0.0
220
1.0
230
0.0
  0
ARC
  5
FA
330
D4
100
AcDbEntity
  8
USP-GEO
100
AcDbCircle
 10
0.1463073173743936
 20
2.533530428412191
 30
0.0
 40
0.1249999999999957
100
AcDbArc
 50
284.9999999999952
 51
30.00000000000084
  0
LINE
  5
FB
330
D4
100
AcDbEntity
  8
USP-GEO
100
AcDbLine
 10
0.0
 20
2.012398573869305
 30
0.0
 11
0.0
 21
1.771451368955951
 31
0.0
210
0.0
220
1.0
230
0.0
  0
LINE
  5
FC
330
D4
100
AcDbEntity
  8
USP-GEO
100
AcDbLine
 10
0.0477999999999952
 20
1.771451368955951
 30
0.0
 11
0.0477999999999952
 21
2.012398573869305
 31
0.0
210
0.0
220
1.0
230
0.0
  0
LINE
  5
FD
330
D4
100
AcDbEntity
  8
USP-GEO
100
AcDbLine
 10
0.0477999999999952
 20
2.854150107021951
 30
0.0
 11
0.2112592226582279
 21
2.5710304284122
 31
0.0
210
0.0
220
1.0
230
0.0
  0
LINE
  5
FE
330
D4
100
AcDbEntity
  8
USP-GEO
100
AcDbLine
 10
0.0
 20
2.855713791066037
 30
0.0
 11
0.0
 21
2.614766586152683
 31
0.0
210
0.0
220
1.0
230
0.0
  0
LINE
  5
FF
330
D4
100
AcDbEntity
  8
USP-GEO
100
AcDbLine
 10
0.0477999999999952
 20
2.614766586152683
 30
0.0
 11
0.0477999999999952
 21
2.855713791066037
 31
0.0
210
0.0
220
1.0
230
0.0
  0
LINE
  5
100
330
D4
100
AcDbEntity
  8
USP-GEO
100
AcDbLine
 10
0.2545604928474461
 20
2.596030428412191
 30
0.0
 11
0.0602130307875797
 21
2.932650107021927
 31
0.0
210
0.0
220
1.0
230
0.0
  0
LINE
  5
101
330
D4
100
AcDbEntity
  8
USP-GEO
100
AcDbLine
 10
0.0477999999999952
 20
2.429489758742406
 30
0.0
 11
0.1657187457570899
 21
2.461085991440512
 31
0.0
210
0.0
220
1.0
230
0.0
  0
LINE
  5
102
330
D4
100
AcDbEntity
  8
USP-GEO
100
AcDbLine
 10
0.1657187457570615
 20
2.461085991440498
 30
0.0
 11
0.1786596980121828
 21
2.412789700126054
 31
0.0
210
0.0
220
1.0
230
0.0
  0
ARC
  5
103
330
D4
100
AcDbEntity
  8
USP-GEO
100
AcDbCircle
 10
0.1463073173743936
 20
2.533530428412191
 30
0.0
 40
0.0749999999999997
100
AcDbArc
 50
285.0000000000012
 51
30.00000000000196
  0
LINE
  5
104
330
D4
100
AcDbEntity
  8
USP-GEO
100
AcDbLine
 10
0.0602130307875797
 20
2.932650107021927
 30
0.0
 11
0.0477999999999952
 21
2.932650107021927
 31
0.0
210
0.0
220
1.0
230
0.0
  0
CIRCLE
  5
105
330
D4
100
AcDbEntity
  8
USP-GEO
100
AcDbCircle
 10
0.8978000000000037
 20
2.313582580011001
 30
0.0000000000000001
 40
0.2453877747566092
  0
ARC
  5
106
330
D4
100
AcDbEntity
  8
USP-GEO
100
AcDbCircle
 10
0.8978000000000037
 20
2.313582580011001
 30
0.0000000000000001
 40
0.3125000000000054
100
AcDbArc
 50
285.4660099534196
 51
74.53399004657957
  0
ARC
  5
107
330
D4
100
AcDbEntity
  8
USP-GEO
100
AcDbCircle
 10
1.047800000000009
 20
1.771451368955951
 30
0.0000000000000001
 40
0.2500000000000029
100
AcDbArc
 50
105.4660099534214
 51
180.0
  0
ELLIPSE
  5
108
330
D4
100
AcDbEntity
  8
USP-GEO
100
AcDbEllipse
 10
1.107431372890616
 20
2.313582580011001
 30
0.0000000000000002
 11
0.0
 21
-0.0625000000000019
 31
0.0
210
-0.0000000000000002
220
0.0
230
1.0
 40
0.4999999999999849
 41
0.0
 42
6.283185307179586
  0
ELLIPSE
  5
109
330
D4
100
AcDbEntity
  8
USP-GEO
100
AcDbEllipse
 10
1.064335108911009
 20
2.313582580011015
 30
0.0000000000000002
 11
0.0
 21
0.0625000000000009
 31
0.0
210
-0.0000000000000002
220
0.0
230
1.0
 40
0.4999999999999929
 41
-2.380738626104892
 42
-0.7608540274849011
  0
ARC
  5
10A
330
D4
100
AcDbEntity
  8
USP-GEO
100
AcDbCircle
 10
0.8978000000000037
 20
2.313582580011001
 30
0.0000000000000001
 40
0.2022000000000001
100
AcDbArc
 50
354.3181581563321
 51
5.681841843671936
  0
ELLIPSE
  5
10B
330
D4
100
AcDbEntity
  8
USP-GEO
100
AcDbEllipse
 10
0.980592028601805
 20
2.313582580011001
 30
0.0000000000000001
 11
0.1250000000000005
 21
0.0
 31
0.0
210
-0.0000000000000002
220
0.0
230
1.0
 40
0.4999999999999983
 41
-0.3260451088259271
 42
0.3260451088259867
  0
ARC
  5
10C
330
D4
100
AcDbEntity
  8
USP-GEO
100
AcDbCircle
 10
1.047800000000009
 20
2.855713791066037
 30
0.0000000000000001
 40
0.2500000000000006
100
AcDbArc
 50
180.0
 51
254.5339900465795
  0
LINE
  5
10D
330
D4
100
AcDbEntity
  8
USP-GEO
100
AcDbLine
 10
1.909707340654676
 20
0.0
 30
0.0000000000000003
 11
1.909707340654676
 21
0.0799999999999983
 31
0.0000000000000003
210
0.0
220
1.0
230
0.0
  0
LINE
  5
10E
330
D4
100
AcDbEntity
  8
USP-GEO
100
AcDbLine
 10
1.985964537035727
 20
0.0477999999999952
 30
0.0000000000000003
 11
1.985964537035727
 21
0.0
 31
0.0000000000000003
210
0.0
220
1.0
230
0.0
  0
LINE
  5
10F
330
D4
100
AcDbEntity
  8
USP-GEO
100
AcDbLine
 10
1.909707340654676
 20
0.0477999999999952
 30
0.0000000000000003
 11
1.985964537035727
 21
0.0477999999999952
 31
0.0000000000000003
210
0.0
220
1.0
230
0.0
  0
LINE
  5
110
330
D4
100
AcDbEntity
  8
USP-GEO
100
AcDbLine
 10
1.909707340654676
 20
0.0
 30
0.0000000000000003
 11
1.985964537035727
 21
0.0
 31
0.0000000000000003
210
0.0
220
1.0
230
0.0
  0
ARC
  5
111
330
D4
100
AcDbEntity
  8
USP-GEO
100
AcDbCircle
 10
1.998302525316944
 20
0.1114396103067889
 30
0.0000000000000003
 40
0.0900000000000005
100
AcDbArc
 50
135.0000000000017
 51
190.1366051522956
  0
LINE
  5
112
330
D4
100
AcDbEntity
  8
USP-GEO
100
AcDbLine
 10
1.909707340654748
 20
0.0956000000000046
 30
0.0000000000000003
 11
1.909707340654733
 21
0.0799999999999983
 31
0.0000000000000003
210
0.0
220
1.0
230
0.0
  0
LINE
  5
113
330
D4
100
AcDbEntity
  8
USP-GEO
100
AcDbLine
 10
0.0878000000000015
 20
3.186942135623738
 30
0.0
 11
0.7978000000000094
 21
3.186942135623738
 31
0.0000000000000001
210
0.0
220
1.0
230
0.0
  0
LINE
  5
114
330
D4
100
AcDbEntity
  8
USP-GEO
100
AcDbLine
 10
0.0
 20
3.186942135623738
 30
0.0
 11
0.0477999999999952
 21
3.186942135623738
 31
0.0
210
0.0
220
1.0
230
0.0
  0
LINE
  5
115
330
D4
100
AcDbEntity
  8
USP-GEO
100
AcDbLine
 10
0.0477999999999952
 20
3.186942135623738
 30
0.0
 11
0.0878000000000015
 21
3.186942135623738
 31
0.0
210
0.0
220
1.0
230
0.0
  0
ENDBLK
  5
117
330
D4
100
AcDbEntity
  8
0
100
AcDbBlockEnd
  0
ENDSEC
  0
SECTION
  2
ENTITIES
  0
INSERT
  5
3
330
2
100
AcDbEntity
  8
USP
100
AcDbBlockReference
  2
JUS24_T
 10
5.18786551139704
 20
7.245073971747903
 30
0.0000000000000018
  0
INSERT
  5
56
330
2
100
AcDbEntity
  8
USP
100
AcDbBlockReference
  2
JUS24_F
 10
5.187865511397054
 20
1.500281696073617
 30
0.0000000000000017
  0
INSERT
  5
D3
330
2
100
AcDbEntity
  8
USP
100
AcDbBlockReference
  2
JUS24_S
 10
0.9382111237527283
 20
1.500281696073617
 30
0.0000000000000018
  0
ENDSEC
  0
SECTION
  2
OBJECTS
  0
DICTIONARY
  5
133
330
0
100
AcDbDictionary
281
     1
  3
ACAD_COLOR
350
14B
  3
ACAD_GROUP
350
130
  3
ACAD_LAYOUT
350
14C
  3
ACAD_MATERIAL
350
14A
  3
ACAD_MLINESTYLE
350
131
  3
ACAD_PLOTSETTINGS
350
14D
  3
ACAD_PLOTSTYLENAME
350
148
  3
ACDBHEADERROUNDTRIPXREC
350
156
  3
AcDbVariableDictionary
350
152
  0
DICTIONARY
  5
125
330
124
100
AcDbDictionary
280
     1
281
     1
  0
DICTIONARY
  5
127
330
126
100
AcDbDictionary
280
     1
281
     1
  0
DICTIONARY
  5
6
330
5
100
AcDbDictionary
280
     1
281
     1
  0
DICTIONARY
  5
B
330
A
100
AcDbDictionary
280
     1
281
     1
  0
DICTIONARY
  5
138
330
137
100
AcDbDictionary
280
     1
281
     1
  0
DICTIONARY
  5
118
330
2
100
AcDbDictionary
280
     1
281
     1
  3
ACAD_LAYOUTSELFREF
360
119
  0
DICTIONARY
  5
11D
330
11C
100
AcDbDictionary
280
     1
281
     1
  3
ACAD_LAYOUTSELFREF
360
11E
  0
DICTIONARY
  5
14B
102
{ACAD_REACTORS
330
133
102
}
330
133
100
AcDbDictionary
281
     1
  0
DICTIONARY
  5
130
102
{ACAD_REACTORS
330
133
102
}
330
133
100
AcDbDictionary
281
     1
  0
DICTIONARY
  5
14C
102
{ACAD_REACTORS
330
133
102
}
330
133
100
AcDbDictionary
281
     1
  3
Layout1
350
14F
  3
Model
350
14E
  0
DICTIONARY
  5
14A
102
{ACAD_REACTORS
330
133
102
}
330
133
100
AcDbDictionary
281
     1
  0
DICTIONARY
  5
131
102
{ACAD_XDICTIONARY
360
132
102
}
102
{ACAD_REACTORS
330
133
102
}
330
133
100
AcDbDictionary
281
     1
  3
STANDARD
350
136
  0
DICTIONARY
  5
14D
102
{ACAD_REACTORS
330
133
102
}
330
133
100
AcDbDictionary
281
     1
  0
ACDBDICTIONARYWDFLT
  5
148
102
{ACAD_REACTORS
330
133
102
}
330
133
100
AcDbDictionary
281
     1
  3
Normal
350
149
100
AcDbDictionaryWithDefault
340
149
  0
DICTIONARY
  5
156
102
{ACAD_REACTORS
330
133
102
}
330
133
100
AcDbDictionary
281
     1
  3
COLORDICT
350
158
  3
MATERIALDICT
350
157
  0
DICTIONARY
  5
152
102
{ACAD_REACTORS
330
133
102
}
330
133
100
AcDbDictionary
281
     1
  3
DIMASSOC
350
153
  3
PROJECTNAME
350
154
  0
XRECORD
  5
119
102
{ACAD_REACTORS
330
118
102
}
330
118
100
AcDbXrecord
280
     1
340
2
  0
XRECORD
  5
11E
102
{ACAD_REACTORS
330
11D
102
}
330
11D
100
AcDbXrecord
280
     1
340
11E
  0
LAYOUT
  5
14F
102
{ACAD_XDICTIONARY
360
15B
102
}
102
{ACAD_REACTORS
330
14C
102
}
330
14C
100
AcDbPlotSettings
  1

  2
\\mitk-us-mtg-n28\Office Canon IR C2550
  4

  6

 40
0.0
 41
0.0
 42
0.0
 43
0.0
 44
0.0
 45
0.0
 46
0.0
 47
0.0
 48
0.0
 49
0.0
140
0.0
141
0.0
142
1.0
143
1.0
 70
   688
 72
     0
 73
     0
 74
     5
  7

 75
    16
147
1.0
148
0.0
149
0.0
100
AcDbLayout
  1
Layout1
 70
     1
 71
     1
 10
0.0
 20
0.0
 11
12.0
 21
9.0
 12
0.0
 22
0.0
 32
0.0
 14
1.000000000000000E+20
 24
1.000000000000000E+20
 34
1.000000000000000E+20
 15
-1.000000000000000E+20
 25
-1.000000000000000E+20
 35
-1.000000000000000E+20
146
0.0
 13
0.0
 23
0.0
 33
0.0
 16
1.0
 26
0.0
 36
0.0
 17
0.0
 27
1.0
 37
0.0
 76
     0
330
11C
  0
LAYOUT
  5
14E
102
{ACAD_XDICTIONARY
360
159
102
}
102
{ACAD_REACTORS
330
14C
102
}
330
14C
100
AcDbPlotSettings
  1

  2
\\mitk-us-mtg-n28\Office Canon IR C2550
  4

  6

 40
0.0
 41
0.0
 42
0.0
 43
0.0
 44
0.0
 45
0.0
 46
0.0
 47
0.0
 48
0.0
 49
0.0
140
0.0
141
0.0
142
1.0
143
1.0
 70
  1712
 72
     0
 73
     0
 74
     0
  7

 75
     0
147
1.0
148
0.0
149
0.0
100
AcDbLayout
  1
Model
 70
     1
 71
     0
 10
0.0
 20
0.0
 11
12.0
 21
9.0
 12
0.0
 22
0.0
 32
0.0
 14
0.0
 24
0.0
 34
0.0
 15
0.0
 25
0.0
 35
0.0
146
0.0
 13
0.0
 23
0.0
 33
0.0
 16
1.0
 26
0.0
 36
0.0
 17
0.0
 27
1.0
 37
0.0
 76
     0
330
2
  0
DICTIONARY
  5
132
330
131
100
AcDbDictionary
280
     1
281
     1
  0
MLINESTYLE
  5
136
102
{ACAD_REACTORS
330
131
102
}
330
131
100
AcDbMlineStyle
  2
STANDARD
 70
     0
  3

 62
   256
 51
90.0
 52
90.0
 71
     2
 49
0.5
 62
   256
  6
BYLAYER
 49
-0.5
 62
   256
  6
BYLAYER
  0
ACDBPLACEHOLDER
  5
149
102
{ACAD_REACTORS
330
148
102
}
330
148
  0
XRECORD
  5
158
102
{ACAD_REACTORS
330
156
102
}
330
156
100
AcDbXrecord
280
     1
340
14B
  0
XRECORD
  5
157
102
{ACAD_REACTORS
330
156
102
}
330
156
100
AcDbXrecord
280
     1
340
14A
  0
DICTIONARYVAR
  5
153
102
{ACAD_REACTORS
330
152
102
}
330
152
100
DictionaryVariables
280
     0
  1
1
  0
DICTIONARYVAR
  5
154
102
{ACAD_REACTORS
330
152
102
}
330
152
100
DictionaryVariables
280
     0
  1

  0
DICTIONARY
  5
15B
330
14F
100
AcDbDictionary
280
     1
281
     1
  3
ACAD_XREC_ROUNDTRIP
360
15C
  0
DICTIONARY
  5
159
330
14E
100
AcDbDictionary
280
     1
281
     1
  3
ACAD_XREC_ROUNDTRIP
360
15A
  0
XRECORD
  5
15C
102
{ACAD_REACTORS
330
15B
102
}
330
15B
100
AcDbXrecord
280
     1
102
SHADEPLOT
 70
     0
102
SHADEPLOTRESLEVEL
 70
     2
102
SHADEPLOTCUSTOMDPI
 70
   300
  0
XRECORD
  5
15A
102
{ACAD_REACTORS
330
159
102
}
330
159
100
AcDbXrecord
280
     1
102
SHADEPLOT
 70
     0
102
SHADEPLOTRESLEVEL
 70
     2
102
SHADEPLOTCUSTOMDPI
 70
   300
  0
ENDSEC
  0
EOF
