  0
SECTION
  2
HEADER
  9
$ACADVER
  1
AC1015
  9
$ACADMAINTVER
 70
    20
  9
$DWGCODEPAGE
  3
ANSI_1252
  9
$INSBASE
 10
0.0
 20
0.0
 30
0.0
  9
$EXTMIN
 10
0.0003661829982491
 20
0.0004589650005151
 30
0.0000000000000061
  9
$EXTMAX
 10
11.72793818371625
 20
15.04060483849474
 30
0.0000000000000067
  9
$LIMMIN
 10
0.0
 20
0.0
  9
$LIMMAX
 10
12.0
 20
9.0
  9
$ORTHOMODE
 70
     0
  9
$REGENMODE
 70
     1
  9
$FILLMODE
 70
     1
  9
$QTEXTMODE
 70
     0
  9
$MIRRTEXT
 70
     1
  9
$LTSCALE
 40
1.0
  9
$ATTMODE
 70
     1
  9
$TEXTSIZE
 40
0.25
  9
$TRACEWID
 40
0.05
  9
$TEXTSTYLE
  7
STANDARD
  9
$CLAYER
  8
0
  9
$CELTYPE
  6
BYLAYER
  9
$CECOLOR
 62
   256
  9
$CELTSCALE
 40
1.0
  9
$DISPSILH
 70
     0
  9
$DIMSCALE
 40
1.0
  9
$DIMASZ
 40
0.18
  9
$DIMEXO
 40
0.0625
  9
$DIMDLI
 40
0.38
  9
$DIMRND
 40
0.0
  9
$DIMDLE
 40
0.0
  9
$DIMEXE
 40
0.18
  9
$DIMTP
 40
0.0
  9
$DIMTM
 40
0.0
  9
$DIMTXT
 40
0.18
  9
$DIMCEN
 40
0.09
  9
$DIMTSZ
 40
0.0
  9
$DIMTOL
 70
     0
  9
$DIMLIM
 70
     0
  9
$DIMTIH
 70
     1
  9
$DIMTOH
 70
     1
  9
$DIMSE1
 70
     0
  9
$DIMSE2
 70
     0
  9
$DIMTAD
 70
     0
  9
$DIMZIN
 70
     0
  9
$DIMBLK
  1

  9
$DIMASO
 70
     1
  9
$DIMSHO
 70
     1
  9
$DIMPOST
  1

  9
$DIMAPOST
  1

  9
$DIMALT
 70
     0
  9
$DIMALTD
 70
     2
  9
$DIMALTF
 40
25.4
  9
$DIMLFAC
 40
1.0
  9
$DIMTOFL
 70
     0
  9
$DIMTVP
 40
0.0
  9
$DIMTIX
 70
     0
  9
$DIMSOXD
 70
     0
  9
$DIMSAH
 70
     0
  9
$DIMBLK1
  1

  9
$DIMBLK2
  1

  9
$DIMSTYLE
  2
STANDARD
  9
$DIMCLRD
 70
     0
  9
$DIMCLRE
 70
     0
  9
$DIMCLRT
 70
     0
  9
$DIMTFAC
 40
1.0
  9
$DIMGAP
 40
0.09
  9
$DIMJUST
 70
     0
  9
$DIMSD1
 70
     0
  9
$DIMSD2
 70
     0
  9
$DIMTOLJ
 70
     1
  9
$DIMTZIN
 70
     0
  9
$DIMALTZ
 70
     0
  9
$DIMALTTZ
 70
     0
  9
$DIMUPT
 70
     0
  9
$DIMDEC
 70
     4
  9
$DIMTDEC
 70
     4
  9
$DIMALTU
 70
     2
  9
$DIMALTTD
 70
     2
  9
$DIMTXSTY
  7
STANDARD
  9
$DIMAUNIT
 70
     0
  9
$DIMADEC
 70
     0
  9
$DIMALTRND
 40
0.0
  9
$DIMAZIN
 70
     0
  9
$DIMDSEP
 70
    46
  9
$DIMATFIT
 70
     3
  9
$DIMFRAC
 70
     0
  9
$DIMLDRBLK
  1

  9
$DIMLUNIT
 70
     2
  9
$DIMLWD
 70
    -2
  9
$DIMLWE
 70
    -2
  9
$DIMTMOVE
 70
     0
  9
$LUNITS
 70
     2
  9
$LUPREC
 70
     4
  9
$SKETCHINC
 40
0.1
  9
$FILLETRAD
 40
0.5
  9
$AUNITS
 70
     0
  9
$AUPREC
 70
     0
  9
$MENU
  1
.
  9
$ELEVATION
 40
0.0
  9
$PELEVATION
 40
0.0
  9
$THICKNESS
 40
0.0
  9
$LIMCHECK
 70
     0
  9
$CHAMFERA
 40
0.5
  9
$CHAMFERB
 40
0.5
  9
$CHAMFERC
 40
1.0
  9
$CHAMFERD
 40
0.0
  9
$SKPOLY
 70
     0
  9
$TDCREATE
 40
2451667.537949422
  9
$TDUCREATE
 40
2451667.746282755
  9
$TDUPDATE
 40
2455846.457382222
  9
$TDUUPDATE
 40
2455846.665715556
  9
$TDINDWG
 40
0.2288595718
  9
$TDUSRTIMER
 40
0.2288595718
  9
$USRTIMER
 70
     1
  9
$ANGBASE
 50
0.0
  9
$ANGDIR
 70
     0
  9
$PDMODE
 70
     0
  9
$PDSIZE
 40
0.0
  9
$PLINEWID
 40
0.0
  9
$SPLFRAME
 70
     0
  9
$SPLINETYPE
 70
     6
  9
$SPLINESEGS
 70
     8
  9
$HANDSEED
  5
1F5
  9
$SURFTAB1
 70
     6
  9
$SURFTAB2
 70
     6
  9
$SURFTYPE
 70
     6
  9
$SURFU
 70
     6
  9
$SURFV
 70
     6
  9
$UCSBASE
  2

  9
$UCSNAME
  2

  9
$UCSORG
 10
0.0
 20
0.0
 30
0.0
  9
$UCSXDIR
 10
1.0
 20
0.0
 30
0.0
  9
$UCSYDIR
 10
0.0
 20
1.0
 30
0.0
  9
$UCSORTHOREF
  2

  9
$UCSORTHOVIEW
 70
     0
  9
$UCSORGTOP
 10
0.0
 20
0.0
 30
0.0
  9
$UCSORGBOTTOM
 10
0.0
 20
0.0
 30
0.0
  9
$UCSORGLEFT
 10
0.0
 20
0.0
 30
0.0
  9
$UCSORGRIGHT
 10
0.0
 20
0.0
 30
0.0
  9
$UCSORGFRONT
 10
0.0
 20
0.0
 30
0.0
  9
$UCSORGBACK
 10
0.0
 20
0.0
 30
0.0
  9
$PUCSBASE
  2

  9
$PUCSNAME
  2

  9
$PUCSORG
 10
0.0
 20
0.0
 30
0.0
  9
$PUCSXDIR
 10
1.0
 20
0.0
 30
0.0
  9
$PUCSYDIR
 10
0.0
 20
1.0
 30
0.0
  9
$PUCSORTHOREF
  2

  9
$PUCSORTHOVIEW
 70
     0
  9
$PUCSORGTOP
 10
0.0
 20
0.0
 30
0.0
  9
$PUCSORGBOTTOM
 10
0.0
 20
0.0
 30
0.0
  9
$PUCSORGLEFT
 10
0.0
 20
0.0
 30
0.0
  9
$PUCSORGRIGHT
 10
0.0
 20
0.0
 30
0.0
  9
$PUCSORGFRONT
 10
0.0
 20
0.0
 30
0.0
  9
$PUCSORGBACK
 10
0.0
 20
0.0
 30
0.0
  9
$USERI1
 70
     0
  9
$USERI2
 70
     0
  9
$USERI3
 70
     0
  9
$USERI4
 70
     0
  9
$USERI5
 70
     0
  9
$USERR1
 40
0.0
  9
$USERR2
 40
0.0
  9
$USERR3
 40
0.0
  9
$USERR4
 40
0.0
  9
$USERR5
 40
0.0
  9
$WORLDVIEW
 70
     1
  9
$SHADEDGE
 70
     3
  9
$SHADEDIF
 70
    70
  9
$TILEMODE
 70
     1
  9
$MAXACTVP
 70
    48
  9
$PINSBASE
 10
0.0
 20
0.0
 30
0.0
  9
$PLIMCHECK
 70
     0
  9
$PEXTMIN
 10
1.000000000000000E+20
 20
1.000000000000000E+20
 30
1.000000000000000E+20
  9
$PEXTMAX
 10
-1.000000000000000E+20
 20
-1.000000000000000E+20
 30
-1.000000000000000E+20
  9
$PLIMMIN
 10
0.0
 20
0.0
  9
$PLIMMAX
 10
12.0
 20
9.0
  9
$UNITMODE
 70
     0
  9
$VISRETAIN
 70
     1
  9
$PLINEGEN
 70
     0
  9
$PSLTSCALE
 70
     1
  9
$TREEDEPTH
 70
  3020
  9
$CMLSTYLE
  2
STANDARD
  9
$CMLJUST
 70
     0
  9
$CMLSCALE
 40
1.0
  9
$PROXYGRAPHICS
 70
     1
  9
$MEASUREMENT
 70
     0
  9
$CELWEIGHT
370
    -1
  9
$ENDCAPS
280
     0
  9
$JOINSTYLE
280
     0
  9
$LWDISPLAY
290
     0
  9
$INSUNITS
 70
     0
  9
$HYPERLINKBASE
  1

  9
$STYLESHEET
  1

  9
$XEDIT
290
     1
  9
$CEPSNTYPE
380
     0
  9
$PSTYLEMODE
290
     1
  9
$FINGERPRINTGUID
  2
{D5054A2B-95BE-46FD-BF98-2A52038F2462}
  9
$VERSIONGUID
  2
{BDB6C287-9BF2-4491-A11F-D692C1B5229C}
  9
$EXTNAMES
290
     1
  9
$PSVPSCALE
 40
0.0
  9
$OLESTARTUP
290
     0
  0
ENDSEC
  0
SECTION
  2
CLASSES
  0
CLASS
  1
ACDBDICTIONARYWDFLT
  2
AcDbDictionaryWithDefault
  3
ObjectDBX Classes
 90
        0
280
     1
281
     0
  0
CLASS
  1
ACDBPLACEHOLDER
  2
AcDbPlaceHolder
  3
ObjectDBX Classes
 90
        0
280
     0
281
     0
  0
CLASS
  1
LAYOUT
  2
AcDbLayout
  3
ObjectDBX Classes
 90
        0
280
     0
281
     0
  0
CLASS
  1
DICTIONARYVAR
  2
AcDbDictionaryVar
  3
ObjectDBX Classes
 90
        0
280
     0
281
     0
  0
ENDSEC
  0
SECTION
  2
TABLES
  0
TABLE
  2
VPORT
  5
1C2
330
0
100
AcDbSymbolTable
 70
     2
  0
VPORT
  5
1ED
330
1C2
100
AcDbSymbolTableRecord
100
AcDbViewportTableRecord
  2
*Active
 70
     0
 10
0.0
 20
0.0
 11
1.0
 21
1.0
 12
12.83355296034085
 22
7.706114986540706
 13
0.0
 23
0.0
 14
0.5
 24
0.5
 15
0.5
 25
0.5
 16
0.0
 26
0.0
 36
1.0
 17
0.0
 27
0.0
 37
0.0
 40
15.52209808105054
 41
2.358552631578947
 42
50.0
 43
0.0
 44
0.0
 50
0.0
 51
0.0
 71
     0
 72
   100
 73
     1
 74
     3
 75
     0
 76
     0
 77
     0
 78
     0
281
     0
 65
     1
110
0.0
120
0.0
130
0.0
111
1.0
121
0.0
131
0.0
112
0.0
122
1.0
132
0.0
 79
     0
146
0.0
  0
ENDTAB
  0
TABLE
  2
LTYPE
  5
1BB
330
0
100
AcDbSymbolTable
 70
     2
  0
LTYPE
  5
1BC
102
{ACAD_XDICTIONARY
360
1BD
102
}
330
1BB
100
AcDbSymbolTableRecord
100
AcDbLinetypeTableRecord
  2
BYBLOCK
 70
     0
  3

 72
    65
 73
     0
 40
0.0
  0
LTYPE
  5
1BE
102
{ACAD_XDICTIONARY
360
1BF
102
}
330
1BB
100
AcDbSymbolTableRecord
100
AcDbLinetypeTableRecord
  2
BYLAYER
 70
     0
  3

 72
    65
 73
     0
 40
0.0
  0
LTYPE
  5
5
102
{ACAD_XDICTIONARY
360
6
102
}
330
1BB
100
AcDbSymbolTableRecord
100
AcDbLinetypeTableRecord
  2
CONTINUOUS
 70
     0
  3
Solid line
 72
    65
 73
     0
 40
0.0
  0
LTYPE
  5
194
330
1BB
100
AcDbSymbolTableRecord
100
AcDbLinetypeTableRecord
  2
HIDDEN
 70
     0
  3
Hidden __ __ __ __ __ __ __ __ __ __ __ __ __ _
 72
    65
 73
     2
 40
0.375
 49
0.25
 74
     0
 49
-0.125
 74
     0
  0
ENDTAB
  0
TABLE
  2
LAYER
  5
1B9
330
0
100
AcDbSymbolTable
 70
     5
  0
LAYER
  5
5C
330
1B9
100
AcDbSymbolTableRecord
100
AcDbLayerTableRecord
  2
0
 70
     0
 62
     7
  6
CONTINUOUS
370
    -3
390
1E1
  0
LAYER
  5
4
330
1B9
100
AcDbSymbolTableRecord
100
AcDbLayerTableRecord
  2
USP
 70
     0
 62
     7
  6
CONTINUOUS
370
    -3
390
1E1
  0
LAYER
  5
193
330
1B9
100
AcDbSymbolTableRecord
100
AcDbLayerTableRecord
  2
USP-HID
 70
     0
 62
     7
  6
HIDDEN
370
    -3
390
1E1
  0
LAYER
  5
D
330
1B9
100
AcDbSymbolTableRecord
100
AcDbLayerTableRecord
  2
USP-GEO
 70
     0
 62
     7
  6
CONTINUOUS
370
    -3
390
1E1
  0
LAYER
  5
9
330
1B9
100
AcDbSymbolTableRecord
100
AcDbLayerTableRecord
  2
USP-TXT
 70
     0
 62
     7
  6
CONTINUOUS
370
    -3
390
1E1
  0
ENDTAB
  0
TABLE
  2
STYLE
  5
1BA
330
0
100
AcDbSymbolTable
 70
     1
  0
STYLE
  5
A
102
{ACAD_XDICTIONARY
360
B
102
}
330
1BA
100
AcDbSymbolTableRecord
100
AcDbTextStyleTableRecord
  2
STANDARD
 70
     0
 40
0.0
 41
1.0
 50
0.0
 71
     0
 42
0.25
  3
txt
  4

  0
ENDTAB
  0
TABLE
  2
VIEW
  5
1C0
330
0
100
AcDbSymbolTable
 70
     0
  0
ENDTAB
  0
TABLE
  2
UCS
  5
1C1
330
0
100
AcDbSymbolTable
 70
     0
  0
ENDTAB
  0
TABLE
  2
APPID
  5
1C4
330
0
100
AcDbSymbolTable
 70
     1
  0
APPID
  5
1C5
330
1C4
100
AcDbSymbolTableRecord
100
AcDbRegAppTableRecord
  2
ACAD
 70
     0
  0
ENDTAB
  0
TABLE
  2
DIMSTYLE
  5
1C6
330
0
100
AcDbSymbolTable
 70
     1
100
AcDbDimStyleTable
 71
     0
  0
DIMSTYLE
105
1CF
102
{ACAD_XDICTIONARY
360
1D0
102
}
330
1C6
100
AcDbSymbolTableRecord
100
AcDbDimStyleTableRecord
  2
STANDARD
 70
     0
340
A
  0
ENDTAB
  0
TABLE
  2
BLOCK_RECORD
  5
1
330
0
100
AcDbSymbolTable
 70
     3
  0
BLOCK_RECORD
  5
2
102
{ACAD_XDICTIONARY
360
1B0
102
}
330
1
100
AcDbSymbolTableRecord
100
AcDbBlockTableRecord
  2
*MODEL_SPACE
340
1E6
  0
BLOCK_RECORD
  5
1B4
102
{ACAD_XDICTIONARY
360
1B5
102
}
330
1
100
AcDbSymbolTableRecord
100
AcDbBlockTableRecord
  2
*PAPER_SPACE
340
1E7
  0
BLOCK_RECORD
  5
7
330
1
100
AcDbSymbolTableRecord
100
AcDbBlockTableRecord
  2
JUS210-2_T
340
0
102
{BLKREFS
331
3
102
}
  0
BLOCK_RECORD
  5
5F
330
1
100
AcDbSymbolTableRecord
100
AcDbBlockTableRecord
  2
JUS210-2_F
340
0
102
{BLKREFS
331
5E
102
}
  0
BLOCK_RECORD
  5
13C
330
1
100
AcDbSymbolTableRecord
100
AcDbBlockTableRecord
  2
JUS210-2_S
340
0
102
{BLKREFS
331
13B
102
}
  0
ENDTAB
  0
ENDSEC
  0
SECTION
  2
BLOCKS
  0
BLOCK
  5
1B2
330
2
100
AcDbEntity
  8
0
100
AcDbBlockBegin
  2
*MODEL_SPACE
 70
     0
 10
0.0
 20
0.0
 30
0.0
  3
*MODEL_SPACE
  1

  0
ENDBLK
  5
1B3
330
2
100
AcDbEntity
  8
0
100
AcDbBlockEnd
  0
BLOCK
  5
1B7
330
1B4
100
AcDbEntity
 67
     1
  8
0
100
AcDbBlockBegin
  2
*PAPER_SPACE
 70
     0
 10
0.0
 20
0.0
 30
0.0
  3
*PAPER_SPACE
  1

  0
ENDBLK
  5
1B8
330
1B4
100
AcDbEntity
 67
     1
  8
0
100
AcDbBlockEnd
  0
BLOCK
  5
5B
330
7
100
AcDbEntity
  8
0
100
AcDbBlockBegin
  2
JUS210-2_T
 70
     0
 10
0.0
 20
0.0
 30
0.0
  3
JUS210-2_T
  1

  0
TEXT
  5
8
330
7
100
AcDbEntity
  8
USP-TXT
100
AcDbText
 10
0.297800000000024
 20
-0.6934870154304349
 30
0.0
 40
0.25
  1
JUS210-2 - TOP VIEW
 72
     1
 11
2.610300000000023
 21
-0.6934870154304349
 31
0.0
100
AcDbText
  0
LINE
  5
C
330
7
100
AcDbEntity
  8
USP-GEO
100
AcDbLine
 10
3.516550000000023
 20
1.9375
 30
0.0
 11
3.704050000000037
 21
1.9375
 31
0.0
  0
LINE
  5
E
330
7
100
AcDbEntity
  8
USP-GEO
100
AcDbLine
 10
3.704050000000037
 20
0.0625
 30
0.0
 11
3.516550000000023
 21
0.0625
 31
0.0
  0
LINE
  5
F
330
7
100
AcDbEntity
  8
USP-GEO
100
AcDbLine
 10
1.000000000000028
 20
2.250000000000014
 30
0.0
 11
0.0
 21
2.250000000000014
 31
0.0
  0
LINE
  5
10
330
7
100
AcDbEntity
  8
USP-GEO
100
AcDbLine
 10
0.0000000000000142
 20
2.297800000000009
 30
0.0
 11
1.047800000000023
 21
2.297800000000009
 31
0.0
  0
LINE
  5
11
330
7
100
AcDbEntity
  8
USP-GEO
100
AcDbLine
 10
0.0
 20
2.25
 30
0.0
 11
0.0
 21
2.297799999999995
 31
0.0
  0
LINE
  5
12
330
7
100
AcDbEntity
  8
USP-GEO
100
AcDbLine
 10
3.485300000000023
 20
0.0
 30
0.0
 11
1.735300000000023
 21
0.0
 31
0.0
  0
LINE
  5
13
330
7
100
AcDbEntity
  8
USP-GEO
100
AcDbLine
 10
1.735300000000023
 20
2.0
 30
0.0
 11
3.485300000000023
 21
2.0
 31
0.0
  0
LINE
  5
14
330
7
100
AcDbEntity
  8
USP-GEO
100
AcDbLine
 10
1.047800000000023
 20
1.25
 30
0.0
 11
1.047800000000023
 21
1.066666666666662
 31
0.0
  0
LINE
  5
15
330
7
100
AcDbEntity
  8
USP-GEO
100
AcDbLine
 10
1.000000000000028
 20
1.25
 30
0.0
 11
1.000000000000028
 21
1.066666666666662
 31
0.0
  0
ARC
  5
16
330
7
100
AcDbEntity
  8
USP-GEO
100
AcDbCircle
 10
1.047800000000023
 20
1.15673432041008
 30
0.0
 40
0.2977999999999987
100
AcDbArc
 50
99.23652345545161
 51
209.0169729401717
  0
LINE
  5
17
330
7
100
AcDbEntity
  8
USP-GEO
100
AcDbLine
 10
1.485299999999995
 20
0.0
 30
0.0
 11
1.047800000000023
 21
0.0
 31
0.0
  0
LINE
  5
18
330
7
100
AcDbEntity
  8
USP-GEO
100
AcDbLine
 10
1.047800000000023
 20
1.066666666666662
 30
0.0
 11
1.047800000000023
 21
0.8375000000000056
 31
0.0
  0
LINE
  5
19
330
7
100
AcDbEntity
  8
USP-GEO
100
AcDbLine
 10
1.047800000000023
 20
0.8374999999999914
 30
0.0
 11
1.000000000000028
 21
0.8374999999999914
 31
0.0
  0
LINE
  5
1A
330
7
100
AcDbEntity
  8
USP-GEO
100
AcDbLine
 10
1.047800000000023
 20
0.0467990710866531
 30
0.0
 11
1.047800000000023
 21
-0.0000000000000142
 31
0.0
  0
LINE
  5
1B
330
7
100
AcDbEntity
  8
USP-GEO
100
AcDbLine
 10
1.047800000000023
 20
0.0
 30
0.0
 11
1.000000000000028
 21
0.0
 31
0.0
  0
LINE
  5
1C
330
7
100
AcDbEntity
  8
USP-GEO
100
AcDbLine
 10
1.047800000000023
 20
0.8374999999999914
 30
0.0
 11
1.047800000000023
 21
0.0467990710866531
 31
0.0
  0
LINE
  5
1D
330
7
100
AcDbEntity
  8
USP-GEO
100
AcDbLine
 10
0.7873810317671257
 20
1.012280864291795
 30
0.0
 11
0.9033465438817245
 21
0.8963153521771971
 31
0.0
  0
LINE
  5
1E
330
7
100
AcDbEntity
  8
USP-GEO
100
AcDbLine
 10
1.000000000000028
 20
1.066666666666662
 30
0.0
 11
1.000000000000028
 21
0.8374999999999914
 31
0.0
  0
LINE
  5
1F
330
7
100
AcDbEntity
  8
USP-GEO
100
AcDbLine
 10
1.000000000000028
 20
0.8375000000000056
 30
0.0
 11
1.000000000000028
 21
0.0467990710866531
 31
0.0
  0
LINE
  5
20
330
7
100
AcDbEntity
  8
USP-GEO
100
AcDbLine
 10
1.000000000000028
 20
0.0467990710866531
 30
0.0
 11
1.000000000000028
 21
0.0
 31
0.0
  0
ARC
  5
21
330
7
100
AcDbEntity
  8
USP-GEO
100
AcDbCircle
 10
1.047800000000023
 20
1.15673432041008
 30
0.0
 40
0.2977999999999987
100
AcDbArc
 50
240.9830270598254
 51
260.7634765445484
  0
LINE
  5
22
330
7
100
AcDbEntity
  8
USP-GEO
100
AcDbLine
 10
1.735300000000023
 20
0.0
 30
0.0
 11
1.735300000000023
 21
0.03125
 31
0.0
  0
ARC
  5
23
330
7
100
AcDbEntity
  8
USP-GEO
100
AcDbCircle
 10
1.704050000000023
 20
0.03125
 30
0.0
 40
0.03125
100
AcDbArc
 50
359.9999999999968
 51
90.0
  0
LINE
  5
24
330
7
100
AcDbEntity
  8
USP-GEO
100
AcDbLine
 10
1.704050000000023
 20
0.0625
 30
0.0
 11
1.516549999999995
 21
0.0625
 31
0.0
  0
ARC
  5
25
330
7
100
AcDbEntity
  8
USP-GEO
100
AcDbCircle
 10
1.516549999999995
 20
0.03125
 30
0.0
 40
0.03125
100
AcDbArc
 50
90.0
 51
179.9999999999935
  0
LINE
  5
26
330
7
100
AcDbEntity
  8
USP-GEO
100
AcDbLine
 10
1.485299999999995
 20
0.03125
 30
0.0
 11
1.485299999999995
 21
0.0
 31
0.0
  0
LINE
  5
27
330
7
100
AcDbEntity
  8
USP-GEO
100
AcDbLine
 10
1.047800000000023
 20
2.0
 30
0.0
 11
1.485299999999995
 21
2.0
 31
0.0
  0
LINE
  5
28
330
7
100
AcDbEntity
  8
USP-GEO
100
AcDbLine
 10
0.5875000000000341
 20
2.049673383528329
 30
0.0
 11
0.5875000000000341
 21
2.250000000000014
 31
0.0
  0
LINE
  5
29
330
7
100
AcDbEntity
  8
USP-GEO
100
AcDbLine
 10
0.5875000000000341
 20
2.297799999999995
 30
0.0
 11
0.6875000000000285
 21
2.355157643635109
 31
0.0
  0
LINE
  5
2A
330
7
100
AcDbEntity
  8
USP-GEO
100
AcDbLine
 10
0.6875000000000285
 20
2.355157643635095
 30
0.0
 11
0.7875000000000228
 21
2.297799999999995
 31
0.0
  0
LINE
  5
2B
330
7
100
AcDbEntity
  8
USP-GEO
100
AcDbLine
 10
0.5875000000000341
 20
2.049673383528315
 30
0.0
 11
0.5875000000000341
 21
2.041028851245343
 31
0.0
  0
LINE
  5
2C
330
7
100
AcDbEntity
  8
USP-GEO
100
AcDbLine
 10
0.7874999999999944
 20
2.041028851245343
 30
0.0
 11
0.7874999999999944
 21
2.049673383528329
 31
0.0
  0
LINE
  5
2D
330
7
100
AcDbEntity
  8
USP-GEO
100
AcDbLine
 10
0.7875000000000228
 20
2.25
 30
0.0
 11
0.7875000000000086
 21
2.049673383528315
 31
0.0
  0
LINE
  5
2E
330
7
100
AcDbEntity
  8
USP-GEO
100
AcDbLine
 10
0.5875000000000341
 20
2.041028851245343
 30
0.0
 11
0.7874999999999944
 21
2.041028851245343
 31
0.0
  0
LINE
  5
2F
330
7
100
AcDbEntity
  8
USP-GEO
100
AcDbLine
 10
1.047800000000023
 20
1.250000000000014
 30
0.0
 11
1.000000000000028
 21
1.250000000000014
 31
0.0
  0
LINE
  5
30
330
7
100
AcDbEntity
  8
USP-GEO
100
AcDbLine
 10
1.047800000000023
 20
2.297800000000009
 30
0.0
 11
1.047800000000023
 21
1.25
 31
0.0
  0
LINE
  5
31
330
7
100
AcDbEntity
  8
USP-GEO
100
AcDbLine
 10
1.000000000000028
 20
1.25
 30
0.0
 11
1.000000000000028
 21
2.250000000000014
 31
0.0
  0
LINE
  5
32
330
7
100
AcDbEntity
  8
USP-GEO
100
AcDbLine
 10
1.485299999999995
 20
2.000000000000014
 30
0.0
 11
1.485299999999995
 21
1.96875
 31
0.0
  0
ARC
  5
33
330
7
100
AcDbEntity
  8
USP-GEO
100
AcDbCircle
 10
1.516549999999995
 20
1.96875
 30
0.0
 40
0.03125
100
AcDbArc
 50
179.9999999999935
 51
270.000000000013
  0
LINE
  5
34
330
7
100
AcDbEntity
  8
USP-GEO
100
AcDbLine
 10
1.516550000000009
 20
1.9375
 30
0.0
 11
1.704050000000023
 21
1.9375
 31
0.0
  0
ARC
  5
35
330
7
100
AcDbEntity
  8
USP-GEO
100
AcDbCircle
 10
1.704050000000023
 20
1.96875
 30
0.0
 40
0.03125
100
AcDbArc
 50
270.0
 51
359.9999999999935
  0
LINE
  5
36
330
7
100
AcDbEntity
  8
USP-GEO
100
AcDbLine
 10
1.735300000000023
 20
1.96875
 30
0.0
 11
1.735300000000023
 21
2.0
 31
0.0
  0
LINE
  5
37
330
7
100
AcDbEntity
  8
USP-GEO
100
AcDbLine
 10
3.485300000000023
 20
0.03125
 30
0.0
 11
3.485300000000023
 21
0.0
 31
0.0
  0
ARC
  5
38
330
7
100
AcDbEntity
  8
USP-GEO
100
AcDbCircle
 10
3.516550000000023
 20
0.03125
 30
0.0
 40
0.03125
100
AcDbArc
 50
90.0
 51
180.0
  0
LINE
  5
39
330
7
100
AcDbEntity
  8
USP-GEO
100
AcDbLine
 10
3.485300000000023
 20
2.000000000000014
 30
0.0
 11
3.485300000000023
 21
1.96875
 31
0.0
  0
ARC
  5
3A
330
7
100
AcDbEntity
  8
USP-GEO
100
AcDbCircle
 10
3.516550000000023
 20
1.96875
 30
0.0
 40
0.03125
100
AcDbArc
 50
180.0
 51
270.0
  0
LINE
  5
3B
330
7
100
AcDbEntity
  8
USP-GEO
100
AcDbLine
 10
4.172800000000052
 20
2.297800000000009
 30
0.0
 11
5.220600000000047
 21
2.297800000000009
 31
0.0
  0
LINE
  5
3C
330
7
100
AcDbEntity
  8
USP-GEO
100
AcDbLine
 10
5.220600000000047
 20
2.250000000000014
 30
0.0
 11
4.220600000000047
 21
2.250000000000014
 31
0.0
  0
LINE
  5
3D
330
7
100
AcDbEntity
  8
USP-GEO
100
AcDbLine
 10
4.220600000000047
 20
1.066666666666677
 30
0.0
 11
4.220600000000047
 21
1.250000000000014
 31
0.0
  0
LINE
  5
3E
330
7
100
AcDbEntity
  8
USP-GEO
100
AcDbLine
 10
4.172800000000052
 20
1.250000000000014
 30
0.0
 11
4.172800000000052
 21
1.066666666666677
 31
0.0
  0
ARC
  5
3F
330
7
100
AcDbEntity
  8
USP-GEO
100
AcDbCircle
 10
4.172800000000052
 20
1.156734320410095
 30
0.0
 40
0.2977999999999987
100
AcDbArc
 50
330.9830270598272
 51
80.76347654455254
  0
LINE
  5
40
330
7
100
AcDbEntity
  8
USP-GEO
100
AcDbLine
 10
4.433218968232949
 20
1.01228086429181
 30
0.0
 11
4.317253456118351
 21
0.8963153521772113
 31
0.0
  0
LINE
  5
41
330
7
100
AcDbEntity
  8
USP-GEO
100
AcDbLine
 10
4.172800000000052
 20
0.8375000000000056
 30
0.0
 11
4.220600000000047
 21
0.8375000000000056
 31
0.0
  0
LINE
  5
42
330
7
100
AcDbEntity
  8
USP-GEO
100
AcDbLine
 10
4.172800000000052
 20
0.0000000000000142
 30
0.0
 11
4.220600000000047
 21
0.0000000000000142
 31
0.0
  0
LINE
  5
43
330
7
100
AcDbEntity
  8
USP-GEO
100
AcDbLine
 10
4.172800000000052
 20
0.0
 30
0.0
 11
3.735300000000023
 21
0.0
 31
0.0
  0
LINE
  5
44
330
7
100
AcDbEntity
  8
USP-GEO
100
AcDbLine
 10
3.735300000000023
 20
0.0
 30
0.0
 11
3.735300000000023
 21
0.03125
 31
0.0
  0
ARC
  5
45
330
7
100
AcDbEntity
  8
USP-GEO
100
AcDbCircle
 10
3.704050000000037
 20
0.03125
 30
0.0
 40
0.03125
100
AcDbArc
 50
359.9999999999902
 51
90.0
  0
LINE
  5
46
330
7
100
AcDbEntity
  8
USP-GEO
100
AcDbLine
 10
4.220600000000047
 20
0.0
 30
0.0
 11
4.220600000000047
 21
0.0467990710866531
 31
0.0
  0
LINE
  5
47
330
7
100
AcDbEntity
  8
USP-GEO
100
AcDbLine
 10
4.220600000000047
 20
0.0467990710866531
 30
0.0
 11
4.220600000000047
 21
0.8375000000000056
 31
0.0
  0
LINE
  5
48
330
7
100
AcDbEntity
  8
USP-GEO
100
AcDbLine
 10
4.220600000000047
 20
0.8375000000000056
 30
0.0
 11
4.220600000000047
 21
1.066666666666677
 31
0.0
  0
LINE
  5
49
330
7
100
AcDbEntity
  8
USP-GEO
100
AcDbLine
 10
4.172800000000052
 20
1.066666666666677
 30
0.0
 11
4.172800000000052
 21
0.8375000000000056
 31
0.0
  0
LINE
  5
4A
330
7
100
AcDbEntity
  8
USP-GEO
100
AcDbLine
 10
4.172800000000052
 20
0.8375000000000056
 30
0.0
 11
4.172800000000052
 21
0.0467990710866673
 31
0.0
  0
LINE
  5
4B
330
7
100
AcDbEntity
  8
USP-GEO
100
AcDbLine
 10
4.172800000000052
 20
0.0467990710866531
 30
0.0
 11
4.172800000000052
 21
0.0
 31
0.0
  0
ARC
  5
4C
330
7
100
AcDbEntity
  8
USP-GEO
100
AcDbCircle
 10
4.172800000000052
 20
1.156734320410095
 30
0.0
 40
0.2977999999999987
100
AcDbArc
 50
279.2365234554475
 51
299.0169729401728
  0
ARC
  5
4D
330
7
100
AcDbEntity
  8
USP-GEO
100
AcDbCircle
 10
3.704050000000023
 20
1.96875
 30
0.0
 40
0.03125
100
AcDbArc
 50
270.0
 51
359.9999999999935
  0
LINE
  5
4E
330
7
100
AcDbEntity
  8
USP-GEO
100
AcDbLine
 10
3.735300000000037
 20
1.96875
 30
0.0
 11
3.735300000000037
 21
2.0
 31
0.0
  0
LINE
  5
4F
330
7
100
AcDbEntity
  8
USP-GEO
100
AcDbLine
 10
3.735300000000023
 20
2.0
 30
0.0
 11
4.172800000000052
 21
2.0
 31
0.0
  0
LINE
  5
50
330
7
100
AcDbEntity
  8
USP-GEO
100
AcDbLine
 10
4.220600000000047
 20
1.250000000000014
 30
0.0
 11
4.172800000000052
 21
1.250000000000014
 31
0.0
  0
LINE
  5
51
330
7
100
AcDbEntity
  8
USP-GEO
100
AcDbLine
 10
4.220600000000047
 20
2.250000000000014
 30
0.0
 11
4.220600000000047
 21
1.250000000000014
 31
0.0
  0
LINE
  5
52
330
7
100
AcDbEntity
  8
USP-GEO
100
AcDbLine
 10
4.172800000000052
 20
1.250000000000014
 30
0.0
 11
4.172800000000052
 21
2.297799999999995
 31
0.0
  0
LINE
  5
53
330
7
100
AcDbEntity
  8
USP-GEO
100
AcDbLine
 10
4.433100000000052
 20
2.297800000000009
 30
0.0
 11
4.533100000000047
 21
2.355157643635109
 31
0.0
  0
LINE
  5
54
330
7
100
AcDbEntity
  8
USP-GEO
100
AcDbLine
 10
4.533100000000047
 20
2.355157643635109
 30
0.0
 11
4.633100000000041
 21
2.297800000000009
 31
0.0
  0
LINE
  5
55
330
7
100
AcDbEntity
  8
USP-GEO
100
AcDbLine
 10
4.433100000000052
 20
2.049673383528329
 30
0.0
 11
4.433100000000052
 21
2.041028851245343
 31
0.0
  0
LINE
  5
56
330
7
100
AcDbEntity
  8
USP-GEO
100
AcDbLine
 10
4.633100000000027
 20
2.041028851245343
 30
0.0
 11
4.633100000000027
 21
2.049673383528329
 31
0.0
  0
LINE
  5
57
330
7
100
AcDbEntity
  8
USP-GEO
100
AcDbLine
 10
4.633100000000041
 20
2.250000000000014
 30
0.0
 11
4.633100000000013
 21
2.049673383528329
 31
0.0
  0
LINE
  5
58
330
7
100
AcDbEntity
  8
USP-GEO
100
AcDbLine
 10
4.433100000000052
 20
2.049673383528329
 30
0.0
 11
4.433100000000052
 21
2.250000000000014
 31
0.0
  0
LINE
  5
59
330
7
100
AcDbEntity
  8
USP-GEO
100
AcDbLine
 10
4.433100000000052
 20
2.041028851245343
 30
0.0
 11
4.633100000000041
 21
2.041028851245343
 31
0.0
  0
LINE
  5
5A
330
7
100
AcDbEntity
  8
USP-GEO
100
AcDbLine
 10
5.220600000000047
 20
2.297800000000009
 30
0.0
 11
5.220600000000047
 21
2.250000000000014
 31
0.0
  0
ENDBLK
  5
5D
330
7
100
AcDbEntity
  8
0
100
AcDbBlockEnd
  0
BLOCK
  5
139
330
5F
100
AcDbEntity
  8
0
100
AcDbBlockBegin
  2
JUS210-2_F
 70
     0
 10
0.0
 20
0.0
 30
0.0
  3
JUS210-2_F
  1

  0
ELLIPSE
  5
60
330
5F
100
AcDbEntity
  8
USP-GEO
100
AcDbEllipse
 10
4.33979700596123
 20
8.047799999999995
 30
0.0000000000000004
 11
0.0000000000000489
 21
0.0819999999999894
 31
0.0
210
-0.0000000000000001
220
0.0
230
1.0
 40
0.7071067811866698
 41
-1.570796326794475
 42
-0.3105698314571387
  0
ELLIPSE
  5
61
330
5F
100
AcDbEntity
  8
USP-GEO
100
AcDbEllipse
 10
4.33979700596123
 20
8.047799999999995
 30
0.0000000000000004
 11
-0.0000000000000488
 21
0.0819999999999894
 31
0.0
210
-0.0000000000000001
220
0.0
230
1.0
 40
0.70710678118667
 41
-2.831022822132653
 42
-1.570796326795317
  0
ELLIPSE
  5
62
330
5F
100
AcDbEntity
  8
USP-GEO
100
AcDbEllipse
 10
4.37523621217565
 20
8.047799999999995
 30
0.0000000000000004
 11
0.0
 21
-0.0820000000000036
 31
0.0
210
-0.0000000000000001
220
0.0
230
1.0
 40
0.7071067811865475
 41
0.0
 42
6.283185307179586
  0
ELLIPSE
  5
63
330
5F
100
AcDbEntity
  8
USP-GEO
100
AcDbEllipse
 10
4.33979700596123
 20
4.214931211054931
 30
0.0000000000000004
 11
0.0000000000000489
 21
0.0819999999999894
 31
0.0
210
-0.0000000000000001
220
0.0
230
1.0
 40
0.7071067811866698
 41
-1.570796326794475
 42
-0.3105698314571387
  0
ELLIPSE
  5
64
330
5F
100
AcDbEntity
  8
USP-GEO
100
AcDbEllipse
 10
4.33979700596123
 20
4.214931211054931
 30
0.0000000000000004
 11
-0.0000000000000488
 21
0.0819999999999894
 31
0.0
210
-0.0000000000000001
220
0.0
230
1.0
 40
0.70710678118667
 41
-2.831022822132653
 42
-1.570796326795317
  0
ELLIPSE
  5
65
330
5F
100
AcDbEntity
  8
USP-GEO
100
AcDbEllipse
 10
4.37523621217565
 20
4.214931211054931
 30
0.0000000000000004
 11
0.0
 21
-0.0820000000000036
 31
0.0
210
-0.0000000000000001
220
0.0
230
1.0
 40
0.7071067811865475
 41
0.0
 42
6.283185307179586
  0
ELLIPSE
  5
66
330
5F
100
AcDbEntity
  8
USP-GEO
100
AcDbEllipse
 10
4.33979700596123
 20
2.17279999999998
 30
0.0000000000000004
 11
0.0000000000000489
 21
0.0819999999999894
 31
0.0
210
-0.0000000000000001
220
0.0
230
1.0
 40
0.7071067811866698
 41
-1.570796326794475
 42
-0.3105698314571387
  0
ELLIPSE
  5
67
330
5F
100
AcDbEntity
  8
USP-GEO
100
AcDbEllipse
 10
4.33979700596123
 20
2.17279999999998
 30
0.0000000000000004
 11
-0.0000000000000488
 21
0.0819999999999894
 31
0.0
210
-0.0000000000000001
220
0.0
230
1.0
 40
0.70710678118667
 41
-2.831022822132653
 42
-1.570796326795317
  0
ELLIPSE
  5
68
330
5F
100
AcDbEntity
  8
USP-GEO
100
AcDbEllipse
 10
4.37523621217565
 20
2.17279999999998
 30
0.0000000000000004
 11
0.0
 21
-0.0820000000000036
 31
0.0
210
-0.0000000000000001
220
0.0
230
1.0
 40
0.7071067811865475
 41
0.0
 42
6.283185307179586
  0
ELLIPSE
  5
69
330
5F
100
AcDbEntity
  8
USP-GEO
100
AcDbEllipse
 10
0.8453637878244251
 20
8.297800000000023
 30
0.0
 11
0.0
 21
-0.0820000000000036
 31
0.0
210
-0.0000000000000001
220
0.0
230
1.0
 40
0.7071067811865474
 41
0.0
 42
6.283185307179586
  0
ELLIPSE
  5
6A
330
5F
100
AcDbEntity
  8
USP-GEO
100
AcDbEllipse
 10
0.880802994038845
 20
8.297800000000023
 30
0.0
 11
-0.0000000000000342
 21
0.0820000000000232
 31
0.0
210
-0.0000000000000001
220
0.0
230
1.0
 40
0.7071067811863785
 41
1.570796326794601
 42
2.831022822131222
  0
ELLIPSE
  5
6B
330
5F
100
AcDbEntity
  8
USP-GEO
100
AcDbEllipse
 10
0.880802994038845
 20
8.297800000000023
 30
0.0
 11
0.0000000000000342
 21
0.0820000000000232
 31
0.0
210
-0.0000000000000001
220
0.0
230
1.0
 40
0.7071067811863784
 41
0.3105698314585719
 42
1.570796326795191
  0
ELLIPSE
  5
6C
330
5F
100
AcDbEntity
  8
USP-GEO
100
AcDbEllipse
 10
0.8453637878244251
 20
4.464931211054945
 30
0.0
 11
0.0
 21
-0.0820000000000036
 31
0.0
210
-0.0000000000000001
220
0.0
230
1.0
 40
0.7071067811865474
 41
0.0
 42
6.283185307179586
  0
ELLIPSE
  5
6D
330
5F
100
AcDbEntity
  8
USP-GEO
100
AcDbEllipse
 10
0.880802994038845
 20
4.464931211054945
 30
0.0
 11
0.0000000000000141
 21
0.0820000000000037
 31
0.0
210
-0.0000000000000001
220
0.0
230
1.0
 40
0.7071067811865466
 41
0.3105698314582252
 42
1.570796326795018
  0
ELLIPSE
  5
6E
330
5F
100
AcDbEntity
  8
USP-GEO
100
AcDbEllipse
 10
0.880802994038845
 20
4.464931211054945
 30
0.0
 11
0.0000000000000489
 21
0.0819999999999894
 31
0.0
210
-0.0000000000000001
220
0.0
230
1.0
 40
0.7071067811866698
 41
1.570796326795317
 42
2.831022822132654
  0
ELLIPSE
  5
6F
330
5F
100
AcDbEntity
  8
USP-GEO
100
AcDbEllipse
 10
0.8453637878244251
 20
2.297799999999995
 30
0.0
 11
0.0
 21
-0.0820000000000036
 31
0.0
210
-0.0000000000000001
220
0.0
230
1.0
 40
0.7071067811865474
 41
0.0
 42
6.283185307179586
  0
ELLIPSE
  5
70
330
5F
100
AcDbEntity
  8
USP-GEO
100
AcDbEllipse
 10
0.880802994038845
 20
2.297799999999995
 30
0.0
 11
0.0000000000000141
 21
0.0820000000000037
 31
0.0
210
-0.0000000000000001
220
0.0
230
1.0
 40
0.7071067811865466
 41
0.3105698314582252
 42
1.570796326795013
  0
ELLIPSE
  5
71
330
5F
100
AcDbEntity
  8
USP-GEO
100
AcDbEllipse
 10
0.880802994038845
 20
2.297799999999995
 30
0.0
 11
0.0000000000000489
 21
0.0819999999999894
 31
0.0
210
-0.0000000000000001
220
0.0
230
1.0
 40
0.7071067811866698
 41
1.570796326795317
 42
2.831022822132654
  0
LINE
  5
72
330
5F
100
AcDbEntity
  8
USP-GEO
100
AcDbLine
 10
1.735300000000023
 20
0.0
 30
0.0000000000000001
 11
3.485300000000023
 21
0.0
 31
0.0000000000000003
210
0.0
220
1.0
230
0.0
  0
LINE
  5
73
330
5F
100
AcDbEntity
  8
USP-GEO
100
AcDbLine
 10
3.485300000000023
 20
0.0477999999999952
 30
0.0000000000000003
 11
1.735300000000023
 21
0.0477999999999952
 31
0.0000000000000001
210
0.0
220
1.0
230
0.0
  0
TEXT
  5
74
330
5F
100
AcDbEntity
  8
USP-TXT
100
AcDbText
 10
0.0478000000000245
 20
-0.6934870154304349
 30
0.0000000000000002
 40
0.25
  1
JUS210-2 - FRONT VIEW
 72
     1
 11
2.610300000000023
 21
-0.6934870154304349
 31
0.0000000000000002
100
AcDbText
  0
CIRCLE
  5
75
330
5F
100
AcDbEntity
  8
USP-GEO
100
AcDbCircle
 10
0.3125000000000142
 20
3.172800000000009
 30
-0.0000000000000001
 40
0.0860000000000001
  0
ARC
  5
76
330
5F
100
AcDbEntity
  8
USP-GEO
100
AcDbCircle
 10
1.000000000000014
 20
3.318584034162427
 30
0.0
 40
0.9999999999999978
100
AcDbArc
 50
180.0000000000008
 51
215.6292264487012
  0
LINE
  5
77
330
5F
100
AcDbEntity
  8
USP-GEO
100
AcDbLine
 10
1.047800000000023
 20
3.318584034162412
 30
0.0
 11
1.047800000000023
 21
2.736046378881596
 31
0.0
210
0.0
220
1.0
230
0.0
  0
LINE
  5
78
330
5F
100
AcDbEntity
  8
USP-GEO
100
AcDbLine
 10
1.000000000000028
 20
3.318584034162412
 30
0.0
 11
1.000000000000028
 21
2.736046378881596
 31
0.0
210
0.0
220
1.0
230
0.0
  0
LINE
  5
79
330
5F
100
AcDbEntity
  8
USP-GEO
100
AcDbLine
 10
1.000000000000028
 20
1.601956806832475
 30
0.0
 11
0.1871962843466406
 21
2.736046378881596
 31
-0.0000000000000001
210
0.0
220
1.0
230
0.0
  0
LINE
  5
7A
330
5F
100
AcDbEntity
  8
USP-GEO
100
AcDbLine
 10
1.047800000000023
 20
1.318434413820199
 30
0.0
 11
1.047800000000023
 21
1.172799999999995
 31
0.0
210
0.0
220
1.0
230
0.0
  0
LINE
  5
7B
330
5F
100
AcDbEntity
  8
USP-GEO
100
AcDbLine
 10
1.000000000000028
 20
1.318434413820199
 30
0.0
 11
1.000000000000028
 21
1.172799999999995
 31
0.0
210
0.0
220
1.0
230
0.0
  0
LINE
  5
7C
330
5F
100
AcDbEntity
  8
USP-GEO
100
AcDbLine
 10
1.000000000000028
 20
0.0
 30
0.0
 11
1.485299999999995
 21
0.0
 31
0.0000000000000001
210
0.0
220
1.0
230
0.0
  0
LINE
  5
7D
330
5F
100
AcDbEntity
  8
USP-GEO
100
AcDbLine
 10
1.485299999999995
 20
0.0477999999999952
 30
0.0000000000000001
 11
1.047800000000023
 21
0.0477999999999952
 31
0.0
210
0.0
220
1.0
230
0.0
  0
LINE
  5
7E
330
5F
100
AcDbEntity
  8
USP-GEO
100
AcDbLine
 10
1.000000000000028
 20
1.172799999999995
 30
0.0
 11
1.000000000000028
 21
0.0
 31
0.0
210
0.0
220
1.0
230
0.0
  0
LINE
  5
7F
330
5F
100
AcDbEntity
  8
USP-GEO
100
AcDbLine
 10
1.047800000000023
 20
1.172799999999995
 30
0.0
 11
1.047800000000023
 21
0.0477999999999952
 31
0.0
210
0.0
220
1.0
230
0.0
  0
LINE
  5
80
330
5F
100
AcDbEntity
  8
USP-GEO
100
AcDbLine
 10
1.704050000000023
 20
0.0
 30
0.0000000000000001
 11
1.735300000000023
 21
0.0
 31
0.0000000000000001
210
0.0
220
1.0
230
0.0
  0
LINE
  5
81
330
5F
100
AcDbEntity
  8
USP-GEO
100
AcDbLine
 10
1.516549999999995
 20
0.0
 30
0.0000000000000001
 11
1.704050000000023
 21
0.0
 31
0.0000000000000001
210
0.0
220
1.0
230
0.0
  0
LINE
  5
82
330
5F
100
AcDbEntity
  8
USP-GEO
100
AcDbLine
 10
1.485300000000009
 20
0.0
 30
0.0000000000000001
 11
1.516549999999995
 21
0.0
 31
0.0000000000000001
210
0.0
220
1.0
230
0.0
  0
LINE
  5
83
330
5F
100
AcDbEntity
  8
USP-GEO
100
AcDbLine
 10
1.485299999999995
 20
0.0477999999999952
 30
0.0000000000000001
 11
1.485299999999995
 21
0.0
 31
0.0000000000000001
210
0.0
220
1.0
230
0.0
  0
LINE
  5
84
330
5F
100
AcDbEntity
  8
USP-GEO
100
AcDbLine
 10
1.735300000000023
 20
0.0477999999999952
 30
0.0000000000000001
 11
1.735300000000023
 21
0.0
 31
0.0000000000000001
210
0.0
220
1.0
230
0.0
  0
LINE
  5
85
330
5F
100
AcDbEntity
  8
USP-GEO
100
AcDbLine
 10
1.735300000000023
 20
0.0477999999999952
 30
0.0000000000000001
 11
1.704050000000023
 21
0.0477999999999952
 31
0.0000000000000001
210
0.0
220
1.0
230
0.0
  0
LINE
  5
86
330
5F
100
AcDbEntity
  8
USP-GEO
100
AcDbLine
 10
1.704050000000023
 20
0.0477999999999952
 30
0.0000000000000001
 11
1.516549999999995
 21
0.0477999999999952
 31
0.0000000000000001
210
0.0
220
1.0
230
0.0
  0
LINE
  5
87
330
5F
100
AcDbEntity
  8
USP-GEO
100
AcDbLine
 10
1.516549999999995
 20
0.0477999999999952
 30
0.0000000000000001
 11
1.485299999999995
 21
0.0477999999999952
 31
0.0000000000000001
210
0.0
220
1.0
230
0.0
  0
LINE
  5
88
330
5F
100
AcDbEntity
  8
USP-GEO
100
AcDbLine
 10
1.047800000000023
 20
2.736046378881596
 30
0.0
 11
1.047800000000023
 21
1.318434413820199
 31
0.0
210
0.0
220
1.0
230
0.0
  0
LINE
  5
89
330
5F
100
AcDbEntity
  8
USP-GEO
100
AcDbLine
 10
1.000000000000028
 20
2.736046378881596
 30
0.0
 11
1.000000000000028
 21
1.318434413820199
 31
0.0
210
0.0
220
1.0
230
0.0
  0
ARC
  5
8A
330
5F
100
AcDbEntity
  8
USP-GEO
100
AcDbCircle
 10
1.047800000000023
 20
2.297799999999995
 30
0.0
 40
0.2977999999999988
100
AcDbArc
 50
99.23652345545161
 51
260.7634765445476
  0
ARC
  5
8B
330
5F
100
AcDbEntity
  8
USP-GEO
100
AcDbCircle
 10
0.1000000000000654
 20
8.422799999999952
 30
-0.0000000000000001
 40
0.3124999999999514
100
AcDbArc
 50
0.0000000000105849
 51
74.53399004658786
  0
CIRCLE
  5
8C
330
5F
100
AcDbEntity
  8
USP-GEO
100
AcDbCircle
 10
0.3125000000000142
 20
8.922799999999995
 30
-0.0000000000000001
 40
0.0860000000000001
  0
LINE
  5
8D
330
5F
100
AcDbEntity
  8
USP-GEO
100
AcDbLine
 10
1.000000000000028
 20
9.297799999999995
 30
0.0
 11
0.0
 21
9.297799999999995
 31
-0.0000000000000001
210
0.0
220
1.0
230
0.0
  0
ARC
  5
8E
330
5F
100
AcDbEntity
  8
USP-GEO
100
AcDbCircle
 10
0.1000000000000227
 20
8.172800000000009
 30
-0.0000000000000001
 40
0.3124999999999979
100
AcDbArc
 50
285.4660099534264
 51
0.0000000000024427
  0
CIRCLE
  5
8F
330
5F
100
AcDbEntity
  8
USP-GEO
100
AcDbCircle
 10
0.3125000000000142
 20
6.922800000000009
 30
-0.0000000000000001
 40
0.0860000000000001
  0
ARC
  5
90
330
5F
100
AcDbEntity
  8
USP-GEO
100
AcDbCircle
 10
0.1000000000000227
 20
6.172800000000023
 30
-0.0000000000000001
 40
0.3124999999999979
100
AcDbArc
 50
285.4660099534255
 51
0.0
  0
CIRCLE
  5
91
330
5F
100
AcDbEntity
  8
USP-GEO
100
AcDbCircle
 10
0.3125000000000142
 20
5.089931211054931
 30
-0.0000000000000001
 40
0.0860000000000001
  0
ARC
  5
92
330
5F
100
AcDbEntity
  8
USP-GEO
100
AcDbCircle
 10
0.1000000000000654
 20
4.339931211055017
 30
-0.0000000000000001
 40
0.3124999999999597
100
AcDbArc
 50
285.4660099534121
 51
359.9999999999861
  0
ARC
  5
93
330
5F
100
AcDbEntity
  8
USP-GEO
100
AcDbCircle
 10
0.1000000000000227
 20
4.589931211054945
 30
-0.0000000000000001
 40
0.3124999999999979
100
AcDbArc
 50
359.9999999999992
 51
74.53399004657622
  0
ARC
  5
94
330
5F
100
AcDbEntity
  8
USP-GEO
100
AcDbCircle
 10
0.1000000000000654
 20
6.422799999999952
 30
-0.0000000000000001
 40
0.3124999999999514
100
AcDbArc
 50
0.0000000000122133
 51
74.53399004658786
  0
LINE
  5
95
330
5F
100
AcDbEntity
  8
USP-GEO
100
AcDbLine
 10
0.0
 20
6.96493121105496
 30
-0.0000000000000001
 11
0.0
 21
7.630668788945087
 31
-0.0000000000000001
210
0.0
220
1.0
230
0.0
  0
LINE
  5
96
330
5F
100
AcDbEntity
  8
USP-GEO
100
AcDbLine
 10
0.0
 20
5.132062422109882
 30
-0.0000000000000001
 11
0.0
 21
5.630668788945087
 31
-0.0000000000000001
210
0.0
220
1.0
230
0.0
  0
LINE
  5
97
330
5F
100
AcDbEntity
  8
USP-GEO
100
AcDbLine
 10
0.0
 20
3.318584034162412
 30
-0.0000000000000001
 11
0.0
 21
3.797800000000009
 31
-0.0000000000000001
210
0.0
220
1.0
230
0.0
  0
ARC
  5
98
330
5F
100
AcDbEntity
  8
USP-GEO
100
AcDbCircle
 10
0.2499999999999716
 20
5.132062422109953
 30
-0.0000000000000001
 40
0.2499999999999579
100
AcDbArc
 50
180.0000000000179
 51
254.533990046593
  0
ARC
  5
99
330
5F
100
AcDbEntity
  8
USP-GEO
100
AcDbCircle
 10
0.25
 20
3.797800000000009
 30
-0.0000000000000001
 40
0.2499999999999962
100
AcDbArc
 50
105.4660099534196
 51
180.0
  0
ARC
  5
9A
330
5F
100
AcDbEntity
  8
USP-GEO
100
AcDbCircle
 10
0.25
 20
6.96493121105496
 30
-0.0000000000000001
 40
0.2500000000000008
100
AcDbArc
 50
180.0
 51
254.5339900465803
  0
ARC
  5
9B
330
5F
100
AcDbEntity
  8
USP-GEO
100
AcDbCircle
 10
0.2499999999999716
 20
5.630668788945015
 30
-0.0000000000000001
 40
0.249999999999959
100
AcDbArc
 50
105.4660099534085
 51
179.9999999999853
  0
LINE
  5
9C
330
5F
100
AcDbEntity
  8
USP-GEO
100
AcDbLine
 10
0.0
 20
8.964931211054945
 30
-0.0000000000000001
 11
0.0
 21
9.297800000000009
 31
-0.0000000000000001
210
0.0
220
1.0
230
0.0
  0
ARC
  5
9D
330
5F
100
AcDbEntity
  8
USP-GEO
100
AcDbCircle
 10
0.25
 20
8.96493121105496
 30
-0.0000000000000001
 40
0.2500000000000044
100
AcDbArc
 50
180.0000000000016
 51
254.5339900465812
  0
ARC
  5
9E
330
5F
100
AcDbEntity
  8
USP-GEO
100
AcDbCircle
 10
0.2499999999999716
 20
7.630668788945001
 30
-0.0000000000000001
 40
0.2499999999999543
100
AcDbArc
 50
105.4660099534062
 51
179.9999999999837
  0
LINE
  5
9F
330
5F
100
AcDbEntity
  8
USP-GEO
100
AcDbLine
 10
1.047800000000023
 20
7.630668788944973
 30
0.0
 11
1.047800000000023
 21
6.964931211055045
 31
0.0
210
0.0
220
1.0
230
0.0
  0
LINE
  5
A0
330
5F
100
AcDbEntity
  8
USP-GEO
100
AcDbLine
 10
1.000000000000028
 20
7.630668788944973
 30
0.0
 11
1.000000000000028
 21
6.964931211055045
 31
0.0
210
0.0
220
1.0
230
0.0
  0
LINE
  5
A1
330
5F
100
AcDbEntity
  8
USP-GEO
100
AcDbLine
 10
1.047800000000023
 20
5.630668788944973
 30
0.0
 11
1.047800000000023
 21
5.132062422109981
 31
0.0
210
0.0
220
1.0
230
0.0
  0
LINE
  5
A2
330
5F
100
AcDbEntity
  8
USP-GEO
100
AcDbLine
 10
1.000000000000028
 20
5.630668788944973
 30
0.0
 11
1.000000000000028
 21
5.132062422109981
 31
0.0
210
0.0
220
1.0
230
0.0
  0
LINE
  5
A3
330
5F
100
AcDbEntity
  8
USP-GEO
100
AcDbLine
 10
1.047800000000023
 20
3.797799999999895
 30
0.0
 11
1.047800000000023
 21
3.318584034162412
 31
0.0
210
0.0
220
1.0
230
0.0
  0
LINE
  5
A4
330
5F
100
AcDbEntity
  8
USP-GEO
100
AcDbLine
 10
1.000000000000028
 20
3.797799999999895
 30
0.0
 11
1.000000000000028
 21
3.318584034162412
 31
0.0
210
0.0
220
1.0
230
0.0
  0
LINE
  5
A5
330
5F
100
AcDbEntity
  8
USP-GEO
100
AcDbLine
 10
1.047800000000023
 20
5.132062422109981
 30
0.0
 11
1.047800000000023
 21
4.891115217196642
 31
0.0
210
0.0
220
1.0
230
0.0
  0
LINE
  5
A6
330
5F
100
AcDbEntity
  8
USP-GEO
100
AcDbLine
 10
1.000000000000028
 20
5.132062422109981
 30
0.0
 11
1.000000000000028
 21
4.891115217196642
 31
0.0
210
0.0
220
1.0
230
0.0
  0
LINE
  5
A7
330
5F
100
AcDbEntity
  8
USP-GEO
100
AcDbLine
 10
1.047800000000023
 20
4.038747204913249
 30
0.0
 11
1.047800000000023
 21
3.797799999999895
 31
0.0
210
0.0
220
1.0
230
0.0
  0
LINE
  5
A8
330
5F
100
AcDbEntity
  8
USP-GEO
100
AcDbLine
 10
1.047800000000023
 20
4.339931211054945
 30
0.0
 11
1.047800000000023
 21
4.038747204913249
 31
0.0
210
0.0
220
1.0
230
0.0
  0
LINE
  5
A9
330
5F
100
AcDbEntity
  8
USP-GEO
100
AcDbLine
 10
1.047800000000023
 20
4.589931211054945
 30
0.0
 11
1.047800000000023
 21
4.339931211054945
 31
0.0
210
0.0
220
1.0
230
0.0
  0
LINE
  5
AA
330
5F
100
AcDbEntity
  8
USP-GEO
100
AcDbLine
 10
0.4125000000000228
 20
4.339931211054945
 30
-0.0000000000000001
 11
0.4125000000000228
 21
4.589931211054945
 31
-0.0000000000000001
210
0.0
220
1.0
230
0.0
  0
LINE
  5
AB
330
5F
100
AcDbEntity
  8
USP-GEO
100
AcDbLine
 10
1.000000000000028
 20
4.589931211054945
 30
0.0
 11
1.000000000000028
 21
4.339931211054945
 31
0.0
210
0.0
220
1.0
230
0.0
  0
LINE
  5
AC
330
5F
100
AcDbEntity
  8
USP-GEO
100
AcDbLine
 10
1.000000000000028
 20
4.339931211054945
 30
0.0
 11
1.000000000000028
 21
4.038747204913249
 31
0.0
210
0.0
220
1.0
230
0.0
  0
LINE
  5
AD
330
5F
100
AcDbEntity
  8
USP-GEO
100
AcDbLine
 10
1.000000000000028
 20
4.038747204913249
 30
0.0
 11
1.000000000000028
 21
3.797799999999895
 31
0.0
210
0.0
220
1.0
230
0.0
  0
LINE
  5
AE
330
5F
100
AcDbEntity
  8
USP-GEO
100
AcDbLine
 10
1.047800000000023
 20
4.891115217196642
 30
0.0
 11
1.047800000000023
 21
4.589931211054945
 31
0.0
210
0.0
220
1.0
230
0.0
  0
LINE
  5
AF
330
5F
100
AcDbEntity
  8
USP-GEO
100
AcDbLine
 10
1.000000000000028
 20
4.891115217196642
 30
0.0
 11
1.000000000000028
 21
4.589931211054945
 31
0.0
210
0.0
220
1.0
230
0.0
  0
ARC
  5
B0
330
5F
100
AcDbEntity
  8
USP-GEO
100
AcDbCircle
 10
1.047800000000023
 20
4.464931211054945
 30
0.0
 40
0.2977999999999988
100
AcDbArc
 50
99.23652345545161
 51
260.7634765445484
  0
LINE
  5
B1
330
5F
100
AcDbEntity
  8
USP-GEO
100
AcDbLine
 10
1.047800000000023
 20
6.964931211055045
 30
0.0
 11
1.047800000000023
 21
6.723984006141705
 31
0.0
210
0.0
220
1.0
230
0.0
  0
LINE
  5
B2
330
5F
100
AcDbEntity
  8
USP-GEO
100
AcDbLine
 10
1.000000000000028
 20
6.964931211055045
 30
0.0
 11
1.000000000000028
 21
6.723984006141705
 31
0.0
210
0.0
220
1.0
230
0.0
  0
LINE
  5
B3
330
5F
100
AcDbEntity
  8
USP-GEO
100
AcDbLine
 10
1.047800000000023
 20
5.871615993858313
 30
0.0
 11
1.047800000000023
 21
5.630668788944973
 31
0.0
210
0.0
220
1.0
230
0.0
  0
LINE
  5
B4
330
5F
100
AcDbEntity
  8
USP-GEO
100
AcDbLine
 10
1.047800000000023
 20
6.172800000000023
 30
0.0
 11
1.047800000000023
 21
5.871615993858313
 31
0.0
210
0.0
220
1.0
230
0.0
  0
LINE
  5
B5
330
5F
100
AcDbEntity
  8
USP-GEO
100
AcDbLine
 10
1.047800000000023
 20
6.422800000000023
 30
0.0
 11
1.047800000000023
 21
6.172800000000023
 31
0.0
210
0.0
220
1.0
230
0.0
  0
LINE
  5
B6
330
5F
100
AcDbEntity
  8
USP-GEO
100
AcDbLine
 10
0.4125000000000228
 20
6.172800000000023
 30
-0.0000000000000001
 11
0.4125000000000228
 21
6.422800000000023
 31
-0.0000000000000001
210
0.0
220
1.0
230
0.0
  0
LINE
  5
B7
330
5F
100
AcDbEntity
  8
USP-GEO
100
AcDbLine
 10
1.000000000000028
 20
6.422800000000023
 30
0.0
 11
1.000000000000028
 21
6.172800000000023
 31
0.0
210
0.0
220
1.0
230
0.0
  0
LINE
  5
B8
330
5F
100
AcDbEntity
  8
USP-GEO
100
AcDbLine
 10
1.000000000000028
 20
6.172800000000023
 30
0.0
 11
1.000000000000028
 21
5.871615993858313
 31
0.0
210
0.0
220
1.0
230
0.0
  0
LINE
  5
B9
330
5F
100
AcDbEntity
  8
USP-GEO
100
AcDbLine
 10
1.000000000000028
 20
5.871615993858313
 30
0.0
 11
1.000000000000028
 21
5.630668788944973
 31
0.0
210
0.0
220
1.0
230
0.0
  0
LINE
  5
BA
330
5F
100
AcDbEntity
  8
USP-GEO
100
AcDbLine
 10
1.047800000000023
 20
6.723984006141705
 30
0.0
 11
1.047800000000023
 21
6.422800000000023
 31
0.0
210
0.0
220
1.0
230
0.0
  0
LINE
  5
BB
330
5F
100
AcDbEntity
  8
USP-GEO
100
AcDbLine
 10
1.000000000000028
 20
6.723984006141705
 30
0.0
 11
1.000000000000028
 21
6.422800000000023
 31
0.0
210
0.0
220
1.0
230
0.0
  0
LINE
  5
BC
330
5F
100
AcDbEntity
  8
USP-GEO
100
AcDbLine
 10
1.047800000000023
 20
9.297799999999995
 30
0.0
 11
1.047800000000023
 21
8.964931211055045
 31
0.0
210
0.0
220
1.0
230
0.0
  0
LINE
  5
BD
330
5F
100
AcDbEntity
  8
USP-GEO
100
AcDbLine
 10
1.000000000000028
 20
9.297799999999995
 30
0.0
 11
1.000000000000028
 21
8.964931211055045
 31
0.0
210
0.0
220
1.0
230
0.0
  0
LINE
  5
BE
330
5F
100
AcDbEntity
  8
USP-GEO
100
AcDbLine
 10
1.047800000000023
 20
8.723984006141705
 30
0.0
 11
1.047800000000023
 21
8.422800000000009
 31
0.0
210
0.0
220
1.0
230
0.0
  0
LINE
  5
BF
330
5F
100
AcDbEntity
  8
USP-GEO
100
AcDbLine
 10
1.047800000000023
 20
8.964931211055045
 30
0.0
 11
1.047800000000023
 21
8.723984006141705
 31
0.0
210
0.0
220
1.0
230
0.0
  0
LINE
  5
C0
330
5F
100
AcDbEntity
  8
USP-GEO
100
AcDbLine
 10
0.5875000000000341
 20
8.401775224096979
 30
-0.0000000000000001
 11
0.5875000000000341
 21
8.687871282108432
 31
-0.0000000000000001
210
0.0
220
1.0
230
0.0
  0
LINE
  5
C1
330
5F
100
AcDbEntity
  8
USP-GEO
100
AcDbLine
 10
0.5875000000000341
 20
8.401775224096994
 30
-0.0000000000000001
 11
0.5875000000000341
 21
8.346941316781837
 31
-0.0000000000000001
210
0.0
220
1.0
230
0.0
  0
LINE
  5
C2
330
5F
100
AcDbEntity
  8
USP-GEO
100
AcDbLine
 10
0.7875000000000228
 20
8.687871282108432
 30
0.0
 11
0.7875000000000086
 21
8.442467722730384
 31
0.0
210
0.0
220
1.0
230
0.0
  0
LINE
  5
C3
330
5F
100
AcDbEntity
  8
USP-GEO
100
AcDbLine
 10
0.5875000000000341
 20
8.687871282108403
 30
-0.0000000000000001
 11
0.7875000000000228
 21
8.687871282108403
 31
0.0
210
0.0
220
1.0
230
0.0
  0
LINE
  5
C4
330
5F
100
AcDbEntity
  8
USP-GEO
100
AcDbLine
 10
1.000000000000028
 20
8.964931211055045
 30
0.0
 11
1.000000000000028
 21
8.723984006141705
 31
0.0
210
0.0
220
1.0
230
0.0
  0
LINE
  5
C5
330
5F
100
AcDbEntity
  8
USP-GEO
100
AcDbLine
 10
1.000000000000028
 20
8.723984006141705
 30
0.0
 11
1.000000000000028
 21
8.422800000000023
 31
0.0
210
0.0
220
1.0
230
0.0
  0
LINE
  5
C6
330
5F
100
AcDbEntity
  8
USP-GEO
100
AcDbLine
 10
1.047800000000023
 20
7.871615993858327
 30
0.0
 11
1.047800000000023
 21
7.630668788944973
 31
0.0
210
0.0
220
1.0
230
0.0
  0
LINE
  5
C7
330
5F
100
AcDbEntity
  8
USP-GEO
100
AcDbLine
 10
1.047800000000023
 20
8.172800000000023
 30
0.0
 11
1.047800000000023
 21
7.871615993858313
 31
0.0
210
0.0
220
1.0
230
0.0
  0
LINE
  5
C8
330
5F
100
AcDbEntity
  8
USP-GEO
100
AcDbLine
 10
0.7875000000000228
 20
8.048499587221243
 30
0.0
 11
0.6875000000000285
 21
7.966584382792348
 31
0.0
210
0.0
220
1.0
230
0.0
  0
LINE
  5
C9
330
5F
100
AcDbEntity
  8
USP-GEO
100
AcDbLine
 10
0.6875000000000285
 20
7.966584382792348
 30
0.0
 11
0.5875000000000341
 21
8.048499587221243
 31
-0.0000000000000001
210
0.0
220
1.0
230
0.0
  0
LINE
  5
CA
330
5F
100
AcDbEntity
  8
USP-GEO
100
AcDbLine
 10
0.7875000000000228
 20
8.153132277269605
 30
0.0
 11
0.7875000000000228
 21
8.060845258770399
 31
0.0
210
0.0
220
1.0
230
0.0
  0
LINE
  5
CB
330
5F
100
AcDbEntity
  8
USP-GEO
100
AcDbLine
 10
0.5875000000000199
 20
7.972800000000006
 30
-0.0000000000000001
 11
0.5875000000000199
 21
8.060845258770427
 31
-0.0000000000000001
210
0.0
220
1.0
230
0.0
  0
LINE
  5
CC
330
5F
100
AcDbEntity
  8
USP-GEO
100
AcDbLine
 10
0.6875000000000285
 20
7.872800000000012
 30
0.0
 11
0.5875000000000341
 21
7.972800000000006
 31
-0.0000000000000001
210
0.0
220
1.0
230
0.0
  0
LINE
  5
CD
330
5F
100
AcDbEntity
  8
USP-GEO
100
AcDbLine
 10
0.7875000000000228
 20
7.972800000000006
 30
0.0
 11
0.6875000000000285
 21
7.872799999999998
 31
0.0
210
0.0
220
1.0
230
0.0
  0
LINE
  5
CE
330
5F
100
AcDbEntity
  8
USP-GEO
100
AcDbLine
 10
0.7875000000000228
 20
8.060845258770399
 30
0.0
 11
0.7875000000000228
 21
7.972800000000006
 31
0.0
210
0.0
220
1.0
230
0.0
  0
LINE
  5
CF
330
5F
100
AcDbEntity
  8
USP-GEO
100
AcDbLine
 10
1.000000000000028
 20
8.172800000000009
 30
0.0
 11
1.000000000000028
 21
7.871615993858313
 31
0.0
210
0.0
220
1.0
230
0.0
  0
LINE
  5
D0
330
5F
100
AcDbEntity
  8
USP-GEO
100
AcDbLine
 10
1.000000000000028
 20
7.871615993858313
 30
0.0
 11
1.000000000000028
 21
7.630668788944973
 31
0.0
210
0.0
220
1.0
230
0.0
  0
LINE
  5
D1
330
5F
100
AcDbEntity
  8
USP-GEO
100
AcDbLine
 10
1.047800000000023
 20
8.422800000000009
 30
0.0
 11
1.047800000000023
 21
8.172800000000023
 31
0.0
210
0.0
220
1.0
230
0.0
  0
LINE
  5
D2
330
5F
100
AcDbEntity
  8
USP-GEO
100
AcDbLine
 10
0.5875000000000341
 20
8.060845258770413
 30
-0.0000000000000001
 11
0.5875000000000341
 21
8.346941316781837
 31
-0.0000000000000001
210
0.0
220
1.0
230
0.0
  0
LINE
  5
D3
330
5F
100
AcDbEntity
  8
USP-GEO
100
AcDbLine
 10
0.4125000000000228
 20
8.172800000000023
 30
-0.0000000000000001
 11
0.4125000000000228
 21
8.422800000000009
 31
-0.0000000000000001
210
0.0
220
1.0
230
0.0
  0
LINE
  5
D4
330
5F
100
AcDbEntity
  8
USP-GEO
100
AcDbLine
 10
1.000000000000028
 20
8.422800000000023
 30
0.0
 11
1.000000000000028
 21
8.172800000000009
 31
0.0
210
0.0
220
1.0
230
0.0
  0
ARC
  5
D5
330
5F
100
AcDbEntity
  8
USP-GEO
100
AcDbCircle
 10
1.047800000000023
 20
8.297800000000009
 30
0.0
 40
0.2977999999999988
100
AcDbArc
 50
99.23652345545161
 51
260.7634765445484
  0
LINE
  5
D6
330
5F
100
AcDbEntity
  8
USP-GEO
100
AcDbLine
 10
1.047800000000023
 20
9.297799999999995
 30
0.0
 11
1.000000000000028
 21
9.297799999999995
 31
0.0
210
0.0
220
1.0
230
0.0
  0
LINE
  5
D7
330
5F
100
AcDbEntity
  8
USP-GEO
100
AcDbLine
 10
3.516550000000023
 20
0.0
 30
0.0000000000000003
 11
3.704050000000037
 21
0.0
 31
0.0000000000000003
210
0.0
220
1.0
230
0.0
  0
LINE
  5
D8
330
5F
100
AcDbEntity
  8
USP-GEO
100
AcDbLine
 10
3.704050000000037
 20
0.0477999999999952
 30
0.0000000000000003
 11
3.516550000000023
 21
0.0477999999999952
 31
0.0000000000000003
210
0.0
220
1.0
230
0.0
  0
LINE
  5
D9
330
5F
100
AcDbEntity
  8
USP-GEO
100
AcDbLine
 10
3.485300000000023
 20
0.0477999999999952
 30
0.0000000000000003
 11
3.485300000000023
 21
0.0
 31
0.0000000000000003
210
0.0
220
1.0
230
0.0
  0
LINE
  5
DA
330
5F
100
AcDbEntity
  8
USP-GEO
100
AcDbLine
 10
3.485300000000023
 20
0.0
 30
0.0000000000000003
 11
3.516550000000023
 21
0.0
 31
0.0000000000000003
210
0.0
220
1.0
230
0.0
  0
LINE
  5
DB
330
5F
100
AcDbEntity
  8
USP-GEO
100
AcDbLine
 10
3.516550000000023
 20
0.0477999999999952
 30
0.0000000000000003
 11
3.485300000000023
 21
0.0477999999999952
 31
0.0000000000000003
210
0.0
220
1.0
230
0.0
  0
ARC
  5
DC
330
5F
100
AcDbEntity
  8
USP-GEO
100
AcDbCircle
 10
4.220600000000047
 20
3.318584034162412
 30
0.0000000000000004
 40
0.9999999999999978
100
AcDbArc
 50
324.3707735512988
 51
359.9999999999992
  0
LINE
  5
DD
330
5F
100
AcDbEntity
  8
USP-GEO
100
AcDbLine
 10
4.220600000000047
 20
2.736046378881582
 30
0.0000000000000004
 11
4.220600000000047
 21
3.318584034162398
 31
0.0000000000000004
210
0.0
220
1.0
230
0.0
  0
LINE
  5
DE
330
5F
100
AcDbEntity
  8
USP-GEO
100
AcDbLine
 10
4.172800000000052
 20
3.318584034162398
 30
0.0000000000000004
 11
4.172800000000052
 21
2.736046378881582
 31
0.0000000000000004
210
0.0
220
1.0
230
0.0
  0
LINE
  5
DF
330
5F
100
AcDbEntity
  8
USP-GEO
100
AcDbLine
 10
4.220600000000047
 20
1.17279999999998
 30
0.0000000000000004
 11
4.220600000000047
 21
1.318434413820185
 31
0.0000000000000004
210
0.0
220
1.0
230
0.0
  0
LINE
  5
E0
330
5F
100
AcDbEntity
  8
USP-GEO
100
AcDbLine
 10
4.172800000000052
 20
1.318434413820185
 30
0.0000000000000004
 11
4.172800000000052
 21
1.17279999999998
 31
0.0000000000000004
210
0.0
220
1.0
230
0.0
  0
LINE
  5
E1
330
5F
100
AcDbEntity
  8
USP-GEO
100
AcDbLine
 10
4.172800000000052
 20
1.17279999999998
 30
0.0000000000000004
 11
4.172800000000052
 21
0.0477999999999952
 31
0.0000000000000004
210
0.0
220
1.0
230
0.0
  0
LINE
  5
E2
330
5F
100
AcDbEntity
  8
USP-GEO
100
AcDbLine
 10
4.220600000000047
 20
0.0
 30
0.0000000000000004
 11
4.220600000000047
 21
1.17279999999998
 31
0.0000000000000004
210
0.0
220
1.0
230
0.0
  0
LINE
  5
E3
330
5F
100
AcDbEntity
  8
USP-GEO
100
AcDbLine
 10
3.735300000000023
 20
0.0
 30
0.0000000000000003
 11
4.220600000000047
 21
0.0
 31
0.0000000000000004
210
0.0
220
1.0
230
0.0
  0
LINE
  5
E4
330
5F
100
AcDbEntity
  8
USP-GEO
100
AcDbLine
 10
3.735300000000023
 20
0.0477999999999952
 30
0.0000000000000003
 11
3.735300000000023
 21
0.0
 31
0.0000000000000003
210
0.0
220
1.0
230
0.0
  0
LINE
  5
E5
330
5F
100
AcDbEntity
  8
USP-GEO
100
AcDbLine
 10
3.704050000000037
 20
0.0
 30
0.0000000000000003
 11
3.735300000000037
 21
0.0
 31
0.0000000000000003
210
0.0
220
1.0
230
0.0
  0
LINE
  5
E6
330
5F
100
AcDbEntity
  8
USP-GEO
100
AcDbLine
 10
4.172800000000052
 20
0.0477999999999952
 30
0.0000000000000004
 11
3.735300000000023
 21
0.0477999999999952
 31
0.0000000000000003
210
0.0
220
1.0
230
0.0
  0
LINE
  5
E7
330
5F
100
AcDbEntity
  8
USP-GEO
100
AcDbLine
 10
3.735300000000037
 20
0.0477999999999952
 30
0.0000000000000003
 11
3.704050000000037
 21
0.0477999999999952
 31
0.0000000000000003
210
0.0
220
1.0
230
0.0
  0
LINE
  5
E8
330
5F
100
AcDbEntity
  8
USP-GEO
100
AcDbLine
 10
5.033403715653406
 20
2.736046378881582
 30
0.0000000000000005
 11
4.220600000000047
 21
1.601956806832461
 31
0.0000000000000004
210
0.0
220
1.0
230
0.0
  0
ARC
  5
E9
330
5F
100
AcDbEntity
  8
USP-GEO
100
AcDbCircle
 10
4.172800000000052
 20
2.17279999999998
 30
0.0000000000000004
 40
0.2977999999999987
100
AcDbArc
 50
279.2365234554475
 51
80.76347654455254
  0
LINE
  5
EA
330
5F
100
AcDbEntity
  8
USP-GEO
100
AcDbLine
 10
4.220600000000047
 20
1.318434413820185
 30
0.0000000000000004
 11
4.220600000000047
 21
2.736046378881582
 31
0.0000000000000004
210
0.0
220
1.0
230
0.0
  0
LINE
  5
EB
330
5F
100
AcDbEntity
  8
USP-GEO
100
AcDbLine
 10
4.172800000000052
 20
2.736046378881582
 30
0.0000000000000004
 11
4.172800000000052
 21
1.318434413820185
 31
0.0000000000000004
210
0.0
220
1.0
230
0.0
  0
CIRCLE
  5
EC
330
5F
100
AcDbEntity
  8
USP-GEO
100
AcDbCircle
 10
4.908100000000047
 20
3.047799999999995
 30
0.0000000000000005
 40
0.0860000000000001
  0
LINE
  5
ED
330
5F
100
AcDbEntity
  8
USP-GEO
100
AcDbLine
 10
4.220600000000047
 20
6.714931211055045
 30
0.0000000000000004
 11
4.220600000000047
 21
7.380668788944944
 31
0.0000000000000004
210
0.0
220
1.0
230
0.0
  0
LINE
  5
EE
330
5F
100
AcDbEntity
  8
USP-GEO
100
AcDbLine
 10
4.172800000000052
 20
7.380668788944944
 30
0.0000000000000004
 11
4.172800000000052
 21
6.714931211055045
 31
0.0000000000000004
210
0.0
220
1.0
230
0.0
  0
LINE
  5
EF
330
5F
100
AcDbEntity
  8
USP-GEO
100
AcDbLine
 10
5.220600000000047
 20
7.380668788945058
 30
0.0000000000000005
 11
5.220600000000047
 21
6.714931211054931
 31
0.0000000000000005
210
0.0
220
1.0
230
0.0
  0
ARC
  5
F0
330
5F
100
AcDbEntity
  8
USP-GEO
100
AcDbCircle
 10
4.970600000000047
 20
5.380668788945058
 30
0.0000000000000005
 40
0.2499999999999961
100
AcDbArc
 50
0.0
 51
74.533990046577
  0
ARC
  5
F1
330
5F
100
AcDbEntity
  8
USP-GEO
100
AcDbCircle
 10
4.970600000000061
 20
3.547799999999995
 30
0.0000000000000005
 40
0.2499999999999961
100
AcDbArc
 50
0.0
 51
74.53399004657857
  0
ARC
  5
F2
330
5F
100
AcDbEntity
  8
USP-GEO
100
AcDbCircle
 10
4.970600000000104
 20
4.882062422109939
 30
0.0000000000000005
 40
0.2499999999999579
100
AcDbArc
 50
285.4660099534052
 51
359.9999999999837
  0
ARC
  5
F3
330
5F
100
AcDbEntity
  8
USP-GEO
100
AcDbCircle
 10
4.970600000000104
 20
6.714931211055002
 30
0.0000000000000005
 40
0.2499999999999543
100
AcDbArc
 50
285.4660099534104
 51
359.9999999999837
  0
LINE
  5
F4
330
5F
100
AcDbEntity
  8
USP-GEO
100
AcDbLine
 10
4.220600000000047
 20
4.882062422109981
 30
0.0000000000000004
 11
4.220600000000047
 21
5.380668788944973
 31
0.0000000000000004
210
0.0
220
1.0
230
0.0
  0
LINE
  5
F5
330
5F
100
AcDbEntity
  8
USP-GEO
100
AcDbLine
 10
4.172800000000052
 20
5.380668788944973
 30
0.0000000000000004
 11
4.172800000000052
 21
4.882062422109967
 31
0.0000000000000004
210
0.0
220
1.0
230
0.0
  0
ARC
  5
F6
330
5F
100
AcDbEntity
  8
USP-GEO
100
AcDbCircle
 10
4.172800000000052
 20
4.214931211054931
 30
0.0000000000000004
 40
0.2977999999999987
100
AcDbArc
 50
279.2365234554475
 51
80.76347654455254
  0
LINE
  5
F7
330
5F
100
AcDbEntity
  8
USP-GEO
100
AcDbLine
 10
4.220600000000047
 20
3.318584034162398
 30
0.0000000000000004
 11
4.220600000000047
 21
3.547799999999995
 31
0.0000000000000004
210
0.0
220
1.0
230
0.0
  0
LINE
  5
F8
330
5F
100
AcDbEntity
  8
USP-GEO
100
AcDbLine
 10
4.172800000000052
 20
3.547799999999995
 30
0.0000000000000004
 11
4.172800000000052
 21
3.318584034162398
 31
0.0000000000000004
210
0.0
220
1.0
230
0.0
  0
LINE
  5
F9
330
5F
100
AcDbEntity
  8
USP-GEO
100
AcDbLine
 10
4.220600000000047
 20
3.547799999999995
 30
0.0000000000000004
 11
4.220600000000047
 21
3.788747204913235
 31
0.0000000000000004
210
0.0
220
1.0
230
0.0
  0
LINE
  5
FA
330
5F
100
AcDbEntity
  8
USP-GEO
100
AcDbLine
 10
4.220600000000047
 20
3.788747204913249
 30
0.0000000000000004
 11
4.220600000000047
 21
4.089931211054931
 31
0.0000000000000004
210
0.0
220
1.0
230
0.0
  0
LINE
  5
FB
330
5F
100
AcDbEntity
  8
USP-GEO
100
AcDbLine
 10
4.220600000000047
 20
4.089931211054931
 30
0.0000000000000004
 11
4.220600000000047
 21
4.339931211054931
 31
0.0000000000000004
210
0.0
220
1.0
230
0.0
  0
LINE
  5
FC
330
5F
100
AcDbEntity
  8
USP-GEO
100
AcDbLine
 10
4.220600000000047
 20
4.339931211054931
 30
0.0000000000000004
 11
4.220600000000047
 21
4.641115217196613
 31
0.0000000000000004
210
0.0
220
1.0
230
0.0
  0
LINE
  5
FD
330
5F
100
AcDbEntity
  8
USP-GEO
100
AcDbLine
 10
4.172800000000052
 20
4.641115217196613
 30
0.0000000000000004
 11
4.172800000000052
 21
4.339931211054931
 31
0.0000000000000004
210
0.0
220
1.0
230
0.0
  0
LINE
  5
FE
330
5F
100
AcDbEntity
  8
USP-GEO
100
AcDbLine
 10
4.172800000000052
 20
4.339931211054931
 30
0.0000000000000004
 11
4.172800000000052
 21
4.089931211054931
 31
0.0000000000000004
210
0.0
220
1.0
230
0.0
  0
LINE
  5
FF
330
5F
100
AcDbEntity
  8
USP-GEO
100
AcDbLine
 10
4.172800000000052
 20
4.089931211054931
 30
0.0000000000000004
 11
4.172800000000052
 21
3.788747204913249
 31
0.0000000000000004
210
0.0
220
1.0
230
0.0
  0
LINE
  5
100
330
5F
100
AcDbEntity
  8
USP-GEO
100
AcDbLine
 10
4.172800000000052
 20
3.788747204913235
 30
0.0000000000000004
 11
4.172800000000052
 21
3.547799999999995
 31
0.0000000000000004
210
0.0
220
1.0
230
0.0
  0
LINE
  5
101
330
5F
100
AcDbEntity
  8
USP-GEO
100
AcDbLine
 10
4.220600000000047
 20
4.641115217196627
 30
0.0000000000000004
 11
4.220600000000047
 21
4.882062422109981
 31
0.0000000000000004
210
0.0
220
1.0
230
0.0
  0
LINE
  5
102
330
5F
100
AcDbEntity
  8
USP-GEO
100
AcDbLine
 10
4.172800000000052
 20
4.882062422109967
 30
0.0000000000000004
 11
4.172800000000052
 21
4.641115217196627
 31
0.0000000000000004
210
0.0
220
1.0
230
0.0
  0
CIRCLE
  5
103
330
5F
100
AcDbEntity
  8
USP-GEO
100
AcDbCircle
 10
4.908100000000047
 20
4.839931211054931
 30
0.0000000000000005
 40
0.0860000000000001
  0
ARC
  5
104
330
5F
100
AcDbEntity
  8
USP-GEO
100
AcDbCircle
 10
5.120599999999996
 20
4.089931211055017
 30
0.0000000000000005
 40
0.3124999999999597
100
AcDbArc
 50
180.0000000000138
 51
254.5339900465915
  0
LINE
  5
105
330
5F
100
AcDbEntity
  8
USP-GEO
100
AcDbLine
 10
4.808100000000052
 20
4.339931211054931
 30
0.0000000000000005
 11
4.808100000000052
 21
4.089931211054931
 31
0.0000000000000005
210
0.0
220
1.0
230
0.0
  0
ARC
  5
106
330
5F
100
AcDbEntity
  8
USP-GEO
100
AcDbCircle
 10
5.120600000000024
 20
4.339931211054931
 30
0.0000000000000005
 40
0.3124999999999979
100
AcDbArc
 50
105.4660099534222
 51
180.0
  0
LINE
  5
107
330
5F
100
AcDbEntity
  8
USP-GEO
100
AcDbLine
 10
4.220600000000047
 20
5.380668788944973
 30
0.0000000000000004
 11
4.220600000000047
 21
5.621615993858313
 31
0.0000000000000004
210
0.0
220
1.0
230
0.0
  0
LINE
  5
108
330
5F
100
AcDbEntity
  8
USP-GEO
100
AcDbLine
 10
4.172800000000052
 20
5.621615993858313
 30
0.0000000000000004
 11
4.172800000000052
 21
5.380668788944973
 31
0.0000000000000004
210
0.0
220
1.0
230
0.0
  0
LINE
  5
109
330
5F
100
AcDbEntity
  8
USP-GEO
100
AcDbLine
 10
4.220600000000047
 20
6.473984006141705
 30
0.0000000000000004
 11
4.220600000000047
 21
6.714931211055045
 31
0.0000000000000004
210
0.0
220
1.0
230
0.0
  0
LINE
  5
10A
330
5F
100
AcDbEntity
  8
USP-GEO
100
AcDbLine
 10
4.172800000000052
 20
6.714931211055045
 30
0.0000000000000004
 11
4.172800000000052
 21
6.473984006141691
 31
0.0000000000000004
210
0.0
220
1.0
230
0.0
  0
LINE
  5
10B
330
5F
100
AcDbEntity
  8
USP-GEO
100
AcDbLine
 10
4.220600000000047
 20
5.621615993858313
 30
0.0000000000000004
 11
4.220600000000047
 21
5.922799999999995
 31
0.0000000000000004
210
0.0
220
1.0
230
0.0
  0
LINE
  5
10C
330
5F
100
AcDbEntity
  8
USP-GEO
100
AcDbLine
 10
4.220600000000047
 20
5.922799999999995
 30
0.0000000000000004
 11
4.220600000000047
 21
6.172799999999995
 31
0.0000000000000004
210
0.0
220
1.0
230
0.0
  0
LINE
  5
10D
330
5F
100
AcDbEntity
  8
USP-GEO
100
AcDbLine
 10
4.172800000000052
 20
6.172799999999995
 30
0.0000000000000004
 11
4.172800000000052
 21
5.922799999999995
 31
0.0000000000000004
210
0.0
220
1.0
230
0.0
  0
LINE
  5
10E
330
5F
100
AcDbEntity
  8
USP-GEO
100
AcDbLine
 10
4.172800000000052
 20
5.922799999999995
 30
0.0000000000000004
 11
4.172800000000052
 21
5.621615993858313
 31
0.0000000000000004
210
0.0
220
1.0
230
0.0
  0
LINE
  5
10F
330
5F
100
AcDbEntity
  8
USP-GEO
100
AcDbLine
 10
4.220600000000047
 20
6.172799999999995
 30
0.0000000000000004
 11
4.220600000000047
 21
6.473984006141691
 31
0.0000000000000004
210
0.0
220
1.0
230
0.0
  0
LINE
  5
110
330
5F
100
AcDbEntity
  8
USP-GEO
100
AcDbLine
 10
4.172800000000052
 20
6.473984006141677
 30
0.0000000000000004
 11
4.172800000000052
 21
6.172799999999995
 31
0.0000000000000004
210
0.0
220
1.0
230
0.0
  0
CIRCLE
  5
111
330
5F
100
AcDbEntity
  8
USP-GEO
100
AcDbCircle
 10
4.908100000000047
 20
6.672799999999995
 30
0.0000000000000005
 40
0.0860000000000001
  0
ARC
  5
112
330
5F
100
AcDbEntity
  8
USP-GEO
100
AcDbCircle
 10
5.12060000000001
 20
5.922800000000052
 30
0.0000000000000005
 40
0.3124999999999561
100
AcDbArc
 50
180.0000000000105
 51
254.5339900465878
  0
LINE
  5
113
330
5F
100
AcDbEntity
  8
USP-GEO
100
AcDbLine
 10
4.808100000000052
 20
6.172799999999995
 30
0.0000000000000005
 11
4.808100000000052
 21
5.922799999999995
 31
0.0000000000000005
210
0.0
220
1.0
230
0.0
  0
ARC
  5
114
330
5F
100
AcDbEntity
  8
USP-GEO
100
AcDbCircle
 10
5.120600000000052
 20
6.172799999999995
 30
0.0000000000000005
 40
0.3124999999999979
100
AcDbArc
 50
105.4660099534222
 51
180.0
  0
LINE
  5
115
330
5F
100
AcDbEntity
  8
USP-GEO
100
AcDbLine
 10
5.220600000000047
 20
5.380668788945058
 30
0.0000000000000005
 11
5.220600000000047
 21
4.882062422109868
 31
0.0000000000000005
210
0.0
220
1.0
230
0.0
  0
LINE
  5
116
330
5F
100
AcDbEntity
  8
USP-GEO
100
AcDbLine
 10
5.220600000000047
 20
3.547799999999995
 30
0.0000000000000005
 11
5.220600000000047
 21
3.318584034162398
 31
0.0000000000000005
210
0.0
220
1.0
230
0.0
  0
ARC
  5
117
330
5F
100
AcDbEntity
  8
USP-GEO
100
AcDbCircle
 10
4.970600000000061
 20
7.380668788945058
 30
0.0000000000000005
 40
0.2499999999999961
100
AcDbArc
 50
0.0
 51
74.5339900465778
  0
ARC
  5
118
330
5F
100
AcDbEntity
  8
USP-GEO
100
AcDbCircle
 10
4.970600000000104
 20
8.714931211055002
 30
0.0000000000000005
 40
0.2499999999999543
100
AcDbArc
 50
285.4660099534104
 51
359.9999999999853
  0
LINE
  5
119
330
5F
100
AcDbEntity
  8
USP-GEO
100
AcDbLine
 10
5.220600000000047
 20
9.297799999999995
 30
0.0000000000000005
 11
4.220600000000047
 21
9.297799999999995
 31
0.0000000000000004
210
0.0
220
1.0
230
0.0
  0
LINE
  5
11A
330
5F
100
AcDbEntity
  8
USP-GEO
100
AcDbLine
 10
4.220600000000047
 20
8.714931211055045
 30
0.0000000000000004
 11
4.220600000000047
 21
9.297799999999995
 31
0.0000000000000004
210
0.0
220
1.0
230
0.0
  0
LINE
  5
11B
330
5F
100
AcDbEntity
  8
USP-GEO
100
AcDbLine
 10
4.172800000000052
 20
9.297799999999995
 30
0.0000000000000004
 11
4.172800000000052
 21
8.714931211055045
 31
0.0000000000000004
210
0.0
220
1.0
230
0.0
  0
ARC
  5
11C
330
5F
100
AcDbEntity
  8
USP-GEO
100
AcDbCircle
 10
4.172800000000052
 20
8.047799999999995
 30
0.0000000000000004
 40
0.2977999999999987
100
AcDbArc
 50
279.2365234554475
 51
80.76347654455254
  0
LINE
  5
11D
330
5F
100
AcDbEntity
  8
USP-GEO
100
AcDbLine
 10
4.220600000000047
 20
7.380668788944944
 30
0.0000000000000004
 11
4.220600000000047
 21
7.621615993858313
 31
0.0000000000000004
210
0.0
220
1.0
230
0.0
  0
LINE
  5
11E
330
5F
100
AcDbEntity
  8
USP-GEO
100
AcDbLine
 10
4.172800000000052
 20
7.621615993858313
 30
0.0000000000000004
 11
4.172800000000052
 21
7.380668788944944
 31
0.0000000000000004
210
0.0
220
1.0
230
0.0
  0
LINE
  5
11F
330
5F
100
AcDbEntity
  8
USP-GEO
100
AcDbLine
 10
4.220600000000047
 20
8.473984006141691
 30
0.0000000000000004
 11
4.220600000000047
 21
8.714931211055045
 31
0.0000000000000004
210
0.0
220
1.0
230
0.0
  0
LINE
  5
120
330
5F
100
AcDbEntity
  8
USP-GEO
100
AcDbLine
 10
4.172800000000052
 20
8.714931211055045
 30
0.0000000000000004
 11
4.172800000000052
 21
8.473984006141691
 31
0.0000000000000004
210
0.0
220
1.0
230
0.0
  0
LINE
  5
121
330
5F
100
AcDbEntity
  8
USP-GEO
100
AcDbLine
 10
4.220600000000047
 20
7.621615993858313
 30
0.0000000000000004
 11
4.220600000000047
 21
7.922799999999995
 31
0.0000000000000004
210
0.0
220
1.0
230
0.0
  0
LINE
  5
122
330
5F
100
AcDbEntity
  8
USP-GEO
100
AcDbLine
 10
4.220600000000047
 20
7.922799999999995
 30
0.0000000000000004
 11
4.220600000000047
 21
8.172799999999995
 31
0.0000000000000004
210
0.0
220
1.0
230
0.0
  0
LINE
  5
123
330
5F
100
AcDbEntity
  8
USP-GEO
100
AcDbLine
 10
4.172800000000052
 20
8.172799999999995
 30
0.0000000000000004
 11
4.172800000000052
 21
7.922799999999995
 31
0.0000000000000004
210
0.0
220
1.0
230
0.0
  0
LINE
  5
124
330
5F
100
AcDbEntity
  8
USP-GEO
100
AcDbLine
 10
4.172800000000052
 20
7.922799999999995
 30
0.0000000000000004
 11
4.172800000000052
 21
7.621615993858313
 31
0.0000000000000004
210
0.0
220
1.0
230
0.0
  0
LINE
  5
125
330
5F
100
AcDbEntity
  8
USP-GEO
100
AcDbLine
 10
4.220600000000047
 20
8.172799999999995
 30
0.0000000000000004
 11
4.220600000000047
 21
8.473984006141705
 31
0.0000000000000004
210
0.0
220
1.0
230
0.0
  0
LINE
  5
126
330
5F
100
AcDbEntity
  8
USP-GEO
100
AcDbLine
 10
4.172800000000052
 20
8.473984006141705
 30
0.0000000000000004
 11
4.172800000000052
 21
8.172799999999995
 31
0.0000000000000004
210
0.0
220
1.0
230
0.0
  0
CIRCLE
  5
127
330
5F
100
AcDbEntity
  8
USP-GEO
100
AcDbCircle
 10
4.908100000000047
 20
8.672799999999995
 30
0.0000000000000005
 40
0.0860000000000001
  0
LINE
  5
128
330
5F
100
AcDbEntity
  8
USP-GEO
100
AcDbLine
 10
4.433100000000052
 20
8.437871282108403
 30
0.0000000000000004
 11
4.633100000000041
 21
8.437871282108403
 31
0.0000000000000004
210
0.0
220
1.0
230
0.0
  0
ARC
  5
129
330
5F
100
AcDbEntity
  8
USP-GEO
100
AcDbCircle
 10
5.12060000000001
 20
7.922800000000052
 30
0.0000000000000005
 40
0.3124999999999561
100
AcDbArc
 50
180.0000000000114
 51
254.5339900465878
  0
LINE
  5
12A
330
5F
100
AcDbEntity
  8
USP-GEO
100
AcDbLine
 10
4.808100000000052
 20
8.172799999999995
 30
0.0000000000000005
 11
4.808100000000052
 21
7.922799999999995
 31
0.0000000000000005
210
0.0
220
1.0
230
0.0
  0
LINE
  5
12B
330
5F
100
AcDbEntity
  8
USP-GEO
100
AcDbLine
 10
4.633100000000041
 20
7.722799999999978
 30
0.0000000000000004
 11
4.533100000000047
 21
7.622799999999983
 31
0.0000000000000004
210
0.0
220
1.0
230
0.0
  0
LINE
  5
12C
330
5F
100
AcDbEntity
  8
USP-GEO
100
AcDbLine
 10
4.633100000000041
 20
7.810845258770399
 30
0.0000000000000004
 11
4.633100000000041
 21
7.722799999999978
 31
0.0000000000000004
210
0.0
220
1.0
230
0.0
  0
LINE
  5
12D
330
5F
100
AcDbEntity
  8
USP-GEO
100
AcDbLine
 10
4.433100000000052
 20
7.722799999999978
 30
0.0000000000000004
 11
4.433100000000052
 21
7.810845258770413
 31
0.0000000000000004
210
0.0
220
1.0
230
0.0
  0
LINE
  5
12E
330
5F
100
AcDbEntity
  8
USP-GEO
100
AcDbLine
 10
4.533100000000047
 20
7.622799999999983
 30
0.0000000000000004
 11
4.433100000000052
 21
7.722799999999978
 31
0.0000000000000004
210
0.0
220
1.0
230
0.0
  0
LINE
  5
12F
330
5F
100
AcDbEntity
  8
USP-GEO
100
AcDbLine
 10
4.633100000000041
 20
7.798499587221243
 30
0.0000000000000004
 11
4.533100000000047
 21
7.716584382792348
 31
0.0000000000000004
210
0.0
220
1.0
230
0.0
  0
LINE
  5
130
330
5F
100
AcDbEntity
  8
USP-GEO
100
AcDbLine
 10
4.533100000000047
 20
7.716584382792348
 30
0.0000000000000004
 11
4.433100000000052
 21
7.798499587221243
 31
0.0000000000000004
210
0.0
220
1.0
230
0.0
  0
LINE
  5
131
330
5F
100
AcDbEntity
  8
USP-GEO
100
AcDbLine
 10
4.433100000000052
 20
7.810845258770427
 30
0.0000000000000004
 11
4.433100000000052
 21
7.903132277269605
 31
0.0000000000000004
210
0.0
220
1.0
230
0.0
  0
LINE
  5
132
330
5F
100
AcDbEntity
  8
USP-GEO
100
AcDbLine
 10
4.633100000000041
 20
8.096941316781823
 30
0.0000000000000004
 11
4.633100000000041
 21
7.810845258770399
 31
0.0000000000000004
210
0.0
220
1.0
230
0.0
  0
LINE
  5
133
330
5F
100
AcDbEntity
  8
USP-GEO
100
AcDbLine
 10
4.633100000000027
 20
8.096941316781823
 30
0.0000000000000004
 11
4.633100000000027
 21
8.151775224096979
 31
0.0000000000000004
210
0.0
220
1.0
230
0.0
  0
ARC
  5
134
330
5F
100
AcDbEntity
  8
USP-GEO
100
AcDbCircle
 10
5.120600000000052
 20
8.172799999999995
 30
0.0000000000000005
 40
0.3124999999999979
100
AcDbArc
 50
105.4660099534222
 51
180.0000000000024
  0
LINE
  5
135
330
5F
100
AcDbEntity
  8
USP-GEO
100
AcDbLine
 10
4.633100000000041
 20
8.437871282108403
 30
0.0000000000000004
 11
4.633100000000013
 21
8.151775224096979
 31
0.0000000000000004
210
0.0
220
1.0
230
0.0
  0
LINE
  5
136
330
5F
100
AcDbEntity
  8
USP-GEO
100
AcDbLine
 10
4.433100000000052
 20
8.192467722730413
 30
0.0000000000000004
 11
4.433100000000052
 21
8.437871282108403
 31
0.0000000000000004
210
0.0
220
1.0
230
0.0
  0
LINE
  5
137
330
5F
100
AcDbEntity
  8
USP-GEO
100
AcDbLine
 10
4.220600000000047
 20
9.297799999999995
 30
0.0000000000000004
 11
4.172800000000052
 21
9.297799999999995
 31
0.0000000000000004
210
0.0
220
1.0
230
0.0
  0
LINE
  5
138
330
5F
100
AcDbEntity
  8
USP-GEO
100
AcDbLine
 10
5.220600000000061
 20
9.297799999999995
 30
0.0000000000000005
 11
5.220600000000047
 21
8.714931211054931
 31
0.0000000000000005
210
0.0
220
1.0
230
0.0
  0
ENDBLK
  5
13A
330
5F
100
AcDbEntity
  8
0
100
AcDbBlockEnd
  0
BLOCK
  5
1AE
330
13C
100
AcDbEntity
  8
0
100
AcDbBlockBegin
  2
JUS210-2_S
 70
     0
 10
0.0
 20
0.0
 30
0.0
  3
JUS210-2_S
  1

  0
ELLIPSE
  5
13D
330
13C
100
AcDbEntity
  8
USP-GEO
100
AcDbEllipse
 10
1.343501891765498
 20
8.297800000000023
 30
0.0000000000000002
 11
0.0
 21
-0.0820000000000036
 31
0.0
210
-0.0000000000000002
220
0.0
230
1.0
 40
0.7071067811865474
 41
0.0
 42
6.283185307179586
  0
ELLIPSE
  5
13E
330
13C
100
AcDbEntity
  8
USP-GEO
100
AcDbEllipse
 10
1.308062685551092
 20
8.297800000000023
 30
0.0000000000000002
 11
0.0
 21
0.0820000000000154
 31
0.0
210
-0.0000000000000002
220
0.0
230
1.0
 40
0.7071067811864457
 41
-2.831022822131812
 42
-0.3105698314579817
  0
ELLIPSE
  5
13F
330
13C
100
AcDbEntity
  8
USP-GEO
100
AcDbEllipse
 10
1.343501891765498
 20
4.464931211054945
 30
0.0000000000000002
 11
0.0
 21
-0.0820000000000036
 31
0.0
210
-0.0000000000000002
220
0.0
230
1.0
 40
0.7071067811865474
 41
0.0
 42
6.283185307179586
  0
ELLIPSE
  5
140
330
13C
100
AcDbEntity
  8
USP-GEO
100
AcDbEllipse
 10
1.308062685551092
 20
4.464931211054945
 30
0.0000000000000002
 11
0.0
 21
0.0820000000000005
 31
0.0
210
-0.0000000000000002
220
0.0
230
1.0
 40
0.7071067811865744
 41
-2.831022822131811
 42
-0.3105698314579814
  0
ELLIPSE
  5
141
330
13C
100
AcDbEntity
  8
USP-GEO
100
AcDbEllipse
 10
1.343501891765498
 20
2.297799999999995
 30
0.0000000000000002
 11
0.0
 21
-0.0820000000000036
 31
0.0
210
-0.0000000000000002
220
0.0
230
1.0
 40
0.7071067811865474
 41
0.0
 42
6.283185307179586
  0
ELLIPSE
  5
142
330
13C
100
AcDbEntity
  8
USP-GEO
100
AcDbEllipse
 10
1.343501891765484
 20
2.17279999999998
 30
0.0000000000000002
 11
0.0000000000000817
 21
0.0820000000000969
 31
0.0
210
-0.0000000000000002
220
0.0
230
1.0
 40
0.7071067811857427
 41
0.988647973758009
 42
1.5707963267956
  0
ELLIPSE
  5
143
330
13C
100
AcDbEntity
  8
USP-GEO
100
AcDbEllipse
 10
1.308062685551092
 20
2.297799999999995
 30
0.0000000000000002
 11
0.0
 21
0.0820000000000005
 31
0.0
210
-0.0000000000000002
220
0.0
230
1.0
 40
0.7071067811865744
 41
-2.831022822131811
 42
-0.3105698314579814
  0
LINE
  5
144
330
13C
100
AcDbEntity
  8
USP-GEO
100
AcDbLine
 10
1.047799999999995
 20
9.297799999999995
 30
0.0000000000000001
 11
0.0477999999999952
 21
9.297799999999995
 31
0.0
210
0.0
220
1.0
230
0.0
  0
LINE
  5
145
330
13C
100
AcDbEntity
  8
USP-GEO
100
AcDbLine
 10
2.297799999999995
 20
0.0
 30
0.0000000000000004
 11
0.2977999999999952
 21
0.0
 31
0.0
210
0.0
220
1.0
230
0.0
  0
LINE
  5
146
330
13C
100
AcDbEntity
  8
USP-GEO
100
AcDbLine
 10
0.0
 20
2.736046378881596
 30
-0.0000000000000001
 11
0.0
 21
3.318584034162412
 31
-0.0000000000000001
210
0.0
220
1.0
230
0.0
  0
LINE
  5
147
330
13C
100
AcDbEntity
  8
USP-GEO
100
AcDbLine
 10
0.0477999999999952
 20
2.73604637888161
 30
0.0
 11
0.0477999999999952
 21
3.318584034162412
 31
0.0
210
0.0
220
1.0
230
0.0
  0
ARC
  5
148
330
13C
100
AcDbEntity
  8
USP-GEO
100
AcDbCircle
 10
0.0477999999999952
 20
1.172799999999995
 30
0.0
 40
0.249999999999998
100
AcDbArc
 50
0.0
 51
35.62922644870121
  0
LINE
  5
149
330
13C
100
AcDbEntity
  8
USP-GEO
100
AcDbLine
 10
0.2977999999999952
 20
0.0
 30
0.0
 11
0.2977999999999952
 21
1.172799999999995
 31
0.0
210
0.0
220
1.0
230
0.0
  0
LINE
  5
14A
330
13C
100
AcDbEntity
  8
USP-GEO
100
AcDbLine
 10
0.2510009289133421
 20
1.318434413820199
 30
0.0
 11
0.0477999999999952
 21
1.601956806832475
 31
0.0
210
0.0
220
1.0
230
0.0
  0
LINE
  5
14B
330
13C
100
AcDbEntity
  8
USP-GEO
100
AcDbLine
 10
0.0477999999999952
 20
1.601956806832475
 30
0.0
 11
0.0
 21
1.601956806832475
 31
-0.0000000000000001
210
0.0
220
1.0
230
0.0
  0
LINE
  5
14C
330
13C
100
AcDbEntity
  8
USP-GEO
100
AcDbLine
 10
0.0
 20
1.601956806832475
 30
-0.0000000000000001
 11
0.0
 21
2.736046378881596
 31
-0.0000000000000001
210
0.0
220
1.0
230
0.0
  0
LINE
  5
14D
330
13C
100
AcDbEntity
  8
USP-GEO
100
AcDbLine
 10
0.0477999999999952
 20
1.601956806832475
 30
0.0
 11
0.0477999999999952
 21
2.736046378881596
 31
0.0
210
0.0
220
1.0
230
0.0
  0
LINE
  5
14E
330
13C
100
AcDbEntity
  8
USP-GEO
100
AcDbLine
 10
0.0
 20
6.96493121105496
 30
-0.0000000000000001
 11
0.0
 21
7.630668788945072
 31
-0.0000000000000001
210
0.0
220
1.0
230
0.0
  0
LINE
  5
14F
330
13C
100
AcDbEntity
  8
USP-GEO
100
AcDbLine
 10
0.0477999999999952
 20
6.96493121105496
 30
0.0
 11
0.0477999999999952
 21
7.630668788945087
 31
0.0
210
0.0
220
1.0
230
0.0
  0
LINE
  5
150
330
13C
100
AcDbEntity
  8
USP-GEO
100
AcDbLine
 10
0.0
 20
5.132062422109882
 30
-0.0000000000000001
 11
0.0
 21
5.630668788945087
 31
-0.0000000000000001
210
0.0
220
1.0
230
0.0
  0
LINE
  5
151
330
13C
100
AcDbEntity
  8
USP-GEO
100
AcDbLine
 10
0.0477999999999952
 20
5.132062422109882
 30
0.0
 11
0.0477999999999952
 21
5.630668788945087
 31
0.0
210
0.0
220
1.0
230
0.0
  0
CIRCLE
  5
152
330
13C
100
AcDbEntity
  8
USP-GEO
100
AcDbCircle
 10
0.2352999999999952
 20
4.985300000000009
 30
0.0
 40
0.1535000000000001
  0
LINE
  5
153
330
13C
100
AcDbEntity
  8
USP-GEO
100
AcDbLine
 10
0.0
 20
3.318584034162412
 30
-0.0000000000000001
 11
0.0
 21
3.797800000000009
 31
-0.0000000000000001
210
0.0
220
1.0
230
0.0
  0
LINE
  5
154
330
13C
100
AcDbEntity
  8
USP-GEO
100
AcDbLine
 10
0.0477999999999952
 20
3.318584034162412
 30
0.0
 11
0.0477999999999952
 21
3.797800000000009
 31
0.0
210
0.0
220
1.0
230
0.0
  0
LINE
  5
155
330
13C
100
AcDbEntity
  8
USP-GEO
100
AcDbLine
 10
0.0
 20
4.891115217196642
 30
-0.0000000000000001
 11
0.0
 21
5.132062422109882
 31
-0.0000000000000001
210
0.0
220
1.0
230
0.0
  0
LINE
  5
156
330
13C
100
AcDbEntity
  8
USP-GEO
100
AcDbLine
 10
0.047799999999981
 20
4.891115217196642
 30
0.0
 11
0.047799999999981
 21
5.132062422109882
 31
0.0
210
0.0
220
1.0
230
0.0
  0
LINE
  5
157
330
13C
100
AcDbEntity
  8
USP-GEO
100
AcDbLine
 10
0.0
 20
4.339931211054945
 30
-0.0000000000000001
 11
0.0
 21
4.589931211054945
 31
-0.0000000000000001
210
0.0
220
1.0
230
0.0
  0
LINE
  5
158
330
13C
100
AcDbEntity
  8
USP-GEO
100
AcDbLine
 10
0.0
 20
4.038747204913363
 30
-0.0000000000000001
 11
0.0
 21
4.339931211054945
 31
-0.0000000000000001
210
0.0
220
1.0
230
0.0
  0
LINE
  5
159
330
13C
100
AcDbEntity
  8
USP-GEO
100
AcDbLine
 10
0.0
 20
3.797800000000009
 30
-0.0000000000000001
 11
0.0
 21
4.038747204913349
 31
-0.0000000000000001
210
0.0
220
1.0
230
0.0
  0
LINE
  5
15A
330
13C
100
AcDbEntity
  8
USP-GEO
100
AcDbLine
 10
0.0477999999999952
 20
3.797800000000009
 30
0.0
 11
0.0477999999999952
 21
4.038747204913363
 31
0.0
210
0.0
220
1.0
230
0.0
  0
LINE
  5
15B
330
13C
100
AcDbEntity
  8
USP-GEO
100
AcDbLine
 10
0.0477999999999952
 20
4.038747204913363
 30
0.0
 11
0.0477999999999952
 21
4.339931211054945
 31
0.0
210
0.0
220
1.0
230
0.0
  0
LINE
  5
15C
330
13C
100
AcDbEntity
  8
USP-GEO
100
AcDbLine
 10
0.0477999999999952
 20
4.339931211054945
 30
0.0
 11
0.0477999999999952
 21
4.589931211054945
 31
0.0
210
0.0
220
1.0
230
0.0
  0
LINE
  5
15D
330
13C
100
AcDbEntity
  8
USP-GEO
100
AcDbLine
 10
0.0
 20
4.589931211054945
 30
-0.0000000000000001
 11
0.0
 21
4.891115217196627
 31
-0.0000000000000001
210
0.0
220
1.0
230
0.0
  0
LINE
  5
15E
330
13C
100
AcDbEntity
  8
USP-GEO
100
AcDbLine
 10
0.0477999999999952
 20
4.589931211054945
 30
0.0
 11
0.0477999999999952
 21
4.891115217196627
 31
0.0
210
0.0
220
1.0
230
0.0
  0
LINE
  5
15F
330
13C
100
AcDbEntity
  8
USP-GEO
100
AcDbLine
 10
0.0
 20
6.72398400614162
 30
-0.0000000000000001
 11
0.0
 21
6.96493121105496
 31
-0.0000000000000001
210
0.0
220
1.0
230
0.0
  0
LINE
  5
160
330
13C
100
AcDbEntity
  8
USP-GEO
100
AcDbLine
 10
0.0477999999999952
 20
6.723984006141591
 30
0.0
 11
0.0477999999999952
 21
6.96493121105496
 31
0.0
210
0.0
220
1.0
230
0.0
  0
LINE
  5
161
330
13C
100
AcDbEntity
  8
USP-GEO
100
AcDbLine
 10
0.0
 20
6.172800000000023
 30
-0.0000000000000001
 11
0.0
 21
6.422800000000023
 31
-0.0000000000000001
210
0.0
220
1.0
230
0.0
  0
LINE
  5
162
330
13C
100
AcDbEntity
  8
USP-GEO
100
AcDbLine
 10
0.0
 20
5.871615993858341
 30
-0.0000000000000001
 11
0.0
 21
6.172800000000023
 31
-0.0000000000000001
210
0.0
220
1.0
230
0.0
  0
LINE
  5
163
330
13C
100
AcDbEntity
  8
USP-GEO
100
AcDbLine
 10
0.0
 20
5.630668788945087
 30
-0.0000000000000001
 11
0.0
 21
5.871615993858341
 31
-0.0000000000000001
210
0.0
220
1.0
230
0.0
  0
LINE
  5
164
330
13C
100
AcDbEntity
  8
USP-GEO
100
AcDbLine
 10
0.047799999999981
 20
5.630668788945087
 30
0.0
 11
0.047799999999981
 21
5.871615993858341
 31
0.0
210
0.0
220
1.0
230
0.0
  0
LINE
  5
165
330
13C
100
AcDbEntity
  8
USP-GEO
100
AcDbLine
 10
0.0477999999999952
 20
5.871615993858341
 30
0.0
 11
0.0477999999999952
 21
6.172800000000023
 31
0.0
210
0.0
220
1.0
230
0.0
  0
LINE
  5
166
330
13C
100
AcDbEntity
  8
USP-GEO
100
AcDbLine
 10
0.0477999999999952
 20
6.172800000000023
 30
0.0
 11
0.0477999999999952
 21
6.422800000000023
 31
0.0
210
0.0
220
1.0
230
0.0
  0
LINE
  5
167
330
13C
100
AcDbEntity
  8
USP-GEO
100
AcDbLine
 10
0.0
 20
6.422800000000023
 30
-0.0000000000000001
 11
0.0
 21
6.723984006141591
 31
-0.0000000000000001
210
0.0
220
1.0
230
0.0
  0
LINE
  5
168
330
13C
100
AcDbEntity
  8
USP-GEO
100
AcDbLine
 10
0.0477999999999952
 20
6.422800000000023
 30
0.0
 11
0.0477999999999952
 21
6.723984006141606
 31
0.0
210
0.0
220
1.0
230
0.0
  0
LINE
  5
169
330
13C
100
AcDbEntity
  8
USP-GEO
100
AcDbLine
 10
0.0
 20
8.964931211054945
 30
-0.0000000000000001
 11
0.0
 21
9.297799999999995
 31
-0.0000000000000001
210
0.0
220
1.0
230
0.0
  0
LINE
  5
16A
330
13C
100
AcDbEntity
  8
USP-GEO
100
AcDbLine
 10
0.0477999999999952
 20
8.964931211054945
 30
0.0
 11
0.0477999999999952
 21
9.297800000000009
 31
0.0
210
0.0
220
1.0
230
0.0
  0
LINE
  5
16B
330
13C
100
AcDbEntity
  8
USP-GEO
100
AcDbLine
 10
0.0
 20
8.723984006141606
 30
-0.0000000000000001
 11
0.0
 21
8.964931211054945
 31
-0.0000000000000001
210
0.0
220
1.0
230
0.0
  0
LINE
  5
16C
330
13C
100
AcDbEntity
  8
USP-GEO
100
AcDbLine
 10
0.0
 20
8.422800000000009
 30
-0.0000000000000001
 11
0.0
 21
8.723984006141606
 31
-0.0000000000000001
210
0.0
220
1.0
230
0.0
  0
LINE
  5
16D
330
13C
100
AcDbEntity
  8
USP-GEO
100
AcDbLine
 10
0.2481266164716658
 20
8.401775224096979
 30
0.0
 11
0.047799999999981
 21
8.687871282108432
 31
0.0
210
0.0
220
1.0
230
0.0
  0
LINE
  5
16E
330
13C
100
AcDbEntity
  8
USP-GEO
100
AcDbLine
 10
0.0477999999999952
 20
8.604534525277742
 30
0.0
 11
0.1897735911288834
 21
8.401775224096994
 31
0.0
210
0.0
220
1.0
230
0.0
  0
ARC
  5
16F
330
13C
100
AcDbEntity
  8
USP-GEO
100
AcDbCircle
 10
0.15061812341186
 20
8.374358270439415
 30
0.0
 40
0.0478
100
AcDbArc
 50
325.000000000005
 51
34.99999999999917
  0
ARC
  5
170
330
13C
100
AcDbEntity
  8
USP-GEO
100
AcDbCircle
 10
0.2089711487546566
 20
8.374358270439415
 30
0.0
 40
0.0478
100
AcDbArc
 50
325.0000000000038
 51
34.99999999999623
  0
LINE
  5
171
330
13C
100
AcDbEntity
  8
USP-GEO
100
AcDbLine
 10
0.0477999999999952
 20
8.422800000000009
 30
0.0
 11
0.0477999999999952
 21
8.723984006141606
 31
0.0
210
0.0
220
1.0
230
0.0
  0
LINE
  5
172
330
13C
100
AcDbEntity
  8
USP-GEO
100
AcDbLine
 10
0.0477999999999952
 20
8.723984006141591
 30
0.0
 11
0.0477999999999952
 21
8.964931211054945
 31
0.0
210
0.0
220
1.0
230
0.0
  0
LINE
  5
173
330
13C
100
AcDbEntity
  8
USP-GEO
100
AcDbLine
 10
0.0
 20
7.871615993858327
 30
-0.0000000000000001
 11
0.0
 21
8.172800000000009
 31
-0.0000000000000001
210
0.0
220
1.0
230
0.0
  0
LINE
  5
174
330
13C
100
AcDbEntity
  8
USP-GEO
100
AcDbLine
 10
0.0
 20
7.630668788945072
 30
-0.0000000000000001
 11
0.0
 21
7.871615993858327
 31
-0.0000000000000001
210
0.0
220
1.0
230
0.0
  0
LINE
  5
175
330
13C
100
AcDbEntity
  8
USP-GEO
100
AcDbLine
 10
-0.0182021759181055
 20
7.716584382792348
 30
-0.0000000000000001
 11
-0.0573576436351147
 21
7.744001336449912
 31
-0.0000000000000001
210
0.0
220
1.0
230
0.0
  0
LINE
  5
176
330
13C
100
AcDbEntity
  8
USP-GEO
100
AcDbLine
 10
-0.0000000000000142
 20
7.825916540878807
 30
-0.0000000000000001
 11
-0.0573576436351147
 21
7.744001336449912
 31
-0.0000000000000001
210
0.0
220
1.0
230
0.0
  0
LINE
  5
177
330
13C
100
AcDbEntity
  8
USP-GEO
100
AcDbLine
 10
-0.0182021759181055
 20
7.716584382792348
 30
-0.0000000000000001
 11
0.0
 21
7.742579784048146
 31
-0.0000000000000001
210
0.0
220
1.0
230
0.0
  0
LINE
  5
178
330
13C
100
AcDbEntity
  8
USP-GEO
100
AcDbLine
 10
-0.0182021759181055
 20
7.966584382792348
 30
-0.0000000000000001
 11
-0.0573576436351147
 21
7.994001336449926
 31
-0.0000000000000001
210
0.0
220
1.0
230
0.0
  0
LINE
  5
179
330
13C
100
AcDbEntity
  8
USP-GEO
100
AcDbLine
 10
0.0
 20
8.075916540878822
 30
-0.0000000000000001
 11
-0.0573576436351004
 21
7.994001336449926
 31
-0.0000000000000001
210
0.0
220
1.0
230
0.0
  0
LINE
  5
17A
330
13C
100
AcDbEntity
  8
USP-GEO
100
AcDbLine
 10
-0.0182021759181055
 20
7.966584382792348
 30
-0.0000000000000001
 11
0.0
 21
7.99257978404816
 31
-0.0000000000000001
210
0.0
220
1.0
230
0.0
  0
LINE
  5
17B
330
13C
100
AcDbEntity
  8
USP-GEO
100
AcDbLine
 10
0.0477999999999952
 20
7.630668788945087
 30
0.0
 11
0.0477999999999952
 21
7.871615993858327
 31
0.0
210
0.0
220
1.0
230
0.0
  0
LINE
  5
17C
330
13C
100
AcDbEntity
  8
USP-GEO
100
AcDbLine
 10
0.0477999999999952
 20
7.871615993858341
 30
0.0
 11
0.0477999999999952
 21
8.172800000000023
 31
0.0
210
0.0
220
1.0
230
0.0
  0
LINE
  5
17D
330
13C
100
AcDbEntity
  8
USP-GEO
100
AcDbLine
 10
0.0
 20
8.172800000000009
 30
-0.0000000000000001
 11
0.0
 21
8.422800000000009
 31
-0.0000000000000001
210
0.0
220
1.0
230
0.0
  0
LINE
  5
17E
330
13C
100
AcDbEntity
  8
USP-GEO
100
AcDbLine
 10
0.1897735911288834
 20
8.346941316781823
 30
0.0
 11
0.0477999999999952
 21
8.144182015601089
 31
0.0
210
0.0
220
1.0
230
0.0
  0
LINE
  5
17F
330
13C
100
AcDbEntity
  8
USP-GEO
100
AcDbLine
 10
0.0477999999999952
 20
8.060845258770413
 30
0.0
 11
0.2481266164716658
 21
8.346941316781837
 31
0.0
210
0.0
220
1.0
230
0.0
  0
LINE
  5
180
330
13C
100
AcDbEntity
  8
USP-GEO
100
AcDbLine
 10
0.0477999999999952
 20
8.172800000000023
 30
0.0
 11
0.0477999999999952
 21
8.422800000000009
 31
0.0
210
0.0
220
1.0
230
0.0
  0
LINE
  5
181
330
13C
100
AcDbEntity
  8
USP-GEO
100
AcDbLine
 10
0.0477999999999952
 20
9.297799999999995
 30
0.0
 11
0.0
 21
9.297799999999995
 31
-0.0000000000000001
210
0.0
220
1.0
230
0.0
  0
TEXT
  5
182
330
13C
100
AcDbEntity
  8
USP-TXT
100
AcDbText
 10
-1.098033333333337
 20
-0.6934870154304349
 30
0.0000000000000002
 40
0.25
  1
JUS210-2 - SIDE VIEW
 72
     1
 11
1.297799999999995
 21
-0.6934870154304349
 31
0.0000000000000002
100
AcDbText
  0
ARC
  5
183
330
13C
100
AcDbEntity
  8
USP-GEO
100
AcDbCircle
 10
1.297799999999995
 20
8.964931211055045
 30
0.0000000000000002
 40
0.2500000000000023
100
AcDbArc
 50
180.0
 51
254.5339900465778
  0
ARC
  5
184
330
13C
100
AcDbEntity
  8
USP-GEO
100
AcDbCircle
 10
1.297800000000009
 20
7.630668788944973
 30
0.0000000000000002
 40
0.250000000000007
100
AcDbArc
 50
105.466009953423
 51
180.0
  0
ARC
  5
185
330
13C
100
AcDbEntity
  8
USP-GEO
100
AcDbCircle
 10
1.297799999999995
 20
6.964931211055059
 30
0.0000000000000002
 40
0.2500000000000023
100
AcDbArc
 50
180.0000000000016
 51
254.5339900465803
  0
ARC
  5
186
330
13C
100
AcDbEntity
  8
USP-GEO
100
AcDbCircle
 10
1.297799999999995
 20
7.380668788944944
 30
0.0000000000000002
 40
0.2500000000000164
100
AcDbArc
 50
105.4660099534214
 51
180.0
  0
ARC
  5
187
330
13C
100
AcDbEntity
  8
USP-GEO
100
AcDbCircle
 10
1.1410656795899
 20
8.047799999999995
 30
0.0000000000000002
 40
0.2500000000000001
100
AcDbArc
 50
263.6191508634897
 51
338.7772229973419
  0
CIRCLE
  5
188
330
13C
100
AcDbEntity
  8
USP-GEO
100
AcDbCircle
 10
1.141065679589914
 20
8.297800000000009
 30
0.0000000000000002
 40
0.293938769133981
  0
ARC
  5
189
330
13C
100
AcDbEntity
  8
USP-GEO
100
AcDbCircle
 10
1.297799999999995
 20
5.630668788944973
 30
0.0000000000000002
 40
0.2500000000000023
100
AcDbArc
 50
105.4660099534222
 51
180.0
  0
ARC
  5
18A
330
13C
100
AcDbEntity
  8
USP-GEO
100
AcDbCircle
 10
1.297799999999995
 20
5.132062422109981
 30
0.0000000000000002
 40
0.2499999999999977
100
AcDbArc
 50
180.0000000000016
 51
254.5339900465786
  0
ARC
  5
18B
330
13C
100
AcDbEntity
  8
USP-GEO
100
AcDbCircle
 10
1.297799999999995
 20
5.380668788944973
 30
0.0000000000000002
 40
0.2499999999999977
100
AcDbArc
 50
105.4660099534214
 51
179.9999999999984
  0
ARC
  5
18C
330
13C
100
AcDbEntity
  8
USP-GEO
100
AcDbCircle
 10
1.297800000000009
 20
3.797799999999895
 30
0.0000000000000002
 40
0.250000000000007
100
AcDbArc
 50
105.4660099534238
 51
180.0
  0
ARC
  5
18D
330
13C
100
AcDbEntity
  8
USP-GEO
100
AcDbCircle
 10
1.297799999999909
 20
3.547799999999938
 30
0.0000000000000002
 40
0.2499999999999324
100
AcDbArc
 50
105.466009953407
 51
179.9999999999861
  0
ARC
  5
18E
330
13C
100
AcDbEntity
  8
USP-GEO
100
AcDbCircle
 10
1.1410656795899
 20
4.214931211054931
 30
0.0000000000000002
 40
0.2500000000000001
100
AcDbArc
 50
263.6191508634906
 51
338.7772229973438
  0
CIRCLE
  5
18F
330
13C
100
AcDbEntity
  8
USP-GEO
100
AcDbCircle
 10
1.1410656795899
 20
4.464931211054945
 30
0.0000000000000002
 40
0.293938769133981
  0
CIRCLE
  5
190
330
13C
100
AcDbEntity
  8
USP-GEO
100
AcDbCircle
 10
1.1410656795899
 20
2.297799999999995
 30
0.0000000000000002
 40
0.293938769133981
  0
ARC
  5
191
330
13C
100
AcDbEntity
  8
USP-GEO
100
AcDbCircle
 10
2.047799999999995
 20
3.318584034162427
 30
0.0000000000000003
 40
0.9999999999999978
100
AcDbArc
 50
180.0000000000008
 51
215.6292264487012
  0
LINE
  5
192
330
13C
100
AcDbEntity
  8
USP-HID
100
AcDbLine
 10
0.2977999999999952
 20
0.0477999999999952
 30
0.0000000000000002
 11
2.297799999999995
 21
0.0477999999999952
 31
0.0000000000000002
  0
LINE
  5
195
330
13C
100
AcDbEntity
  8
USP-GEO
100
AcDbLine
 10
1.047799999999995
 20
7.630668788944973
 30
0.0000000000000001
 11
1.047799999999995
 21
6.964931211055045
 31
0.0000000000000001
210
0.0
220
1.0
230
0.0
  0
LINE
  5
196
330
13C
100
AcDbEntity
  8
USP-GEO
100
AcDbLine
 10
1.047799999999995
 20
5.630668788944973
 30
0.0000000000000001
 11
1.047799999999995
 21
5.132062422109981
 31
0.0000000000000001
210
0.0
220
1.0
230
0.0
  0
LINE
  5
197
330
13C
100
AcDbEntity
  8
USP-GEO
100
AcDbLine
 10
1.047799999999995
 20
3.797799999999895
 30
0.0000000000000001
 11
1.047799999999995
 21
3.318584034162412
 31
0.0000000000000001
210
0.0
220
1.0
230
0.0
  0
LINE
  5
198
330
13C
100
AcDbEntity
  8
USP-GEO
100
AcDbLine
 10
1.047799999999995
 20
9.297799999999995
 30
0.0000000000000001
 11
1.047799999999995
 21
8.964931211055045
 31
0.0000000000000001
210
0.0
220
1.0
230
0.0
  0
ARC
  5
199
330
13C
100
AcDbEntity
  8
USP-GEO
100
AcDbCircle
 10
2.047799999999995
 20
1.172799999999995
 30
0.0000000000000003
 40
0.249999999999998
100
AcDbArc
 50
0.0
 51
35.62922644870007
  0
LINE
  5
19A
330
13C
100
AcDbEntity
  8
USP-GEO
100
AcDbLine
 10
2.297799999999995
 20
1.172799999999995
 30
0.0000000000000004
 11
2.297799999999995
 21
0.0
 31
0.0000000000000004
210
0.0
220
1.0
230
0.0
  0
LINE
  5
19B
330
13C
100
AcDbEntity
  8
USP-GEO
100
AcDbLine
 10
1.234996284346635
 20
2.736046378881596
 30
0.0000000000000002
 11
2.251000928913342
 21
1.318434413820199
 31
0.0000000000000004
210
0.0
220
1.0
230
0.0
  0
ARC
  5
19C
330
13C
100
AcDbEntity
  8
USP-GEO
100
AcDbCircle
 10
1.1410656795899
 20
2.17279999999998
 30
0.0000000000000002
 40
0.2500000000000001
100
AcDbArc
 50
26.30903480974699
 51
48.67096500962522
  0
LINE
  5
19D
330
13C
100
AcDbEntity
  8
USP-GEO
100
AcDbLine
 10
1.460299999999989
 20
4.589931211054945
 30
0.0000000000000002
 11
1.460299999999989
 21
4.339931211054945
 31
0.0000000000000002
210
0.0
220
1.0
230
0.0
  0
LINE
  5
19E
330
13C
100
AcDbEntity
  8
USP-GEO
100
AcDbLine
 10
1.460299999999989
 20
4.339931211054931
 30
0.0000000000000002
 11
1.460299999999989
 21
4.089931211054931
 31
0.0000000000000002
210
0.0
220
1.0
230
0.0
  0
ARC
  5
19F
330
13C
100
AcDbEntity
  8
USP-GEO
100
AcDbCircle
 10
1.147799999999989
 20
4.339931211054945
 30
0.0000000000000002
 40
0.3125000000000059
100
AcDbArc
 50
285.4660099534204
 51
0.0
  0
ARC
  5
1A0
330
13C
100
AcDbEntity
  8
USP-GEO
100
AcDbCircle
 10
1.1410656795899
 20
4.214931211054931
 30
0.0000000000000002
 40
0.2500000000000001
100
AcDbArc
 50
44.68846250694668
 51
49.07055207077023
  0
ARC
  5
1A1
330
13C
100
AcDbEntity
  8
USP-GEO
100
AcDbCircle
 10
1.147799999999975
 20
4.089931211054931
 30
0.0000000000000002
 40
0.3125000000000058
100
AcDbArc
 50
285.4660099534222
 51
0.0
  0
ARC
  5
1A2
330
13C
100
AcDbEntity
  8
USP-GEO
100
AcDbCircle
 10
1.147799999999989
 20
4.589931211054945
 30
0.0000000000000002
 40
0.3125000000000012
100
AcDbArc
 50
0.0
 51
74.53399004658037
  0
LINE
  5
1A3
330
13C
100
AcDbEntity
  8
USP-GEO
100
AcDbLine
 10
1.460299999999989
 20
6.422800000000023
 30
0.0000000000000002
 11
1.460299999999989
 21
6.172800000000023
 31
0.0000000000000002
210
0.0
220
1.0
230
0.0
  0
LINE
  5
1A4
330
13C
100
AcDbEntity
  8
USP-GEO
100
AcDbLine
 10
1.460299999999989
 20
6.172799999999995
 30
0.0000000000000002
 11
1.460299999999989
 21
5.922799999999995
 31
0.0000000000000002
210
0.0
220
1.0
230
0.0
  0
ARC
  5
1A5
330
13C
100
AcDbEntity
  8
USP-GEO
100
AcDbCircle
 10
1.147799999999989
 20
6.172800000000009
 30
0.0000000000000002
 40
0.3125000000000059
100
AcDbArc
 50
285.4660099534196
 51
0.0000000000016284
  0
ARC
  5
1A6
330
13C
100
AcDbEntity
  8
USP-GEO
100
AcDbCircle
 10
1.147799999999989
 20
5.922799999999995
 30
0.0000000000000002
 40
0.3124999999999964
100
AcDbArc
 50
285.4660099534196
 51
0.0000000000016284
  0
ARC
  5
1A7
330
13C
100
AcDbEntity
  8
USP-GEO
100
AcDbCircle
 10
1.147799999999989
 20
6.422800000000023
 30
0.0000000000000002
 40
0.3125000000000012
100
AcDbArc
 50
0.0
 51
74.53399004657957
  0
ARC
  5
1A8
330
13C
100
AcDbEntity
  8
USP-GEO
100
AcDbCircle
 10
1.147799999999989
 20
8.422800000000023
 30
0.0000000000000002
 40
0.3125000000000059
100
AcDbArc
 50
359.9999999999984
 51
74.53399004657857
  0
LINE
  5
1A9
330
13C
100
AcDbEntity
  8
USP-GEO
100
AcDbLine
 10
1.460299999999989
 20
8.172799999999995
 30
0.0000000000000002
 11
1.460299999999989
 21
7.922799999999995
 31
0.0000000000000002
210
0.0
220
1.0
230
0.0
  0
ARC
  5
1AA
330
13C
100
AcDbEntity
  8
USP-GEO
100
AcDbCircle
 10
1.147799999999989
 20
8.172800000000009
 30
0.0000000000000002
 40
0.3125000000000013
100
AcDbArc
 50
285.4660099534196
 51
0.0
  0
ARC
  5
1AB
330
13C
100
AcDbEntity
  8
USP-GEO
100
AcDbCircle
 10
1.1410656795899
 20
8.047799999999995
 30
0.0000000000000002
 40
0.2500000000000001
100
AcDbArc
 50
44.68846250694668
 51
49.07055207076909
  0
ARC
  5
1AC
330
13C
100
AcDbEntity
  8
USP-GEO
100
AcDbCircle
 10
1.147799999999989
 20
7.922799999999995
 30
0.0000000000000002
 40
0.3124999999999964
100
AcDbArc
 50
285.4660099534196
 51
0.0000000000016284
  0
LINE
  5
1AD
330
13C
100
AcDbEntity
  8
USP-GEO
100
AcDbLine
 10
1.460299999999989
 20
8.422800000000023
 30
0.0000000000000002
 11
1.460299999999989
 21
8.172800000000009
 31
0.0000000000000002
210
0.0
220
1.0
230
0.0
  0
ENDBLK
  5
1AF
330
13C
100
AcDbEntity
  8
0
100
AcDbBlockEnd
  0
ENDSEC
  0
SECTION
  2
ENTITIES
  0
INSERT
  5
3
330
2
100
AcDbEntity
  8
USP
100
AcDbBlockReference
  2
JUS210-2_T
 10
6.461688647012804
 20
12.68544719485963
 30
0.0000000000000064
  0
INSERT
  5
5E
330
2
100
AcDbEntity
  8
USP
100
AcDbBlockReference
  2
JUS210-2_F
 10
6.461688647012804
 20
0.6939459804309501
 30
0.0000000000000062
  0
INSERT
  5
13B
330
2
100
AcDbEntity
  8
USP
100
AcDbBlockReference
  2
JUS210-2_S
 10
1.098399516331586
 20
0.6939459804309501
 30
0.0000000000000064
  0
ENDSEC
  0
SECTION
  2
OBJECTS
  0
DICTIONARY
  5
1CB
330
0
100
AcDbDictionary
281
     1
  3
ACAD_COLOR
350
1E3
  3
ACAD_GROUP
350
1C8
  3
ACAD_LAYOUT
350
1E4
  3
ACAD_MATERIAL
350
1E2
  3
ACAD_MLINESTYLE
350
1C9
  3
ACAD_PLOTSETTINGS
350
1E5
  3
ACAD_PLOTSTYLENAME
350
1E0
  3
ACDBHEADERROUNDTRIPXREC
350
1EE
  3
AcDbVariableDictionary
350
1EA
  0
DICTIONARY
  5
1BD
330
1BC
100
AcDbDictionary
280
     1
281
     1
  0
DICTIONARY
  5
1BF
330
1BE
100
AcDbDictionary
280
     1
281
     1
  0
DICTIONARY
  5
6
330
5
100
AcDbDictionary
280
     1
281
     1
  0
DICTIONARY
  5
B
330
A
100
AcDbDictionary
280
     1
281
     1
  0
DICTIONARY
  5
1D0
330
1CF
100
AcDbDictionary
280
     1
281
     1
  0
DICTIONARY
  5
1B0
330
2
100
AcDbDictionary
280
     1
281
     1
  3
ACAD_LAYOUTSELFREF
360
1B1
  0
DICTIONARY
  5
1B5
330
1B4
100
AcDbDictionary
280
     1
281
     1
  3
ACAD_LAYOUTSELFREF
360
1B6
  0
DICTIONARY
  5
1E3
102
{ACAD_REACTORS
330
1CB
102
}
330
1CB
100
AcDbDictionary
281
     1
  0
DICTIONARY
  5
1C8
102
{ACAD_REACTORS
330
1CB
102
}
330
1CB
100
AcDbDictionary
281
     1
  0
DICTIONARY
  5
1E4
102
{ACAD_REACTORS
330
1CB
102
}
330
1CB
100
AcDbDictionary
281
     1
  3
Layout1
350
1E7
  3
Model
350
1E6
  0
DICTIONARY
  5
1E2
102
{ACAD_REACTORS
330
1CB
102
}
330
1CB
100
AcDbDictionary
281
     1
  0
DICTIONARY
  5
1C9
102
{ACAD_XDICTIONARY
360
1CA
102
}
102
{ACAD_REACTORS
330
1CB
102
}
330
1CB
100
AcDbDictionary
281
     1
  3
STANDARD
350
1CE
  0
DICTIONARY
  5
1E5
102
{ACAD_REACTORS
330
1CB
102
}
330
1CB
100
AcDbDictionary
281
     1
  0
ACDBDICTIONARYWDFLT
  5
1E0
102
{ACAD_REACTORS
330
1CB
102
}
330
1CB
100
AcDbDictionary
281
     1
  3
Normal
350
1E1
100
AcDbDictionaryWithDefault
340
1E1
  0
DICTIONARY
  5
1EE
102
{ACAD_REACTORS
330
1CB
102
}
330
1CB
100
AcDbDictionary
281
     1
  3
COLORDICT
350
1F0
  3
MATERIALDICT
350
1EF
  0
DICTIONARY
  5
1EA
102
{ACAD_REACTORS
330
1CB
102
}
330
1CB
100
AcDbDictionary
281
     1
  3
DIMASSOC
350
1EB
  3
PROJECTNAME
350
1EC
  0
XRECORD
  5
1B1
102
{ACAD_REACTORS
330
1B0
102
}
330
1B0
100
AcDbXrecord
280
     1
340
2
  0
XRECORD
  5
1B6
102
{ACAD_REACTORS
330
1B5
102
}
330
1B5
100
AcDbXrecord
280
     1
340
1B6
  0
LAYOUT
  5
1E7
102
{ACAD_XDICTIONARY
360
1F3
102
}
102
{ACAD_REACTORS
330
1E4
102
}
330
1E4
100
AcDbPlotSettings
  1

  2
\\mitk-us-mtg-n28\Office Canon IR C2550
  4

  6

 40
0.0
 41
0.0
 42
0.0
 43
0.0
 44
0.0
 45
0.0
 46
0.0
 47
0.0
 48
0.0
 49
0.0
140
0.0
141
0.0
142
1.0
143
1.0
 70
   688
 72
     0
 73
     0
 74
     5
  7

 75
    16
147
1.0
148
0.0
149
0.0
100
AcDbLayout
  1
Layout1
 70
     1
 71
     1
 10
0.0
 20
0.0
 11
12.0
 21
9.0
 12
0.0
 22
0.0
 32
0.0
 14
1.000000000000000E+20
 24
1.000000000000000E+20
 34
1.000000000000000E+20
 15
-1.000000000000000E+20
 25
-1.000000000000000E+20
 35
-1.000000000000000E+20
146
0.0
 13
0.0
 23
0.0
 33
0.0
 16
1.0
 26
0.0
 36
0.0
 17
0.0
 27
1.0
 37
0.0
 76
     0
330
1B4
  0
LAYOUT
  5
1E6
102
{ACAD_XDICTIONARY
360
1F1
102
}
102
{ACAD_REACTORS
330
1E4
102
}
330
1E4
100
AcDbPlotSettings
  1

  2
\\mitk-us-mtg-n28\Office Canon IR C2550
  4

  6

 40
0.0
 41
0.0
 42
0.0
 43
0.0
 44
0.0
 45
0.0
 46
0.0
 47
0.0
 48
0.0
 49
0.0
140
0.0
141
0.0
142
1.0
143
1.0
 70
  1712
 72
     0
 73
     0
 74
     0
  7

 75
     0
147
1.0
148
0.0
149
0.0
100
AcDbLayout
  1
Model
 70
     1
 71
     0
 10
0.0
 20
0.0
 11
12.0
 21
9.0
 12
0.0
 22
0.0
 32
0.0
 14
0.0
 24
0.0
 34
0.0
 15
0.0
 25
0.0
 35
0.0
146
0.0
 13
0.0
 23
0.0
 33
0.0
 16
1.0
 26
0.0
 36
0.0
 17
0.0
 27
1.0
 37
0.0
 76
     0
330
2
  0
DICTIONARY
  5
1CA
330
1C9
100
AcDbDictionary
280
     1
281
     1
  0
MLINESTYLE
  5
1CE
102
{ACAD_REACTORS
330
1C9
102
}
330
1C9
100
AcDbMlineStyle
  2
STANDARD
 70
     0
  3

 62
   256
 51
90.0
 52
90.0
 71
     2
 49
0.5
 62
   256
  6
BYLAYER
 49
-0.5
 62
   256
  6
BYLAYER
  0
ACDBPLACEHOLDER
  5
1E1
102
{ACAD_REACTORS
330
1E0
102
}
330
1E0
  0
XRECORD
  5
1F0
102
{ACAD_REACTORS
330
1EE
102
}
330
1EE
100
AcDbXrecord
280
     1
340
1E3
  0
XRECORD
  5
1EF
102
{ACAD_REACTORS
330
1EE
102
}
330
1EE
100
AcDbXrecord
280
     1
340
1E2
  0
DICTIONARYVAR
  5
1EB
102
{ACAD_REACTORS
330
1EA
102
}
330
1EA
100
DictionaryVariables
280
     0
  1
1
  0
DICTIONARYVAR
  5
1EC
102
{ACAD_REACTORS
330
1EA
102
}
330
1EA
100
DictionaryVariables
280
     0
  1

  0
DICTIONARY
  5
1F3
330
1E7
100
AcDbDictionary
280
     1
281
     1
  3
ACAD_XREC_ROUNDTRIP
360
1F4
  0
DICTIONARY
  5
1F1
330
1E6
100
AcDbDictionary
280
     1
281
     1
  3
ACAD_XREC_ROUNDTRIP
360
1F2
  0
XRECORD
  5
1F4
102
{ACAD_REACTORS
330
1F3
102
}
330
1F3
100
AcDbXrecord
280
     1
102
SHADEPLOT
 70
     0
102
SHADEPLOTRESLEVEL
 70
     2
102
SHADEPLOTCUSTOMDPI
 70
   300
  0
XRECORD
  5
1F2
102
{ACAD_REACTORS
330
1F1
102
}
330
1F1
100
AcDbXrecord
280
     1
102
SHADEPLOT
 70
     0
102
SHADEPLOTRESLEVEL
 70
     2
102
SHADEPLOTCUSTOMDPI
 70
   300
  0
ENDSEC
  0
EOF
