  0
SECTION
  2
HEADER
  9
$ACADVER
  1
AC1014
  9
$ACADMAINTVER
 70
     9
  9
$DWGCODEPAGE
  3
ANSI_1252
  9
$INSBASE
 10
0.0
 20
0.0
 30
0.0
  9
$EXTMIN
 10
-0.0833730260605759
 20
0.0032526669607549
 30
0.0
  9
$EXTMAX
 10
12.36493535772218
 20
15.51921100042594
 30
0.0
  9
$LIMMIN
 10
0.0
 20
0.0
  9
$LIMMAX
 10
12.0
 20
9.0
  9
$ORTHOMODE
 70
     1
  9
$REGENMODE
 70
     1
  9
$FILLMODE
 70
     1
  9
$QTEXTMODE
 70
     0
  9
$MIRRTEXT
 70
     0
  9
$DRAGMODE
 70
     2
  9
$LTSCALE
 40
1.5
  9
$OSMODE
 70
     0
  9
$ATTMODE
 70
     1
  9
$TEXTSIZE
 40
0.75
  9
$TRACEWID
 40
0.05
  9
$TEXTSTYLE
  7
STANDARD
  9
$CLAYER
  8
USP
  9
$CELTYPE
  6
BYLAYER
  9
$CECOLOR
 62
   256
  9
$CELTSCALE
 40
1.0
  9
$DELOBJ
 70
     1
  9
$DISPSILH
 70
     1
  9
$DIMSCALE
 40
7.0
  9
$DIMASZ
 40
0.125
  9
$DIMEXO
 40
0.0625
  9
$DIMDLI
 40
0.37890625
  9
$DIMRND
 40
0.0
  9
$DIMDLE
 40
0.0
  9
$DIMEXE
 40
0.09375
  9
$DIMTP
 40
0.0
  9
$DIMTM
 40
0.0
  9
$DIMTXT
 40
0.109375
  9
$DIMCEN
 40
0.0
  9
$DIMTSZ
 40
0.0
  9
$DIMTOL
 70
     0
  9
$DIMLIM
 70
     0
  9
$DIMTIH
 70
     1
  9
$DIMTOH
 70
     1
  9
$DIMSE1
 70
     0
  9
$DIMSE2
 70
     0
  9
$DIMTAD
 70
     0
  9
$DIMZIN
 70
     8
  9
$DIMBLK
  1

  9
$DIMASO
 70
     1
  9
$DIMSHO
 70
     1
  9
$DIMPOST
  1

  9
$DIMAPOST
  1

  9
$DIMALT
 70
     0
  9
$DIMALTD
 70
     2
  9
$DIMALTF
 40
25.4
  9
$DIMLFAC
 40
1.0
  9
$DIMTOFL
 70
     0
  9
$DIMTVP
 40
0.0
  9
$DIMTIX
 70
     0
  9
$DIMSOXD
 70
     0
  9
$DIMSAH
 70
     0
  9
$DIMBLK1
  1

  9
$DIMBLK2
  1

  9
$DIMSTYLE
  2
STANDARD
  9
$DIMCLRD
 70
     0
  9
$DIMCLRE
 70
     0
  9
$DIMCLRT
 70
   256
  9
$DIMTFAC
 40
1.0
  9
$DIMGAP
 40
0.08984375
  9
$DIMJUST
 70
     0
  9
$DIMSD1
 70
     0
  9
$DIMSD2
 70
     0
  9
$DIMTOLJ
 70
     1
  9
$DIMTZIN
 70
     0
  9
$DIMALTZ
 70
     0
  9
$DIMALTTZ
 70
     0
  9
$DIMFIT
 70
     3
  9
$DIMUPT
 70
     1
  9
$DIMUNIT
 70
     7
  9
$DIMDEC
 70
     4
  9
$DIMTDEC
 70
     4
  9
$DIMALTU
 70
     2
  9
$DIMALTTD
 70
     2
  9
$DIMTXSTY
  7
STANDARD
  9
$DIMAUNIT
 70
     0
  9
$LUNITS
 70
     5
  9
$LUPREC
 70
     6
  9
$SKETCHINC
 40
0.1
  9
$FILLETRAD
 40
0.0
  9
$AUNITS
 70
     0
  9
$AUPREC
 70
     1
  9
$MENU
  1
CUSTOM
  9
$ELEVATION
 40
0.0
  9
$PELEVATION
 40
0.0
  9
$THICKNESS
 40
0.0
  9
$LIMCHECK
 70
     0
  9
$BLIPMODE
 70
     0
  9
$CHAMFERA
 40
0.0
  9
$CHAMFERB
 40
0.0
  9
$CHAMFERC
 40
0.0
  9
$CHAMFERD
 40
0.0
  9
$SKPOLY
 70
     0
  9
$TDCREATE
 40
2451263.663231366
  9
$TDUPDATE
 40
2452759.745344860
  9
$TDINDWG
 40
0.4939883449
  9
$TDUSRTIMER
 40
0.4939883449
  9
$USRTIMER
 70
     1
  9
$ANGBASE
 50
0.0
  9
$ANGDIR
 70
     0
  9
$PDMODE
 70
     0
  9
$PDSIZE
 40
0.0
  9
$PLINEWID
 40
0.0
  9
$COORDS
 70
     2
  9
$SPLFRAME
 70
     0
  9
$SPLINETYPE
 70
     6
  9
$SPLINESEGS
 70
     8
  9
$ATTDIA
 70
     0
  9
$ATTREQ
 70
     0
  9
$HANDLING
 70
     1
  9
$HANDSEED
  5
BB
  9
$SURFTAB1
 70
     6
  9
$SURFTAB2
 70
     6
  9
$SURFTYPE
 70
     6
  9
$SURFU
 70
     6
  9
$SURFV
 70
     6
  9
$UCSNAME
  2

  9
$UCSORG
 10
0.0
 20
0.0
 30
0.0
  9
$UCSXDIR
 10
1.0
 20
0.0
 30
0.0
  9
$UCSYDIR
 10
0.0
 20
1.0
 30
0.0
  9
$PUCSNAME
  2

  9
$PUCSORG
 10
0.0
 20
0.0
 30
0.0
  9
$PUCSXDIR
 10
1.0
 20
0.0
 30
0.0
  9
$PUCSYDIR
 10
0.0
 20
1.0
 30
0.0
  9
$USERI1
 70
     0
  9
$USERI2
 70
     0
  9
$USERI3
 70
     0
  9
$USERI4
 70
     0
  9
$USERI5
 70
     0
  9
$USERR1
 40
0.0
  9
$USERR2
 40
0.0
  9
$USERR3
 40
0.0
  9
$USERR4
 40
0.0
  9
$USERR5
 40
0.0
  9
$WORLDVIEW
 70
     1
  9
$SHADEDGE
 70
     3
  9
$SHADEDIF
 70
    70
  9
$TILEMODE
 70
     1
  9
$MAXACTVP
 70
    16
  9
$PINSBASE
 10
0.0
 20
0.0
 30
0.0
  9
$PLIMCHECK
 70
     0
  9
$PEXTMIN
 10
1.000000000000000E+20
 20
1.000000000000000E+20
 30
1.000000000000000E+20
  9
$PEXTMAX
 10
-1.000000000000000E+20
 20
-1.000000000000000E+20
 30
-1.000000000000000E+20
  9
$PLIMMIN
 10
0.0
 20
0.0
  9
$PLIMMAX
 10
12.0
 20
9.0
  9
$UNITMODE
 70
     0
  9
$VISRETAIN
 70
     0
  9
$PLINEGEN
 70
     0
  9
$PSLTSCALE
 70
     0
  9
$TREEDEPTH
 70
  3020
  9
$PICKSTYLE
 70
     1
  9
$CMLSTYLE
  2
STANDARD
  9
$CMLJUST
 70
     0
  9
$CMLSCALE
 40
1.0
  9
$PROXYGRAPHICS
 70
     1
  9
$MEASUREMENT
 70
     0
  0
ENDSEC
  0
SECTION
  2
CLASSES
  0
CLASS
  1
ACDBDICTIONARYWDFLT
  2
AcDbDictionaryWithDefault
  3
AutoCAD 2000
 90
        0
280
     1
281
     0
  0
CLASS
  1
ACDBPLACEHOLDER
  2
AcDbPlaceHolder
  3
AutoCAD 2000
 90
        0
280
     1
281
     0
  0
CLASS
  1
LAYOUT
  2
AcDbLayout
  3
AutoCAD 2000
 90
        0
280
     1
281
     0
  0
CLASS
  1
DICTIONARYVAR
  2
AcDbDictionaryVar
  3
"AutoCAD"
 90
        0
280
     1
281
     0
  0
CLASS
  1
LONG_TRANSACTION
  2
AcDbLongTransaction
  3
AutoCAD 2000
 90
        0
280
     1
281
     0
  0
CLASS
  1
LWPOLYLINE
  2
AcDbPolyline
  3
"AutoCAD"
 90
        0
280
     1
281
     1
  0
CLASS
  1
HATCH
  2
AcDbHatch
  3
"ACAD_SEDONA"
 90
        0
280
     1
281
     1
  0
CLASS
  1
XRECORD
  2
AcDbXrecord
  3
"<Built In>"
 90
        0
280
     0
281
     0
  0
ENDSEC
  0
SECTION
  2
TABLES
  0
TABLE
  2
VPORT
  5
A5
100
AcDbSymbolTable
 70
     1
  0
VPORT
  5
B7
100
AcDbSymbolTableRecord
100
AcDbViewportTableRecord
  2
*ACTIVE
 70
     0
 10
0.0
 20
0.0
 11
1.0
 21
1.0
 12
-11.40256758031716
 22
18.35281419968656
 13
0.0
 23
0.0
 14
1.0
 24
1.0
 15
0.0
 25
0.0
 16
0.0
 26
0.0
 36
1.0
 17
23.09603071721725
 27
-10.27010416511325
 37
-10.44050274849355
 40
16.15891473522509
 41
1.457627118644067
 42
50.0
 43
10.55307667737539
 44
10.55307667737539
 50
0.0
 51
0.0
 71
     0
 72
   100
 73
     1
 74
     1
 75
     0
 76
     0
 77
     0
 78
     0
  0
ENDTAB
  0
TABLE
  2
LTYPE
  5
A1
100
AcDbSymbolTable
 70
     1
  0
LTYPE
  5
A2
100
AcDbSymbolTableRecord
100
AcDbLinetypeTableRecord
  2
BYBLOCK
 70
     0
  3

 72
    65
 73
     0
 40
0.0
  0
LTYPE
  5
6
100
AcDbSymbolTableRecord
100
AcDbLinetypeTableRecord
  2
BYLAYER
 70
     0
  3

 72
    65
 73
     0
 40
0.0
  0
LTYPE
  5
5
100
AcDbSymbolTableRecord
100
AcDbLinetypeTableRecord
  2
CONTINUOUS
 70
     0
  3
Solid line
 72
    65
 73
     0
 40
0.0
  0
ENDTAB
  0
TABLE
  2
LAYER
  5
9F
100
AcDbSymbolTable
 70
     5
  0
LAYER
  5
41
100
AcDbSymbolTableRecord
100
AcDbLayerTableRecord
  2
0
 70
     0
 62
     7
  6
CONTINUOUS
  0
LAYER
  5
C
100
AcDbSymbolTableRecord
100
AcDbLayerTableRecord
  2
USP-GEO
 70
     0
 62
     7
  6
CONTINUOUS
  0
LAYER
  5
9
100
AcDbSymbolTableRecord
100
AcDbLayerTableRecord
  2
USP-TXT
 70
     0
 62
     7
  6
CONTINUOUS
  0
LAYER
  5
16
102
{ACAD_XDICTIONARY
360
17
102
}
100
AcDbSymbolTableRecord
100
AcDbLayerTableRecord
  2
USP-HID
 70
     0
 62
     7
  6
CONTINUOUS
  0
LAYER
  5
4
100
AcDbSymbolTableRecord
100
AcDbLayerTableRecord
  2
USP
 70
     0
 62
     7
  6
CONTINUOUS
  0
ENDTAB
  0
TABLE
  2
STYLE
  5
A0
100
AcDbSymbolTable
 70
     1
  0
STYLE
  5
A
100
AcDbSymbolTableRecord
100
AcDbTextStyleTableRecord
  2
STANDARD
 70
     0
 40
0.0
 41
1.0
 50
0.0
 71
     0
 42
0.75
  3
txt
  4

  0
ENDTAB
  0
TABLE
  2
VIEW
  5
A3
100
AcDbSymbolTable
 70
     0
  0
ENDTAB
  0
TABLE
  2
UCS
  5
A4
100
AcDbSymbolTable
 70
     0
  0
ENDTAB
  0
TABLE
  2
APPID
  5
A7
100
AcDbSymbolTable
 70
     1
  0
APPID
  5
18
100
AcDbSymbolTableRecord
100
AcDbRegAppTableRecord
  2
ACAD
 70
     0
  0
ENDTAB
  0
TABLE
  2
DIMSTYLE
  5
A8
100
AcDbSymbolTable
 70
     1
  0
DIMSTYLE
105
AF
100
AcDbSymbolTableRecord
100
AcDbDimStyleTableRecord
  2
STANDARD
 70
     0
  3

  4

  5

  6

  7

 40
1.0
 41
0.18
 42
0.0625
 43
0.38
 44
0.18
 45
0.0
 46
0.0
 47
0.0
 48
0.0
140
0.18
141
0.09
142
0.0
143
25.4
144
1.0
145
0.0
146
1.0
147
0.09
 71
     0
 72
     0
 73
     1
 74
     1
 75
     0
 76
     0
 77
     0
 78
     0
170
     0
171
     2
172
     0
173
     0
174
     0
175
     0
176
     0
177
     0
178
     0
270
     2
271
     4
272
     4
273
     2
274
     2
340
A
275
     0
280
     0
281
     0
282
     0
283
     1
284
     0
285
     0
286
     0
287
     3
288
     0
  0
ENDTAB
  0
TABLE
  2
BLOCK_RECORD
  5
1
100
AcDbSymbolTable
 70
     3
  0
BLOCK_RECORD
  5
2
102
{ACAD_XDICTIONARY
360
98
102
}
100
AcDbSymbolTableRecord
100
AcDbBlockTableRecord
  2
*MODEL_SPACE
  0
BLOCK_RECORD
  5
9B
102
{ACAD_XDICTIONARY
360
9C
102
}
100
AcDbSymbolTableRecord
100
AcDbBlockTableRecord
  2
*PAPER_SPACE
  0
BLOCK_RECORD
  5
7
100
AcDbSymbolTableRecord
100
AcDbBlockTableRecord
  2
JA5_S
  0
BLOCK_RECORD
  5
44
100
AcDbSymbolTableRecord
100
AcDbBlockTableRecord
  2
JA5_F
  0
BLOCK_RECORD
  5
7A
100
AcDbSymbolTableRecord
100
AcDbBlockTableRecord
  2
JA5_T
  0
ENDTAB
  0
ENDSEC
  0
SECTION
  2
BLOCKS
  0
BLOCK
  5
99
100
AcDbEntity
  8
0
100
AcDbBlockBegin
  2
*MODEL_SPACE
 70
     0
 10
0.0
 20
0.0
 30
0.0
  3
*MODEL_SPACE
  1

  0
ENDBLK
  5
9A
100
AcDbEntity
  8
0
100
AcDbBlockEnd
  0
BLOCK
  5
9D
100
AcDbEntity
 67
     1
  8
0
100
AcDbBlockBegin
  2
*PAPER_SPACE
 70
     0
 10
0.0
 20
0.0
 30
0.0
  3
*PAPER_SPACE
  1

  0
ENDBLK
  5
9E
100
AcDbEntity
 67
     1
  8
0
100
AcDbBlockEnd
  0
BLOCK
  5
40
100
AcDbEntity
  8
0
100
AcDbBlockBegin
  2
JA5_S
 70
     0
 10
0.0
 20
0.0
 30
0.0
  3
JA5_S
  1

  0
TEXT
  5
8
100
AcDbEntity
  8
USP-TXT
100
AcDbText
 10
-0.9270833333333335
 20
-1.683583847461895
 30
0.0
 40
0.296875
  1
JA5 - SIDE VIEW
 72
     1
 11
1.25
 21
-1.683583847461895
 31
0.0
100
AcDbText
  0
LINE
  5
B
100
AcDbEntity
  8
USP-GEO
100
AcDbLine
 10
2.500000000000001
 20
0.0000000000000007
 30
0.0
 11
0.0
 21
0.0
 31
0.0
  0
LINE
  5
D
100
AcDbEntity
  8
USP-GEO
100
AcDbLine
 10
1.75
 20
5.0
 30
0.0
 11
-0.0000000000000002
 21
4.999999999999999
 31
0.0
  0
LINE
  5
E
100
AcDbEntity
  8
USP-GEO
100
AcDbLine
 10
-0.0746999999999989
 20
1.875000000000001
 30
0.0
 11
-0.0746999999999987
 21
1.125
 31
0.0
  0
LINE
  5
F
100
AcDbEntity
  8
USP-GEO
100
AcDbLine
 10
0.0000000000000013
 20
1.125
 30
0.0
 11
0.0000000000000011
 21
1.875
 31
0.0
  0
LINE
  5
10
100
AcDbEntity
  8
USP-GEO
100
AcDbLine
 10
-0.0746999999999979
 20
0.3749999999999989
 30
0.0
 11
-0.0746999999999978
 21
-0.0000000000000029
 31
0.0
  0
LINE
  5
11
100
AcDbEntity
  8
USP-GEO
100
AcDbLine
 10
0.0000000000000013
 20
-0.0000000000000029
 30
0.0
 11
0.0000000000000012
 21
0.3749999999999993
 31
0.0
  0
LINE
  5
12
100
AcDbEntity
  8
USP-GEO
100
AcDbLine
 10
0.0000000000000013
 20
-0.0000000000000029
 30
0.0
 11
-0.0746999999999983
 21
-0.0000000000000029
 31
0.0
  0
LINE
  5
13
100
AcDbEntity
  8
USP-GEO
100
AcDbLine
 10
-0.0746999999999976
 20
1.125000000000001
 30
0.0
 11
-0.0746999999999978
 21
0.3750000000000007
 31
0.0
  0
LINE
  5
14
100
AcDbEntity
  8
USP-GEO
100
AcDbLine
 10
0.0000000000000013
 20
0.3750000000000007
 30
0.0
 11
0.0000000000000016
 21
1.125000000000001
 31
0.0
  0
LINE
  5
15
100
AcDbEntity
  8
USP-HID
100
AcDbLine
 10
0.0000000000000013
 20
0.222499999999997
 30
0.0
 11
-0.0746999999999987
 21
0.222499999999997
 31
0.0
  0
LINE
  5
19
100
AcDbEntity
  8
USP-HID
100
AcDbLine
 10
0.0000000000000013
 20
0.4024999999999971
 30
0.0
 11
-0.0746999999999987
 21
0.4024999999999971
 31
0.0
  0
LINE
  5
1A
100
AcDbEntity
  8
USP-GEO
100
AcDbLine
 10
0.0000000000000013
 20
0.3750000000000007
 30
0.0
 11
-0.0746999999999986
 21
0.3750000000000007
 31
0.0
  0
LINE
  5
1B
100
AcDbEntity
  8
USP-HID
100
AcDbLine
 10
0.0000000000000004
 20
1.014500000000002
 30
0.0
 11
-0.0746999999999996
 21
1.014500000000002
 31
0.0
  0
LINE
  5
1C
100
AcDbEntity
  8
USP-HID
100
AcDbLine
 10
0.0000000000000004
 20
1.194500000000002
 30
0.0
 11
-0.0746999999999996
 21
1.194500000000002
 31
0.0
  0
LINE
  5
1D
100
AcDbEntity
  8
USP-GEO
100
AcDbLine
 10
0.0000000000000013
 20
1.125
 30
0.0
 11
-0.0746999999999989
 21
1.125
 31
0.0
  0
CIRCLE
  5
1E
100
AcDbEntity
  8
USP-GEO
100
AcDbCircle
 10
1.000000000000002
 20
1.104500000000002
 30
0.0
 40
0.09
  0
LINE
  5
1F
100
AcDbEntity
  8
USP-GEO
100
AcDbLine
 10
0.0000000000000013
 20
3.374999999999997
 30
0.0
 11
0.0000000000000016
 21
4.125
 31
0.0
  0
LINE
  5
20
100
AcDbEntity
  8
USP-GEO
100
AcDbLine
 10
-0.0746999999999984
 20
4.125000000000004
 30
0.0
 11
-0.0746999999999987
 21
3.375
 31
0.0
  0
LINE
  5
21
100
AcDbEntity
  8
USP-GEO
100
AcDbLine
 10
-0.0746999999999993
 20
2.625
 30
0.0
 11
-0.0746999999999987
 21
1.875
 31
0.0
  0
LINE
  5
22
100
AcDbEntity
  8
USP-GEO
100
AcDbLine
 10
0.0000000000000013
 20
1.875
 30
0.0
 11
0.0000000000000007
 21
2.625
 31
0.0
  0
LINE
  5
23
100
AcDbEntity
  8
USP-HID
100
AcDbLine
 10
0.0000000000000013
 20
1.626462641305196
 30
0.0
 11
-0.0746999999999987
 21
1.626462641305196
 31
0.0
  0
LINE
  5
24
100
AcDbEntity
  8
USP-HID
100
AcDbLine
 10
0.0000000000000013
 20
1.806462641305196
 30
0.0
 11
-0.0746999999999987
 21
1.806462641305196
 31
0.0
  0
LINE
  5
25
100
AcDbEntity
  8
USP-HID
100
AcDbLine
 10
0.0000000000000004
 20
2.005868915281696
 30
0.0
 11
-0.0746999999999996
 21
2.005868915281696
 31
0.0
  0
LINE
  5
26
100
AcDbEntity
  8
USP-GEO
100
AcDbLine
 10
0.0000000000000013
 20
1.875
 30
0.0
 11
-0.0746999999999983
 21
1.875
 31
0.0
  0
LINE
  5
27
100
AcDbEntity
  8
USP-HID
100
AcDbLine
 10
0.0000000000000004
 20
2.185868915281695
 30
0.0
 11
-0.0746999999999996
 21
2.185868915281695
 31
0.0
  0
LINE
  5
28
100
AcDbEntity
  8
USP-GEO
100
AcDbLine
 10
0.0000000000000013
 20
3.374999999999997
 30
0.0
 11
0.0000000000000014
 21
2.624999999999999
 31
0.0
  0
LINE
  5
29
100
AcDbEntity
  8
USP-GEO
100
AcDbLine
 10
-0.0746999999999998
 20
3.374999999999999
 30
0.0
 11
-0.0746999999999996
 21
2.625
 31
0.0
  0
LINE
  5
2A
100
AcDbEntity
  8
USP-GEO
100
AcDbLine
 10
0.0000000000000013
 20
2.625
 30
0.0
 11
-0.0746999999999989
 21
2.625
 31
0.0
  0
LINE
  5
2B
100
AcDbEntity
  8
USP-GEO
100
AcDbLine
 10
0.0000000000000013
 20
3.374999999999997
 30
0.0
 11
-0.0746999999999983
 21
3.374999999999997
 31
0.0
  0
CIRCLE
  5
2C
100
AcDbEntity
  8
USP-GEO
100
AcDbCircle
 10
1.250000000000002
 20
1.8965
 30
0.0
 40
0.09
  0
LINE
  5
2D
100
AcDbEntity
  8
USP-GEO
100
AcDbLine
 10
0.0000000000000013
 20
4.125
 30
0.0
 11
0.0000000000000011
 21
4.999999999999997
 31
0.0
  0
LINE
  5
2E
100
AcDbEntity
  8
USP-GEO
100
AcDbLine
 10
-0.0746999999999989
 20
4.999999999999997
 30
0.0
 11
-0.0746999999999987
 21
4.125
 31
0.0
  0
LINE
  5
2F
100
AcDbEntity
  8
USP-HID
100
AcDbLine
 10
-0.0000000000000004
 20
4.110318999505207
 30
0.0
 11
-0.0746999999999996
 21
4.110318999505207
 31
0.0
  0
LINE
  5
30
100
AcDbEntity
  8
USP-GEO
100
AcDbLine
 10
0.0000000000000013
 20
4.125
 30
0.0
 11
-0.0746999999999983
 21
4.125
 31
0.0
  0
LINE
  5
31
100
AcDbEntity
  8
USP-HID
100
AcDbLine
 10
-0.0000000000000004
 20
4.290318999505207
 30
0.0
 11
-0.0746999999999996
 21
4.290318999505207
 31
0.0
  0
LINE
  5
32
100
AcDbEntity
  8
USP-HID
100
AcDbLine
 10
0.0000000000000004
 20
4.506236246510579
 30
0.0
 11
-0.0746999999999996
 21
4.506236246510579
 31
0.0
  0
LINE
  5
33
100
AcDbEntity
  8
USP-HID
100
AcDbLine
 10
0.0000000000000004
 20
4.686236246510579
 30
0.0
 11
-0.0746999999999996
 21
4.686236246510579
 31
0.0
  0
LINE
  5
34
100
AcDbEntity
  8
USP-GEO
100
AcDbLine
 10
0.0000000000000004
 20
5.0
 30
0.0
 11
-0.0746999999999992
 21
5.0
 31
0.0
  0
CIRCLE
  5
35
100
AcDbEntity
  8
USP-GEO
100
AcDbCircle
 10
1.25
 20
4.6875
 30
0.0
 40
0.09
  0
LINE
  5
36
100
AcDbEntity
  8
USP-GEO
100
AcDbLine
 10
1.75
 20
1.125
 30
0.0
 11
1.750000000000001
 21
1.875
 31
0.0
  0
LINE
  5
37
100
AcDbEntity
  8
USP-GEO
100
AcDbLine
 10
2.5
 20
0.3750000000000007
 30
0.0
 11
1.749999999999999
 21
1.125
 31
0.0
  0
CIRCLE
  5
38
100
AcDbEntity
  8
USP-GEO
100
AcDbCircle
 10
1.750000000000001
 20
0.3125000000000007
 30
0.0
 40
0.09
  0
LINE
  5
39
100
AcDbEntity
  8
USP-GEO
100
AcDbLine
 10
2.500000000000001
 20
0.0000000000000007
 30
0.0
 11
2.500000000000001
 21
0.3750000000000024
 31
0.0
  0
CIRCLE
  5
3A
100
AcDbEntity
  8
USP-GEO
100
AcDbCircle
 10
1.75
 20
3.687999999999999
 30
0.0
 40
0.09
  0
LINE
  5
3B
100
AcDbEntity
  8
USP-GEO
100
AcDbLine
 10
2.5
 20
3.375
 30
0.0
 11
1.75
 21
4.125
 31
0.0
  0
LINE
  5
3C
100
AcDbEntity
  8
USP-GEO
100
AcDbLine
 10
1.750000000000001
 20
1.875
 30
0.0
 11
2.500000000000001
 21
2.625
 31
0.0
  0
CIRCLE
  5
3D
100
AcDbEntity
  8
USP-GEO
100
AcDbCircle
 10
2.0
 20
2.688500000000002
 30
0.0
 40
0.09
  0
LINE
  5
3E
100
AcDbEntity
  8
USP-GEO
100
AcDbLine
 10
2.5
 20
3.375
 30
0.0
 11
2.5
 21
2.625
 31
0.0
  0
LINE
  5
3F
100
AcDbEntity
  8
USP-GEO
100
AcDbLine
 10
1.749999999999999
 20
4.125
 30
0.0
 11
1.749999999999999
 21
5.000000000000001
 31
0.0
  0
ENDBLK
  5
42
100
AcDbEntity
  8
0
100
AcDbBlockEnd
  0
BLOCK
  5
77
100
AcDbEntity
  8
0
100
AcDbBlockBegin
  2
JA5_F
 70
     0
 10
0.0
 20
0.0
 30
0.0
  3
JA5_F
  1

  0
TEXT
  5
45
100
AcDbEntity
  8
USP-TXT
100
AcDbText
 10
-1.124999999999999
 20
-1.683583847461875
 30
0.0
 40
0.296875
  1
JA5 - FRONT VIEW
 72
     1
 11
1.25
 21
-1.683583847461875
 31
0.0
100
AcDbText
  0
CIRCLE
  5
46
100
AcDbEntity
  8
USP-GEO
100
AcDbCircle
 10
1.449236593243156
 20
0.3125000000000002
 30
0.0
 40
0.09
  0
LINE
  5
47
100
AcDbEntity
  8
USP-GEO
100
AcDbLine
 10
1.750000000000001
 20
0.0000000000000002
 30
0.0
 11
0.0
 21
0.0
 31
0.0
  0
LINE
  5
48
100
AcDbEntity
  8
USP-GEO
100
AcDbLine
 10
-0.0000000000000018
 20
5.0
 30
0.0
 11
2.5
 21
5.000000000000001
 31
0.0
  0
LINE
  5
49
100
AcDbEntity
  8
USP-GEO
100
AcDbLine
 10
-0.0747000000000018
 20
1.125000000000003
 30
0.0
 11
-0.0747000000000018
 21
1.875000000000003
 31
0.0
  0
LINE
  5
4A
100
AcDbEntity
  8
USP-GEO
100
AcDbLine
 10
-0.0000000000000018
 20
1.125000000000003
 30
0.0
 11
-0.0000000000000018
 21
1.875000000000003
 31
0.0
  0
LINE
  5
4B
100
AcDbEntity
  8
USP-GEO
100
AcDbLine
 10
-0.0747000000000018
 20
0.0000000000000038
 30
0.0
 11
-0.0747000000000018
 21
0.3750000000000055
 31
0.0
  0
LINE
  5
4C
100
AcDbEntity
  8
USP-GEO
100
AcDbLine
 10
-0.0000000000000018
 20
0.0000000000000038
 30
0.0
 11
-0.0000000000000018
 21
0.3750000000000055
 31
0.0
  0
LINE
  5
4D
100
AcDbEntity
  8
USP-GEO
100
AcDbLine
 10
-0.0000000000000018
 20
0.0000000000000038
 30
0.0
 11
-0.0747000000000018
 21
0.0000000000000038
 31
0.0
  0
LINE
  5
4E
100
AcDbEntity
  8
USP-GEO
100
AcDbLine
 10
-0.0747000000000018
 20
0.3750000000000038
 30
0.0
 11
-0.0747000000000018
 21
1.125000000000003
 31
0.0
  0
LINE
  5
4F
100
AcDbEntity
  8
USP-GEO
100
AcDbLine
 10
-0.0000000000000018
 20
0.3750000000000038
 30
0.0
 11
-0.0000000000000018
 21
1.125000000000003
 31
0.0
  0
LINE
  5
50
100
AcDbEntity
  8
USP-HID
100
AcDbLine
 10
-0.0747000000000018
 20
0.2225000000000001
 30
0.0
 11
-0.0000000000000018
 21
0.2225000000000001
 31
0.0
  0
LINE
  5
51
100
AcDbEntity
  8
USP-HID
100
AcDbLine
 10
-0.0747000000000036
 20
0.4025000000000001
 30
0.0
 11
-0.0000000000000018
 21
0.4025000000000001
 31
0.0
  0
LINE
  5
52
100
AcDbEntity
  8
USP-GEO
100
AcDbLine
 10
-0.0000000000000018
 20
0.3750000000000038
 30
0.0
 11
-0.0747000000000018
 21
0.3750000000000038
 31
0.0
  0
LINE
  5
53
100
AcDbEntity
  8
USP-HID
100
AcDbLine
 10
-0.0747000000000018
 20
1.194500000000005
 30
0.0
 11
-0.0000000000000018
 21
1.194500000000005
 31
0.0
  0
LINE
  5
54
100
AcDbEntity
  8
USP-HID
100
AcDbLine
 10
-0.0747000000000018
 20
1.014500000000005
 30
0.0
 11
-0.0000000000000018
 21
1.014500000000005
 31
0.0
  0
LINE
  5
55
100
AcDbEntity
  8
USP-GEO
100
AcDbLine
 10
-0.0000000000000018
 20
1.125000000000003
 30
0.0
 11
-0.0747000000000018
 21
1.125000000000003
 31
0.0
  0
CIRCLE
  5
56
100
AcDbEntity
  8
USP-GEO
100
AcDbCircle
 10
0.8709928039505996
 20
1.104500000000005
 30
0.0
 40
0.09
  0
LINE
  5
57
100
AcDbEntity
  8
USP-GEO
100
AcDbLine
 10
-0.0747000000000018
 20
3.375000000000003
 30
0.0
 11
-0.0747000000000018
 21
4.125000000000003
 31
0.0
  0
LINE
  5
58
100
AcDbEntity
  8
USP-GEO
100
AcDbLine
 10
-0.0000000000000018
 20
3.375000000000003
 30
0.0
 11
-0.0000000000000018
 21
4.125000000000003
 31
0.0
  0
LINE
  5
59
100
AcDbEntity
  8
USP-GEO
100
AcDbLine
 10
-0.0747000000000036
 20
1.875000000000003
 30
0.0
 11
-0.0747000000000036
 21
2.625000000000003
 31
0.0
  0
LINE
  5
5A
100
AcDbEntity
  8
USP-GEO
100
AcDbLine
 10
-0.0000000000000018
 20
1.875000000000003
 30
0.0
 11
-0.0000000000000018
 21
2.625000000000003
 31
0.0
  0
LINE
  5
5B
100
AcDbEntity
  8
USP-HID
100
AcDbLine
 10
-0.0747000000000018
 20
1.806500000000003
 30
0.0
 11
-0.0000000000000018
 21
1.806500000000003
 31
0.0
  0
LINE
  5
5C
100
AcDbEntity
  8
USP-HID
100
AcDbLine
 10
-0.0747000000000018
 20
1.986500000000003
 30
0.0
 11
-0.0000000000000018
 21
1.986500000000003
 31
0.0
  0
LINE
  5
5D
100
AcDbEntity
  8
USP-GEO
100
AcDbLine
 10
-0.0000000000000018
 20
1.875000000000003
 30
0.0
 11
-0.0747000000000018
 21
1.875000000000003
 31
0.0
  0
LINE
  5
5E
100
AcDbEntity
  8
USP-GEO
100
AcDbLine
 10
-0.0747000000000018
 20
2.625000000000003
 30
0.0
 11
-0.0747000000000018
 21
3.375000000000003
 31
0.0
  0
LINE
  5
5F
100
AcDbEntity
  8
USP-GEO
100
AcDbLine
 10
-0.0000000000000018
 20
3.375000000000003
 30
0.0
 11
-0.0000000000000018
 21
2.625000000000003
 31
0.0
  0
LINE
  5
60
100
AcDbEntity
  8
USP-HID
100
AcDbLine
 10
-0.0747000000000018
 20
2.598500000000004
 30
0.0
 11
-0.0000000000000018
 21
2.598500000000004
 31
0.0
  0
LINE
  5
61
100
AcDbEntity
  8
USP-GEO
100
AcDbLine
 10
-0.0000000000000018
 20
2.625000000000003
 30
0.0
 11
-0.0747000000000018
 21
2.625000000000003
 31
0.0
  0
LINE
  5
62
100
AcDbEntity
  8
USP-HID
100
AcDbLine
 10
-0.0747000000000018
 20
2.778500000000004
 30
0.0
 11
-0.0000000000000018
 21
2.778500000000004
 31
0.0
  0
LINE
  5
63
100
AcDbEntity
  8
USP-HID
100
AcDbLine
 10
-0.0747000000000018
 20
3.598000000000002
 30
0.0
 11
-0.0000000000000018
 21
3.598000000000002
 31
0.0
  0
LINE
  5
64
100
AcDbEntity
  8
USP-GEO
100
AcDbLine
 10
-0.0000000000000018
 20
3.375000000000003
 30
0.0
 11
-0.0747000000000018
 21
3.375000000000003
 31
0.0
  0
CIRCLE
  5
65
100
AcDbEntity
  8
USP-GEO
100
AcDbCircle
 10
0.6209928039505997
 20
2.095868915281698
 30
0.0
 40
0.09
  0
LINE
  5
66
100
AcDbEntity
  8
USP-GEO
100
AcDbLine
 10
-0.0747000000000036
 20
4.125000000000007
 30
0.0
 11
-0.0747000000000036
 21
5.000000000000007
 31
0.0
  0
LINE
  5
67
100
AcDbEntity
  8
USP-GEO
100
AcDbLine
 10
-0.0000000000000018
 20
4.125000000000007
 30
0.0
 11
-0.0000000000000018
 21
5.000000000000007
 31
0.0
  0
LINE
  5
68
100
AcDbEntity
  8
USP-HID
100
AcDbLine
 10
-0.0747000000000018
 20
3.778000000000002
 30
0.0
 11
-0.0000000000000018
 21
3.778000000000002
 31
0.0
  0
LINE
  5
69
100
AcDbEntity
  8
USP-GEO
100
AcDbLine
 10
-0.0000000000000018
 20
4.125000000000007
 30
0.0
 11
-0.0747000000000018
 21
4.125000000000007
 31
0.0
  0
LINE
  5
6A
100
AcDbEntity
  8
USP-HID
100
AcDbLine
 10
-0.0747000000000018
 20
4.777500000000006
 30
0.0
 11
-0.0000000000000018
 21
4.777500000000006
 31
0.0
  0
LINE
  5
6B
100
AcDbEntity
  8
USP-HID
100
AcDbLine
 10
-0.0747000000000018
 20
4.597500000000007
 30
0.0
 11
-0.0000000000000018
 21
4.597500000000007
 31
0.0
  0
LINE
  5
6C
100
AcDbEntity
  8
USP-GEO
100
AcDbLine
 10
-0.0000000000000018
 20
5.000000000000007
 30
0.0
 11
-0.0747000000000018
 21
5.000000000000007
 31
0.0
  0
CIRCLE
  5
6D
100
AcDbEntity
  8
USP-GEO
100
AcDbCircle
 10
0.6209928039505997
 20
4.200318999505213
 30
0.0
 40
0.09
  0
LINE
  5
6E
100
AcDbEntity
  8
USP-GEO
100
AcDbLine
 10
2.5
 20
1.125000000000003
 30
0.0
 11
2.5
 21
1.875000000000003
 31
0.0
  0
LINE
  5
6F
100
AcDbEntity
  8
USP-GEO
100
AcDbLine
 10
1.750000000000001
 20
0.3750000000000038
 30
0.0
 11
2.500000000000001
 21
1.125000000000004
 31
0.0
  0
LINE
  5
70
100
AcDbEntity
  8
USP-GEO
100
AcDbLine
 10
1.750000000000001
 20
0.0000000000000002
 30
0.0
 11
1.750000000000001
 21
0.3750000000000024
 31
0.0
  0
LINE
  5
71
100
AcDbEntity
  8
USP-GEO
100
AcDbLine
 10
1.750000000000001
 20
3.375
 30
0.0
 11
2.500000000000001
 21
4.125000000000004
 31
0.0
  0
LINE
  5
72
100
AcDbEntity
  8
USP-GEO
100
AcDbLine
 10
2.5
 20
1.875000000000003
 30
0.0
 11
1.749999999999998
 21
2.625000000000003
 31
0.0
  0
CIRCLE
  5
73
100
AcDbEntity
  8
USP-GEO
100
AcDbCircle
 10
2.069083661780666
 20
1.716462641305199
 30
0.0
 40
0.09
  0
LINE
  5
74
100
AcDbEntity
  8
USP-GEO
100
AcDbLine
 10
1.750000000000001
 20
3.375
 30
0.0
 11
1.75
 21
2.625000000000001
 31
0.0
  0
CIRCLE
  5
75
100
AcDbEntity
  8
USP-GEO
100
AcDbCircle
 10
2.069083661780666
 20
4.596236246510585
 30
0.0
 40
0.09
  0
LINE
  5
76
100
AcDbEntity
  8
USP-GEO
100
AcDbLine
 10
2.5
 20
4.125000000000007
 30
0.0
 11
2.499999999999998
 21
5.000000000000003
 31
0.0
  0
ENDBLK
  5
78
100
AcDbEntity
  8
0
100
AcDbBlockEnd
  0
BLOCK
  5
96
100
AcDbEntity
  8
0
100
AcDbBlockBegin
  2
JA5_T
 70
     0
 10
0.0
 20
0.0
 30
0.0
  3
JA5_T
  1

  0
TEXT
  5
7B
100
AcDbEntity
  8
USP-TXT
100
AcDbText
 10
-0.7907749999999987
 20
-1.69156860269112
 30
0.0
 40
0.296875
  1
JA5 - TOP VIEW
 72
     1
 11
1.287350000000001
 21
-1.69156860269112
 31
0.0
100
AcDbText
  0
LINE
  5
7C
100
AcDbEntity
  8
USP-GEO
100
AcDbLine
 10
0.0747000000000018
 20
2.5
 30
0.0
 11
2.574700000000001
 21
2.499999999999998
 31
0.0
  0
LINE
  5
7D
100
AcDbEntity
  8
USP-GEO
100
AcDbLine
 10
0.0000000000000018
 20
2.574699999999999
 30
0.0
 11
2.574700000000001
 21
2.574699999999998
 31
0.0
  0
LINE
  5
7E
100
AcDbEntity
  8
USP-GEO
100
AcDbLine
 10
0.0747
 20
0.75
 30
0.0
 11
0.0747
 21
2.5
 31
0.0
  0
LINE
  5
7F
100
AcDbEntity
  8
USP-GEO
100
AcDbLine
 10
0.0
 20
0.75
 30
0.0
 11
0.0000000000000018
 21
2.574699999999999
 31
0.0
  0
LINE
  5
80
100
AcDbEntity
  8
USP-GEO
100
AcDbLine
 10
0.0
 20
0.0
 30
0.0
 11
0.0
 21
0.75
 31
0.0
  0
LINE
  5
81
100
AcDbEntity
  8
USP-GEO
100
AcDbLine
 10
0.0747
 20
0.0
 30
0.0
 11
0.0747
 21
0.75
 31
0.0
  0
LINE
  5
82
100
AcDbEntity
  8
USP-GEO
100
AcDbLine
 10
0.0747
 20
0.0
 30
0.0
 11
0.0
 21
0.0
 31
0.0
  0
LINE
  5
83
100
AcDbEntity
  8
USP-HID
100
AcDbLine
 10
0.0
 20
0.4100000000000002
 30
0.0
 11
0.0747
 21
0.4100000000000002
 31
0.0
  0
LINE
  5
84
100
AcDbEntity
  8
USP-HID
100
AcDbLine
 10
0.0
 20
0.5899999999999999
 30
0.0
 11
0.0747
 21
0.5899999999999999
 31
0.0
  0
LINE
  5
85
100
AcDbEntity
  8
USP-HID
100
AcDbLine
 10
0.0
 20
0.8399999999999998
 30
0.0
 11
0.0747
 21
0.8399999999999998
 31
0.0
  0
LINE
  5
86
100
AcDbEntity
  8
USP-HID
100
AcDbLine
 10
0.0
 20
0.6600000000000002
 30
0.0
 11
0.0747
 21
0.6600000000000002
 31
0.0
  0
LINE
  5
87
100
AcDbEntity
  8
USP-GEO
100
AcDbLine
 10
0.0747
 20
0.75
 30
0.0
 11
0.0
 21
0.75
 31
0.0
  0
LINE
  5
88
100
AcDbEntity
  8
USP-HID
100
AcDbLine
 10
0.0
 20
1.16
 30
0.0
 11
0.0747
 21
1.16
 31
0.0
  0
LINE
  5
89
100
AcDbEntity
  8
USP-HID
100
AcDbLine
 10
0.0
 20
1.41
 30
0.0
 11
0.0747
 21
1.41
 31
0.0
  0
LINE
  5
8A
100
AcDbEntity
  8
USP-HID
100
AcDbLine
 10
0.0
 20
1.339999999999999
 30
0.0
 11
0.0747
 21
1.339999999999999
 31
0.0
  0
LINE
  5
8B
100
AcDbEntity
  8
USP-HID
100
AcDbLine
 10
0.0
 20
1.589999999999999
 30
0.0
 11
0.0747
 21
1.589999999999999
 31
0.0
  0
LINE
  5
8C
100
AcDbEntity
  8
USP-HID
100
AcDbLine
 10
0.6056928039506016
 20
2.574699999999999
 30
0.0
 11
0.6056928039506016
 21
2.5
 31
0.0
  0
LINE
  5
8D
100
AcDbEntity
  8
USP-HID
100
AcDbLine
 10
0.7856928039506013
 20
2.574699999999999
 30
0.0
 11
0.7856928039506013
 21
2.5
 31
0.0
  0
LINE
  5
8E
100
AcDbEntity
  8
USP-HID
100
AcDbLine
 10
0.8556928039506015
 20
2.574699999999999
 30
0.0
 11
0.8556928039506015
 21
2.5
 31
0.0
  0
LINE
  5
8F
100
AcDbEntity
  8
USP-HID
100
AcDbLine
 10
1.035692803950601
 20
2.574699999999999
 30
0.0
 11
1.035692803950601
 21
2.5
 31
0.0
  0
LINE
  5
90
100
AcDbEntity
  8
USP-HID
100
AcDbLine
 10
1.433936593243158
 20
2.574699999999999
 30
0.0
 11
1.433936593243158
 21
2.5
 31
0.0
  0
LINE
  5
91
100
AcDbEntity
  8
USP-HID
100
AcDbLine
 10
1.613936593243158
 20
2.574699999999999
 30
0.0
 11
1.613936593243158
 21
2.5
 31
0.0
  0
LINE
  5
92
100
AcDbEntity
  8
USP-HID
100
AcDbLine
 10
1.824700000000003
 20
2.5
 30
0.0
 11
1.824700000000003
 21
2.574699999999999
 31
0.0
  0
LINE
  5
93
100
AcDbEntity
  8
USP-HID
100
AcDbLine
 10
2.053783661780668
 20
2.574699999999999
 30
0.0
 11
2.053783661780668
 21
2.5
 31
0.0
  0
LINE
  5
94
100
AcDbEntity
  8
USP-HID
100
AcDbLine
 10
2.233783661780668
 20
2.574699999999999
 30
0.0
 11
2.233783661780668
 21
2.5
 31
0.0
  0
LINE
  5
95
100
AcDbEntity
  8
USP-GEO
100
AcDbLine
 10
2.574700000000001
 20
2.5
 30
0.0
 11
2.574700000000001
 21
2.574699999999999
 31
0.0
  0
ENDBLK
  5
97
100
AcDbEntity
  8
0
100
AcDbBlockEnd
  0
ENDSEC
  0
SECTION
  2
ENTITIES
  0
INSERT
  5
3
100
AcDbEntity
  8
USP
100
AcDbBlockReference
  2
JA5_S
 10
0.8437103072727577
 20
1.68683651442265
 30
0.0
  0
INSERT
  5
43
100
AcDbEntity
  8
USP
100
AcDbBlockReference
  2
JA5_F
 10
8.739935357722185
 20
1.68683651442263
 30
0.0
  0
INSERT
  5
79
100
AcDbEntity
  8
USP
100
AcDbBlockReference
  2
JA5_T
 10
8.665235357722179
 20
12.94451100042594
 30
0.0
  0
ENDSEC
  0
SECTION
  2
OBJECTS
  0
DICTIONARY
  5
AC
102
{ACAD_XDICTIONARY
360
AD
102
}
100
AcDbDictionary
  3
ACAD_GROUP
350
AA
  3
ACAD_MLINESTYLE
350
AB
1001
ACAD
1000
TREAT_AS_HARD
1070
     0
  0
DICTIONARY
  5
17
100
AcDbDictionary
280
     1
1001
ACAD
1000
TREAT_AS_HARD
1070
     1
  0
DICTIONARY
  5
98
100
AcDbDictionary
280
     1
  0
DICTIONARY
  5
9C
100
AcDbDictionary
280
     1
  0
DICTIONARY
  5
AD
100
AcDbDictionary
280
     1
  0
DICTIONARY
  5
AA
102
{ACAD_REACTORS
330
AC
102
}
100
AcDbDictionary
1001
ACAD
1000
TREAT_AS_HARD
1070
     0
  0
DICTIONARY
  5
AB
102
{ACAD_REACTORS
330
AC
102
}
100
AcDbDictionary
  3
STANDARD
350
AE
1001
ACAD
1000
TREAT_AS_HARD
1070
     0
  0
MLINESTYLE
  5
AE
102
{ACAD_REACTORS
330
AB
102
}
100
AcDbMlineStyle
  2
STANDARD
 70
     0
  3

 62
     0
 51
90.0
 52
90.0
 71
     2
 49
0.5
 62
   256
  6
BYLAYER
 49
-0.5
 62
   256
  6
BYLAYER
  0
ENDSEC
  0
EOF
