  0
SECTION
  2
HEADER
  9
$ACADVER
  1
AC1014
  9
$ACADMAINTVER
 70
     9
  9
$DWGCODEPAGE
  3
ANSI_1252
  9
$INSBASE
 10
0.0
 20
0.0
 30
0.0
  9
$EXTMIN
 10
0.0959438870964098
 20
0.0010273845121205
 30
0.0
  9
$EXTMAX
 10
12.01190311543279
 20
15.15609830312386
 30
0.0
  9
$LIMMIN
 10
0.0
 20
0.0
  9
$LIMMAX
 10
12.0
 20
9.0
  9
$ORTHOMODE
 70
     1
  9
$REGENMODE
 70
     1
  9
$FILLMODE
 70
     1
  9
$QTEXTMODE
 70
     0
  9
$MIRRTEXT
 70
     0
  9
$DRAGMODE
 70
     2
  9
$LTSCALE
 40
1.5
  9
$OSMODE
 70
     0
  9
$ATTMODE
 70
     1
  9
$TEXTSIZE
 40
0.75
  9
$TRACEWID
 40
0.05
  9
$TEXTSTYLE
  7
STANDARD
  9
$CLAYER
  8
USP
  9
$CELTYPE
  6
BYLAYER
  9
$CECOLOR
 62
   256
  9
$CELTSCALE
 40
1.0
  9
$DELOBJ
 70
     1
  9
$DISPSILH
 70
     1
  9
$DIMSCALE
 40
7.0
  9
$DIMASZ
 40
0.125
  9
$DIMEXO
 40
0.0625
  9
$DIMDLI
 40
0.37890625
  9
$DIMRND
 40
0.0
  9
$DIMDLE
 40
0.0
  9
$DIMEXE
 40
0.09375
  9
$DIMTP
 40
0.0
  9
$DIMTM
 40
0.0
  9
$DIMTXT
 40
0.109375
  9
$DIMCEN
 40
0.0
  9
$DIMTSZ
 40
0.0
  9
$DIMTOL
 70
     0
  9
$DIMLIM
 70
     0
  9
$DIMTIH
 70
     1
  9
$DIMTOH
 70
     1
  9
$DIMSE1
 70
     0
  9
$DIMSE2
 70
     0
  9
$DIMTAD
 70
     0
  9
$DIMZIN
 70
     8
  9
$DIMBLK
  1

  9
$DIMASO
 70
     1
  9
$DIMSHO
 70
     1
  9
$DIMPOST
  1

  9
$DIMAPOST
  1

  9
$DIMALT
 70
     0
  9
$DIMALTD
 70
     2
  9
$DIMALTF
 40
25.4
  9
$DIMLFAC
 40
1.0
  9
$DIMTOFL
 70
     0
  9
$DIMTVP
 40
0.0
  9
$DIMTIX
 70
     0
  9
$DIMSOXD
 70
     0
  9
$DIMSAH
 70
     0
  9
$DIMBLK1
  1

  9
$DIMBLK2
  1

  9
$DIMSTYLE
  2
STANDARD
  9
$DIMCLRD
 70
     0
  9
$DIMCLRE
 70
     0
  9
$DIMCLRT
 70
   256
  9
$DIMTFAC
 40
1.0
  9
$DIMGAP
 40
0.08984375
  9
$DIMJUST
 70
     0
  9
$DIMSD1
 70
     0
  9
$DIMSD2
 70
     0
  9
$DIMTOLJ
 70
     1
  9
$DIMTZIN
 70
     0
  9
$DIMALTZ
 70
     0
  9
$DIMALTTZ
 70
     0
  9
$DIMFIT
 70
     3
  9
$DIMUPT
 70
     1
  9
$DIMUNIT
 70
     7
  9
$DIMDEC
 70
     4
  9
$DIMTDEC
 70
     4
  9
$DIMALTU
 70
     2
  9
$DIMALTTD
 70
     2
  9
$DIMTXSTY
  7
STANDARD
  9
$DIMAUNIT
 70
     0
  9
$LUNITS
 70
     5
  9
$LUPREC
 70
     6
  9
$SKETCHINC
 40
0.1
  9
$FILLETRAD
 40
0.0
  9
$AUNITS
 70
     0
  9
$AUPREC
 70
     1
  9
$MENU
  1
CUSTOM
  9
$ELEVATION
 40
0.0
  9
$PELEVATION
 40
0.0
  9
$THICKNESS
 40
0.0
  9
$LIMCHECK
 70
     0
  9
$BLIPMODE
 70
     0
  9
$CHAMFERA
 40
0.0
  9
$CHAMFERB
 40
0.0
  9
$CHAMFERC
 40
0.0
  9
$CHAMFERD
 40
0.0
  9
$SKPOLY
 70
     0
  9
$TDCREATE
 40
2451263.663231366
  9
$TDUPDATE
 40
2452759.745334016
  9
$TDINDWG
 40
0.4921701389
  9
$TDUSRTIMER
 40
0.4921701389
  9
$USRTIMER
 70
     1
  9
$ANGBASE
 50
0.0
  9
$ANGDIR
 70
     0
  9
$PDMODE
 70
     0
  9
$PDSIZE
 40
0.0
  9
$PLINEWID
 40
0.0
  9
$COORDS
 70
     2
  9
$SPLFRAME
 70
     0
  9
$SPLINETYPE
 70
     6
  9
$SPLINESEGS
 70
     8
  9
$ATTDIA
 70
     0
  9
$ATTREQ
 70
     0
  9
$HANDLING
 70
     1
  9
$HANDSEED
  5
9F
  9
$SURFTAB1
 70
     6
  9
$SURFTAB2
 70
     6
  9
$SURFTYPE
 70
     6
  9
$SURFU
 70
     6
  9
$SURFV
 70
     6
  9
$UCSNAME
  2

  9
$UCSORG
 10
0.0
 20
0.0
 30
0.0
  9
$UCSXDIR
 10
1.0
 20
0.0
 30
0.0
  9
$UCSYDIR
 10
0.0
 20
1.0
 30
0.0
  9
$PUCSNAME
  2

  9
$PUCSORG
 10
0.0
 20
0.0
 30
0.0
  9
$PUCSXDIR
 10
1.0
 20
0.0
 30
0.0
  9
$PUCSYDIR
 10
0.0
 20
1.0
 30
0.0
  9
$USERI1
 70
     0
  9
$USERI2
 70
     0
  9
$USERI3
 70
     0
  9
$USERI4
 70
     0
  9
$USERI5
 70
     0
  9
$USERR1
 40
0.0
  9
$USERR2
 40
0.0
  9
$USERR3
 40
0.0
  9
$USERR4
 40
0.0
  9
$USERR5
 40
0.0
  9
$WORLDVIEW
 70
     1
  9
$SHADEDGE
 70
     3
  9
$SHADEDIF
 70
    70
  9
$TILEMODE
 70
     1
  9
$MAXACTVP
 70
    16
  9
$PINSBASE
 10
0.0
 20
0.0
 30
0.0
  9
$PLIMCHECK
 70
     0
  9
$PEXTMIN
 10
1.000000000000000E+20
 20
1.000000000000000E+20
 30
1.000000000000000E+20
  9
$PEXTMAX
 10
-1.000000000000000E+20
 20
-1.000000000000000E+20
 30
-1.000000000000000E+20
  9
$PLIMMIN
 10
0.0
 20
0.0
  9
$PLIMMAX
 10
12.0
 20
9.0
  9
$UNITMODE
 70
     0
  9
$VISRETAIN
 70
     0
  9
$PLINEGEN
 70
     0
  9
$PSLTSCALE
 70
     0
  9
$TREEDEPTH
 70
  3020
  9
$PICKSTYLE
 70
     1
  9
$CMLSTYLE
  2
STANDARD
  9
$CMLJUST
 70
     0
  9
$CMLSCALE
 40
1.0
  9
$PROXYGRAPHICS
 70
     1
  9
$MEASUREMENT
 70
     0
  0
ENDSEC
  0
SECTION
  2
CLASSES
  0
CLASS
  1
ACDBDICTIONARYWDFLT
  2
AcDbDictionaryWithDefault
  3
AutoCAD 2000
 90
        0
280
     1
281
     0
  0
CLASS
  1
ACDBPLACEHOLDER
  2
AcDbPlaceHolder
  3
AutoCAD 2000
 90
        0
280
     1
281
     0
  0
CLASS
  1
LAYOUT
  2
AcDbLayout
  3
AutoCAD 2000
 90
        0
280
     1
281
     0
  0
CLASS
  1
DICTIONARYVAR
  2
AcDbDictionaryVar
  3
"AutoCAD"
 90
        0
280
     1
281
     0
  0
CLASS
  1
LONG_TRANSACTION
  2
AcDbLongTransaction
  3
AutoCAD 2000
 90
        0
280
     1
281
     0
  0
CLASS
  1
LWPOLYLINE
  2
AcDbPolyline
  3
"AutoCAD"
 90
        0
280
     1
281
     1
  0
CLASS
  1
HATCH
  2
AcDbHatch
  3
"ACAD_SEDONA"
 90
        0
280
     1
281
     1
  0
CLASS
  1
XRECORD
  2
AcDbXrecord
  3
"<Built In>"
 90
        0
280
     0
281
     0
  0
ENDSEC
  0
SECTION
  2
TABLES
  0
TABLE
  2
VPORT
  5
89
100
AcDbSymbolTable
 70
     1
  0
VPORT
  5
9B
100
AcDbSymbolTableRecord
100
AcDbViewportTableRecord
  2
*ACTIVE
 70
     0
 10
0.0
 20
0.0
 11
1.0
 21
1.0
 12
-11.49716942014089
 22
18.16266791228604
 13
0.0
 23
0.0
 14
1.0
 24
1.0
 15
0.0
 25
0.0
 16
0.0
 26
0.0
 36
1.0
 17
23.09603071721725
 27
-10.27010416511325
 37
-10.44050274849355
 40
15.78307272532132
 41
1.457627118644067
 42
50.0
 43
10.55307667737539
 44
10.55307667737539
 50
0.0
 51
0.0
 71
     0
 72
   100
 73
     1
 74
     1
 75
     0
 76
     0
 77
     0
 78
     0
  0
ENDTAB
  0
TABLE
  2
LTYPE
  5
85
100
AcDbSymbolTable
 70
     1
  0
LTYPE
  5
86
100
AcDbSymbolTableRecord
100
AcDbLinetypeTableRecord
  2
BYBLOCK
 70
     0
  3

 72
    65
 73
     0
 40
0.0
  0
LTYPE
  5
6
100
AcDbSymbolTableRecord
100
AcDbLinetypeTableRecord
  2
BYLAYER
 70
     0
  3

 72
    65
 73
     0
 40
0.0
  0
LTYPE
  5
5
100
AcDbSymbolTableRecord
100
AcDbLinetypeTableRecord
  2
CONTINUOUS
 70
     0
  3
Solid line
 72
    65
 73
     0
 40
0.0
  0
ENDTAB
  0
TABLE
  2
LAYER
  5
83
100
AcDbSymbolTable
 70
     5
  0
LAYER
  5
33
100
AcDbSymbolTableRecord
100
AcDbLayerTableRecord
  2
0
 70
     0
 62
     7
  6
CONTINUOUS
  0
LAYER
  5
C
100
AcDbSymbolTableRecord
100
AcDbLayerTableRecord
  2
USP-GEO
 70
     0
 62
     7
  6
CONTINUOUS
  0
LAYER
  5
9
100
AcDbSymbolTableRecord
100
AcDbLayerTableRecord
  2
USP-TXT
 70
     0
 62
     7
  6
CONTINUOUS
  0
LAYER
  5
17
102
{ACAD_XDICTIONARY
360
18
102
}
100
AcDbSymbolTableRecord
100
AcDbLayerTableRecord
  2
USP-HID
 70
     0
 62
     7
  6
CONTINUOUS
  0
LAYER
  5
4
100
AcDbSymbolTableRecord
100
AcDbLayerTableRecord
  2
USP
 70
     0
 62
     7
  6
CONTINUOUS
  0
ENDTAB
  0
TABLE
  2
STYLE
  5
84
100
AcDbSymbolTable
 70
     1
  0
STYLE
  5
A
100
AcDbSymbolTableRecord
100
AcDbTextStyleTableRecord
  2
STANDARD
 70
     0
 40
0.0
 41
1.0
 50
0.0
 71
     0
 42
0.75
  3
txt
  4

  0
ENDTAB
  0
TABLE
  2
VIEW
  5
87
100
AcDbSymbolTable
 70
     0
  0
ENDTAB
  0
TABLE
  2
UCS
  5
88
100
AcDbSymbolTable
 70
     0
  0
ENDTAB
  0
TABLE
  2
APPID
  5
8B
100
AcDbSymbolTable
 70
     1
  0
APPID
  5
19
100
AcDbSymbolTableRecord
100
AcDbRegAppTableRecord
  2
ACAD
 70
     0
  0
ENDTAB
  0
TABLE
  2
DIMSTYLE
  5
8C
100
AcDbSymbolTable
 70
     1
  0
DIMSTYLE
105
93
100
AcDbSymbolTableRecord
100
AcDbDimStyleTableRecord
  2
STANDARD
 70
     0
  3

  4

  5

  6

  7

 40
1.0
 41
0.18
 42
0.0625
 43
0.38
 44
0.18
 45
0.0
 46
0.0
 47
0.0
 48
0.0
140
0.18
141
0.09
142
0.0
143
25.4
144
1.0
145
0.0
146
1.0
147
0.09
 71
     0
 72
     0
 73
     1
 74
     1
 75
     0
 76
     0
 77
     0
 78
     0
170
     0
171
     2
172
     0
173
     0
174
     0
175
     0
176
     0
177
     0
178
     0
270
     2
271
     4
272
     4
273
     2
274
     2
340
A
275
     0
280
     0
281
     0
282
     0
283
     1
284
     0
285
     0
286
     0
287
     3
288
     0
  0
ENDTAB
  0
TABLE
  2
BLOCK_RECORD
  5
1
100
AcDbSymbolTable
 70
     3
  0
BLOCK_RECORD
  5
2
102
{ACAD_XDICTIONARY
360
7C
102
}
100
AcDbSymbolTableRecord
100
AcDbBlockTableRecord
  2
*MODEL_SPACE
  0
BLOCK_RECORD
  5
7F
102
{ACAD_XDICTIONARY
360
80
102
}
100
AcDbSymbolTableRecord
100
AcDbBlockTableRecord
  2
*PAPER_SPACE
  0
BLOCK_RECORD
  5
7
100
AcDbSymbolTableRecord
100
AcDbBlockTableRecord
  2
JA3_S
  0
BLOCK_RECORD
  5
36
100
AcDbSymbolTableRecord
100
AcDbBlockTableRecord
  2
JA3_F
  0
BLOCK_RECORD
  5
5E
100
AcDbSymbolTableRecord
100
AcDbBlockTableRecord
  2
JA3_T
  0
ENDTAB
  0
ENDSEC
  0
SECTION
  2
BLOCKS
  0
BLOCK
  5
7D
100
AcDbEntity
  8
0
100
AcDbBlockBegin
  2
*MODEL_SPACE
 70
     0
 10
0.0
 20
0.0
 30
0.0
  3
*MODEL_SPACE
  1

  0
ENDBLK
  5
7E
100
AcDbEntity
  8
0
100
AcDbBlockEnd
  0
BLOCK
  5
81
100
AcDbEntity
 67
     1
  8
0
100
AcDbBlockBegin
  2
*PAPER_SPACE
 70
     0
 10
0.0
 20
0.0
 30
0.0
  3
*PAPER_SPACE
  1

  0
ENDBLK
  5
82
100
AcDbEntity
 67
     1
  8
0
100
AcDbBlockEnd
  0
BLOCK
  5
32
100
AcDbEntity
  8
0
100
AcDbBlockBegin
  2
JA3_S
 70
     0
 10
0.0
 20
0.0
 30
0.0
  3
JA3_S
  1

  0
TEXT
  5
8
100
AcDbEntity
  8
USP-TXT
100
AcDbText
 10
-0.9270833333333335
 20
-1.618118612132068
 30
0.0
 40
0.296875
  1
JA3 - SIDE VIEW
 72
     1
 11
1.25
 21
-1.618118612132068
 31
0.0
100
AcDbText
  0
LINE
  5
B
100
AcDbEntity
  8
USP-GEO
100
AcDbLine
 10
2.5
 20
3.0
 30
0.0
 11
-0.0000000000000009
 21
3.0
 31
0.0
  0
LINE
  5
D
100
AcDbEntity
  8
USP-GEO
100
AcDbLine
 10
2.500000000000001
 20
0.0000000000000002
 30
0.0
 11
0.0
 21
0.0
 31
0.0
  0
CIRCLE
  5
E
100
AcDbEntity
  8
USP-GEO
100
AcDbCircle
 10
1.250000000000003
 20
1.896499999999999
 30
0.0
 40
0.09
  0
LINE
  5
F
100
AcDbEntity
  8
USP-GEO
100
AcDbLine
 10
-0.0747000000000007
 20
1.875
 30
0.0
 11
-0.0747000000000004
 21
1.125
 31
0.0
  0
LINE
  5
10
100
AcDbEntity
  8
USP-GEO
100
AcDbLine
 10
0.0000000000000004
 20
1.125
 30
0.0
 11
0.0000000000000002
 21
1.875
 31
0.0
  0
LINE
  5
11
100
AcDbEntity
  8
USP-GEO
100
AcDbLine
 10
-0.0746999999999988
 20
0.3749999999999984
 30
0.0
 11
-0.0746999999999987
 21
-0.0000000000000033
 31
0.0
  0
LINE
  5
12
100
AcDbEntity
  8
USP-GEO
100
AcDbLine
 10
0.0000000000000004
 20
-0.0000000000000033
 30
0.0
 11
0.0000000000000004
 21
0.3749999999999987
 31
0.0
  0
LINE
  5
13
100
AcDbEntity
  8
USP-GEO
100
AcDbLine
 10
0.0000000000000004
 20
-0.0000000000000033
 30
0.0
 11
-0.0746999999999992
 21
-0.0000000000000033
 31
0.0
  0
LINE
  5
14
100
AcDbEntity
  8
USP-GEO
100
AcDbLine
 10
-0.0746999999999992
 20
1.125
 30
0.0
 11
-0.0746999999999987
 21
0.3750000000000002
 31
0.0
  0
LINE
  5
15
100
AcDbEntity
  8
USP-GEO
100
AcDbLine
 10
0.0000000000000013
 20
0.3750000000000002
 30
0.0
 11
0.0000000000000007
 21
1.125
 31
0.0
  0
LINE
  5
16
100
AcDbEntity
  8
USP-HID
100
AcDbLine
 10
0.0000000000000004
 20
0.2224999999999966
 30
0.0
 11
-0.0746999999999996
 21
0.2224999999999966
 31
0.0
  0
LINE
  5
1A
100
AcDbEntity
  8
USP-HID
100
AcDbLine
 10
0.0000000000000004
 20
0.4024999999999965
 30
0.0
 11
-0.0746999999999996
 21
0.4024999999999965
 31
0.0
  0
LINE
  5
1B
100
AcDbEntity
  8
USP-GEO
100
AcDbLine
 10
0.0000000000000013
 20
0.3750000000000002
 30
0.0
 11
-0.0746999999999986
 21
0.3750000000000002
 31
0.0
  0
LINE
  5
1C
100
AcDbEntity
  8
USP-HID
100
AcDbLine
 10
0.0000000000000004
 20
1.014500000000001
 30
0.0
 11
-0.0746999999999987
 21
1.014500000000001
 31
0.0
  0
LINE
  5
1D
100
AcDbEntity
  8
USP-HID
100
AcDbLine
 10
0.0000000000000004
 20
1.194500000000001
 30
0.0
 11
-0.0746999999999987
 21
1.194500000000001
 31
0.0
  0
LINE
  5
1E
100
AcDbEntity
  8
USP-GEO
100
AcDbLine
 10
0.0000000000000004
 20
1.125
 30
0.0
 11
-0.0746999999999998
 21
1.125
 31
0.0
  0
CIRCLE
  5
1F
100
AcDbEntity
  8
USP-GEO
100
AcDbCircle
 10
1.000000000000002
 20
1.104500000000001
 30
0.0
 40
0.09
  0
LINE
  5
20
100
AcDbEntity
  8
USP-GEO
100
AcDbLine
 10
-0.0747000000000001
 20
2.625
 30
0.0
 11
-0.0747000000000004
 21
1.875
 31
0.0
  0
LINE
  5
21
100
AcDbEntity
  8
USP-GEO
100
AcDbLine
 10
-0.0000000000000004
 20
1.875
 30
0.0
 11
-0.0000000000000002
 21
2.625
 31
0.0
  0
LINE
  5
22
100
AcDbEntity
  8
USP-HID
100
AcDbLine
 10
-0.0000000000000004
 20
1.626462641305195
 30
0.0
 11
-0.0746999999999996
 21
1.626462641305195
 31
0.0
  0
LINE
  5
23
100
AcDbEntity
  8
USP-HID
100
AcDbLine
 10
-0.0000000000000004
 20
1.806462641305195
 30
0.0
 11
-0.0746999999999996
 21
1.806462641305195
 31
0.0
  0
LINE
  5
24
100
AcDbEntity
  8
USP-HID
100
AcDbLine
 10
0.0000000000000004
 20
2.005868915281695
 30
0.0
 11
-0.0746999999999987
 21
2.005868915281695
 31
0.0
  0
LINE
  5
25
100
AcDbEntity
  8
USP-GEO
100
AcDbLine
 10
-0.0000000000000004
 20
1.875
 30
0.0
 11
-0.0747000000000001
 21
1.875
 31
0.0
  0
LINE
  5
26
100
AcDbEntity
  8
USP-HID
100
AcDbLine
 10
0.0000000000000013
 20
2.185868915281695
 30
0.0
 11
-0.0746999999999987
 21
2.185868915281695
 31
0.0
  0
LINE
  5
27
100
AcDbEntity
  8
USP-GEO
100
AcDbLine
 10
-0.0746999999999997
 20
3.0
 30
0.0
 11
-0.0746999999999996
 21
2.625
 31
0.0
  0
LINE
  5
28
100
AcDbEntity
  8
USP-GEO
100
AcDbLine
 10
0.0000000000000004
 20
2.625
 30
0.0
 11
0.0000000000000004
 21
3.0
 31
0.0
  0
LINE
  5
29
100
AcDbEntity
  8
USP-GEO
100
AcDbLine
 10
0.0000000000000004
 20
2.625
 30
0.0
 11
-0.0746999999999998
 21
2.625
 31
0.0
  0
LINE
  5
2A
100
AcDbEntity
  8
USP-GEO
100
AcDbLine
 10
-0.0000000000000004
 20
3.0
 30
0.0
 11
-0.0747000000000001
 21
3.0
 31
0.0
  0
LINE
  5
2B
100
AcDbEntity
  8
USP-GEO
100
AcDbLine
 10
1.750000000000001
 20
1.125
 30
0.0
 11
1.750000000000002
 21
1.875
 31
0.0
  0
LINE
  5
2C
100
AcDbEntity
  8
USP-GEO
100
AcDbLine
 10
2.500000000000001
 20
0.3750000000000002
 30
0.0
 11
1.75
 21
1.125
 31
0.0
  0
CIRCLE
  5
2D
100
AcDbEntity
  8
USP-GEO
100
AcDbCircle
 10
1.750000000000002
 20
0.3124999999999967
 30
0.0
 40
0.09
  0
LINE
  5
2E
100
AcDbEntity
  8
USP-GEO
100
AcDbLine
 10
2.500000000000001
 20
0.0000000000000002
 30
0.0
 11
2.500000000000001
 21
0.375000000000002
 31
0.0
  0
LINE
  5
2F
100
AcDbEntity
  8
USP-GEO
100
AcDbLine
 10
1.750000000000002
 20
1.875
 30
0.0
 11
2.500000000000002
 21
2.625
 31
0.0
  0
CIRCLE
  5
30
100
AcDbEntity
  8
USP-GEO
100
AcDbCircle
 10
2.000000000000001
 20
2.688500000000001
 30
0.0
 40
0.09
  0
LINE
  5
31
100
AcDbEntity
  8
USP-GEO
100
AcDbLine
 10
2.500000000000001
 20
2.625
 30
0.0
 11
2.500000000000001
 21
3.0
 31
0.0
  0
ENDBLK
  5
34
100
AcDbEntity
  8
0
100
AcDbBlockEnd
  0
BLOCK
  5
5B
100
AcDbEntity
  8
0
100
AcDbBlockBegin
  2
JA3_F
 70
     0
 10
0.0
 20
0.0
 30
0.0
  3
JA3_F
  1

  0
TEXT
  5
37
100
AcDbEntity
  8
USP-TXT
100
AcDbText
 10
-1.124999999999999
 20
-1.618118612132054
 30
0.0
 40
0.296875
  1
JA3 - FRONT VIEW
 72
     1
 11
1.25
 21
-1.618118612132054
 31
0.0
100
AcDbText
  0
CIRCLE
  5
38
100
AcDbEntity
  8
USP-GEO
100
AcDbCircle
 10
1.449236593243156
 20
0.3124999999999998
 30
0.0
 40
0.09
  0
LINE
  5
39
100
AcDbEntity
  8
USP-GEO
100
AcDbLine
 10
1.750000000000001
 20
-0.0000000000000002
 30
0.0
 11
0.0
 21
0.0
 31
0.0
  0
LINE
  5
3A
100
AcDbEntity
  8
USP-GEO
100
AcDbLine
 10
0.0
 20
3.000000000000003
 30
0.0
 11
1.750000000000003
 21
3.000000000000003
 31
0.0
  0
LINE
  5
3B
100
AcDbEntity
  8
USP-GEO
100
AcDbLine
 10
0.0
 20
1.125000000000003
 30
0.0
 11
0.0
 21
1.875000000000003
 31
0.0
  0
LINE
  5
3C
100
AcDbEntity
  8
USP-GEO
100
AcDbLine
 10
-0.0747
 20
1.125000000000003
 30
0.0
 11
-0.0747
 21
1.875000000000002
 31
0.0
  0
LINE
  5
3D
100
AcDbEntity
  8
USP-GEO
100
AcDbLine
 10
0.0000000000000018
 20
0.0000000000000033
 30
0.0
 11
0.0000000000000018
 21
0.3750000000000051
 31
0.0
  0
LINE
  5
3E
100
AcDbEntity
  8
USP-GEO
100
AcDbLine
 10
-0.0747
 20
0.0000000000000033
 30
0.0
 11
-0.0747
 21
0.3750000000000049
 31
0.0
  0
LINE
  5
3F
100
AcDbEntity
  8
USP-GEO
100
AcDbLine
 10
0.0000000000000018
 20
0.0000000000000033
 30
0.0
 11
-0.0746999999999982
 21
0.0000000000000033
 31
0.0
  0
LINE
  5
40
100
AcDbEntity
  8
USP-GEO
100
AcDbLine
 10
0.0000000000000018
 20
0.3750000000000033
 30
0.0
 11
0.0000000000000018
 21
1.125000000000002
 31
0.0
  0
LINE
  5
41
100
AcDbEntity
  8
USP-GEO
100
AcDbLine
 10
-0.0747
 20
0.3750000000000033
 30
0.0
 11
-0.0747
 21
1.125000000000002
 31
0.0
  0
LINE
  5
42
100
AcDbEntity
  8
USP-HID
100
AcDbLine
 10
-0.0747
 20
0.2225000000000032
 30
0.0
 11
0.0
 21
0.2225000000000032
 31
0.0
  0
LINE
  5
43
100
AcDbEntity
  8
USP-HID
100
AcDbLine
 10
-0.0747
 20
0.4025000000000033
 30
0.0
 11
0.0
 21
0.4025000000000033
 31
0.0
  0
LINE
  5
44
100
AcDbEntity
  8
USP-GEO
100
AcDbLine
 10
0.0000000000000018
 20
0.3750000000000033
 30
0.0
 11
-0.0746999999999982
 21
0.3750000000000033
 31
0.0
  0
LINE
  5
45
100
AcDbEntity
  8
USP-HID
100
AcDbLine
 10
-0.0747
 20
1.194500000000004
 30
0.0
 11
0.0
 21
1.194500000000004
 31
0.0
  0
LINE
  5
46
100
AcDbEntity
  8
USP-HID
100
AcDbLine
 10
-0.0747
 20
1.014500000000005
 30
0.0
 11
0.0
 21
1.014500000000005
 31
0.0
  0
LINE
  5
47
100
AcDbEntity
  8
USP-GEO
100
AcDbLine
 10
0.0
 20
1.125000000000003
 30
0.0
 11
-0.0747
 21
1.125000000000003
 31
0.0
  0
CIRCLE
  5
48
100
AcDbEntity
  8
USP-GEO
100
AcDbCircle
 10
0.8709928039506014
 20
1.104500000000004
 30
0.0
 40
0.09
  0
LINE
  5
49
100
AcDbEntity
  8
USP-GEO
100
AcDbLine
 10
0.0
 20
1.875000000000003
 30
0.0
 11
0.0
 21
2.625000000000003
 31
0.0
  0
LINE
  5
4A
100
AcDbEntity
  8
USP-GEO
100
AcDbLine
 10
-0.0747
 20
1.875000000000003
 30
0.0
 11
-0.0747
 21
2.625000000000003
 31
0.0
  0
LINE
  5
4B
100
AcDbEntity
  8
USP-HID
100
AcDbLine
 10
-0.0747
 20
1.806500000000003
 30
0.0
 11
0.0
 21
1.806500000000003
 31
0.0
  0
LINE
  5
4C
100
AcDbEntity
  8
USP-HID
100
AcDbLine
 10
-0.0747
 20
1.986500000000002
 30
0.0
 11
0.0
 21
1.986500000000002
 31
0.0
  0
LINE
  5
4D
100
AcDbEntity
  8
USP-GEO
100
AcDbLine
 10
0.0
 20
1.875000000000003
 30
0.0
 11
-0.0747
 21
1.875000000000003
 31
0.0
  0
LINE
  5
4E
100
AcDbEntity
  8
USP-GEO
100
AcDbLine
 10
0.0000000000000018
 20
2.625000000000003
 30
0.0
 11
0.0000000000000018
 21
3.000000000000003
 31
0.0
  0
LINE
  5
4F
100
AcDbEntity
  8
USP-GEO
100
AcDbLine
 10
-0.0747
 20
2.625000000000003
 30
0.0
 11
-0.0747
 21
3.000000000000004
 31
0.0
  0
LINE
  5
50
100
AcDbEntity
  8
USP-HID
100
AcDbLine
 10
-0.0747
 20
2.598500000000004
 30
0.0
 11
0.0
 21
2.598500000000004
 31
0.0
  0
LINE
  5
51
100
AcDbEntity
  8
USP-GEO
100
AcDbLine
 10
0.0000000000000018
 20
2.625000000000003
 30
0.0
 11
-0.0746999999999982
 21
2.625000000000003
 31
0.0
  0
LINE
  5
52
100
AcDbEntity
  8
USP-HID
100
AcDbLine
 10
-0.0747
 20
2.778500000000004
 30
0.0
 11
0.0000000000000018
 21
2.778500000000004
 31
0.0
  0
LINE
  5
53
100
AcDbEntity
  8
USP-GEO
100
AcDbLine
 10
0.0000000000000018
 20
3.000000000000003
 30
0.0
 11
-0.0746999999999982
 21
3.000000000000003
 31
0.0
  0
CIRCLE
  5
54
100
AcDbEntity
  8
USP-GEO
100
AcDbCircle
 10
0.6209928039505997
 20
2.095868915281698
 30
0.0
 40
0.09
  0
LINE
  5
55
100
AcDbEntity
  8
USP-GEO
100
AcDbLine
 10
2.500000000000001
 20
1.125000000000003
 30
0.0
 11
2.500000000000001
 21
1.875000000000003
 31
0.0
  0
LINE
  5
56
100
AcDbEntity
  8
USP-GEO
100
AcDbLine
 10
1.750000000000001
 20
0.3750000000000033
 30
0.0
 11
2.500000000000001
 21
1.125000000000003
 31
0.0
  0
LINE
  5
57
100
AcDbEntity
  8
USP-GEO
100
AcDbLine
 10
1.750000000000001
 20
-0.0000000000000002
 30
0.0
 11
1.750000000000001
 21
0.375000000000002
 31
0.0
  0
LINE
  5
58
100
AcDbEntity
  8
USP-GEO
100
AcDbLine
 10
2.5
 20
1.875000000000003
 30
0.0
 11
1.749999999999998
 21
2.625000000000003
 31
0.0
  0
CIRCLE
  5
59
100
AcDbEntity
  8
USP-GEO
100
AcDbCircle
 10
2.069083661780666
 20
1.716462641305198
 30
0.0
 40
0.09
  0
LINE
  5
5A
100
AcDbEntity
  8
USP-GEO
100
AcDbLine
 10
1.75
 20
2.625000000000003
 30
0.0
 11
1.750000000000001
 21
3.000000000000003
 31
0.0
  0
ENDBLK
  5
5C
100
AcDbEntity
  8
0
100
AcDbBlockEnd
  0
BLOCK
  5
7A
100
AcDbEntity
  8
0
100
AcDbBlockBegin
  2
JA3_T
 70
     0
 10
0.0
 20
0.0
 30
0.0
  3
JA3_T
  1

  0
TEXT
  5
5F
100
AcDbEntity
  8
USP-TXT
100
AcDbText
 10
-0.7907750000000023
 20
-1.490969984389025
 30
0.0
 40
0.296875
  1
JA3 - TOP VIEW
 72
     1
 11
1.287349999999998
 21
-1.490969984389025
 31
0.0
100
AcDbText
  0
LINE
  5
60
100
AcDbEntity
  8
USP-GEO
100
AcDbLine
 10
0.0746999999999982
 20
2.5
 30
0.0
 11
1.824700000000001
 21
2.500000000000001
 31
0.0
  0
LINE
  5
61
100
AcDbEntity
  8
USP-GEO
100
AcDbLine
 10
1.824700000000001
 20
2.574700000000001
 30
0.0
 11
-0.0000000000000018
 21
2.574699999999999
 31
0.0
  0
LINE
  5
62
100
AcDbEntity
  8
USP-GEO
100
AcDbLine
 10
0.0747
 20
0.0
 30
0.0
 11
0.0746999999999982
 21
2.5
 31
0.0
  0
LINE
  5
63
100
AcDbEntity
  8
USP-GEO
100
AcDbLine
 10
0.0
 20
0.0
 30
0.0
 11
-0.0000000000000018
 21
2.574699999999999
 31
0.0
  0
LINE
  5
64
100
AcDbEntity
  8
USP-GEO
100
AcDbLine
 10
0.0747
 20
0.0
 30
0.0
 11
0.0
 21
0.0
 31
0.0
  0
LINE
  5
65
100
AcDbEntity
  8
USP-HID
100
AcDbLine
 10
-0.0000000000000018
 20
0.5899999999999999
 30
0.0
 11
0.0746999999999982
 21
0.5899999999999999
 31
0.0
  0
LINE
  5
66
100
AcDbEntity
  8
USP-HID
100
AcDbLine
 10
-0.0000000000000018
 20
0.4100000000000002
 30
0.0
 11
0.0746999999999982
 21
0.4100000000000002
 31
0.0
  0
LINE
  5
67
100
AcDbEntity
  8
USP-HID
100
AcDbLine
 10
0.0746999999999982
 20
0.75
 30
0.0
 11
-0.0000000000000018
 21
0.75
 31
0.0
  0
LINE
  5
68
100
AcDbEntity
  8
USP-HID
100
AcDbLine
 10
-0.0000000000000018
 20
0.8399999999999998
 30
0.0
 11
0.0746999999999982
 21
0.8399999999999998
 31
0.0
  0
LINE
  5
69
100
AcDbEntity
  8
USP-HID
100
AcDbLine
 10
-0.0000000000000018
 20
0.6600000000000002
 30
0.0
 11
0.0746999999999982
 21
0.6600000000000002
 31
0.0
  0
LINE
  5
6A
100
AcDbEntity
  8
USP-HID
100
AcDbLine
 10
-0.0000000000000018
 20
1.16
 30
0.0
 11
0.0746999999999982
 21
1.16
 31
0.0
  0
LINE
  5
6B
100
AcDbEntity
  8
USP-HID
100
AcDbLine
 10
-0.0000000000000018
 20
1.339999999999999
 30
0.0
 11
0.0746999999999982
 21
1.339999999999999
 31
0.0
  0
LINE
  5
6C
100
AcDbEntity
  8
USP-HID
100
AcDbLine
 10
-0.0000000000000018
 20
1.41
 30
0.0
 11
0.0746999999999982
 21
1.41
 31
0.0
  0
LINE
  5
6D
100
AcDbEntity
  8
USP-HID
100
AcDbLine
 10
-0.0000000000000018
 20
1.589999999999999
 30
0.0
 11
0.0746999999999982
 21
1.589999999999999
 31
0.0
  0
LINE
  5
6E
100
AcDbEntity
  8
USP-HID
100
AcDbLine
 10
0.605692803950598
 20
2.574699999999999
 30
0.0
 11
0.605692803950598
 21
2.5
 31
0.0
  0
LINE
  5
6F
100
AcDbEntity
  8
USP-HID
100
AcDbLine
 10
0.7856928039505977
 20
2.574699999999999
 30
0.0
 11
0.7856928039505977
 21
2.5
 31
0.0
  0
LINE
  5
70
100
AcDbEntity
  8
USP-HID
100
AcDbLine
 10
0.8556928039505979
 20
2.574699999999999
 30
0.0
 11
0.8556928039505979
 21
2.5
 31
0.0
  0
LINE
  5
71
100
AcDbEntity
  8
USP-HID
100
AcDbLine
 10
1.035692803950597
 20
2.574699999999999
 30
0.0
 11
1.035692803950597
 21
2.5
 31
0.0
  0
LINE
  5
72
100
AcDbEntity
  8
USP-HID
100
AcDbLine
 10
1.433936593243155
 20
2.574699999999999
 30
0.0
 11
1.433936593243155
 21
2.5
 31
0.0
  0
LINE
  5
73
100
AcDbEntity
  8
USP-GEO
100
AcDbLine
 10
1.824699999999996
 20
2.574699999999999
 30
0.0
 11
2.574699999999998
 21
2.574699999999999
 31
0.0
  0
LINE
  5
74
100
AcDbEntity
  8
USP-GEO
100
AcDbLine
 10
2.574699999999998
 20
2.5
 30
0.0
 11
1.824699999999996
 21
2.5
 31
0.0
  0
LINE
  5
75
100
AcDbEntity
  8
USP-HID
100
AcDbLine
 10
1.613936593243154
 20
2.574699999999999
 30
0.0
 11
1.613936593243154
 21
2.5
 31
0.0
  0
LINE
  5
76
100
AcDbEntity
  8
USP-GEO
100
AcDbLine
 10
1.824699999999999
 20
2.5
 30
0.0
 11
1.824699999999999
 21
2.574699999999999
 31
0.0
  0
LINE
  5
77
100
AcDbEntity
  8
USP-HID
100
AcDbLine
 10
2.053783661780665
 20
2.574699999999999
 30
0.0
 11
2.053783661780665
 21
2.5
 31
0.0
  0
LINE
  5
78
100
AcDbEntity
  8
USP-HID
100
AcDbLine
 10
2.233783661780664
 20
2.574699999999999
 30
0.0
 11
2.233783661780664
 21
2.5
 31
0.0
  0
LINE
  5
79
100
AcDbEntity
  8
USP-GEO
100
AcDbLine
 10
2.574699999999998
 20
2.5
 30
0.0
 11
2.574699999999998
 21
2.574699999999999
 31
0.0
  0
ENDBLK
  5
7B
100
AcDbEntity
  8
0
100
AcDbBlockEnd
  0
ENDSEC
  0
SECTION
  2
ENTITIES
  0
INSERT
  5
3
100
AcDbEntity
  8
USP
100
AcDbBlockReference
  2
JA3_S
 10
1.023027220429743
 20
1.619145996644188
 30
0.0
  0
INSERT
  5
35
100
AcDbEntity
  8
USP
100
AcDbBlockReference
  2
JA3_F
 10
8.38690311543279
 20
1.619145996644174
 30
0.0
  0
INSERT
  5
5D
100
AcDbEntity
  8
USP
100
AcDbBlockReference
  2
JA3_T
 10
8.312203115432799
 20
12.58139830312386
 30
0.0
  0
ENDSEC
  0
SECTION
  2
OBJECTS
  0
DICTIONARY
  5
90
102
{ACAD_XDICTIONARY
360
91
102
}
100
AcDbDictionary
  3
ACAD_GROUP
350
8E
  3
ACAD_MLINESTYLE
350
8F
1001
ACAD
1000
TREAT_AS_HARD
1070
     0
  0
DICTIONARY
  5
18
100
AcDbDictionary
280
     1
1001
ACAD
1000
TREAT_AS_HARD
1070
     1
  0
DICTIONARY
  5
7C
100
AcDbDictionary
280
     1
  0
DICTIONARY
  5
80
100
AcDbDictionary
280
     1
  0
DICTIONARY
  5
91
100
AcDbDictionary
280
     1
  0
DICTIONARY
  5
8E
102
{ACAD_REACTORS
330
90
102
}
100
AcDbDictionary
1001
ACAD
1000
TREAT_AS_HARD
1070
     0
  0
DICTIONARY
  5
8F
102
{ACAD_REACTORS
330
90
102
}
100
AcDbDictionary
  3
STANDARD
350
92
1001
ACAD
1000
TREAT_AS_HARD
1070
     0
  0
MLINESTYLE
  5
92
102
{ACAD_REACTORS
330
8F
102
}
100
AcDbMlineStyle
  2
STANDARD
 70
     0
  3

 62
     0
 51
90.0
 52
90.0
 71
     2
 49
0.5
 62
   256
  6
BYLAYER
 49
-0.5
 62
   256
  6
BYLAYER
  0
ENDSEC
  0
EOF
