  0
SECTION
  2
HEADER
  9
$ACADVER
  1
AC1014
  9
$ACADMAINTVER
 70
     9
  9
$DWGCODEPAGE
  3
ANSI_1252
  9
$INSBASE
 10
0.0
 20
0.0
 30
0.0
  9
$EXTMIN
 10
0.0017908174051513
 20
0.0003439285310307
 30
0.0
  9
$EXTMAX
 10
10.60444280214618
 20
13.7878850208271
 30
0.0
  9
$LIMMIN
 10
0.0
 20
0.0
  9
$LIMMAX
 10
12.0
 20
9.0
  9
$ORTHOMODE
 70
     1
  9
$REGENMODE
 70
     1
  9
$FILLMODE
 70
     1
  9
$QTEXTMODE
 70
     0
  9
$MIRRTEXT
 70
     0
  9
$DRAGMODE
 70
     2
  9
$LTSCALE
 40
1.5
  9
$OSMODE
 70
     0
  9
$ATTMODE
 70
     1
  9
$TEXTSIZE
 40
0.75
  9
$TRACEWID
 40
0.05
  9
$TEXTSTYLE
  7
STANDARD
  9
$CLAYER
  8
USP
  9
$CELTYPE
  6
BYLAYER
  9
$CECOLOR
 62
   256
  9
$CELTSCALE
 40
1.0
  9
$DELOBJ
 70
     1
  9
$DISPSILH
 70
     1
  9
$DIMSCALE
 40
5.0
  9
$DIMASZ
 40
0.125
  9
$DIMEXO
 40
0.0625
  9
$DIMDLI
 40
0.37890625
  9
$DIMRND
 40
0.0
  9
$DIMDLE
 40
0.0
  9
$DIMEXE
 40
0.09375
  9
$DIMTP
 40
0.0
  9
$DIMTM
 40
0.0
  9
$DIMTXT
 40
0.109375
  9
$DIMCEN
 40
0.0
  9
$DIMTSZ
 40
0.0
  9
$DIMTOL
 70
     0
  9
$DIMLIM
 70
     0
  9
$DIMTIH
 70
     1
  9
$DIMTOH
 70
     1
  9
$DIMSE1
 70
     0
  9
$DIMSE2
 70
     0
  9
$DIMTAD
 70
     0
  9
$DIMZIN
 70
     8
  9
$DIMBLK
  1

  9
$DIMASO
 70
     1
  9
$DIMSHO
 70
     1
  9
$DIMPOST
  1

  9
$DIMAPOST
  1

  9
$DIMALT
 70
     0
  9
$DIMALTD
 70
     2
  9
$DIMALTF
 40
25.4
  9
$DIMLFAC
 40
1.0
  9
$DIMTOFL
 70
     0
  9
$DIMTVP
 40
0.0
  9
$DIMTIX
 70
     0
  9
$DIMSOXD
 70
     0
  9
$DIMSAH
 70
     0
  9
$DIMBLK1
  1

  9
$DIMBLK2
  1

  9
$DIMSTYLE
  2
STANDARD
  9
$DIMCLRD
 70
     0
  9
$DIMCLRE
 70
     0
  9
$DIMCLRT
 70
   256
  9
$DIMTFAC
 40
1.0
  9
$DIMGAP
 40
0.08984375
  9
$DIMJUST
 70
     0
  9
$DIMSD1
 70
     0
  9
$DIMSD2
 70
     0
  9
$DIMTOLJ
 70
     1
  9
$DIMTZIN
 70
     0
  9
$DIMALTZ
 70
     0
  9
$DIMALTTZ
 70
     0
  9
$DIMFIT
 70
     3
  9
$DIMUPT
 70
     1
  9
$DIMUNIT
 70
     7
  9
$DIMDEC
 70
     4
  9
$DIMTDEC
 70
     4
  9
$DIMALTU
 70
     2
  9
$DIMALTTD
 70
     2
  9
$DIMTXSTY
  7
STANDARD
  9
$DIMAUNIT
 70
     0
  9
$LUNITS
 70
     5
  9
$LUPREC
 70
     6
  9
$SKETCHINC
 40
0.1
  9
$FILLETRAD
 40
0.0
  9
$AUNITS
 70
     0
  9
$AUPREC
 70
     1
  9
$MENU
  1
CUSTOM
  9
$ELEVATION
 40
0.0
  9
$PELEVATION
 40
0.0
  9
$THICKNESS
 40
0.0
  9
$LIMCHECK
 70
     0
  9
$BLIPMODE
 70
     0
  9
$CHAMFERA
 40
0.0
  9
$CHAMFERB
 40
0.0
  9
$CHAMFERC
 40
0.0
  9
$CHAMFERD
 40
0.0
  9
$SKPOLY
 70
     0
  9
$TDCREATE
 40
2451263.663231366
  9
$TDUPDATE
 40
2452768.663471493
  9
$TDINDWG
 40
0.5686609722
  9
$TDUSRTIMER
 40
0.5686609722
  9
$USRTIMER
 70
     1
  9
$ANGBASE
 50
0.0
  9
$ANGDIR
 70
     0
  9
$PDMODE
 70
     0
  9
$PDSIZE
 40
0.0
  9
$PLINEWID
 40
0.0
  9
$COORDS
 70
     2
  9
$SPLFRAME
 70
     0
  9
$SPLINETYPE
 70
     6
  9
$SPLINESEGS
 70
     8
  9
$ATTDIA
 70
     0
  9
$ATTREQ
 70
     0
  9
$HANDLING
 70
     1
  9
$HANDSEED
  5
F6
  9
$SURFTAB1
 70
     6
  9
$SURFTAB2
 70
     6
  9
$SURFTYPE
 70
     6
  9
$SURFU
 70
     6
  9
$SURFV
 70
     6
  9
$UCSNAME
  2

  9
$UCSORG
 10
0.0
 20
0.0
 30
0.0
  9
$UCSXDIR
 10
1.0
 20
0.0
 30
0.0
  9
$UCSYDIR
 10
0.0
 20
1.0
 30
0.0
  9
$PUCSNAME
  2

  9
$PUCSORG
 10
0.0
 20
0.0
 30
0.0
  9
$PUCSXDIR
 10
1.0
 20
0.0
 30
0.0
  9
$PUCSYDIR
 10
0.0
 20
1.0
 30
0.0
  9
$USERI1
 70
     0
  9
$USERI2
 70
     0
  9
$USERI3
 70
     0
  9
$USERI4
 70
     0
  9
$USERI5
 70
     0
  9
$USERR1
 40
0.0
  9
$USERR2
 40
0.0
  9
$USERR3
 40
0.0
  9
$USERR4
 40
0.0
  9
$USERR5
 40
0.0
  9
$WORLDVIEW
 70
     1
  9
$SHADEDGE
 70
     3
  9
$SHADEDIF
 70
    70
  9
$TILEMODE
 70
     1
  9
$MAXACTVP
 70
    16
  9
$PINSBASE
 10
0.0
 20
0.0
 30
0.0
  9
$PLIMCHECK
 70
     0
  9
$PEXTMIN
 10
1.049999952316284
 20
0.7999999523162842
 30
0.0
  9
$PEXTMAX
 10
9.449999570846555
 20
7.199999570846556
 30
0.0
  9
$PLIMMIN
 10
0.0
 20
0.0
  9
$PLIMMAX
 10
12.0
 20
9.0
  9
$UNITMODE
 70
     0
  9
$VISRETAIN
 70
     0
  9
$PLINEGEN
 70
     0
  9
$PSLTSCALE
 70
     0
  9
$TREEDEPTH
 70
  3020
  9
$PICKSTYLE
 70
     0
  9
$CMLSTYLE
  2
STANDARD
  9
$CMLJUST
 70
     0
  9
$CMLSCALE
 40
1.0
  9
$PROXYGRAPHICS
 70
     1
  9
$MEASUREMENT
 70
     0
  0
ENDSEC
  0
SECTION
  2
CLASSES
  0
CLASS
  1
ACDBDICTIONARYWDFLT
  2
AcDbDictionaryWithDefault
  3
AutoCAD 2000
 90
        0
280
     0
281
     0
  0
CLASS
  1
ACDBPLACEHOLDER
  2
AcDbPlaceHolder
  3
AutoCAD 2000
 90
        0
280
     0
281
     0
  0
CLASS
  1
LAYOUT
  2
AcDbLayout
  3
AutoCAD 2000
 90
        0
280
     0
281
     0
  0
CLASS
  1
DICTIONARYVAR
  2
AcDbDictionaryVar
  3
"AutoCAD"
 90
        0
280
     0
281
     0
  0
CLASS
  1
LONG_TRANSACTION
  2
AcDbLongTransaction
  3
AutoCAD 2000
 90
        0
280
     0
281
     0
  0
CLASS
  1
LWPOLYLINE
  2
AcDbPolyline
  3
"AutoCAD"
 90
        0
280
     0
281
     1
  0
CLASS
  1
HATCH
  2
AcDbHatch
  3
"ACAD_SEDONA"
 90
        0
280
     0
281
     1
  0
CLASS
  1
XRECORD
  2
AcDbXrecord
  3
"<Built In>"
 90
        0
280
     0
281
     0
  0
CLASS
  1
LONG_TRANSACTION
  2
AcDbLongTransaction
  3
AutoCAD 2000
 90
        0
280
     0
281
     0
  0
CLASS
  1
LWPOLYLINE
  2
AcDbPolyline
  3
"AutoCAD"
 90
        0
280
     0
281
     1
  0
CLASS
  1
HATCH
  2
AcDbHatch
  3
"ACAD_SEDONA"
 90
        0
280
     0
281
     1
  0
CLASS
  1
XRECORD
  2
AcDbXrecord
  3
"<Built In>"
 90
        0
280
     0
281
     0
  0
ENDSEC
  0
SECTION
  2
TABLES
  0
TABLE
  2
VPORT
  5
E6
100
AcDbSymbolTable
 70
     1
  0
VPORT
  5
E7
100
AcDbSymbolTableRecord
100
AcDbViewportTableRecord
  2
*ACTIVE
 70
     0
 10
0.0
 20
0.0
 11
1.0
 21
1.0
 12
-17.7925874393735
 22
17.68922632517507
 13
0.0
 23
0.0
 14
1.0
 24
1.0
 15
0.0
 25
0.0
 16
0.0
 26
0.0
 36
1.0
 17
23.09603071721725
 27
-10.27010416511325
 37
-10.44050274849355
 40
14.92111506983304
 41
1.457627118644067
 42
50.0
 43
10.55307667737539
 44
10.55307667737539
 50
0.0
 51
0.0
 71
     0
 72
   100
 73
     1
 74
     1
 75
     0
 76
     0
 77
     0
 78
     0
  0
ENDTAB
  0
TABLE
  2
LTYPE
  5
E1
100
AcDbSymbolTable
 70
     1
  0
LTYPE
  5
E2
100
AcDbSymbolTableRecord
100
AcDbLinetypeTableRecord
  2
BYBLOCK
 70
     0
  3

 72
    65
 73
     0
 40
0.0
  0
LTYPE
  5
E3
100
AcDbSymbolTableRecord
100
AcDbLinetypeTableRecord
  2
BYLAYER
 70
     0
  3

 72
    65
 73
     0
 40
0.0
  0
LTYPE
  5
5
100
AcDbSymbolTableRecord
100
AcDbLinetypeTableRecord
  2
CONTINUOUS
 70
     0
  3
Solid line
 72
    65
 73
     0
 40
0.0
  0
ENDTAB
  0
TABLE
  2
LAYER
  5
DF
100
AcDbSymbolTable
 70
     4
  0
LAYER
  5
3A
100
AcDbSymbolTableRecord
100
AcDbLayerTableRecord
  2
0
 70
     0
 62
     7
  6
CONTINUOUS
  0
LAYER
  5
8
102
{ACAD_XDICTIONARY
360
9
102
}
100
AcDbSymbolTableRecord
100
AcDbLayerTableRecord
  2
USP-GEO
 70
     0
 62
     7
  6
CONTINUOUS
  0
LAYER
  5
15
102
{ACAD_XDICTIONARY
360
16
102
}
100
AcDbSymbolTableRecord
100
AcDbLayerTableRecord
  2
USP-TXT
 70
     0
 62
     7
  6
CONTINUOUS
  0
LAYER
  5
4
100
AcDbSymbolTableRecord
100
AcDbLayerTableRecord
  2
USP
 70
     0
 62
     7
  6
CONTINUOUS
  0
ENDTAB
  0
TABLE
  2
STYLE
  5
E0
100
AcDbSymbolTable
 70
     1
  0
STYLE
  5
18
100
AcDbSymbolTableRecord
100
AcDbTextStyleTableRecord
  2
STANDARD
 70
     0
 40
0.0
 41
1.0
 50
0.0
 71
     0
 42
0.75
  3
txt
  4

  0
ENDTAB
  0
TABLE
  2
VIEW
  5
E4
100
AcDbSymbolTable
 70
     0
  0
ENDTAB
  0
TABLE
  2
UCS
  5
E5
100
AcDbSymbolTable
 70
     0
  0
ENDTAB
  0
TABLE
  2
APPID
  5
E8
100
AcDbSymbolTable
 70
     1
  0
APPID
  5
E9
100
AcDbSymbolTableRecord
100
AcDbRegAppTableRecord
  2
ACAD
 70
     0
  0
ENDTAB
  0
TABLE
  2
DIMSTYLE
  5
EA
100
AcDbSymbolTable
 70
     1
  0
DIMSTYLE
105
F2
100
AcDbSymbolTableRecord
100
AcDbDimStyleTableRecord
  2
STANDARD
 70
     0
  3

  4

  5

  6

  7

 40
1.0
 41
0.18
 42
0.0625
 43
0.38
 44
0.18
 45
0.0
 46
0.0
 47
0.0
 48
0.0
140
0.18
141
0.09
142
0.0
143
25.4
144
1.0
145
0.0
146
1.0
147
0.09
 71
     0
 72
     0
 73
     1
 74
     1
 75
     0
 76
     0
 77
     0
 78
     0
170
     0
171
     2
172
     0
173
     0
174
     0
175
     0
176
     0
177
     0
178
     0
270
     2
271
     4
272
     4
273
     2
274
     2
340
18
275
     0
280
     0
281
     0
282
     0
283
     1
284
     0
285
     0
286
     0
287
     3
288
     0
  0
ENDTAB
  0
TABLE
  2
BLOCK_RECORD
  5
1
100
AcDbSymbolTable
 70
     3
  0
BLOCK_RECORD
  5
2
102
{ACAD_XDICTIONARY
360
D6
102
}
100
AcDbSymbolTableRecord
100
AcDbBlockTableRecord
  2
*MODEL_SPACE
  0
BLOCK_RECORD
  5
DA
102
{ACAD_XDICTIONARY
360
DB
102
}
100
AcDbSymbolTableRecord
100
AcDbBlockTableRecord
  2
*PAPER_SPACE
  0
BLOCK_RECORD
  5
6
100
AcDbSymbolTableRecord
100
AcDbBlockTableRecord
  2
HUS28_T
  0
BLOCK_RECORD
  5
3D
100
AcDbSymbolTableRecord
100
AcDbBlockTableRecord
  2
HUS28_F
  0
BLOCK_RECORD
  5
AB
100
AcDbSymbolTableRecord
100
AcDbBlockTableRecord
  2
HUS28_S
  0
ENDTAB
  0
ENDSEC
  0
SECTION
  2
BLOCKS
  0
BLOCK
  5
D8
100
AcDbEntity
  8
0
100
AcDbBlockBegin
  2
*MODEL_SPACE
 70
     0
 10
0.0
 20
0.0
 30
0.0
  3
*MODEL_SPACE
  1

  0
ENDBLK
  5
D9
100
AcDbEntity
  8
0
100
AcDbBlockEnd
  0
BLOCK
  5
DD
100
AcDbEntity
 67
     1
  8
0
100
AcDbBlockBegin
  2
*PAPER_SPACE
 70
     0
 10
0.0
 20
0.0
 30
0.0
  3
*PAPER_SPACE
  1

  0
ENDBLK
  5
DE
100
AcDbEntity
 67
     1
  8
0
100
AcDbBlockEnd
  0
BLOCK
  5
39
100
AcDbEntity
  8
0
100
AcDbBlockBegin
  2
HUS28_T
 70
     0
 10
0.0
 20
0.0
 30
0.0
  3
HUS28_T
  1

  0
LWPOLYLINE
  5
7
100
AcDbEntity
  8
USP-GEO
100
AcDbPolyline
 90
        2
 70
   129
 43
0.0
 10
0.0
 20
3.38496700479185
 10
2.008299205685641
 20
3.38496700479185
  0
LWPOLYLINE
  5
B
100
AcDbEntity
  8
USP-GEO
100
AcDbPolyline
 90
        2
 70
   129
 43
0.0
 10
1.9395689111721
 20
3.316236710278309
 10
0.0
 20
3.316236710278309
  0
LWPOLYLINE
  5
C
100
AcDbEntity
  8
USP-GEO
100
AcDbPolyline
 90
        3
 70
   128
 43
0.0
 10
0.0
 20
3.38496700479185
 10
0.0
 20
3.316236710278309
 10
0.0
 20
3.38496700479185
  0
LWPOLYLINE
  5
D
100
AcDbEntity
  8
USP-GEO
100
AcDbPolyline
 90
       35
 70
   128
 43
0.0
 10
3.686005694761155
 20
2.091462862047025
 10
3.686005694761155
 20
2.173939215463272
 10
3.686005694761155
 20
2.228923451074104
 10
3.686005694761155
 20
2.256415568879521
 10
3.686005694761155
 20
3.316236710278309
 10
5.625574605933257
 20
3.316236710278309
 10
5.625574605933257
 20
3.38496700479185
 10
3.631021459150323
 20
3.38496700479185
 10
5.625574605933257
 20
3.38496700479185
 10
5.625574605933257
 20
3.316236710278309
 10
3.686005694761155
 20
3.316236710278309
 10
3.686005694761155
 20
2.256415568879521
 10
3.686005694761155
 20
2.228923451074104
 10
3.686005694761155
 20
2.173939215463272
 10
3.686005694761155
 20
2.091462862047025
 10
3.686005694761155
 20
1.912764096311819
 10
3.686005694761155
 20
1.802795625090157
 10
3.686005694761155
 20
1.789049566187449
 10
3.686005694761155
 20
1.734065330576616
 10
3.686005694761155
 20
1.582171379701692
 10
3.686005694761155
 20
1.32099626055024
 10
3.686005694761155
 20
0.0274921178054157
 10
3.686005694761155
 20
0.0137460589027079
 10
3.686005694761155
 20
0.0
 10
3.686005694761155
 20
0.0137460589027079
 10
3.686005694761155
 20
0.0274921178054157
 10
3.631021459150323
 20
0.0274921178054157
 10
3.631021459150323
 20
1.32099626055024
 10
3.631021459150323
 20
1.582171379701692
 10
3.631021459150323
 20
1.734065330576616
 10
3.631021459150323
 20
1.789049566187449
 10
3.686005694761155
 20
1.789049566187449
 10
3.686005694761155
 20
1.734065330576616
 10
3.686005694761155
 20
1.582171379701692
 10
3.686005694761155
 20
1.32099626055024
  0
LWPOLYLINE
  5
E
100
AcDbEntity
  8
USP-GEO
100
AcDbPolyline
 90
       15
 70
   128
 43
0.0
 10
1.9395689111721
 20
3.316236710278309
 10
1.9395689111721
 20
2.256415568879521
 10
1.9395689111721
 20
2.228923451074104
 10
1.9395689111721
 20
2.173939215463272
 10
1.9395689111721
 20
2.091462862047025
 10
1.9395689111721
 20
1.912764096311819
 10
1.9395689111721
 20
1.802795625090157
 10
1.9395689111721
 20
1.789049566187449
 10
1.9395689111721
 20
1.734065330576616
 10
1.9395689111721
 20
1.582171379701692
 10
1.9395689111721
 20
1.32099626055024
 10
1.9395689111721
 20
0.0274921178054157
 10
1.9395689111721
 20
0.0137460589027079
 10
1.9395689111721
 20
0.0
 10
2.008299205685641
 20
0.0
  0
LWPOLYLINE
  5
F
100
AcDbEntity
  8
USP-GEO
100
AcDbPolyline
 90
       11
 70
   128
 43
0.0
 10
2.008299205685641
 20
0.0
 10
2.008299205685641
 20
0.0137460589027079
 10
2.008299205685641
 20
0.0274921178054157
 10
2.008299205685641
 20
1.32099626055024
 10
2.008299205685641
 20
1.582171379701692
 10
2.008299205685641
 20
1.734065330576616
 10
2.008299205685641
 20
1.789049566187449
 10
1.9395689111721
 20
1.789049566187449
 10
1.9395689111721
 20
1.734065330576616
 10
1.9395689111721
 20
1.582171379701692
 10
1.9395689111721
 20
1.32099626055024
  0
LWPOLYLINE
  5
10
100
AcDbEntity
  8
USP-GEO
100
AcDbPolyline
 90
        3
 70
   128
 43
0.0
 10
2.008299205685641
 20
1.32099626055024
 10
1.9395689111721
 20
1.32099626055024
 10
1.9395689111721
 20
0.0274921178054157
  0
LWPOLYLINE
  5
11
100
AcDbEntity
  8
USP-GEO
100
AcDbPolyline
 90
       13
 70
   128
 43
0.0
 10
3.631021459150323
 20
2.256415568879521
 10
3.631021459150323
 20
2.228923451074104
 10
3.631021459150323
 20
2.173939215463272
 10
3.631021459150323
 20
2.091462862047025
 10
3.631021459150323
 20
1.912764096311819
 10
3.631021459150323
 20
1.802795625090157
 10
3.631021459150323
 20
1.789049566187449
 10
3.631021459150323
 20
1.734065330576616
 10
3.631021459150323
 20
1.582171379701692
 10
3.631021459150323
 20
1.32099626055024
 10
3.631021459150323
 20
0.0274921178054157
 10
3.631021459150323
 20
0.0137460589027079
 10
3.631021459150323
 20
0.0
  0
LWPOLYLINE
  5
12
100
AcDbEntity
  8
USP-GEO
100
AcDbPolyline
 90
        3
 70
   128
 43
0.0
 10
3.686005694761155
 20
0.0274921178054157
 10
3.686005694761155
 20
1.32099626055024
 10
3.631021459150323
 20
1.32099626055024
  0
LWPOLYLINE
  5
13
100
AcDbEntity
  8
USP-GEO
100
AcDbPolyline
 90
       17
 70
   128
 43
0.0
 10
2.008299205685641
 20
0.0
 10
2.008299205685641
 20
0.0137460589027079
 10
2.008299205685641
 20
0.0274921178054157
 10
2.008299205685641
 20
1.32099626055024
 10
2.008299205685641
 20
1.582171379701692
 10
2.008299205685641
 20
1.734065330576616
 10
2.008299205685641
 20
1.789049566187449
 10
2.008299205685641
 20
1.802795625090157
 10
2.008299205685641
 20
1.789049566187449
 10
1.9395689111721
 20
1.789049566187449
 10
1.9395689111721
 20
1.802795625090157
 10
1.9395689111721
 20
1.912764096311819
 10
1.9395689111721
 20
2.091462862047025
 10
2.008299205685641
 20
2.091462862047025
 10
2.008299205685641
 20
1.912764096311819
 10
2.008299205685641
 20
1.802795625090157
 10
1.9395689111721
 20
1.802795625090157
  0
TEXT
  5
14
100
AcDbEntity
  8
USP-TXT
100
AcDbText
 10
1.187787302966628
 20
-0.7724819403811534
 30
0.0
 40
0.203125
  1
HUS28 - TOP VIEW
 72
     1
 11
2.812787302966628
 21
-0.7724819403811534
 31
0.0
100
AcDbText
  0
LWPOLYLINE
  5
19
100
AcDbEntity
  8
USP-GEO
100
AcDbPolyline
 90
        2
 70
   129
 43
0.0
 10
3.191147574263666
 20
0.0
 10
2.43442703166959
 20
0.0
  0
LWPOLYLINE
  5
1A
100
AcDbEntity
  8
USP-GEO
100
AcDbPolyline
 90
        5
 70
   128
 43
0.0
 10
2.008299205685641
 20
0.0274921178054157
 10
1.9395689111721
 20
0.0274921178054157
 10
1.9395689111721
 20
0.0137460589027079
 10
1.9395689111721
 20
0.0
 10
2.008299205685641
 20
0.0
  0
LWPOLYLINE
  5
1B
100
AcDbEntity
  8
USP-GEO
100
AcDbPolyline
 90
        2
 70
   128
 43
0.0
 10
1.9395689111721
 20
0.0
 10
1.940256214117237
 20
0.0
  0
LWPOLYLINE
  5
1C
100
AcDbEntity
  8
USP-GEO
100
AcDbPolyline
 90
        4
 70
   128
 43
0.0
 10
2.43442703166959
 20
0.0
 10
2.43442703166959
 20
0.0412381767081236
 10
2.393188854961465
 20
0.0824763534162472
 10
2.351950678253341
 20
0.0962224123189568
  0
LWPOLYLINE
  5
1D
100
AcDbEntity
  8
USP-GEO
100
AcDbPolyline
 90
        4
 70
   128
 43
0.0
 10
2.186997971420845
 20
0.0
 10
2.200744030323553
 20
0.0412381767081236
 10
2.228236148128969
 20
0.0824763534162472
 10
2.283220383739802
 20
0.0962224123189568
  0
LWPOLYLINE
  5
1E
100
AcDbEntity
  8
USP-GEO
100
AcDbPolyline
 90
        2
 70
   129
 43
0.0
 10
2.186997971420845
 20
0.0
 10
2.008299205685641
 20
0.0
  0
LWPOLYLINE
  5
1F
100
AcDbEntity
  8
USP-GEO
100
AcDbPolyline
 90
        2
 70
   128
 43
0.0
 10
2.008299205685641
 20
0.0
 10
2.008986508630776
 20
0.0
  0
LWPOLYLINE
  5
20
100
AcDbEntity
  8
USP-GEO
100
AcDbPolyline
 90
        2
 70
   129
 43
0.0
 10
2.351950678253341
 20
0.0962224123189568
 10
2.283220383739802
 20
0.0962224123189568
  0
LWPOLYLINE
  5
21
100
AcDbEntity
  8
USP-GEO
100
AcDbPolyline
 90
        4
 70
   128
 43
0.0
 10
3.356100281096162
 20
0.0962224123189568
 10
3.397338457804286
 20
0.0824763534162472
 10
3.424830575609703
 20
0.0412381767081236
 10
3.438576634512411
 20
0.0
  0
LWPOLYLINE
  5
22
100
AcDbEntity
  8
USP-GEO
100
AcDbPolyline
 90
        4
 70
   128
 43
0.0
 10
3.191147574263666
 20
0.0
 10
3.204893633166374
 20
0.0412381767081236
 10
3.23238575097179
 20
0.0824763534162472
 10
3.273623927679915
 20
0.0962224123189568
  0
LWPOLYLINE
  5
23
100
AcDbEntity
  8
USP-GEO
100
AcDbPolyline
 90
        2
 70
   129
 43
0.0
 10
3.356100281096162
 20
0.0962224123189568
 10
3.273623927679915
 20
0.0962224123189568
  0
LWPOLYLINE
  5
24
100
AcDbEntity
  8
USP-GEO
100
AcDbPolyline
 90
        2
 70
   129
 43
0.0
 10
3.631021459150323
 20
0.0
 10
3.438576634512411
 20
0.0
  0
LWPOLYLINE
  5
25
100
AcDbEntity
  8
USP-GEO
100
AcDbPolyline
 90
        3
 70
   128
 43
0.0
 10
3.631021459150323
 20
0.0274921178054157
 10
3.631021459150323
 20
0.0137460589027079
 10
3.631021459150323
 20
0.0
  0
LWPOLYLINE
  5
26
100
AcDbEntity
  8
USP-GEO
100
AcDbPolyline
 90
        2
 70
   129
 43
0.0
 10
3.631708762095458
 20
0.0
 10
3.631021459150323
 20
0.0
  0
LWPOLYLINE
  5
27
100
AcDbEntity
  8
USP-GEO
100
AcDbPolyline
 90
        2
 70
   129
 43
0.0
 10
3.686005694761155
 20
0.0
 10
3.631021459150323
 20
0.0
  0
LWPOLYLINE
  5
28
100
AcDbEntity
  8
USP-GEO
100
AcDbPolyline
 90
        2
 70
   129
 43
0.0
 10
2.43442703166959
 20
2.999390052570889
 10
3.191147574263666
 20
2.999390052570889
  0
LWPOLYLINE
  5
29
100
AcDbEntity
  8
USP-GEO
100
AcDbPolyline
 90
        4
 70
   128
 43
0.0
 10
2.283220383739802
 20
2.91691369915464
 10
2.228236148128969
 20
2.93065975805735
 10
2.200744030323553
 20
2.958151875862766
 10
2.186997971420845
 20
2.999390052570889
  0
LWPOLYLINE
  5
2A
100
AcDbEntity
  8
USP-GEO
100
AcDbPolyline
 90
        4
 70
   128
 43
0.0
 10
2.43442703166959
 20
2.999390052570889
 10
2.43442703166959
 20
2.958151875862766
 10
2.393188854961465
 20
2.93065975805735
 10
2.351950678253341
 20
2.91691369915464
  0
LWPOLYLINE
  5
2B
100
AcDbEntity
  8
USP-GEO
100
AcDbPolyline
 90
       10
 70
   128
 43
0.0
 10
1.9395689111721
 20
3.316236710278309
 10
1.9395689111721
 20
2.256415568879521
 10
2.008299205685641
 20
2.256415568879521
 10
2.008299205685641
 20
3.38496700479185
 10
2.008299205685641
 20
2.256415568879521
 10
2.008299205685641
 20
2.228923451074104
 10
2.008299205685641
 20
2.173939215463272
 10
2.008299205685641
 20
2.091462862047025
 10
2.008299205685641
 20
1.912764096311819
 10
2.008299205685641
 20
1.802795625090157
  0
LWPOLYLINE
  5
2C
100
AcDbEntity
  8
USP-GEO
100
AcDbPolyline
 90
        8
 70
   128
 43
0.0
 10
2.008299205685641
 20
2.091462862047025
 10
2.008299205685641
 20
2.173939215463272
 10
2.008299205685641
 20
2.228923451074104
 10
2.008299205685641
 20
2.256415568879521
 10
1.9395689111721
 20
2.256415568879521
 10
1.9395689111721
 20
2.228923451074104
 10
1.9395689111721
 20
2.173939215463272
 10
1.9395689111721
 20
2.091462862047025
  0
LWPOLYLINE
  5
2D
100
AcDbEntity
  8
USP-GEO
100
AcDbPolyline
 90
       13
 70
   128
 43
0.0
 10
1.9395689111721
 20
1.967748331922653
 10
1.898330734463977
 20
2.008986508630776
 10
1.898330734463977
 20
2.022732567533484
 10
1.884584675561269
 20
2.036478626436192
 10
1.870838616658561
 20
2.0502246853389
 10
1.857092557755853
 20
2.077716803144317
 10
1.843346498853145
 20
2.105208920949733
 10
1.829600439950437
 20
2.132701038755149
 10
1.829600439950437
 20
2.146447097657857
 10
1.829600439950437
 20
2.160193156560564
 10
1.81585438104773
 20
2.228923451074104
 10
1.857092557755853
 20
2.380817401949029
 10
1.9395689111721
 20
2.477039814267984
  0
LWPOLYLINE
  5
2E
100
AcDbEntity
  8
USP-GEO
100
AcDbPolyline
 90
        2
 70
   129
 43
0.0
 10
2.283220383739802
 20
2.91691369915464
 10
2.351950678253341
 20
2.91691369915464
  0
LWPOLYLINE
  5
2F
100
AcDbEntity
  8
USP-GEO
100
AcDbPolyline
 90
        2
 70
   129
 43
0.0
 10
2.008299205685641
 20
2.999390052570889
 10
2.186997971420845
 20
2.999390052570889
  0
LWPOLYLINE
  5
30
100
AcDbEntity
  8
USP-GEO
100
AcDbPolyline
 90
        4
 70
   128
 43
0.0
 10
3.273623927679915
 20
2.91691369915464
 10
3.23238575097179
 20
2.93065975805735
 10
3.204893633166374
 20
2.958151875862766
 10
3.191147574263666
 20
2.999390052570889
  0
LWPOLYLINE
  5
31
100
AcDbEntity
  8
USP-GEO
100
AcDbPolyline
 90
        4
 70
   128
 43
0.0
 10
3.438576634512411
 20
2.999390052570889
 10
3.424830575609703
 20
2.958151875862766
 10
3.397338457804286
 20
2.93065975805735
 10
3.356100281096162
 20
2.91691369915464
  0
LWPOLYLINE
  5
32
100
AcDbEntity
  8
USP-GEO
100
AcDbPolyline
 90
        2
 70
   129
 43
0.0
 10
3.631021459150323
 20
2.256415568879521
 10
3.631021459150323
 20
3.38496700479185
  0
LWPOLYLINE
  5
33
100
AcDbEntity
  8
USP-GEO
100
AcDbPolyline
 90
        7
 70
   128
 43
0.0
 10
3.631021459150323
 20
2.091462862047025
 10
3.631021459150323
 20
1.912764096311819
 10
3.631021459150323
 20
1.802795625090157
 10
3.686005694761155
 20
1.802795625090157
 10
3.686005694761155
 20
1.789049566187449
 10
3.631021459150323
 20
1.789049566187449
 10
3.631021459150323
 20
1.802795625090157
  0
LWPOLYLINE
  5
34
100
AcDbEntity
  8
USP-GEO
100
AcDbPolyline
 90
        7
 70
   128
 43
0.0
 10
3.631021459150323
 20
2.256415568879521
 10
3.631021459150323
 20
2.228923451074104
 10
3.631021459150323
 20
2.173939215463272
 10
3.631021459150323
 20
2.091462862047025
 10
3.686005694761155
 20
2.091462862047025
 10
3.686005694761155
 20
1.912764096311819
 10
3.686005694761155
 20
1.802795625090157
  0
LWPOLYLINE
  5
35
100
AcDbEntity
  8
USP-GEO
100
AcDbPolyline
 90
        2
 70
   129
 43
0.0
 10
3.273623927679915
 20
2.91691369915464
 10
3.356100281096162
 20
2.91691369915464
  0
LWPOLYLINE
  5
36
100
AcDbEntity
  8
USP-GEO
100
AcDbPolyline
 90
       13
 70
   128
 43
0.0
 10
3.686005694761155
 20
2.477039814267984
 10
3.769169351122538
 20
2.380817401949029
 10
3.810407527830662
 20
2.228923451074104
 10
3.810407527830662
 20
2.160193156560564
 10
3.796661468927954
 20
2.146447097657857
 10
3.796661468927954
 20
2.132701038755149
 10
3.782915410025246
 20
2.105208920949733
 10
3.769169351122538
 20
2.077716803144317
 10
3.75542329221983
 20
2.0502246853389
 10
3.740989930371988
 20
2.036478626436192
 10
3.72724387146928
 20
2.022732567533484
 10
3.72724387146928
 20
2.008986508630776
 10
3.686005694761155
 20
1.967748331922653
  0
LWPOLYLINE
  5
37
100
AcDbEntity
  8
USP-GEO
100
AcDbPolyline
 90
        3
 70
   128
 43
0.0
 10
3.631021459150323
 20
2.256415568879521
 10
3.686005694761155
 20
2.256415568879521
 10
3.631021459150323
 20
2.256415568879521
  0
LWPOLYLINE
  5
38
100
AcDbEntity
  8
USP-GEO
100
AcDbPolyline
 90
        2
 70
   129
 43
0.0
 10
3.438576634512411
 20
2.999390052570889
 10
3.631021459150323
 20
2.999390052570889
  0
ENDBLK
  5
3B
100
AcDbEntity
  8
0
100
AcDbBlockEnd
  0
BLOCK
  5
A8
100
AcDbEntity
  8
0
100
AcDbBlockBegin
  2
HUS28_F
 70
     0
 10
0.0
 20
0.0
 30
0.0
  3
HUS28_F
  1

  0
TEXT
  5
3E
100
AcDbEntity
  8
USP-TXT
100
AcDbText
 10
0.9846623029666286
 20
-0.8263821529326822
 30
0.0
 40
0.203125
  1
HUS28 - FRONT VIEW
 72
     1
 11
2.812787302966628
 21
-0.8263821529326822
 31
0.0
100
AcDbText
  0
LWPOLYLINE
  5
3F
100
AcDbEntity
  8
USP-GEO
100
AcDbPolyline
 90
       47
 70
   128
 43
0.0
 10
3.438576634512411
 20
0.0
 10
3.686005694761155
 20
0.0
 10
3.438576634512411
 20
0.0
 10
3.424830575609703
 20
0.0
 10
3.397338457804286
 20
0.0
 10
3.356100281096162
 20
0.0
 10
3.273623927679915
 20
0.0
 10
3.23238575097179
 20
0.0
 10
3.204893633166374
 20
0.0
 10
3.191147574263666
 20
0.0
 10
2.43442703166959
 20
0.0
 10
2.393188854961465
 20
0.0
 10
2.351950678253341
 20
0.0
 10
2.283220383739802
 20
0.0
 10
2.228236148128969
 20
0.0
 10
2.200744030323553
 20
0.0
 10
2.186997971420845
 20
0.0
 10
1.9395689111721
 20
0.0
 10
1.9395689111721
 20
0.1512066479297882
 10
1.9395689111721
 20
0.1786987657352039
 10
1.9395689111721
 20
0.2061908835406214
 10
1.9395689111721
 20
0.234370304291172
 10
1.9395689111721
 20
1.734065330576617
 10
1.9395689111721
 20
2.132701038755149
 10
1.9395689111721
 20
2.57326222658694
 10
1.9395689111721
 20
3.040628229279015
 10
1.9395689111721
 20
4.017973017261555
 10
1.9395689111721
 20
4.182925724094051
 10
1.9395689111721
 20
4.334132372023839
 10
1.9395689111721
 20
4.416608725440086
 10
1.9395689111721
 20
4.471592961050919
 10
1.9395689111721
 20
4.554069314467167
 10
1.9395689111721
 20
4.650979029731258
 10
1.9395689111721
 20
5.765097103795744
 10
1.9395689111721
 20
5.8613195161147
 10
1.9395689111721
 20
5.943795869530948
 10
1.9395689111721
 20
5.99878010514178
 10
1.9395689111721
 20
6.10943587930858
 10
1.9395689111721
 20
6.301880703946492
 10
1.9395689111721
 20
6.508071587487112
 10
1.9395689111721
 20
6.700516412125025
 10
1.9395689111721
 20
6.811172186291824
 10
1.9395689111721
 20
6.866156421902656
 10
1.9395689111721
 20
6.948632775318904
 10
1.9395689111721
 20
7.04485518763786
 10
1.9395689111721
 20
7.25104607117848
 10
0.0
 20
7.25104607117848
  0
LWPOLYLINE
  5
40
100
AcDbEntity
  8
USP-GEO
100
AcDbPolyline
 90
       15
 70
   128
 43
0.0
 10
2.008299205685641
 20
5.765097103795744
 10
2.008299205685641
 20
5.8613195161147
 10
2.008299205685641
 20
5.943795869530948
 10
2.008299205685641
 20
5.99878010514178
 10
2.008299205685641
 20
6.10943587930858
 10
2.008299205685641
 20
6.301880703946492
 10
2.008299205685641
 20
6.508071587487112
 10
2.008299205685641
 20
6.700516412125025
 10
2.008299205685641
 20
6.811172186291824
 10
2.008299205685641
 20
6.866156421902656
 10
2.008299205685641
 20
6.948632775318904
 10
2.008299205685641
 20
7.04485518763786
 10
2.008299205685641
 20
7.25104607117848
 10
1.9395689111721
 20
7.25104607117848
 10
0.0
 20
7.25104607117848
  0
LWPOLYLINE
  5
41
100
AcDbEntity
  8
USP-GEO
100
AcDbPolyline
 90
        2
 70
   129
 43
0.0
 10
1.9395689111721
 20
0.5642757179561642
 10
0.9491653672319877
 20
1.734065330576617
  0
LWPOLYLINE
  5
42
100
AcDbEntity
  8
USP-GEO
100
AcDbPolyline
 90
       12
 70
   128
 43
0.0
 10
0.0
 20
7.04485518763786
 10
0.0274921178054157
 20
6.948632775318904
 10
0.0824763534162472
 20
6.866156421902656
 10
0.1786987657352039
 20
6.811172186291824
 10
0.3580848344155445
 20
6.700516412125025
 10
0.4543072467344996
 20
6.508071587487112
 10
0.4543072467344996
 20
6.301880703946492
 10
0.3580848344155445
 20
6.10943587930858
 10
0.1786987657352039
 20
5.99878010514178
 10
0.0824763534162472
 20
5.943795869530948
 10
0.0274921178054157
 20
5.8613195161147
 10
0.0
 20
5.765097103795744
  0
LWPOLYLINE
  5
43
100
AcDbEntity
  8
USP-GEO
100
AcDbPolyline
 90
       11
 70
   128
 43
0.0
 10
0.0
 20
4.650979029731258
 10
0.0274921178054157
 20
4.554069314467167
 10
0.0824763534162472
 20
4.471592961050919
 10
0.1786987657352039
 20
4.416608725440086
 10
0.330592716610127
 20
4.334132372023839
 10
0.4268151289290838
 20
4.182925724094051
 10
0.4680533056372074
 20
4.017973017261555
 10
0.4680533056372074
 20
3.040628229279015
 10
0.5230375412480406
 20
2.57326222658694
 10
0.6879902480805367
 20
2.132701038755149
 10
0.9491653672319877
 20
1.734065330576617
  0
LWPOLYLINE
  5
44
100
AcDbEntity
  8
USP-GEO
100
AcDbPolyline
 90
        2
 70
   128
 43
0.0
 10
0.6879902480805367
 20
2.132701038755149
 10
0.9491653672319877
 20
1.734065330576617
  0
LWPOLYLINE
  5
45
100
AcDbEntity
  8
USP-GEO
100
AcDbPolyline
 90
        3
 70
   128
 43
0.0
 10
0.4268151289290838
 20
4.182925724094051
 10
0.4680533056372074
 20
4.017973017261555
 10
0.4680533056372074
 20
3.040628229279015
  0
LWPOLYLINE
  5
46
100
AcDbEntity
  8
USP-GEO
100
AcDbPolyline
 90
       12
 70
   128
 43
0.0
 10
0.825450837107617
 20
2.559516167684233
 10
0.8666890138157405
 20
2.545770108781525
 10
0.9079271905238641
 20
2.518277990976109
 10
0.921673249426572
 20
2.477039814267985
 10
0.9079271905238641
 20
2.422055578657152
 10
0.8666890138157405
 20
2.393876157906602
 10
0.825450837107617
 20
2.380130099003894
 10
0.7842126603994917
 20
2.393876157906602
 10
0.7429744836913681
 20
2.422055578657152
 10
0.7429744836913681
 20
2.477039814267985
 10
0.7429744836913681
 20
2.518277990976109
 10
0.7842126603994917
 20
2.545770108781525
  0
LWPOLYLINE
  5
47
100
AcDbEntity
  8
USP-GEO
100
AcDbPolyline
 90
        2
 70
   129
 43
0.0
 10
0.825450837107617
 20
2.559516167684233
 10
0.7842126603994917
 20
2.545770108781525
  0
LWPOLYLINE
  5
48
100
AcDbEntity
  8
USP-GEO
100
AcDbPolyline
 90
        2
 70
   129
 43
0.0
 10
0.0
 20
4.650979029731258
 10
0.0
 20
5.765097103795744
  0
LWPOLYLINE
  5
49
100
AcDbEntity
  8
USP-GEO
100
AcDbPolyline
 90
       12
 70
   128
 43
0.0
 10
0.825450837107617
 20
4.567815373369874
 10
0.8666890138157405
 20
4.554069314467167
 10
0.9079271905238641
 20
4.512831137759043
 10
0.921673249426572
 20
4.471592961050919
 10
0.9079271905238641
 20
4.430354784342794
 10
0.8666890138157405
 20
4.389116607634671
 10
0.825450837107617
 20
4.389116607634671
 10
0.7842126603994917
 20
4.389116607634671
 10
0.7429744836913681
 20
4.430354784342794
 10
0.7429744836913681
 20
4.471592961050919
 10
0.7429744836913681
 20
4.512831137759043
 10
0.7842126603994917
 20
4.554069314467167
  0
LWPOLYLINE
  5
4A
100
AcDbEntity
  8
USP-GEO
100
AcDbPolyline
 90
        2
 70
   129
 43
0.0
 10
0.825450837107617
 20
4.567815373369874
 10
0.7842126603994917
 20
4.554069314467167
  0
LWPOLYLINE
  5
4B
100
AcDbEntity
  8
USP-GEO
100
AcDbPolyline
 90
       14
 70
   128
 43
0.0
 10
0.2749211780541607
 20
5.297043798158536
 10
0.3161593547622843
 20
5.310789857061243
 10
0.2749211780541607
 20
5.297043798158536
 10
0.2336830013460354
 20
5.26955168035312
 10
0.2199369424433275
 20
5.228313503644995
 10
0.2336830013460354
 20
5.173329268034163
 10
0.2749211780541607
 20
5.145837150228747
 10
0.3161593547622843
 20
5.13209109132604
 10
0.3580848344155445
 20
5.145837150228747
 10
0.3993230111236681
 20
5.173329268034163
 10
0.413069070026376
 20
5.228313503644995
 10
0.3993230111236681
 20
5.26955168035312
 10
0.3580848344155445
 20
5.297043798158536
 10
0.3161593547622843
 20
5.310789857061243
  0
LWPOLYLINE
  5
4C
100
AcDbEntity
  8
USP-GEO
100
AcDbPolyline
 90
        2
 70
   129
 43
0.0
 10
0.0
 20
7.04485518763786
 10
0.0
 20
7.25104607117848
  0
LWPOLYLINE
  5
4D
100
AcDbEntity
  8
USP-GEO
100
AcDbPolyline
 90
        2
 70
   128
 43
0.0
 10
0.2749211780541607
 20
7.058601246540568
 10
0.3161593547622843
 20
7.058601246540568
  0
LWPOLYLINE
  5
4E
100
AcDbEntity
  8
USP-GEO
100
AcDbPolyline
 90
       12
 70
   129
 43
0.0
 10
0.2749211780541607
 20
6.893648539708072
 10
0.2336830013460354
 20
6.934886716416197
 10
0.2199369424433275
 20
6.97612489312432
 10
0.2336830013460354
 20
7.017363069832445
 10
0.2749211780541607
 20
7.058601246540568
 10
0.3161593547622843
 20
7.058601246540568
 10
0.3580848344155445
 20
7.058601246540568
 10
0.3993230111236681
 20
7.017363069832445
 10
0.413069070026376
 20
6.97612489312432
 10
0.3993230111236681
 20
6.934886716416197
 10
0.3580848344155445
 20
6.893648539708072
 10
0.3161593547622843
 20
6.879902480805364
  0
LWPOLYLINE
  5
4F
100
AcDbEntity
  8
USP-GEO
100
AcDbPolyline
 90
       12
 70
   129
 43
0.0
 10
0.7429744836913681
 20
6.150674056016704
 10
0.7429744836913681
 20
6.191912232724828
 10
0.7429744836913681
 20
6.233150409432952
 10
0.7842126603994917
 20
6.274388586141076
 10
0.825450837107617
 20
6.288134645043784
 10
0.8666890138157405
 20
6.274388586141076
 10
0.9079271905238641
 20
6.233150409432952
 10
0.921673249426572
 20
6.191912232724828
 10
0.9079271905238641
 20
6.150674056016704
 10
0.8666890138157405
 20
6.10943587930858
 10
0.825450837107617
 20
6.10943587930858
 10
0.7842126603994917
 20
6.10943587930858
  0
LWPOLYLINE
  5
50
100
AcDbEntity
  8
USP-GEO
100
AcDbPolyline
 90
        2
 70
   128
 43
0.0
 10
0.7842126603994917
 20
6.274388586141076
 10
0.825450837107617
 20
6.288134645043784
  0
LWPOLYLINE
  5
51
100
AcDbEntity
  8
USP-GEO
100
AcDbPolyline
 90
       35
 70
   128
 43
0.0
 10
5.625574605933257
 20
6.866156421902656
 10
5.625574605933257
 20
7.25104607117848
 10
3.686005694761155
 20
7.25104607117848
 10
3.686005694761155
 20
6.866156421902656
 10
3.686005694761155
 20
6.755500647735857
 10
3.686005694761155
 20
6.673024294319609
 10
3.686005694761155
 20
6.618040058708777
 10
3.686005694761155
 20
6.508071587487112
 10
3.686005694761155
 20
6.329372821751908
 10
3.686005694761155
 20
6.10943587930858
 10
3.686005694761155
 20
5.93004981062824
 10
3.686005694761155
 20
5.806335280503867
 10
3.686005694761155
 20
5.751351044893036
 10
3.686005694761155
 20
5.668874691476788
 10
3.686005694761155
 20
5.572652279157831
 10
3.686005694761155
 20
4.650979029731258
 10
3.686005694761155
 20
4.554069314467167
 10
3.686005694761155
 20
4.471592961050919
 10
3.686005694761155
 20
4.416608725440086
 10
3.686005694761155
 20
4.334132372023839
 10
3.686005694761155
 20
4.182925724094051
 10
3.686005694761155
 20
4.017973017261555
 10
3.686005694761155
 20
3.040628229279015
 10
3.686005694761155
 20
2.57326222658694
 10
3.686005694761155
 20
2.132701038755149
 10
3.686005694761155
 20
1.734065330576617
 10
3.686005694761155
 20
0.234370304291172
 10
3.686005694761155
 20
0.2061908835406214
 10
3.686005694761155
 20
0.1786987657352039
 10
3.686005694761155
 20
0.1512066479297882
 10
3.686005694761155
 20
0.0
 10
3.686005694761155
 20
0.1512066479297882
 10
3.631021459150323
 20
0.1512066479297882
 10
3.631021459150323
 20
0.0687302945135411
 10
3.631021459150323
 20
0.1512066479297882
  0
LWPOLYLINE
  5
52
100
AcDbEntity
  8
USP-GEO
100
AcDbPolyline
 90
       30
 70
   128
 43
0.0
 10
3.631021459150323
 20
0.234370304291172
 10
3.631021459150323
 20
0.2061908835406214
 10
3.631021459150323
 20
0.1786987657352039
 10
3.631021459150323
 20
0.1512066479297882
 10
3.631021459150323
 20
0.1786987657352039
 10
3.631021459150323
 20
0.2061908835406214
 10
3.631021459150323
 20
0.234370304291172
 10
3.631021459150323
 20
1.734065330576617
 10
3.631021459150323
 20
2.132701038755149
 10
3.631021459150323
 20
2.57326222658694
 10
3.631021459150323
 20
3.040628229279015
 10
3.631021459150323
 20
4.017973017261555
 10
3.631021459150323
 20
4.182925724094051
 10
3.631021459150323
 20
4.334132372023839
 10
3.631021459150323
 20
4.416608725440086
 10
3.631021459150323
 20
4.471592961050919
 10
3.631021459150323
 20
4.554069314467167
 10
3.631021459150323
 20
4.650979029731258
 10
3.631021459150323
 20
5.572652279157831
 10
3.631021459150323
 20
5.668874691476788
 10
3.631021459150323
 20
5.751351044893036
 10
3.631021459150323
 20
5.806335280503867
 10
3.631021459150323
 20
5.93004981062824
 10
3.631021459150323
 20
6.10943587930858
 10
3.631021459150323
 20
6.329372821751908
 10
3.631021459150323
 20
6.508071587487112
 10
3.631021459150323
 20
6.618040058708777
 10
3.631021459150323
 20
6.673024294319609
 10
3.631021459150323
 20
6.755500647735857
 10
3.631021459150323
 20
6.866156421902656
  0
LWPOLYLINE
  5
53
100
AcDbEntity
  8
USP-GEO
100
AcDbPolyline
 90
       26
 70
   128
 43
0.0
 10
4.690155297603975
 20
1.734065330576617
 10
4.952017719700563
 20
2.132701038755149
 10
5.103224367630351
 20
2.57326222658694
 10
5.158208603241185
 20
3.040628229279015
 10
5.158208603241185
 20
4.017973017261555
 10
5.199446779949308
 20
4.182925724094051
 10
5.309415251170973
 20
4.334132372023839
 10
5.460621899100761
 20
4.416608725440086
 10
5.54309825251701
 20
4.471592961050919
 10
5.598082488127841
 20
4.554069314467167
 10
5.625574605933257
 20
4.650979029731258
 10
5.625574605933257
 20
5.572652279157831
 10
5.598082488127841
 20
5.668874691476788
 10
5.54309825251701
 20
5.751351044893036
 10
5.460621899100761
 20
5.806335280503867
 10
5.281923133365555
 20
5.93004981062824
 10
5.171954662143892
 20
6.10943587930858
 10
5.171954662143892
 20
6.329372821751908
 10
5.281923133365555
 20
6.508071587487112
 10
5.460621899100761
 20
6.618040058708777
 10
5.54309825251701
 20
6.673024294319609
 10
5.598082488127841
 20
6.755500647735857
 10
5.625574605933257
 20
6.866156421902656
 10
5.625574605933257
 20
7.25104607117848
 10
3.686005694761155
 20
7.25104607117848
 10
3.686005694761155
 20
6.866156421902656
  0
LWPOLYLINE
  5
54
100
AcDbEntity
  8
USP-GEO
100
AcDbPolyline
 90
       12
 70
   128
 43
0.0
 10
2.008299205685641
 20
5.99878010514178
 10
2.008299205685641
 20
6.10943587930858
 10
2.008299205685641
 20
6.301880703946492
 10
2.008299205685641
 20
6.508071587487112
 10
2.008299205685641
 20
6.700516412125025
 10
2.008299205685641
 20
6.811172186291824
 10
1.9395689111721
 20
6.811172186291824
 10
1.9395689111721
 20
6.700516412125025
 10
1.9395689111721
 20
6.508071587487112
 10
1.9395689111721
 20
6.301880703946492
 10
1.9395689111721
 20
6.10943587930858
 10
1.9395689111721
 20
5.99878010514178
  0
LWPOLYLINE
  5
55
100
AcDbEntity
  8
USP-GEO
100
AcDbPolyline
 90
       10
 70
   128
 43
0.0
 10
3.631021459150323
 20
6.618040058708777
 10
3.631021459150323
 20
6.508071587487112
 10
3.631021459150323
 20
6.329372821751908
 10
3.631021459150323
 20
6.10943587930858
 10
3.631021459150323
 20
5.93004981062824
 10
3.631021459150323
 20
5.806335280503867
 10
3.686005694761155
 20
5.806335280503867
 10
3.686005694761155
 20
5.751351044893036
 10
3.686005694761155
 20
5.668874691476788
 10
3.686005694761155
 20
5.572652279157831
  0
LWPOLYLINE
  5
56
100
AcDbEntity
  8
USP-GEO
100
AcDbPolyline
 90
       10
 70
   128
 43
0.0
 10
3.631021459150323
 20
6.866156421902656
 10
3.631021459150323
 20
6.755500647735857
 10
3.631021459150323
 20
6.673024294319609
 10
3.631021459150323
 20
6.618040058708777
 10
3.686005694761155
 20
6.618040058708777
 10
3.686005694761155
 20
6.508071587487112
 10
3.686005694761155
 20
6.329372821751908
 10
3.686005694761155
 20
6.10943587930858
 10
3.686005694761155
 20
5.93004981062824
 10
3.686005694761155
 20
5.806335280503867
  0
LWPOLYLINE
  5
57
100
AcDbEntity
  8
USP-GEO
100
AcDbPolyline
 90
        5
 70
   128
 43
0.0
 10
3.686005694761155
 20
5.971287987336364
 10
3.769169351122538
 20
6.053764340752612
 10
3.810407527830662
 20
6.219404350530243
 10
3.769169351122538
 20
6.370610998460032
 10
3.686005694761155
 20
6.466833410778988
  0
LWPOLYLINE
  5
58
100
AcDbEntity
  8
USP-GEO
100
AcDbPolyline
 90
       12
 70
   129
 43
0.0
 10
4.731393474312101
 20
2.518277990976109
 10
4.758885592117517
 20
2.545770108781525
 10
4.80012376882564
 20
2.559516167684233
 10
4.855108004436472
 20
2.545770108781525
 10
4.882600122241889
 20
2.518277990976109
 10
4.897033484089732
 20
2.477039814267985
 10
4.882600122241889
 20
2.422055578657152
 10
4.855108004436472
 20
2.393876157906602
 10
4.80012376882564
 20
2.380130099003894
 10
4.758885592117517
 20
2.393876157906602
 10
4.731393474312101
 20
2.422055578657152
 10
4.717647415409391
 20
2.477039814267985
  0
LWPOLYLINE
  5
59
100
AcDbEntity
  8
USP-GEO
100
AcDbPolyline
 90
       12
 70
   129
 43
0.0
 10
4.731393474312101
 20
4.430354784342794
 10
4.717647415409391
 20
4.471592961050919
 10
4.731393474312101
 20
4.512831137759043
 10
4.758885592117517
 20
4.554069314467167
 10
4.80012376882564
 20
4.567815373369874
 10
4.855108004436472
 20
4.554069314467167
 10
4.882600122241889
 20
4.512831137759043
 10
4.897033484089732
 20
4.471592961050919
 10
4.882600122241889
 20
4.430354784342794
 10
4.855108004436472
 20
4.389116607634671
 10
4.80012376882564
 20
4.389116607634671
 10
4.758885592117517
 20
4.389116607634671
  0
LWPOLYLINE
  5
5A
100
AcDbEntity
  8
USP-GEO
100
AcDbPolyline
 90
       17
 70
   128
 43
0.0
 10
2.008299205685641
 20
0.1512066479297882
 10
2.008299205685641
 20
0.1786987657352039
 10
2.008299205685641
 20
0.2061908835406214
 10
2.008299205685641
 20
0.234370304291172
 10
2.008299205685641
 20
1.734065330576617
 10
2.008299205685641
 20
2.132701038755149
 10
2.008299205685641
 20
2.57326222658694
 10
2.008299205685641
 20
3.040628229279015
 10
2.008299205685641
 20
4.017973017261555
 10
2.008299205685641
 20
4.182925724094051
 10
2.008299205685641
 20
4.334132372023839
 10
2.008299205685641
 20
4.416608725440086
 10
2.008299205685641
 20
4.471592961050919
 10
2.008299205685641
 20
4.554069314467167
 10
2.008299205685641
 20
4.650979029731258
 10
2.008299205685641
 20
5.765097103795744
 10
1.9395689111721
 20
5.765097103795744
  0
LWPOLYLINE
  5
5B
100
AcDbEntity
  8
USP-GEO
100
AcDbPolyline
 90
        5
 70
   128
 43
0.0
 10
2.008299205685641
 20
3.040628229279015
 10
1.9395689111721
 20
3.040628229279015
 10
1.9395689111721
 20
2.57326222658694
 10
1.9395689111721
 20
2.132701038755149
 10
1.9395689111721
 20
1.734065330576617
  0
LWPOLYLINE
  5
5C
100
AcDbEntity
  8
USP-GEO
100
AcDbPolyline
 90
       40
 70
   128
 43
0.0
 10
3.438576634512411
 20
0.0687302945135411
 10
3.424830575609703
 20
0.0687302945135411
 10
3.397338457804286
 20
0.0687302945135411
 10
3.356100281096162
 20
0.0687302945135411
 10
3.273623927679915
 20
0.0687302945135411
 10
3.23238575097179
 20
0.0687302945135411
 10
3.204893633166374
 20
0.0687302945135411
 10
3.191147574263666
 20
0.0687302945135411
 10
2.43442703166959
 20
0.0687302945135411
 10
2.393188854961465
 20
0.0687302945135411
 10
2.351950678253341
 20
0.0687302945135411
 10
2.283220383739802
 20
0.0687302945135411
 10
2.228236148128969
 20
0.0687302945135411
 10
2.200744030323553
 20
0.0687302945135411
 10
2.186997971420845
 20
0.0687302945135411
 10
2.008299205685641
 20
0.0687302945135411
 10
2.008299205685641
 20
0.1512066479297882
 10
2.008299205685641
 20
0.1786987657352039
 10
2.008299205685641
 20
0.2061908835406214
 10
2.008299205685641
 20
0.234370304291172
 10
2.008299205685641
 20
1.734065330576617
 10
2.008299205685641
 20
2.132701038755149
 10
2.008299205685641
 20
2.57326222658694
 10
2.008299205685641
 20
3.040628229279015
 10
2.008299205685641
 20
4.017973017261555
 10
2.008299205685641
 20
4.182925724094051
 10
2.008299205685641
 20
4.334132372023839
 10
2.008299205685641
 20
4.416608725440086
 10
2.008299205685641
 20
4.471592961050919
 10
2.008299205685641
 20
4.554069314467167
 10
2.008299205685641
 20
4.650979029731258
 10
2.008299205685641
 20
5.765097103795744
 10
2.008299205685641
 20
5.8613195161147
 10
2.008299205685641
 20
5.943795869530948
 10
2.008299205685641
 20
5.99878010514178
 10
1.9395689111721
 20
5.99878010514178
 10
1.9395689111721
 20
5.943795869530948
 10
1.9395689111721
 20
5.8613195161147
 10
1.9395689111721
 20
5.765097103795744
 10
1.9395689111721
 20
4.650979029731258
  0
LWPOLYLINE
  5
5D
100
AcDbEntity
  8
USP-GEO
100
AcDbPolyline
 90
       10
 70
   128
 43
0.0
 10
3.686005694761155
 20
0.234370304291172
 10
3.686005694761155
 20
1.734065330576617
 10
3.631021459150323
 20
1.734065330576617
 10
3.631021459150323
 20
2.132701038755149
 10
3.631021459150323
 20
2.57326222658694
 10
3.631021459150323
 20
3.040628229279015
 10
3.686005694761155
 20
3.040628229279015
 10
3.686005694761155
 20
2.57326222658694
 10
3.686005694761155
 20
2.132701038755149
 10
3.686005694761155
 20
1.734065330576617
  0
LWPOLYLINE
  5
5E
100
AcDbEntity
  8
USP-GEO
100
AcDbPolyline
 90
        8
 70
   128
 43
0.0
 10
2.351950678253341
 20
0.0687302945135411
 10
2.393188854961465
 20
0.0687302945135411
 10
2.43442703166959
 20
0.0687302945135411
 10
2.43442703166959
 20
0.0
 10
3.191147574263666
 20
0.0
 10
3.191147574263666
 20
0.0687302945135411
 10
2.43442703166959
 20
0.0687302945135411
 10
2.435114334614725
 20
0.0687302945135411
  0
LWPOLYLINE
  5
5F
100
AcDbEntity
  8
USP-GEO
100
AcDbPolyline
 90
       14
 70
   128
 43
0.0
 10
2.186997971420845
 20
0.0687302945135411
 10
2.008299205685641
 20
0.0687302945135411
 10
2.008299205685641
 20
0.1512066479297882
 10
1.9395689111721
 20
0.1512066479297882
 10
1.9395689111721
 20
0.0
 10
2.186997971420845
 20
0.0
 10
2.200744030323553
 20
0.0
 10
2.228236148128969
 20
0.0
 10
2.283220383739802
 20
0.0
 10
2.283220383739802
 20
0.0687302945135411
 10
2.228236148128969
 20
0.0687302945135411
 10
2.200744030323553
 20
0.0687302945135411
 10
2.186997971420845
 20
0.0687302945135411
 10
2.186997971420845
 20
0.0
  0
LWPOLYLINE
  5
60
100
AcDbEntity
  8
USP-GEO
100
AcDbPolyline
 90
        3
 70
   128
 43
0.0
 10
2.008299205685641
 20
1.734065330576617
 10
1.9395689111721
 20
1.734065330576617
 10
1.9395689111721
 20
0.234370304291172
  0
LWPOLYLINE
  5
61
100
AcDbEntity
  8
USP-GEO
100
AcDbPolyline
 90
        5
 70
   128
 43
0.0
 10
2.008299205685641
 20
0.234370304291172
 10
1.9395689111721
 20
0.234370304291172
 10
1.9395689111721
 20
0.2061908835406214
 10
1.9395689111721
 20
0.1786987657352039
 10
1.9395689111721
 20
0.1512066479297882
  0
LWPOLYLINE
  5
62
100
AcDbEntity
  8
USP-GEO
100
AcDbPolyline
 90
        2
 70
   129
 43
0.0
 10
1.540933202993569
 20
1.554679261896277
 10
1.485948967382736
 20
1.540933202993569
  0
LWPOLYLINE
  5
63
100
AcDbEntity
  8
USP-GEO
100
AcDbPolyline
 90
       12
 70
   128
 43
0.0
 10
1.540933202993569
 20
1.554679261896277
 10
1.582171379701692
 20
1.540933202993569
 10
1.609663497507108
 20
1.513441085188153
 10
1.623409556409816
 20
1.47220290848003
 10
1.609663497507108
 20
1.430964731771904
 10
1.582171379701692
 20
1.389726555063781
 10
1.540933202993569
 20
1.375980496161073
 10
1.485948967382736
 20
1.389726555063781
 10
1.457769546632185
 20
1.430964731771904
 10
1.444023487729477
 20
1.47220290848003
 10
1.457769546632185
 20
1.513441085188153
 10
1.485948967382736
 20
1.540933202993569
  0
LWPOLYLINE
  5
64
100
AcDbEntity
  8
USP-GEO
100
AcDbPolyline
 90
        5
 70
   128
 43
0.0
 10
1.9395689111721
 20
1.2522659660367
 10
1.857092557755853
 20
1.156043553717744
 10
1.81585438104773
 20
1.004836905787955
 10
1.857092557755853
 20
0.8391968960103248
 10
1.9395689111721
 20
0.756720542594076
  0
LWPOLYLINE
  5
65
100
AcDbEntity
  8
USP-GEO
100
AcDbPolyline
 90
        7
 70
   128
 43
0.0
 10
1.884584675561269
 20
0.9354193083292816
 10
1.884584675561269
 20
0.9491653672319895
 10
1.884584675561269
 20
0.9635987290798322
 10
1.884584675561269
 20
1.004836905787955
 10
1.884584675561269
 20
1.032329023593373
 10
1.884584675561269
 20
1.059821141398789
 10
1.885271978506404
 20
1.059821141398789
  0
LWPOLYLINE
  5
66
100
AcDbEntity
  8
USP-GEO
100
AcDbPolyline
 90
       16
 70
   129
 43
0.0
 10
1.884584675561269
 20
0.9491653672319895
 10
1.870838616658561
 20
0.9216732494265738
 10
1.857092557755853
 20
0.9216732494265738
 10
1.843346498853145
 20
0.9216732494265738
 10
1.829600439950437
 20
0.9491653672319895
 10
1.829600439950437
 20
0.97734478798254
 10
1.829600439950437
 20
1.004836905787955
 10
1.829600439950437
 20
1.032329023593373
 10
1.829600439950437
 20
1.059821141398789
 10
1.843346498853145
 20
1.073567200301496
 10
1.857092557755853
 20
1.073567200301496
 10
1.870838616658561
 20
1.073567200301496
 10
1.884584675561269
 20
1.059821141398789
 10
1.898330734463977
 20
1.032329023593373
 10
1.898330734463977
 20
1.004836905787955
 10
1.898330734463977
 20
0.97734478798254
  0
LWPOLYLINE
  5
67
100
AcDbEntity
  8
USP-GEO
100
AcDbPolyline
 90
        4
 70
   128
 43
0.0
 10
2.351950678253341
 20
0.0
 10
2.393188854961465
 20
0.0
 10
2.43442703166959
 20
0.0
 10
2.435114334614725
 20
0.0
  0
LWPOLYLINE
  5
68
100
AcDbEntity
  8
USP-GEO
100
AcDbPolyline
 90
        4
 70
   128
 43
0.0
 10
2.283220383739802
 20
0.0
 10
2.351950678253341
 20
0.0
 10
2.351950678253341
 20
0.0687302945135411
 10
2.283220383739802
 20
0.0687302945135411
  0
LWPOLYLINE
  5
69
100
AcDbEntity
  8
USP-GEO
100
AcDbPolyline
 90
        2
 70
   129
 43
0.0
 10
4.690155297603975
 20
1.734065330576617
 10
3.769169351122538
 20
0.6742441891778288
  0
LWPOLYLINE
  5
6A
100
AcDbEntity
  8
USP-GEO
100
AcDbPolyline
 90
        6
 70
   128
 43
0.0
 10
3.631021459150323
 20
1.734065330576617
 10
3.631021459150323
 20
0.234370304291172
 10
3.686005694761155
 20
0.234370304291172
 10
3.686005694761155
 20
0.2061908835406214
 10
3.686005694761155
 20
0.1786987657352039
 10
3.686005694761155
 20
0.1512066479297882
  0
LWPOLYLINE
  5
6B
100
AcDbEntity
  8
USP-GEO
100
AcDbPolyline
 90
        5
 70
   128
 43
0.0
 10
3.686005694761155
 20
0.5642757179561642
 10
3.769169351122538
 20
0.660498130275121
 10
3.810407527830662
 20
0.8117047782049091
 10
3.769169351122538
 20
0.9635987290798322
 10
3.686005694761155
 20
1.059821141398789
  0
LWPOLYLINE
  5
6C
100
AcDbEntity
  8
USP-GEO
100
AcDbPolyline
 90
        8
 70
   128
 43
0.0
 10
3.356100281096162
 20
0.0
 10
3.397338457804286
 20
0.0
 10
3.424830575609703
 20
0.0
 10
3.438576634512411
 20
0.0
 10
3.438576634512411
 20
0.0687302945135411
 10
3.424830575609703
 20
0.0687302945135411
 10
3.397338457804286
 20
0.0687302945135411
 10
3.356100281096162
 20
0.0687302945135411
  0
LWPOLYLINE
  5
6D
100
AcDbEntity
  8
USP-GEO
100
AcDbPolyline
 90
        8
 70
   128
 43
0.0
 10
3.191147574263666
 20
0.0
 10
3.204893633166374
 20
0.0
 10
3.23238575097179
 20
0.0
 10
3.273623927679915
 20
0.0
 10
3.273623927679915
 20
0.0687302945135411
 10
3.23238575097179
 20
0.0687302945135411
 10
3.204893633166374
 20
0.0687302945135411
 10
3.191147574263666
 20
0.0687302945135411
  0
LWPOLYLINE
  5
6E
100
AcDbEntity
  8
USP-GEO
100
AcDbPolyline
 90
        4
 70
   128
 43
0.0
 10
3.273623927679915
 20
0.0
 10
3.356100281096162
 20
0.0
 10
3.356100281096162
 20
0.0687302945135411
 10
3.273623927679915
 20
0.0687302945135411
  0
LWPOLYLINE
  5
6F
100
AcDbEntity
  8
USP-GEO
100
AcDbPolyline
 90
        3
 70
   128
 43
0.0
 10
3.631021459150323
 20
0.0687302945135411
 10
3.438576634512411
 20
0.0687302945135411
 10
3.631021459150323
 20
0.0687302945135411
  0
LWPOLYLINE
  5
70
100
AcDbEntity
  8
USP-GEO
100
AcDbPolyline
 90
        7
 70
   128
 43
0.0
 10
3.741677233317123
 20
0.756720542594076
 10
3.740989930371988
 20
0.756720542594076
 10
3.75542329221983
 20
0.7842126603994935
 10
3.75542329221983
 20
0.8117047782049091
 10
3.75542329221983
 20
0.8391968960103248
 10
3.740989930371988
 20
0.8666890138157405
 10
3.741677233317123
 20
0.8666890138157405
  0
LWPOLYLINE
  5
71
100
AcDbEntity
  8
USP-GEO
100
AcDbPolyline
 90
       16
 70
   129
 43
0.0
 10
3.740989930371988
 20
0.756720542594076
 10
3.72724387146928
 20
0.7842126603994935
 10
3.72724387146928
 20
0.8117047782049091
 10
3.72724387146928
 20
0.8391968960103248
 10
3.740989930371988
 20
0.8666890138157405
 10
3.75542329221983
 20
0.8804350727184484
 10
3.769169351122538
 20
0.8941811316211563
 10
3.782915410025246
 20
0.8804350727184484
 10
3.796661468927954
 20
0.8666890138157405
 10
3.796661468927954
 20
0.8391968960103248
 10
3.810407527830662
 20
0.8117047782049091
 10
3.796661468927954
 20
0.7842126603994935
 10
3.796661468927954
 20
0.756720542594076
 10
3.782915410025246
 20
0.7429744836913681
 10
3.769169351122538
 20
0.7292284247886603
 10
3.75542329221983
 20
0.7429744836913681
  0
LWPOLYLINE
  5
72
100
AcDbEntity
  8
USP-GEO
100
AcDbPolyline
 90
       12
 70
   129
 43
0.0
 10
4.09907476478753
 20
1.375980496161073
 10
4.140312941495656
 20
1.389726555063781
 10
4.167805059301072
 20
1.430964731771904
 10
4.181551118203779
 20
1.47220290848003
 10
4.167805059301072
 20
1.513441085188153
 10
4.140312941495656
 20
1.540933202993569
 10
4.09907476478753
 20
1.554679261896277
 10
4.044090529176699
 20
1.540933202993569
 10
4.016598411371283
 20
1.513441085188153
 10
4.002852352468575
 20
1.47220290848003
 10
4.016598411371283
 20
1.430964731771904
 10
4.044090529176699
 20
1.389726555063781
  0
LWPOLYLINE
  5
73
100
AcDbEntity
  8
USP-GEO
100
AcDbPolyline
 90
        3
 70
   128
 43
0.0
 10
2.008299205685641
 20
4.017973017261555
 10
1.9395689111721
 20
4.017973017261555
 10
1.9395689111721
 20
3.040628229279015
  0
LWPOLYLINE
  5
74
100
AcDbEntity
  8
USP-GEO
100
AcDbPolyline
 90
       12
 70
   128
 43
0.0
 10
1.540933202993569
 20
4.059211193969678
 10
1.582171379701692
 20
4.045465135066971
 10
1.609663497507108
 20
4.017973017261555
 10
1.623409556409816
 20
3.976734840553429
 10
1.609663497507108
 20
3.921750604942598
 10
1.582171379701692
 20
3.894258487137182
 10
1.540933202993569
 20
3.880512428234474
 10
1.485948967382736
 20
3.894258487137182
 10
1.457769546632185
 20
3.921750604942598
 10
1.444023487729477
 20
3.976734840553429
 10
1.457769546632185
 20
4.017973017261555
 10
1.485948967382736
 20
4.045465135066971
  0
LWPOLYLINE
  5
75
100
AcDbEntity
  8
USP-GEO
100
AcDbPolyline
 90
        5
 70
   128
 43
0.0
 10
1.9395689111721
 20
4.25165601860759
 10
1.857092557755853
 20
4.155433606288635
 10
1.81585438104773
 20
4.004226958358847
 10
1.857092557755853
 20
3.852333007483922
 10
1.9395689111721
 20
3.756110595164967
  0
LWPOLYLINE
  5
76
100
AcDbEntity
  8
USP-GEO
100
AcDbPolyline
 90
        5
 70
   128
 43
0.0
 10
1.9395689111721
 20
2.751960992322146
 10
1.857092557755853
 20
2.655738580003189
 10
1.81585438104773
 20
2.504531932073401
 10
1.857092557755853
 20
2.33889192229577
 10
1.9395689111721
 20
2.256415568879521
  0
LWPOLYLINE
  5
77
100
AcDbEntity
  8
USP-GEO
100
AcDbPolyline
 90
       16
 70
   129
 43
0.0
 10
1.829600439950437
 20
2.477039814267985
 10
1.829600439950437
 20
2.504531932073401
 10
1.829600439950437
 20
2.532024049878817
 10
1.829600439950437
 20
2.559516167684233
 10
1.843346498853145
 20
2.57326222658694
 10
1.857092557755853
 20
2.57326222658694
 10
1.870838616658561
 20
2.57326222658694
 10
1.884584675561269
 20
2.559516167684233
 10
1.898330734463977
 20
2.532024049878817
 10
1.898330734463977
 20
2.504531932073401
 10
1.898330734463977
 20
2.477039814267985
 10
1.884584675561269
 20
2.44954769646257
 10
1.870838616658561
 20
2.435801637559862
 10
1.857092557755853
 20
2.422055578657152
 10
1.843346498853145
 20
2.435801637559862
 10
1.829600439950437
 20
2.44954769646257
  0
LWPOLYLINE
  5
78
100
AcDbEntity
  8
USP-GEO
100
AcDbPolyline
 90
        7
 70
   128
 43
0.0
 10
1.885271978506404
 20
2.559516167684233
 10
1.884584675561269
 20
2.559516167684233
 10
1.884584675561269
 20
2.532024049878817
 10
1.884584675561269
 20
2.504531932073401
 10
1.884584675561269
 20
2.477039814267985
 10
1.884584675561269
 20
2.44954769646257
 10
1.885271978506404
 20
2.44954769646257
  0
LWPOLYLINE
  5
79
100
AcDbEntity
  8
USP-GEO
100
AcDbPolyline
 90
       12
 70
   128
 43
0.0
 10
1.540933202993569
 20
3.054374288181723
 10
1.582171379701692
 20
3.054374288181723
 10
1.609663497507108
 20
3.013136111473597
 10
1.623409556409816
 20
2.971897934765474
 10
1.609663497507108
 20
2.93065975805735
 10
1.582171379701692
 20
2.889421581349226
 10
1.540933202993569
 20
2.875675522446517
 10
1.485948967382736
 20
2.889421581349226
 10
1.457769546632185
 20
2.93065975805735
 10
1.444023487729477
 20
2.971897934765474
 10
1.457769546632185
 20
3.013136111473597
 10
1.485948967382736
 20
3.054374288181723
  0
LWPOLYLINE
  5
7A
100
AcDbEntity
  8
USP-GEO
100
AcDbPolyline
 90
        2
 70
   129
 43
0.0
 10
1.540933202993569
 20
3.054374288181723
 10
1.485948967382736
 20
3.054374288181723
  0
LWPOLYLINE
  5
7B
100
AcDbEntity
  8
USP-GEO
100
AcDbPolyline
 90
        6
 70
   128
 43
0.0
 10
2.008299205685641
 20
4.650979029731258
 10
1.9395689111721
 20
4.650979029731258
 10
1.9395689111721
 20
4.554069314467167
 10
1.9395689111721
 20
4.471592961050919
 10
1.9395689111721
 20
4.416608725440086
 10
2.008299205685641
 20
4.416608725440086
  0
LWPOLYLINE
  5
7C
100
AcDbEntity
  8
USP-GEO
100
AcDbPolyline
 90
       12
 70
   128
 43
0.0
 10
1.540933202993569
 20
5.063360796812499
 10
1.582171379701692
 20
5.049614737909791
 10
1.609663497507108
 20
5.022122620104375
 10
1.623409556409816
 20
4.967138384493543
 10
1.609663497507108
 20
4.925900207785419
 10
1.582171379701692
 20
4.898408089980003
 10
1.540933202993569
 20
4.884662031077295
 10
1.485948967382736
 20
4.898408089980003
 10
1.457769546632185
 20
4.925900207785419
 10
1.444023487729477
 20
4.967138384493543
 10
1.457769546632185
 20
5.022122620104375
 10
1.485948967382736
 20
5.049614737909791
  0
LWPOLYLINE
  5
7D
100
AcDbEntity
  8
USP-GEO
100
AcDbPolyline
 90
        2
 70
   129
 43
0.0
 10
1.540933202993569
 20
4.059211193969678
 10
1.485948967382736
 20
4.045465135066971
  0
LWPOLYLINE
  5
7E
100
AcDbEntity
  8
USP-GEO
100
AcDbPolyline
 90
        4
 70
   128
 43
0.0
 10
1.9395689111721
 20
4.416608725440086
 10
1.9395689111721
 20
4.334132372023839
 10
1.9395689111721
 20
4.182925724094051
 10
1.9395689111721
 20
4.017973017261555
  0
LWPOLYLINE
  5
7F
100
AcDbEntity
  8
USP-GEO
100
AcDbPolyline
 90
       16
 70
   129
 43
0.0
 10
1.884584675561269
 20
3.949242722748014
 10
1.870838616658561
 20
3.935496663845306
 10
1.857092557755853
 20
3.921750604942598
 10
1.843346498853145
 20
3.935496663845306
 10
1.829600439950437
 20
3.949242722748014
 10
1.829600439950437
 20
3.976734840553429
 10
1.829600439950437
 20
4.004226958358847
 10
1.829600439950437
 20
4.031719076164263
 10
1.829600439950437
 20
4.059211193969678
 10
1.843346498853145
 20
4.072957252872386
 10
1.857092557755853
 20
4.086703311775094
 10
1.870838616658561
 20
4.072957252872386
 10
1.884584675561269
 20
4.059211193969678
 10
1.898330734463977
 20
4.031719076164263
 10
1.898330734463977
 20
4.004226958358847
 10
1.898330734463977
 20
3.976734840553429
  0
LWPOLYLINE
  5
80
100
AcDbEntity
  8
USP-GEO
100
AcDbPolyline
 90
        7
 70
   128
 43
0.0
 10
1.885271978506404
 20
4.059211193969678
 10
1.884584675561269
 20
4.059211193969678
 10
1.884584675561269
 20
4.031719076164263
 10
1.884584675561269
 20
4.004226958358847
 10
1.884584675561269
 20
3.976734840553429
 10
1.884584675561269
 20
3.949242722748014
 10
1.885271978506404
 20
3.949242722748014
  0
LWPOLYLINE
  5
81
100
AcDbEntity
  8
USP-GEO
100
AcDbPolyline
 90
        2
 70
   129
 43
0.0
 10
1.540933202993569
 20
5.063360796812499
 10
1.485948967382736
 20
5.049614737909791
  0
LWPOLYLINE
  5
82
100
AcDbEntity
  8
USP-GEO
100
AcDbPolyline
 90
        2
 70
   129
 43
0.0
 10
1.540933202993569
 20
6.068197702600455
 10
1.485948967382736
 20
6.053764340752612
  0
LWPOLYLINE
  5
83
100
AcDbEntity
  8
USP-GEO
100
AcDbPolyline
 90
       12
 70
   128
 43
0.0
 10
1.540933202993569
 20
6.068197702600455
 10
1.582171379701692
 20
6.053764340752612
 10
1.609663497507108
 20
6.012526164044488
 10
1.623409556409816
 20
5.971287987336364
 10
1.609663497507108
 20
5.93004981062824
 10
1.582171379701692
 20
5.902557692822824
 10
1.540933202993569
 20
5.888811633920115
 10
1.485948967382736
 20
5.902557692822824
 10
1.457769546632185
 20
5.93004981062824
 10
1.444023487729477
 20
5.971287987336364
 10
1.457769546632185
 20
6.012526164044488
 10
1.485948967382736
 20
6.053764340752612
  0
LWPOLYLINE
  5
84
100
AcDbEntity
  8
USP-GEO
100
AcDbPolyline
 90
        2
 70
   128
 43
0.0
 10
3.631021459150323
 20
4.017973017261555
 10
3.631021459150323
 20
3.040628229279015
  0
LWPOLYLINE
  5
85
100
AcDbEntity
  8
USP-GEO
100
AcDbPolyline
 90
        6
 70
   128
 43
0.0
 10
3.686005694761155
 20
3.040628229279015
 10
3.686005694761155
 20
4.017973017261555
 10
3.631021459150323
 20
4.017973017261555
 10
3.631021459150323
 20
4.182925724094051
 10
3.631021459150323
 20
4.334132372023839
 10
3.631021459150323
 20
4.416608725440086
  0
LWPOLYLINE
  5
86
100
AcDbEntity
  8
USP-GEO
100
AcDbPolyline
 90
       12
 70
   129
 43
0.0
 10
4.002852352468575
 20
3.976734840553429
 10
4.016598411371283
 20
4.017973017261555
 10
4.044090529176699
 20
4.045465135066971
 10
4.09907476478753
 20
4.059211193969678
 10
4.140312941495656
 20
4.045465135066971
 10
4.167805059301072
 20
4.017973017261555
 10
4.181551118203779
 20
3.976734840553429
 10
4.167805059301072
 20
3.921750604942598
 10
4.140312941495656
 20
3.894258487137182
 10
4.09907476478753
 20
3.880512428234474
 10
4.044090529176699
 20
3.894258487137182
 10
4.016598411371283
 20
3.921750604942598
  0
LWPOLYLINE
  5
87
100
AcDbEntity
  8
USP-GEO
100
AcDbPolyline
 90
        5
 70
   128
 43
0.0
 10
3.686005694761155
 20
3.563665770527054
 10
3.769169351122538
 20
3.65988818284601
 10
3.810407527830662
 20
3.811094830775799
 10
3.769169351122538
 20
3.976734840553429
 10
3.686005694761155
 20
4.059211193969678
  0
LWPOLYLINE
  5
88
100
AcDbEntity
  8
USP-GEO
100
AcDbPolyline
 90
        7
 70
   128
 43
0.0
 10
3.741677233317123
 20
2.256415568879521
 10
3.740989930371988
 20
2.256415568879521
 10
3.75542329221983
 20
2.283907686684937
 10
3.75542329221983
 20
2.311399804490353
 10
3.75542329221983
 20
2.33889192229577
 10
3.740989930371988
 20
2.366384040101186
 10
3.741677233317123
 20
2.366384040101186
  0
LWPOLYLINE
  5
89
100
AcDbEntity
  8
USP-GEO
100
AcDbPolyline
 90
        5
 70
   128
 43
0.0
 10
3.686005694761155
 20
2.063970744241609
 10
3.769169351122538
 20
2.160193156560564
 10
3.810407527830662
 20
2.311399804490353
 10
3.769169351122538
 20
2.477039814267985
 10
3.686005694761155
 20
2.559516167684233
  0
LWPOLYLINE
  5
8A
100
AcDbEntity
  8
USP-GEO
100
AcDbPolyline
 90
       16
 70
   129
 43
0.0
 10
3.740989930371988
 20
2.256415568879521
 10
3.72724387146928
 20
2.283907686684937
 10
3.72724387146928
 20
2.311399804490353
 10
3.72724387146928
 20
2.33889192229577
 10
3.740989930371988
 20
2.366384040101186
 10
3.75542329221983
 20
2.380130099003894
 10
3.769169351122538
 20
2.393876157906602
 10
3.782915410025246
 20
2.380130099003894
 10
3.796661468927954
 20
2.366384040101186
 10
3.796661468927954
 20
2.33889192229577
 10
3.810407527830662
 20
2.311399804490353
 10
3.796661468927954
 20
2.283907686684937
 10
3.796661468927954
 20
2.256415568879521
 10
3.782915410025246
 20
2.242669509976813
 10
3.769169351122538
 20
2.242669509976813
 10
3.75542329221983
 20
2.242669509976813
  0
LWPOLYLINE
  5
8B
100
AcDbEntity
  8
USP-GEO
100
AcDbPolyline
 90
        6
 70
   128
 43
0.0
 10
3.740989930371988
 20
3.756110595164967
 10
3.75542329221983
 20
3.783602712970383
 10
3.75542329221983
 20
3.811094830775799
 10
3.75542329221983
 20
3.838586948581214
 10
3.740989930371988
 20
3.86607906638663
 10
3.741677233317123
 20
3.86607906638663
  0
LWPOLYLINE
  5
8C
100
AcDbEntity
  8
USP-GEO
100
AcDbPolyline
 90
       16
 70
   129
 43
0.0
 10
3.740989930371988
 20
3.756110595164967
 10
3.72724387146928
 20
3.783602712970383
 10
3.72724387146928
 20
3.811094830775799
 10
3.72724387146928
 20
3.838586948581214
 10
3.740989930371988
 20
3.86607906638663
 10
3.75542329221983
 20
3.894258487137182
 10
3.769169351122538
 20
3.894258487137182
 10
3.782915410025246
 20
3.894258487137182
 10
3.796661468927954
 20
3.86607906638663
 10
3.796661468927954
 20
3.838586948581214
 10
3.810407527830662
 20
3.811094830775799
 10
3.796661468927954
 20
3.783602712970383
 10
3.796661468927954
 20
3.756110595164967
 10
3.782915410025246
 20
3.742364536262259
 10
3.769169351122538
 20
3.742364536262259
 10
3.75542329221983
 20
3.742364536262259
  0
LWPOLYLINE
  5
8D
100
AcDbEntity
  8
USP-GEO
100
AcDbPolyline
 90
       12
 70
   129
 43
0.0
 10
4.002852352468575
 20
2.971897934765474
 10
4.016598411371283
 20
3.013136111473597
 10
4.044090529176699
 20
3.054374288181723
 10
4.09907476478753
 20
3.054374288181723
 10
4.140312941495656
 20
3.054374288181723
 10
4.167805059301072
 20
3.013136111473597
 10
4.181551118203779
 20
2.971897934765474
 10
4.167805059301072
 20
2.93065975805735
 10
4.140312941495656
 20
2.889421581349226
 10
4.09907476478753
 20
2.875675522446517
 10
4.044090529176699
 20
2.889421581349226
 10
4.016598411371283
 20
2.93065975805735
  0
LWPOLYLINE
  5
8E
100
AcDbEntity
  8
USP-GEO
100
AcDbPolyline
 90
        9
 70
   128
 43
0.0
 10
3.631021459150323
 20
5.572652279157831
 10
3.631021459150323
 20
4.650979029731258
 10
3.631021459150323
 20
4.554069314467167
 10
3.631021459150323
 20
4.471592961050919
 10
3.631021459150323
 20
4.416608725440086
 10
3.686005694761155
 20
4.416608725440086
 10
3.686005694761155
 20
4.334132372023839
 10
3.686005694761155
 20
4.182925724094051
 10
3.686005694761155
 20
4.017973017261555
  0
LWPOLYLINE
  5
8F
100
AcDbEntity
  8
USP-GEO
100
AcDbPolyline
 90
        6
 70
   128
 43
0.0
 10
3.686005694761155
 20
4.650979029731258
 10
3.686005694761155
 20
5.572652279157831
 10
3.631021459150323
 20
5.572652279157831
 10
3.631021459150323
 20
5.668874691476788
 10
3.631021459150323
 20
5.751351044893036
 10
3.631021459150323
 20
5.806335280503867
  0
LWPOLYLINE
  5
90
100
AcDbEntity
  8
USP-GEO
100
AcDbPolyline
 90
        5
 70
   128
 43
0.0
 10
3.631021459150323
 20
4.650979029731258
 10
3.686005694761155
 20
4.650979029731258
 10
3.686005694761155
 20
4.554069314467167
 10
3.686005694761155
 20
4.471592961050919
 10
3.686005694761155
 20
4.416608725440086
  0
LWPOLYLINE
  5
91
100
AcDbEntity
  8
USP-GEO
100
AcDbPolyline
 90
       12
 70
   129
 43
0.0
 10
4.002852352468575
 20
4.967138384493543
 10
4.016598411371283
 20
5.022122620104375
 10
4.044090529176699
 20
5.049614737909791
 10
4.09907476478753
 20
5.063360796812499
 10
4.140312941495656
 20
5.049614737909791
 10
4.167805059301072
 20
5.022122620104375
 10
4.181551118203779
 20
4.967138384493543
 10
4.167805059301072
 20
4.925900207785419
 10
4.140312941495656
 20
4.898408089980003
 10
4.09907476478753
 20
4.884662031077295
 10
4.044090529176699
 20
4.898408089980003
 10
4.016598411371283
 20
4.925900207785419
  0
LWPOLYLINE
  5
92
100
AcDbEntity
  8
USP-GEO
100
AcDbPolyline
 90
       12
 70
   129
 43
0.0
 10
4.002852352468575
 20
5.971287987336364
 10
4.016598411371283
 20
6.012526164044488
 10
4.044090529176699
 20
6.053764340752612
 10
4.09907476478753
 20
6.068197702600455
 10
4.140312941495656
 20
6.053764340752612
 10
4.167805059301072
 20
6.012526164044488
 10
4.181551118203779
 20
5.971287987336364
 10
4.167805059301072
 20
5.93004981062824
 10
4.140312941495656
 20
5.902557692822824
 10
4.09907476478753
 20
5.888811633920115
 10
4.044090529176699
 20
5.902557692822824
 10
4.016598411371283
 20
5.93004981062824
  0
LWPOLYLINE
  5
93
100
AcDbEntity
  8
USP-GEO
100
AcDbPolyline
 90
        3
 70
   128
 43
0.0
 10
5.103224367630351
 20
2.57326222658694
 10
5.158208603241185
 20
3.040628229279015
 10
5.158208603241185
 20
4.017973017261555
  0
LWPOLYLINE
  5
94
100
AcDbEntity
  8
USP-GEO
100
AcDbPolyline
 90
        2
 70
   128
 43
0.0
 10
5.625574605933257
 20
4.650979029731258
 10
5.625574605933257
 20
5.572652279157831
  0
LWPOLYLINE
  5
95
100
AcDbEntity
  8
USP-GEO
100
AcDbPolyline
 90
        2
 70
   128
 43
0.0
 10
5.309415251170973
 20
4.334132372023839
 10
5.460621899100761
 20
4.416608725440086
  0
LWPOLYLINE
  5
96
100
AcDbEntity
  8
USP-GEO
100
AcDbPolyline
 90
       12
 70
   129
 43
0.0
 10
5.226938897754724
 20
5.228313503644995
 10
5.240684956657432
 20
5.26955168035312
 10
5.268177074462847
 20
5.297043798158536
 10
5.309415251170973
 20
5.310789857061243
 10
5.364399486781804
 20
5.297043798158536
 10
5.39189160458722
 20
5.26955168035312
 10
5.405637663489928
 20
5.228313503644995
 10
5.39189160458722
 20
5.173329268034163
 10
5.364399486781804
 20
5.145837150228747
 10
5.309415251170973
 20
5.13209109132604
 10
5.268177074462847
 20
5.145837150228747
 10
5.240684956657432
 20
5.173329268034163
  0
LWPOLYLINE
  5
97
100
AcDbEntity
  8
USP-GEO
100
AcDbPolyline
 90
        2
 70
   128
 43
0.0
 10
5.54309825251701
 20
5.751351044893036
 10
5.460621899100761
 20
5.806335280503867
  0
LWPOLYLINE
  5
98
100
AcDbEntity
  8
USP-GEO
100
AcDbPolyline
 90
       12
 70
   129
 43
0.0
 10
4.731393474312101
 20
6.150674056016704
 10
4.717647415409391
 20
6.191912232724828
 10
4.731393474312101
 20
6.233150409432952
 10
4.758885592117517
 20
6.274388586141076
 10
4.80012376882564
 20
6.288134645043784
 10
4.855108004436472
 20
6.274388586141076
 10
4.882600122241889
 20
6.233150409432952
 10
4.897033484089732
 20
6.191912232724828
 10
4.882600122241889
 20
6.150674056016704
 10
4.855108004436472
 20
6.10943587930858
 10
4.80012376882564
 20
6.10943587930858
 10
4.758885592117517
 20
6.10943587930858
  0
LWPOLYLINE
  5
99
100
AcDbEntity
  8
USP-GEO
100
AcDbPolyline
 90
        4
 70
   128
 43
0.0
 10
2.008299205685641
 20
7.04485518763786
 10
2.008299205685641
 20
7.25104607117848
 10
1.9395689111721
 20
7.25104607117848
 10
1.9395689111721
 20
7.04485518763786
  0
LWPOLYLINE
  5
9A
100
AcDbEntity
  8
USP-GEO
100
AcDbPolyline
 90
        8
 70
   128
 43
0.0
 10
2.008299205685641
 20
6.811172186291824
 10
2.008299205685641
 20
6.866156421902656
 10
2.008299205685641
 20
6.948632775318904
 10
2.008299205685641
 20
7.04485518763786
 10
1.9395689111721
 20
7.04485518763786
 10
1.9395689111721
 20
6.948632775318904
 10
1.9395689111721
 20
6.866156421902656
 10
1.9395689111721
 20
6.811172186291824
  0
LWPOLYLINE
  5
9B
100
AcDbEntity
  8
USP-GEO
100
AcDbPolyline
 90
        2
 70
   129
 43
0.0
 10
1.540933202993569
 20
7.058601246540568
 10
1.485948967382736
 20
7.058601246540568
  0
LWPOLYLINE
  5
9C
100
AcDbEntity
  8
USP-GEO
100
AcDbPolyline
 90
       12
 70
   128
 43
0.0
 10
1.540933202993569
 20
7.058601246540568
 10
1.582171379701692
 20
7.058601246540568
 10
1.609663497507108
 20
7.017363069832445
 10
1.623409556409816
 20
6.97612489312432
 10
1.609663497507108
 20
6.934886716416197
 10
1.582171379701692
 20
6.893648539708072
 10
1.540933202993569
 20
6.879902480805364
 10
1.485948967382736
 20
6.893648539708072
 10
1.457769546632185
 20
6.934886716416197
 10
1.444023487729477
 20
6.97612489312432
 10
1.457769546632185
 20
7.017363069832445
 10
1.485948967382736
 20
7.058601246540568
  0
LWPOLYLINE
  5
9D
100
AcDbEntity
  8
USP-GEO
100
AcDbPolyline
 90
        5
 70
   128
 43
0.0
 10
1.9395689111721
 20
6.6592782354169
 10
1.857092557755853
 20
6.563055823097944
 10
1.81585438104773
 20
6.411849175168156
 10
1.857092557755853
 20
6.24689646833566
 10
1.9395689111721
 20
6.150674056016704
  0
LWPOLYLINE
  5
9E
100
AcDbEntity
  8
USP-GEO
100
AcDbPolyline
 90
       16
 70
   129
 43
0.0
 10
1.884584675561269
 20
6.343118880654616
 10
1.870838616658561
 20
6.329372821751908
 10
1.857092557755853
 20
6.329372821751908
 10
1.843346498853145
 20
6.329372821751908
 10
1.829600439950437
 20
6.343118880654616
 10
1.829600439950437
 20
6.370610998460032
 10
1.829600439950437
 20
6.411849175168156
 10
1.829600439950437
 20
6.439341292973572
 10
1.829600439950437
 20
6.466833410778988
 10
1.843346498853145
 20
6.480579469681696
 10
1.857092557755853
 20
6.480579469681696
 10
1.870838616658561
 20
6.480579469681696
 10
1.884584675561269
 20
6.466833410778988
 10
1.898330734463977
 20
6.439341292973572
 10
1.898330734463977
 20
6.411849175168156
 10
1.898330734463977
 20
6.370610998460032
  0
LWPOLYLINE
  5
9F
100
AcDbEntity
  8
USP-GEO
100
AcDbPolyline
 90
        7
 70
   128
 43
0.0
 10
1.885271978506404
 20
6.466833410778988
 10
1.884584675561269
 20
6.466833410778988
 10
1.884584675561269
 20
6.439341292973572
 10
1.884584675561269
 20
6.411849175168156
 10
1.884584675561269
 20
6.370610998460032
 10
1.884584675561269
 20
6.343118880654616
 10
1.885271978506404
 20
6.343118880654616
  0
LWPOLYLINE
  5
A0
100
AcDbEntity
  8
USP-GEO
100
AcDbPolyline
 90
        2
 70
   129
 43
0.0
 10
3.631021459150323
 20
6.866156421902656
 10
3.631021459150323
 20
7.25104607117848
  0
LWPOLYLINE
  5
A1
100
AcDbEntity
  8
USP-GEO
100
AcDbPolyline
 90
        5
 70
   128
 43
0.0
 10
3.740989930371988
 20
6.164420114919412
 10
3.75542329221983
 20
6.191912232724828
 10
3.75542329221983
 20
6.219404350530243
 10
3.75542329221983
 20
6.24689646833566
 10
3.740989930371988
 20
6.274388586141076
  0
LWPOLYLINE
  5
A2
100
AcDbEntity
  8
USP-GEO
100
AcDbPolyline
 90
       16
 70
   129
 43
0.0
 10
3.72724387146928
 20
6.24689646833566
 10
3.740989930371988
 20
6.274388586141076
 10
3.75542329221983
 20
6.288134645043784
 10
3.769169351122538
 20
6.301880703946492
 10
3.782915410025246
 20
6.288134645043784
 10
3.796661468927954
 20
6.274388586141076
 10
3.796661468927954
 20
6.24689646833566
 10
3.810407527830662
 20
6.219404350530243
 10
3.796661468927954
 20
6.191912232724828
 10
3.796661468927954
 20
6.164420114919412
 10
3.782915410025246
 20
6.150674056016704
 10
3.769169351122538
 20
6.136927997113995
 10
3.75542329221983
 20
6.150674056016704
 10
3.740989930371988
 20
6.164420114919412
 10
3.72724387146928
 20
6.191912232724828
 10
3.72724387146928
 20
6.219404350530243
  0
LWPOLYLINE
  5
A3
100
AcDbEntity
  8
USP-GEO
100
AcDbPolyline
 90
        5
 70
   128
 43
0.0
 10
3.686005694761155
 20
6.618040058708777
 10
3.686005694761155
 20
6.673024294319609
 10
3.686005694761155
 20
6.755500647735857
 10
3.686005694761155
 20
6.866156421902656
 10
3.631021459150323
 20
6.866156421902656
  0
LWPOLYLINE
  5
A4
100
AcDbEntity
  8
USP-GEO
100
AcDbPolyline
 90
        2
 70
   129
 43
0.0
 10
3.631021459150323
 20
7.25104607117848
 10
3.686005694761155
 20
7.25104607117848
  0
LWPOLYLINE
  5
A5
100
AcDbEntity
  8
USP-GEO
100
AcDbPolyline
 90
       12
 70
   129
 43
0.0
 10
4.002852352468575
 20
6.97612489312432
 10
4.016598411371283
 20
7.017363069832445
 10
4.044090529176699
 20
7.058601246540568
 10
4.09907476478753
 20
7.058601246540568
 10
4.140312941495656
 20
7.058601246540568
 10
4.167805059301072
 20
7.017363069832445
 10
4.181551118203779
 20
6.97612489312432
 10
4.167805059301072
 20
6.934886716416197
 10
4.140312941495656
 20
6.893648539708072
 10
4.09907476478753
 20
6.879902480805364
 10
4.044090529176699
 20
6.893648539708072
 10
4.016598411371283
 20
6.934886716416197
  0
LWPOLYLINE
  5
A6
100
AcDbEntity
  8
USP-GEO
100
AcDbPolyline
 90
       12
 70
   129
 43
0.0
 10
5.240684956657432
 20
7.017363069832445
 10
5.268177074462847
 20
7.058601246540568
 10
5.309415251170973
 20
7.058601246540568
 10
5.364399486781804
 20
7.058601246540568
 10
5.39189160458722
 20
7.017363069832445
 10
5.405637663489928
 20
6.97612489312432
 10
5.39189160458722
 20
6.934886716416197
 10
5.364399486781804
 20
6.893648539708072
 10
5.309415251170973
 20
6.879902480805364
 10
5.268177074462847
 20
6.893648539708072
 10
5.240684956657432
 20
6.934886716416197
 10
5.226938897754724
 20
6.97612489312432
  0
LWPOLYLINE
  5
A7
100
AcDbEntity
  8
USP-GEO
100
AcDbPolyline
 90
        2
 70
   128
 43
0.0
 10
5.281923133365555
 20
6.508071587487112
 10
5.460621899100761
 20
6.618040058708777
  0
ENDBLK
  5
A9
100
AcDbEntity
  8
0
100
AcDbBlockEnd
  0
BLOCK
  5
D4
100
AcDbEntity
  8
0
100
AcDbBlockBegin
  2
HUS28_S
 70
     0
 10
0.0
 20
0.0
 30
0.0
  3
HUS28_S
  1

  0
LWPOLYLINE
  5
AC
100
AcDbEntity
  8
USP-GEO
100
AcDbPolyline
 90
       62
 70
   128
 43
0.0
 10
3.383592398901578
 20
0.1512066479297882
 10
3.383592398901578
 20
0.0
 10
3.383592398901578
 20
0.1512066479297882
 10
3.36984633999887
 20
0.1786987657352039
 10
3.36984633999887
 20
0.2061908835406214
 10
3.356100281096162
 20
0.234370304291172
 10
2.063283441296473
 20
1.734065330576617
 10
1.802108322145021
 20
2.132701038755149
 10
1.650901674215233
 20
2.57326222658694
 10
1.5959174386044
 20
3.040628229279015
 10
1.5959174386044
 20
4.017973017261555
 10
1.554679261896276
 20
4.182925724094051
 10
1.444710790674612
 20
4.334132372023839
 10
1.292816839799688
 20
4.416608725440086
 10
1.21034048638344
 20
4.471592961050919
 10
1.155356250772609
 20
4.554069314467167
 10
1.127864132967192
 20
4.650979029731258
 10
1.127864132967192
 20
5.765097103795744
 10
1.155356250772609
 20
5.8613195161147
 10
1.21034048638344
 20
5.943795869530948
 10
1.292816839799688
 20
5.99878010514178
 10
1.472202908480028
 20
6.10943587930858
 10
1.582171379701692
 20
6.301880703946492
 10
1.582171379701692
 20
6.508071587487112
 10
1.472202908480028
 20
6.700516412125025
 10
1.292816839799688
 20
6.811172186291824
 10
1.21034048638344
 20
6.866156421902656
 10
1.155356250772609
 20
6.948632775318904
 10
1.127864132967192
 20
7.04485518763786
 10
1.127864132967192
 20
7.25104607117848
 10
0.0687302945135393
 20
7.25104607117848
 10
0.0
 20
7.25104607117848
 10
0.0
 20
7.04485518763786
 10
0.0
 20
6.948632775318904
 10
0.0
 20
6.866156421902656
 10
0.0
 20
6.811172186291824
 10
0.0
 20
6.700516412125025
 10
0.0
 20
6.508071587487112
 10
0.0
 20
6.301880703946492
 10
0.0
 20
6.10943587930858
 10
0.0
 20
5.99878010514178
 10
0.0
 20
5.943795869530948
 10
0.0
 20
5.8613195161147
 10
0.0
 20
5.765097103795744
 10
0.0
 20
4.650979029731258
 10
0.0
 20
4.554069314467167
 10
0.0
 20
4.471592961050919
 10
0.0
 20
4.416608725440086
 10
0.0
 20
4.334132372023839
 10
0.0
 20
4.182925724094051
 10
0.0
 20
4.017973017261555
 10
0.0
 20
3.040628229279015
 10
0.0
 20
2.57326222658694
 10
0.0
 20
2.132701038755149
 10
0.0
 20
1.734065330576617
 10
0.0
 20
0.5642757179561642
 10
0.0687302945135393
 20
0.5642757179561642
 10
0.3443387755128358
 20
0.234370304291172
 10
0.3718308933182515
 20
0.2061908835406214
 10
0.3718308933182515
 20
0.1786987657352039
 10
0.3855769522209593
 20
0.1512066479297882
 10
0.3855769522209593
 20
0.0
  0
LWPOLYLINE
  5
AD
100
AcDbEntity
  8
USP-GEO
100
AcDbPolyline
 90
        7
 70
   128
 43
0.0
 10
1.582171379701692
 20
6.301880703946492
 10
1.582171379701692
 20
6.10943587930858
 10
1.472202908480028
 20
5.93004981062824
 10
1.292816839799688
 20
5.806335280503867
 10
1.21034048638344
 20
5.751351044893036
 10
1.155356250772609
 20
5.668874691476788
 10
1.127864132967192
 20
5.572652279157831
  0
LWPOLYLINE
  5
AE
100
AcDbEntity
  8
USP-GEO
100
AcDbPolyline
 90
       16
 70
   128
 43
0.0
 10
0.0687302945135393
 20
7.04485518763786
 10
0.0687302945135393
 20
7.25104607117848
 10
0.0
 20
7.25104607117848
 10
0.0
 20
7.04485518763786
 10
0.0
 20
6.948632775318904
 10
0.0
 20
6.866156421902656
 10
0.0
 20
6.811172186291824
 10
0.0
 20
6.700516412125025
 10
0.0
 20
6.508071587487112
 10
0.0
 20
6.301880703946492
 10
0.0
 20
6.10943587930858
 10
0.0
 20
5.99878010514178
 10
0.0687302945135393
 20
5.99878010514178
 10
0.0687302945135393
 20
5.943795869530948
 10
0.0687302945135393
 20
5.8613195161147
 10
0.0687302945135393
 20
5.765097103795744
  0
LWPOLYLINE
  5
AF
100
AcDbEntity
  8
USP-GEO
100
AcDbPolyline
 90
        7
 70
   128
 43
0.0
 10
0.0
 20
6.811172186291824
 10
0.0687302945135393
 20
6.811172186291824
 10
0.0687302945135393
 20
6.700516412125025
 10
0.0687302945135393
 20
6.508071587487112
 10
0.0687302945135393
 20
6.301880703946492
 10
0.0687302945135393
 20
6.10943587930858
 10
0.0687302945135393
 20
5.99878010514178
  0
LWPOLYLINE
  5
B0
100
AcDbEntity
  8
USP-GEO
100
AcDbPolyline
 90
       28
 70
   128
 43
0.0
 10
0.3443387755128358
 20
0.234370304291172
 10
0.0687302945135393
 20
0.5642757179561642
 10
0.0687302945135393
 20
1.734065330576617
 10
0.0687302945135393
 20
2.132701038755149
 10
0.0687302945135393
 20
2.57326222658694
 10
0.0687302945135393
 20
3.040628229279015
 10
0.0687302945135393
 20
4.017973017261555
 10
0.0687302945135393
 20
4.182925724094051
 10
0.0687302945135393
 20
4.334132372023839
 10
0.0687302945135393
 20
4.416608725440086
 10
0.0687302945135393
 20
4.471592961050919
 10
0.0687302945135393
 20
4.554069314467167
 10
0.0687302945135393
 20
4.650979029731258
 10
0.0687302945135393
 20
5.765097103795744
 10
0.0687302945135393
 20
5.8613195161147
 10
0.0687302945135393
 20
5.943795869530948
 10
0.0687302945135393
 20
5.99878010514178
 10
0.0687302945135393
 20
6.10943587930858
 10
0.0687302945135393
 20
6.301880703946492
 10
0.0687302945135393
 20
6.508071587487112
 10
0.0687302945135393
 20
6.700516412125025
 10
0.0687302945135393
 20
6.811172186291824
 10
0.0687302945135393
 20
6.866156421902656
 10
0.0687302945135393
 20
6.948632775318904
 10
0.0687302945135393
 20
7.04485518763786
 10
0.0687302945135393
 20
7.25104607117848
 10
1.127864132967192
 20
7.25104607117848
 10
1.127864132967192
 20
7.04485518763786
  0
LWPOLYLINE
  5
B1
100
AcDbEntity
  8
USP-GEO
100
AcDbPolyline
 90
        2
 70
   129
 43
0.0
 10
3.383592398901578
 20
0.0
 10
0.3855769522209593
 20
0.0
  0
LWPOLYLINE
  5
B2
100
AcDbEntity
  8
USP-GEO
100
AcDbPolyline
 90
        2
 70
   128
 43
0.0
 10
3.36984633999887
 20
0.0687302945135411
 10
0.3718308933182515
 20
0.0687302945135411
  0
TEXT
  5
B3
100
AcDbEntity
  8
USP-TXT
100
AcDbText
 10
-0.4931129647444195
 20
-0.8263821529326822
 30
0.0
 40
0.203125
  1
HUS28 - LEFT SIDE VIEW
 72
     1
 11
1.707407868588914
 21
-0.8263821529326822
 31
0.0
100
AcDbText
  0
LWPOLYLINE
  5
B4
100
AcDbEntity
  8
USP-GEO
100
AcDbPolyline
 90
        7
 70
   128
 43
0.0
 10
0.0687302945135393
 20
3.040628229279015
 10
0.0687302945135393
 20
4.017973017261555
 10
0.0
 20
4.017973017261555
 10
0.0
 20
3.040628229279015
 10
0.0
 20
2.57326222658694
 10
0.0
 20
2.132701038755149
 10
0.0
 20
1.734065330576617
  0
LWPOLYLINE
  5
B5
100
AcDbEntity
  8
USP-GEO
100
AcDbPolyline
 90
        5
 70
   128
 43
0.0
 10
0.0687302945135393
 20
1.734065330576617
 10
0.0687302945135393
 20
2.132701038755149
 10
0.0687302945135393
 20
2.57326222658694
 10
0.0687302945135393
 20
3.040628229279015
 10
0.0
 20
3.040628229279015
  0
LWPOLYLINE
  5
B6
100
AcDbEntity
  8
USP-GEO
100
AcDbPolyline
 90
        4
 70
   129
 43
0.0
 10
0.0687302945135393
 20
0.5642757179561642
 10
0.0687302945135393
 20
1.734065330576617
 10
0.0
 20
1.734065330576617
 10
0.0
 20
0.5642757179561642
  0
LWPOLYLINE
  5
B7
100
AcDbEntity
  8
USP-GEO
100
AcDbPolyline
 90
        3
 70
   128
 43
0.0
 10
0.3718308933182515
 20
0.1786987657352039
 10
0.3855769522209593
 20
0.1512066479297882
 10
0.3855769522209593
 20
0.0
  0
LWPOLYLINE
  5
B8
100
AcDbEntity
  8
USP-GEO
100
AcDbPolyline
 90
       12
 70
   129
 43
0.0
 10
1.27907078089698
 20
1.073567200301496
 10
1.306562898702397
 20
1.059821141398789
 10
1.320308957605105
 20
1.032329023593373
 10
1.334055016507813
 20
1.004836905787955
 10
1.320308957605105
 20
0.9635987290798322
 10
1.306562898702397
 20
0.9491653672319895
 10
1.27907078089698
 20
0.9216732494265738
 10
1.251578663091565
 20
0.9491653672319895
 10
1.237832604188857
 20
0.97734478798254
 10
1.224086545286148
 20
1.004836905787955
 10
1.237832604188857
 20
1.032329023593373
 10
1.251578663091565
 20
1.059821141398789
  0
LWPOLYLINE
  5
B9
100
AcDbEntity
  8
USP-GEO
100
AcDbPolyline
 90
       12
 70
   129
 43
0.0
 10
1.27907078089698
 20
0.7842126603994935
 10
1.375293193215936
 20
0.8804350727184484
 10
1.417218672869196
 20
1.004836905787955
 10
1.375293193215936
 20
1.128551435912328
 10
1.27907078089698
 20
1.211027789328577
 10
1.155356250772609
 20
1.2522659660367
 10
1.031641720648236
 20
1.211027789328577
 10
0.9491653672319886
 20
1.128551435912328
 10
0.9079271905238641
 20
1.004836905787955
 10
0.9491653672319886
 20
0.8804350727184484
 10
1.031641720648236
 20
0.7842126603994935
 10
1.155356250772609
 20
0.756720542594076
  0
LWPOLYLINE
  5
BA
100
AcDbEntity
  8
USP-GEO
100
AcDbPolyline
 90
       13
 70
   128
 43
0.0
 10
1.279758083842116
 20
0.9216732494265738
 10
1.27907078089698
 20
0.9216732494265738
 10
1.306562898702397
 20
0.9216732494265738
 10
1.320308957605105
 20
0.9216732494265738
 10
1.34780107541052
 20
0.9491653672319895
 10
1.361547134313228
 20
0.97734478798254
 10
1.375293193215936
 20
1.004836905787955
 10
1.361547134313228
 20
1.032329023593373
 10
1.34780107541052
 20
1.059821141398789
 10
1.320308957605105
 20
1.073567200301496
 10
1.306562898702397
 20
1.073567200301496
 10
1.27907078089698
 20
1.073567200301496
 10
1.279758083842116
 20
1.073567200301496
  0
LWPOLYLINE
  5
BB
100
AcDbEntity
  8
USP-GEO
100
AcDbPolyline
 90
        3
 70
   128
 43
0.0
 10
1.320308957605105
 20
0.9491653672319895
 10
1.265324721994272
 20
1.004836905787955
 10
1.224086545286148
 20
1.018582964690665
  0
LWPOLYLINE
  5
BC
100
AcDbEntity
  8
USP-GEO
100
AcDbPolyline
 90
        2
 70
   128
 43
0.0
 10
1.5959174386044
 20
3.040628229279015
 10
1.5959174386044
 20
4.017973017261555
  0
LWPOLYLINE
  5
BD
100
AcDbEntity
  8
USP-GEO
100
AcDbPolyline
 90
       12
 70
   129
 43
0.0
 10
0.9079271905238641
 20
4.004226958358847
 10
0.9491653672319886
 20
3.880512428234474
 10
1.031641720648236
 20
3.783602712970383
 10
1.155356250772609
 20
3.756110595164967
 10
1.27907078089698
 20
3.783602712970383
 10
1.375293193215936
 20
3.880512428234474
 10
1.417218672869196
 20
4.004226958358847
 10
1.375293193215936
 20
4.127941488483218
 10
1.27907078089698
 20
4.224163900802174
 10
1.155356250772609
 20
4.25165601860759
 10
1.031641720648236
 20
4.224163900802174
 10
0.9491653672319886
 20
4.127941488483218
  0
LWPOLYLINE
  5
BE
100
AcDbEntity
  8
USP-GEO
100
AcDbPolyline
 90
       16
 70
   129
 43
0.0
 10
1.251578663091565
 20
2.559516167684233
 10
1.27907078089698
 20
2.57326222658694
 10
1.306562898702397
 20
2.57326222658694
 10
1.320308957605105
 20
2.57326222658694
 10
1.34780107541052
 20
2.559516167684233
 10
1.361547134313228
 20
2.532024049878817
 10
1.375293193215936
 20
2.504531932073401
 10
1.361547134313228
 20
2.477039814267985
 10
1.34780107541052
 20
2.44954769646257
 10
1.320308957605105
 20
2.435801637559862
 10
1.306562898702397
 20
2.422055578657152
 10
1.27907078089698
 20
2.435801637559862
 10
1.251578663091565
 20
2.44954769646257
 10
1.237832604188857
 20
2.477039814267985
 10
1.224086545286148
 20
2.504531932073401
 10
1.237832604188857
 20
2.532024049878817
  0
LWPOLYLINE
  5
BF
100
AcDbEntity
  8
USP-GEO
100
AcDbPolyline
 90
       12
 70
   129
 43
0.0
 10
1.27907078089698
 20
2.283907686684937
 10
1.155356250772609
 20
2.256415568879521
 10
1.031641720648236
 20
2.283907686684937
 10
0.9491653672319886
 20
2.380130099003894
 10
0.9079271905238641
 20
2.504531932073401
 10
0.9491653672319886
 20
2.628246462197774
 10
1.031641720648236
 20
2.724468874516729
 10
1.155356250772609
 20
2.751960992322146
 10
1.27907078089698
 20
2.724468874516729
 10
1.375293193215936
 20
2.628246462197774
 10
1.417218672869196
 20
2.504531932073401
 10
1.375293193215936
 20
2.380130099003894
  0
LWPOLYLINE
  5
C0
100
AcDbEntity
  8
USP-GEO
100
AcDbPolyline
 90
        2
 70
   128
 43
0.0
 10
1.27907078089698
 20
2.57326222658694
 10
1.279758083842116
 20
2.57326222658694
  0
LWPOLYLINE
  5
C1
100
AcDbEntity
  8
USP-GEO
100
AcDbPolyline
 90
        8
 70
   128
 43
0.0
 10
1.27907078089698
 20
2.57326222658694
 10
1.306562898702397
 20
2.559516167684233
 10
1.320308957605105
 20
2.532024049878817
 10
1.334055016507813
 20
2.504531932073401
 10
1.320308957605105
 20
2.477039814267985
 10
1.306562898702397
 20
2.44954769646257
 10
1.27907078089698
 20
2.435801637559862
 10
1.27907078089698
 20
2.422055578657152
  0
LWPOLYLINE
  5
C2
100
AcDbEntity
  8
USP-GEO
100
AcDbPolyline
 90
        3
 70
   128
 43
0.0
 10
1.320308957605105
 20
2.463293755365278
 10
1.265324721994272
 20
2.504531932073401
 10
1.224086545286148
 20
2.518277990976109
  0
LWPOLYLINE
  5
C3
100
AcDbEntity
  8
USP-GEO
100
AcDbPolyline
 90
       12
 70
   129
 43
0.0
 10
0.2336830013460363
 20
4.994630502298959
 10
0.1786987657352039
 20
5.049614737909791
 10
0.1649527068324961
 20
5.13209109132604
 10
0.1786987657352039
 20
5.20082138583958
 10
0.2336830013460363
 20
5.26955168035312
 10
0.3168466577074191
 20
5.283297739255828
 10
0.3993230111236672
 20
5.26955168035312
 10
0.4543072467344996
 20
5.20082138583958
 10
0.4680533056372074
 20
5.13209109132604
 10
0.4543072467344996
 20
5.049614737909791
 10
0.3993230111236672
 20
4.994630502298959
 10
0.3168466577074191
 20
4.967138384493543
  0
LWPOLYLINE
  5
C4
100
AcDbEntity
  8
USP-GEO
100
AcDbPolyline
 90
        6
 70
   128
 43
0.0
 10
0.0
 20
5.765097103795744
 10
0.0
 20
4.650979029731258
 10
0.0687302945135393
 20
4.650979029731258
 10
0.0687302945135393
 20
4.554069314467167
 10
0.0687302945135393
 20
4.471592961050919
 10
0.0687302945135393
 20
4.416608725440086
  0
LWPOLYLINE
  5
C5
100
AcDbEntity
  8
USP-GEO
100
AcDbPolyline
 90
        6
 70
   128
 43
0.0
 10
0.0687302945135393
 20
4.650979029731258
 10
0.0687302945135393
 20
5.765097103795744
 10
0.0
 20
5.765097103795744
 10
0.0
 20
5.8613195161147
 10
0.0
 20
5.943795869530948
 10
0.0
 20
5.99878010514178
  0
LWPOLYLINE
  5
C6
100
AcDbEntity
  8
USP-GEO
100
AcDbPolyline
 90
        8
 70
   128
 43
0.0
 10
0.0
 20
4.650979029731258
 10
0.0
 20
4.554069314467167
 10
0.0
 20
4.471592961050919
 10
0.0
 20
4.416608725440086
 10
0.0687302945135393
 20
4.416608725440086
 10
0.0687302945135393
 20
4.334132372023839
 10
0.0687302945135393
 20
4.182925724094051
 10
0.0687302945135393
 20
4.017973017261555
  0
LWPOLYLINE
  5
C7
100
AcDbEntity
  8
USP-GEO
100
AcDbPolyline
 90
        4
 70
   128
 43
0.0
 10
0.0
 20
4.416608725440086
 10
0.0
 20
4.334132372023839
 10
0.0
 20
4.182925724094051
 10
0.0
 20
4.017973017261555
  0
LWPOLYLINE
  5
C8
100
AcDbEntity
  8
USP-GEO
100
AcDbPolyline
 90
        2
 70
   128
 43
0.0
 10
1.127864132967192
 20
4.650979029731258
 10
1.127864132967192
 20
5.765097103795744
  0
LWPOLYLINE
  5
C9
100
AcDbEntity
  8
USP-GEO
100
AcDbPolyline
 90
       12
 70
   129
 43
0.0
 10
1.27907078089698
 20
4.072957252872386
 10
1.306562898702397
 20
4.059211193969678
 10
1.320308957605105
 20
4.031719076164263
 10
1.334055016507813
 20
4.004226958358847
 10
1.320308957605105
 20
3.976734840553429
 10
1.306562898702397
 20
3.949242722748014
 10
1.27907078089698
 20
3.935496663845306
 10
1.251578663091565
 20
3.949242722748014
 10
1.237832604188857
 20
3.976734840553429
 10
1.224086545286148
 20
4.004226958358847
 10
1.237832604188857
 20
4.031719076164263
 10
1.251578663091565
 20
4.059211193969678
  0
LWPOLYLINE
  5
CA
100
AcDbEntity
  8
USP-GEO
100
AcDbPolyline
 90
       13
 70
   128
 43
0.0
 10
1.279758083842116
 20
3.935496663845306
 10
1.27907078089698
 20
3.935496663845306
 10
1.306562898702397
 20
3.921750604942598
 10
1.320308957605105
 20
3.935496663845306
 10
1.34780107541052
 20
3.949242722748014
 10
1.361547134313228
 20
3.976734840553429
 10
1.375293193215936
 20
4.004226958358847
 10
1.361547134313228
 20
4.031719076164263
 10
1.34780107541052
 20
4.059211193969678
 10
1.320308957605105
 20
4.072957252872386
 10
1.306562898702397
 20
4.086703311775094
 10
1.27907078089698
 20
4.072957252872386
 10
1.279758083842116
 20
4.072957252872386
  0
LWPOLYLINE
  5
CB
100
AcDbEntity
  8
USP-GEO
100
AcDbPolyline
 90
        3
 70
   128
 43
0.0
 10
1.320308957605105
 20
3.962988781650722
 10
1.265324721994272
 20
4.004226958358847
 10
1.224086545286148
 20
4.017973017261555
  0
LWPOLYLINE
  5
CC
100
AcDbEntity
  8
USP-GEO
100
AcDbPolyline
 90
        2
 70
   128
 43
0.0
 10
1.444710790674612
 20
4.334132372023839
 10
1.292816839799688
 20
4.416608725440086
  0
LWPOLYLINE
  5
CD
100
AcDbEntity
  8
USP-GEO
100
AcDbPolyline
 90
        3
 70
   128
 43
0.0
 10
3.36984633999887
 20
0.2061908835406214
 10
3.356100281096162
 20
0.234370304291172
 10
2.063283441296473
 20
1.734065330576617
  0
LWPOLYLINE
  5
CE
100
AcDbEntity
  8
USP-GEO
100
AcDbPolyline
 90
        5
 70
   128
 43
0.0
 10
0.0
 20
7.04485518763786
 10
0.0687302945135393
 20
7.04485518763786
 10
0.0687302945135393
 20
6.948632775318904
 10
0.0687302945135393
 20
6.866156421902656
 10
0.0687302945135393
 20
6.811172186291824
  0
LWPOLYLINE
  5
CF
100
AcDbEntity
  8
USP-GEO
100
AcDbPolyline
 90
       12
 70
   129
 43
0.0
 10
0.9079271905238641
 20
6.411849175168156
 10
0.9491653672319886
 20
6.274388586141076
 10
1.031641720648236
 20
6.191912232724828
 10
1.155356250772609
 20
6.150674056016704
 10
1.27907078089698
 20
6.191912232724828
 10
1.375293193215936
 20
6.274388586141076
 10
1.417218672869196
 20
6.411849175168156
 10
1.375293193215936
 20
6.535563705292529
 10
1.27907078089698
 20
6.618040058708777
 10
1.155356250772609
 20
6.6592782354169
 10
1.031641720648236
 20
6.618040058708777
 10
0.9491653672319886
 20
6.535563705292529
  0
LWPOLYLINE
  5
D0
100
AcDbEntity
  8
USP-GEO
100
AcDbPolyline
 90
       12
 70
   129
 43
0.0
 10
1.27907078089698
 20
6.480579469681696
 10
1.306562898702397
 20
6.466833410778988
 10
1.320308957605105
 20
6.439341292973572
 10
1.334055016507813
 20
6.411849175168156
 10
1.320308957605105
 20
6.370610998460032
 10
1.306562898702397
 20
6.343118880654616
 10
1.27907078089698
 20
6.329372821751908
 10
1.251578663091565
 20
6.343118880654616
 10
1.237832604188857
 20
6.370610998460032
 10
1.224086545286148
 20
6.411849175168156
 10
1.237832604188857
 20
6.439341292973572
 10
1.251578663091565
 20
6.466833410778988
  0
LWPOLYLINE
  5
D1
100
AcDbEntity
  8
USP-GEO
100
AcDbPolyline
 90
       13
 70
   128
 43
0.0
 10
1.279758083842116
 20
6.329372821751908
 10
1.27907078089698
 20
6.329372821751908
 10
1.306562898702397
 20
6.329372821751908
 10
1.320308957605105
 20
6.329372821751908
 10
1.34780107541052
 20
6.343118880654616
 10
1.361547134313228
 20
6.370610998460032
 10
1.375293193215936
 20
6.411849175168156
 10
1.361547134313228
 20
6.439341292973572
 10
1.34780107541052
 20
6.466833410778988
 10
1.320308957605105
 20
6.480579469681696
 10
1.306562898702397
 20
6.480579469681696
 10
1.27907078089698
 20
6.480579469681696
 10
1.279758083842116
 20
6.480579469681696
  0
LWPOLYLINE
  5
D2
100
AcDbEntity
  8
USP-GEO
100
AcDbPolyline
 90
        3
 70
   128
 43
0.0
 10
1.320308957605105
 20
6.356864939557324
 10
1.265324721994272
 20
6.411849175168156
 10
1.224086545286148
 20
6.411849175168156
  0
LWPOLYLINE
  5
D3
100
AcDbEntity
  8
USP-GEO
100
AcDbPolyline
 90
        2
 70
   128
 43
0.0
 10
1.472202908480028
 20
6.700516412125025
 10
1.292816839799688
 20
6.811172186291824
  0
ENDBLK
  5
D5
100
AcDbEntity
  8
0
100
AcDbBlockEnd
  0
ENDSEC
  0
SECTION
  2
ENTITIES
  0
INSERT
  5
3
100
AcDbEntity
  8
USP
100
AcDbBlockReference
  2
HUS28_T
 10
4.978868196212927
 20
10.40291801603525
 30
0.0
  0
INSERT
  5
3C
100
AcDbEntity
  8
USP
100
AcDbBlockReference
  2
HUS28_F
 10
4.978868196212927
 20
0.8267260814637129
 30
0.0
  0
INSERT
  5
AA
100
AcDbEntity
  8
USP
100
AcDbBlockReference
  2
HUS28_S
 10
0.4949037821495708
 20
0.8267260814637129
 30
0.0
  0
ENDSEC
  0
SECTION
  2
OBJECTS
  0
DICTIONARY
  5
EE
102
{ACAD_XDICTIONARY
360
EF
102
}
100
AcDbDictionary
  3
ACAD_GROUP
350
EC
  3
ACAD_MLINESTYLE
350
ED
  0
DICTIONARY
  5
9
100
AcDbDictionary
280
     1
  3
ACAD_XREC_ROUNDTRIP
360
A
  0
DICTIONARY
  5
16
100
AcDbDictionary
280
     1
  3
ACAD_XREC_ROUNDTRIP
360
17
  0
DICTIONARY
  5
D6
100
AcDbDictionary
280
     1
  3
ACAD_LAYOUTSELFREF
360
D7
  0
DICTIONARY
  5
DB
100
AcDbDictionary
280
     1
  3
ACAD_LAYOUTSELFREF
360
DC
  0
DICTIONARY
  5
EF
100
AcDbDictionary
280
     1
  3
ACAD_XREC_ROUNDTRIP
360
F0
  0
DICTIONARY
  5
EC
102
{ACAD_REACTORS
330
EE
102
}
100
AcDbDictionary
  0
DICTIONARY
  5
ED
102
{ACAD_REACTORS
330
EE
102
}
100
AcDbDictionary
  3
STANDARD
350
F1
  0
XRECORD
  5
A
102
{ACAD_REACTORS
330
9
102
}
100
AcDbXrecord
102
EXTNAMES
  1
USP-GEO
  2
USP-Geo
  0
XRECORD
  5
17
102
{ACAD_REACTORS
330
16
102
}
100
AcDbXrecord
102
EXTNAMES
  1
USP-TXT
  2
USP-Txt
  0
XRECORD
  5
D7
102
{ACAD_REACTORS
330
D6
102
}
100
AcDbXrecord
340
18
  0
XRECORD
  5
DC
102
{ACAD_REACTORS
330
DB
102
}
100
AcDbXrecord
340
15
  0
XRECORD
  5
F0
102
{ACAD_REACTORS
330
EF
102
}
100
AcDbXrecord
102
EXTNAMES
  1
ACDBVARIABLEDICTIONARY
  2
AcDbVariableDictionary
  0
MLINESTYLE
  5
F1
102
{ACAD_REACTORS
330
ED
102
}
100
AcDbMlineStyle
  2
STANDARD
 70
     0
  3

 62
     0
 51
90.0
 52
90.0
 71
     2
 49
0.5
 62
   256
  6
BYLAYER
 49
-0.5
 62
   256
  6
BYLAYER
  0
ENDSEC
  0
EOF
