  0
SECTION
  2
HEADER
  9
$ACADVER
  1
AC1014
  9
$ACADMAINTVER
 70
     9
  9
$DWGCODEPAGE
  3
ANSI_1252
  9
$INSBASE
 10
0.0
 20
0.0
 30
0.0
  9
$EXTMIN
 10
0.0108556394155812
 20
0.0029512345390472
 30
0.0
  9
$EXTMAX
 10
11.1859571702637
 20
16.3002063210387
 30
0.0
  9
$LIMMIN
 10
0.0
 20
0.0
  9
$LIMMAX
 10
12.0
 20
9.0
  9
$ORTHOMODE
 70
     1
  9
$REGENMODE
 70
     1
  9
$FILLMODE
 70
     1
  9
$QTEXTMODE
 70
     0
  9
$MIRRTEXT
 70
     0
  9
$DRAGMODE
 70
     2
  9
$LTSCALE
 40
1.5
  9
$OSMODE
 70
     0
  9
$ATTMODE
 70
     1
  9
$TEXTSIZE
 40
0.75
  9
$TRACEWID
 40
0.05
  9
$TEXTSTYLE
  7
STANDARD
  9
$CLAYER
  8
USP
  9
$CELTYPE
  6
BYLAYER
  9
$CECOLOR
 62
   256
  9
$CELTSCALE
 40
1.0
  9
$DELOBJ
 70
     1
  9
$DISPSILH
 70
     1
  9
$DIMSCALE
 40
5.0
  9
$DIMASZ
 40
0.125
  9
$DIMEXO
 40
0.0625
  9
$DIMDLI
 40
0.37890625
  9
$DIMRND
 40
0.0
  9
$DIMDLE
 40
0.0
  9
$DIMEXE
 40
0.09375
  9
$DIMTP
 40
0.0
  9
$DIMTM
 40
0.0
  9
$DIMTXT
 40
0.109375
  9
$DIMCEN
 40
0.0
  9
$DIMTSZ
 40
0.0
  9
$DIMTOL
 70
     0
  9
$DIMLIM
 70
     0
  9
$DIMTIH
 70
     1
  9
$DIMTOH
 70
     1
  9
$DIMSE1
 70
     0
  9
$DIMSE2
 70
     0
  9
$DIMTAD
 70
     0
  9
$DIMZIN
 70
     8
  9
$DIMBLK
  1

  9
$DIMASO
 70
     1
  9
$DIMSHO
 70
     1
  9
$DIMPOST
  1

  9
$DIMAPOST
  1

  9
$DIMALT
 70
     0
  9
$DIMALTD
 70
     2
  9
$DIMALTF
 40
25.4
  9
$DIMLFAC
 40
1.0
  9
$DIMTOFL
 70
     0
  9
$DIMTVP
 40
0.0
  9
$DIMTIX
 70
     0
  9
$DIMSOXD
 70
     0
  9
$DIMSAH
 70
     0
  9
$DIMBLK1
  1

  9
$DIMBLK2
  1

  9
$DIMSTYLE
  2
STANDARD
  9
$DIMCLRD
 70
     0
  9
$DIMCLRE
 70
     0
  9
$DIMCLRT
 70
   256
  9
$DIMTFAC
 40
1.0
  9
$DIMGAP
 40
0.08984375
  9
$DIMJUST
 70
     0
  9
$DIMSD1
 70
     0
  9
$DIMSD2
 70
     0
  9
$DIMTOLJ
 70
     1
  9
$DIMTZIN
 70
     0
  9
$DIMALTZ
 70
     0
  9
$DIMALTTZ
 70
     0
  9
$DIMFIT
 70
     3
  9
$DIMUPT
 70
     1
  9
$DIMUNIT
 70
     7
  9
$DIMDEC
 70
     4
  9
$DIMTDEC
 70
     4
  9
$DIMALTU
 70
     2
  9
$DIMALTTD
 70
     2
  9
$DIMTXSTY
  7
STANDARD
  9
$DIMAUNIT
 70
     0
  9
$LUNITS
 70
     5
  9
$LUPREC
 70
     6
  9
$SKETCHINC
 40
0.1
  9
$FILLETRAD
 40
0.0
  9
$AUNITS
 70
     0
  9
$AUPREC
 70
     1
  9
$MENU
  1
CUSTOM
  9
$ELEVATION
 40
0.0
  9
$PELEVATION
 40
0.0
  9
$THICKNESS
 40
0.0
  9
$LIMCHECK
 70
     0
  9
$BLIPMODE
 70
     0
  9
$CHAMFERA
 40
0.0
  9
$CHAMFERB
 40
0.0
  9
$CHAMFERC
 40
0.0
  9
$CHAMFERD
 40
0.0
  9
$SKPOLY
 70
     0
  9
$TDCREATE
 40
2451263.663231366
  9
$TDUPDATE
 40
2452768.662349710
  9
$TDINDWG
 40
0.5706819097
  9
$TDUSRTIMER
 40
0.5706819097
  9
$USRTIMER
 70
     1
  9
$ANGBASE
 50
0.0
  9
$ANGDIR
 70
     0
  9
$PDMODE
 70
     0
  9
$PDSIZE
 40
0.0
  9
$PLINEWID
 40
0.0
  9
$COORDS
 70
     2
  9
$SPLFRAME
 70
     0
  9
$SPLINETYPE
 70
     6
  9
$SPLINESEGS
 70
     8
  9
$ATTDIA
 70
     0
  9
$ATTREQ
 70
     0
  9
$HANDLING
 70
     1
  9
$HANDSEED
  5
132
  9
$SURFTAB1
 70
     6
  9
$SURFTAB2
 70
     6
  9
$SURFTYPE
 70
     6
  9
$SURFU
 70
     6
  9
$SURFV
 70
     6
  9
$UCSNAME
  2

  9
$UCSORG
 10
0.0
 20
0.0
 30
0.0
  9
$UCSXDIR
 10
1.0
 20
0.0
 30
0.0
  9
$UCSYDIR
 10
0.0
 20
1.0
 30
0.0
  9
$PUCSNAME
  2

  9
$PUCSORG
 10
0.0
 20
0.0
 30
0.0
  9
$PUCSXDIR
 10
1.0
 20
0.0
 30
0.0
  9
$PUCSYDIR
 10
0.0
 20
1.0
 30
0.0
  9
$USERI1
 70
     0
  9
$USERI2
 70
     0
  9
$USERI3
 70
     0
  9
$USERI4
 70
     0
  9
$USERI5
 70
     0
  9
$USERR1
 40
0.0
  9
$USERR2
 40
0.0
  9
$USERR3
 40
0.0
  9
$USERR4
 40
0.0
  9
$USERR5
 40
0.0
  9
$WORLDVIEW
 70
     1
  9
$SHADEDGE
 70
     3
  9
$SHADEDIF
 70
    70
  9
$TILEMODE
 70
     1
  9
$MAXACTVP
 70
    16
  9
$PINSBASE
 10
0.0
 20
0.0
 30
0.0
  9
$PLIMCHECK
 70
     0
  9
$PEXTMIN
 10
1.049999952316284
 20
0.7999999523162842
 30
0.0
  9
$PEXTMAX
 10
9.449999570846555
 20
7.199999570846556
 30
0.0
  9
$PLIMMIN
 10
0.0
 20
0.0
  9
$PLIMMAX
 10
12.0
 20
9.0
  9
$UNITMODE
 70
     0
  9
$VISRETAIN
 70
     0
  9
$PLINEGEN
 70
     0
  9
$PSLTSCALE
 70
     0
  9
$TREEDEPTH
 70
  3020
  9
$PICKSTYLE
 70
     0
  9
$CMLSTYLE
  2
STANDARD
  9
$CMLJUST
 70
     0
  9
$CMLSCALE
 40
1.0
  9
$PROXYGRAPHICS
 70
     1
  9
$MEASUREMENT
 70
     0
  0
ENDSEC
  0
SECTION
  2
CLASSES
  0
CLASS
  1
ACDBDICTIONARYWDFLT
  2
AcDbDictionaryWithDefault
  3
AutoCAD 2000
 90
        0
280
     0
281
     0
  0
CLASS
  1
ACDBPLACEHOLDER
  2
AcDbPlaceHolder
  3
AutoCAD 2000
 90
        0
280
     0
281
     0
  0
CLASS
  1
LAYOUT
  2
AcDbLayout
  3
AutoCAD 2000
 90
        0
280
     0
281
     0
  0
CLASS
  1
DICTIONARYVAR
  2
AcDbDictionaryVar
  3
"AutoCAD"
 90
        0
280
     0
281
     0
  0
CLASS
  1
LONG_TRANSACTION
  2
AcDbLongTransaction
  3
AutoCAD 2000
 90
        0
280
     0
281
     0
  0
CLASS
  1
LWPOLYLINE
  2
AcDbPolyline
  3
"AutoCAD"
 90
        0
280
     0
281
     1
  0
CLASS
  1
HATCH
  2
AcDbHatch
  3
"ACAD_SEDONA"
 90
        0
280
     0
281
     1
  0
CLASS
  1
XRECORD
  2
AcDbXrecord
  3
"<Built In>"
 90
        0
280
     0
281
     0
  0
CLASS
  1
LONG_TRANSACTION
  2
AcDbLongTransaction
  3
AutoCAD 2000
 90
        0
280
     0
281
     0
  0
CLASS
  1
LWPOLYLINE
  2
AcDbPolyline
  3
"AutoCAD"
 90
        0
280
     0
281
     1
  0
CLASS
  1
HATCH
  2
AcDbHatch
  3
"ACAD_SEDONA"
 90
        0
280
     0
281
     1
  0
CLASS
  1
XRECORD
  2
AcDbXrecord
  3
"<Built In>"
 90
        0
280
     0
281
     0
  0
ENDSEC
  0
SECTION
  2
TABLES
  0
TABLE
  2
VPORT
  5
122
100
AcDbSymbolTable
 70
     1
  0
VPORT
  5
123
100
AcDbSymbolTableRecord
100
AcDbViewportTableRecord
  2
*ACTIVE
 70
     0
 10
0.0
 20
0.0
 11
1.0
 21
1.0
 12
-17.49748942997931
 22
19.04235911717178
 13
0.0
 23
0.0
 14
1.0
 24
1.0
 15
0.0
 25
0.0
 16
0.0
 26
0.0
 36
1.0
 17
23.09603071721725
 27
-10.27010416511325
 37
-10.44050274849355
 40
17.63677704975119
 41
1.457627118644067
 42
50.0
 43
10.55307667737539
 44
10.55307667737539
 50
0.0
 51
0.0
 71
     0
 72
   100
 73
     1
 74
     1
 75
     0
 76
     0
 77
     0
 78
     0
  0
ENDTAB
  0
TABLE
  2
LTYPE
  5
11D
100
AcDbSymbolTable
 70
     1
  0
LTYPE
  5
11E
100
AcDbSymbolTableRecord
100
AcDbLinetypeTableRecord
  2
BYBLOCK
 70
     0
  3

 72
    65
 73
     0
 40
0.0
  0
LTYPE
  5
11F
100
AcDbSymbolTableRecord
100
AcDbLinetypeTableRecord
  2
BYLAYER
 70
     0
  3

 72
    65
 73
     0
 40
0.0
  0
LTYPE
  5
5
100
AcDbSymbolTableRecord
100
AcDbLinetypeTableRecord
  2
CONTINUOUS
 70
     0
  3
Solid line
 72
    65
 73
     0
 40
0.0
  0
ENDTAB
  0
TABLE
  2
LAYER
  5
11B
100
AcDbSymbolTable
 70
     4
  0
LAYER
  5
3F
100
AcDbSymbolTableRecord
100
AcDbLayerTableRecord
  2
0
 70
     0
 62
     7
  6
CONTINUOUS
  0
LAYER
  5
8
102
{ACAD_XDICTIONARY
360
9
102
}
100
AcDbSymbolTableRecord
100
AcDbLayerTableRecord
  2
USP-GEO
 70
     0
 62
     7
  6
CONTINUOUS
  0
LAYER
  5
D
102
{ACAD_XDICTIONARY
360
E
102
}
100
AcDbSymbolTableRecord
100
AcDbLayerTableRecord
  2
USP-TXT
 70
     0
 62
     7
  6
CONTINUOUS
  0
LAYER
  5
4
100
AcDbSymbolTableRecord
100
AcDbLayerTableRecord
  2
USP
 70
     0
 62
     7
  6
CONTINUOUS
  0
ENDTAB
  0
TABLE
  2
STYLE
  5
11C
100
AcDbSymbolTable
 70
     1
  0
STYLE
  5
10
100
AcDbSymbolTableRecord
100
AcDbTextStyleTableRecord
  2
STANDARD
 70
     0
 40
0.0
 41
1.0
 50
0.0
 71
     0
 42
0.75
  3
txt
  4

  0
ENDTAB
  0
TABLE
  2
VIEW
  5
120
100
AcDbSymbolTable
 70
     0
  0
ENDTAB
  0
TABLE
  2
UCS
  5
121
100
AcDbSymbolTable
 70
     0
  0
ENDTAB
  0
TABLE
  2
APPID
  5
124
100
AcDbSymbolTable
 70
     1
  0
APPID
  5
125
100
AcDbSymbolTableRecord
100
AcDbRegAppTableRecord
  2
ACAD
 70
     0
  0
ENDTAB
  0
TABLE
  2
DIMSTYLE
  5
126
100
AcDbSymbolTable
 70
     1
  0
DIMSTYLE
105
12E
100
AcDbSymbolTableRecord
100
AcDbDimStyleTableRecord
  2
STANDARD
 70
     0
  3

  4

  5

  6

  7

 40
1.0
 41
0.18
 42
0.0625
 43
0.38
 44
0.18
 45
0.0
 46
0.0
 47
0.0
 48
0.0
140
0.18
141
0.09
142
0.0
143
25.4
144
1.0
145
0.0
146
1.0
147
0.09
 71
     0
 72
     0
 73
     1
 74
     1
 75
     0
 76
     0
 77
     0
 78
     0
170
     0
171
     2
172
     0
173
     0
174
     0
175
     0
176
     0
177
     0
178
     0
270
     2
271
     4
272
     4
273
     2
274
     2
340
10
275
     0
280
     0
281
     0
282
     0
283
     1
284
     0
285
     0
286
     0
287
     3
288
     0
  0
ENDTAB
  0
TABLE
  2
BLOCK_RECORD
  5
1
100
AcDbSymbolTable
 70
     3
  0
BLOCK_RECORD
  5
2
102
{ACAD_XDICTIONARY
360
112
102
}
100
AcDbSymbolTableRecord
100
AcDbBlockTableRecord
  2
*MODEL_SPACE
  0
BLOCK_RECORD
  5
116
102
{ACAD_XDICTIONARY
360
117
102
}
100
AcDbSymbolTableRecord
100
AcDbBlockTableRecord
  2
*PAPER_SPACE
  0
BLOCK_RECORD
  5
6
100
AcDbSymbolTableRecord
100
AcDbBlockTableRecord
  2
HUS210_T
  0
BLOCK_RECORD
  5
42
100
AcDbSymbolTableRecord
100
AcDbBlockTableRecord
  2
HUS210_F
  0
BLOCK_RECORD
  5
CB
100
AcDbSymbolTableRecord
100
AcDbBlockTableRecord
  2
HUS210_S
  0
ENDTAB
  0
ENDSEC
  0
SECTION
  2
BLOCKS
  0
BLOCK
  5
114
100
AcDbEntity
  8
0
100
AcDbBlockBegin
  2
*MODEL_SPACE
 70
     0
 10
0.0
 20
0.0
 30
0.0
  3
*MODEL_SPACE
  1

  0
ENDBLK
  5
115
100
AcDbEntity
  8
0
100
AcDbBlockEnd
  0
BLOCK
  5
119
100
AcDbEntity
 67
     1
  8
0
100
AcDbBlockBegin
  2
*PAPER_SPACE
 70
     0
 10
0.0
 20
0.0
 30
0.0
  3
*PAPER_SPACE
  1

  0
ENDBLK
  5
11A
100
AcDbEntity
 67
     1
  8
0
100
AcDbBlockEnd
  0
BLOCK
  5
3E
100
AcDbEntity
  8
0
100
AcDbBlockBegin
  2
HUS210_T
 70
     0
 10
0.0
 20
0.0
 30
0.0
  3
HUS210_T
  1

  0
LWPOLYLINE
  5
7
100
AcDbEntity
  8
USP-GEO
100
AcDbPolyline
 90
        2
 70
   129
 43
0.0
 10
0.0
 20
3.382879818432893
 10
2.00015612703693
 20
3.382879818432893
  0
LWPOLYLINE
  5
B
100
AcDbEntity
  8
USP-GEO
100
AcDbPolyline
 90
        6
 70
   129
 43
0.0
 10
1.935163239074723
 20
2.244691867994736
 10
1.935163239074723
 20
3.317886930470685
 10
0.0
 20
3.317886930470685
 10
0.0
 20
3.382879818432893
 10
0.0
 20
3.317886930470685
 10
1.935163239074723
 20
3.317886930470685
  0
TEXT
  5
C
100
AcDbEntity
  8
USP-TXT
100
AcDbText
 10
1.137192182114286
 20
-0.9623689007867035
 30
0.0
 40
0.203125
  1
HUS210 - TOP VIEW
 72
     1
 11
2.812973432114286
 21
-0.9623689007867035
 31
0.0
100
AcDbText
  0
LWPOLYLINE
  5
11
100
AcDbEntity
  8
USP-GEO
100
AcDbPolyline
 90
       32
 70
   128
 43
0.0
 10
3.625790737191643
 20
3.382879818432893
 10
3.625790737191643
 20
2.244691867994736
 10
3.674535403163297
 20
2.244691867994736
 10
3.674535403163297
 20
3.317886930470685
 10
5.609698642238022
 20
3.317886930470685
 10
5.609698642238022
 20
3.382879818432893
 10
5.609698642238022
 20
3.317886930470685
 10
3.674535403163297
 20
3.317886930470685
 10
3.674535403163297
 20
2.244691867994736
 10
3.674535403163297
 20
2.228443646004183
 10
3.674535403163297
 20
2.163450758041976
 10
3.674535403163297
 20
2.08139723698969
 10
3.674535403163297
 20
1.902666795093621
 10
3.674535403163297
 20
1.805177463150309
 10
3.674535403163297
 20
1.788929241159758
 10
3.674535403163297
 20
1.740184575188102
 10
3.674535403163297
 20
1.577702355282584
 10
3.674535403163297
 20
1.317730803433754
 10
3.674535403163297
 20
0.0324964439811044
 10
3.674535403163297
 20
0.0162482219905513
 10
3.674535403163297
 20
0.0
 10
3.674535403163297
 20
0.0162482219905513
 10
3.674535403163297
 20
0.0324964439811044
 10
3.625790737191643
 20
0.0324964439811044
 10
3.625790737191643
 20
1.317730803433754
 10
3.625790737191643
 20
1.577702355282584
 10
3.625790737191643
 20
1.740184575188102
 10
3.625790737191643
 20
1.788929241159758
 10
3.674535403163297
 20
1.788929241159758
 10
3.674535403163297
 20
1.740184575188102
 10
3.674535403163297
 20
1.577702355282584
 10
3.674535403163297
 20
1.317730803433754
  0
LWPOLYLINE
  5
12
100
AcDbEntity
  8
USP-GEO
100
AcDbPolyline
 90
        2
 70
   129
 43
0.0
 10
3.625790737191643
 20
3.382879818432893
 10
5.609698642238022
 20
3.382879818432893
  0
LWPOLYLINE
  5
13
100
AcDbEntity
  8
USP-GEO
100
AcDbPolyline
 90
       16
 70
   128
 43
0.0
 10
1.935975650174251
 20
0.0
 10
1.935163239074723
 20
0.0
 10
2.00015612703693
 20
0.0
 10
2.00015612703693
 20
0.0162482219905513
 10
2.00015612703693
 20
0.0324964439811044
 10
2.00015612703693
 20
1.317730803433754
 10
2.00015612703693
 20
1.577702355282584
 10
2.00015612703693
 20
1.740184575188102
 10
2.00015612703693
 20
1.788929241159758
 10
2.00015612703693
 20
1.805177463150309
 10
2.00015612703693
 20
1.902666795093621
 10
2.00015612703693
 20
2.08139723698969
 10
2.00015612703693
 20
2.163450758041976
 10
2.00015612703693
 20
2.228443646004183
 10
2.00015612703693
 20
2.244691867994736
 10
2.00015612703693
 20
3.382879818432893
  0
LWPOLYLINE
  5
14
100
AcDbEntity
  8
USP-GEO
100
AcDbPolyline
 90
        2
 70
   128
 43
0.0
 10
2.00015612703693
 20
0.0324964439811044
 10
2.00015612703693
 20
1.317730803433754
  0
LWPOLYLINE
  5
15
100
AcDbEntity
  8
USP-GEO
100
AcDbPolyline
 90
        5
 70
   128
 43
0.0
 10
1.935163239074723
 20
1.317730803433754
 10
1.935163239074723
 20
0.0324964439811044
 10
2.00015612703693
 20
0.0324964439811044
 10
2.00015612703693
 20
0.0162482219905513
 10
2.00015612703693
 20
0.0
  0
LWPOLYLINE
  5
16
100
AcDbEntity
  8
USP-GEO
100
AcDbPolyline
 90
       14
 70
   128
 43
0.0
 10
3.625790737191643
 20
3.382879818432893
 10
3.625790737191643
 20
2.244691867994736
 10
3.625790737191643
 20
2.228443646004183
 10
3.625790737191643
 20
2.163450758041976
 10
3.625790737191643
 20
2.08139723698969
 10
3.625790737191643
 20
1.902666795093621
 10
3.625790737191643
 20
1.805177463150309
 10
3.625790737191643
 20
1.788929241159758
 10
3.625790737191643
 20
1.740184575188102
 10
3.625790737191643
 20
1.577702355282584
 10
3.625790737191643
 20
1.317730803433754
 10
3.625790737191643
 20
0.0324964439811044
 10
3.625790737191643
 20
0.0162482219905513
 10
3.625790737191643
 20
0.0
  0
LWPOLYLINE
  5
17
100
AcDbEntity
  8
USP-GEO
100
AcDbPolyline
 90
        3
 70
   128
 43
0.0
 10
3.674535403163297
 20
0.0324964439811044
 10
3.674535403163297
 20
1.317730803433754
 10
3.625790737191643
 20
1.317730803433754
  0
LWPOLYLINE
  5
18
100
AcDbEntity
  8
USP-GEO
100
AcDbPolyline
 90
       15
 70
   128
 43
0.0
 10
1.935163239074723
 20
2.244691867994736
 10
1.935163239074723
 20
2.228443646004183
 10
1.935163239074723
 20
2.163450758041976
 10
1.935163239074723
 20
2.08139723698969
 10
1.935163239074723
 20
1.902666795093621
 10
1.935163239074723
 20
1.805177463150309
 10
1.935163239074723
 20
1.788929241159758
 10
1.935163239074723
 20
1.740184575188102
 10
1.935163239074723
 20
1.577702355282584
 10
1.935163239074723
 20
1.317730803433754
 10
1.935163239074723
 20
0.0324964439811044
 10
1.935163239074723
 20
0.0162482219905513
 10
1.935163239074723
 20
0.0
 10
1.935163239074723
 20
0.0162482219905513
 10
1.935163239074723
 20
0.0324964439811044
  0
LWPOLYLINE
  5
19
100
AcDbEntity
  8
USP-GEO
100
AcDbPolyline
 90
        2
 70
   129
 43
0.0
 10
2.341368788838519
 20
0.0974893319433115
 10
2.276375900876312
 20
0.0974893319433115
  0
LWPOLYLINE
  5
1A
100
AcDbEntity
  8
USP-GEO
100
AcDbPolyline
 90
        2
 70
   129
 43
0.0
 10
2.178886568933
 20
0.0
 10
2.00015612703693
 20
0.0
  0
LWPOLYLINE
  5
1B
100
AcDbEntity
  8
USP-GEO
100
AcDbPolyline
 90
        2
 70
   128
 43
0.0
 10
1.935163239074723
 20
0.0
 10
2.00015612703693
 20
0.0
  0
LWPOLYLINE
  5
1C
100
AcDbEntity
  8
USP-GEO
100
AcDbPolyline
 90
        2
 70
   128
 43
0.0
 10
2.00015612703693
 20
0.0
 10
2.000968538136458
 20
0.0
  0
LWPOLYLINE
  5
1D
100
AcDbEntity
  8
USP-GEO
100
AcDbPolyline
 90
        4
 70
   128
 43
0.0
 10
2.195134790923551
 20
0.0487446659716557
 10
2.227631234904656
 20
0.0812411099527601
 10
2.195134790923551
 20
0.0487446659716557
 10
2.178886568933
 20
0.0
  0
LWPOLYLINE
  5
1E
100
AcDbEntity
  8
USP-GEO
100
AcDbPolyline
 90
        2
 70
   128
 43
0.0
 10
2.227631234904656
 20
0.0812411099527601
 10
2.276375900876312
 20
0.0974893319433115
  0
LWPOLYLINE
  5
1F
100
AcDbEntity
  8
USP-GEO
100
AcDbPolyline
 90
        3
 70
   128
 43
0.0
 10
3.268329853399499
 20
0.0974893319433115
 10
3.219585187427846
 20
0.0812411099527601
 10
3.187088743446741
 20
0.0487446659716557
  0
LWPOLYLINE
  5
20
100
AcDbEntity
  8
USP-GEO
100
AcDbPolyline
 90
        2
 70
   129
 43
0.0
 10
3.187088743446741
 20
0.0
 10
2.43885812078183
 20
0.0
  0
LWPOLYLINE
  5
21
100
AcDbEntity
  8
USP-GEO
100
AcDbPolyline
 90
        4
 70
   128
 43
0.0
 10
2.43885812078183
 20
0.0
 10
2.422609898791279
 20
0.0487446659716557
 10
2.390113454810174
 20
0.0812411099527601
 10
2.341368788838519
 20
0.0974893319433115
  0
LWPOLYLINE
  5
22
100
AcDbEntity
  8
USP-GEO
100
AcDbPolyline
 90
        3
 70
   128
 43
0.0
 10
3.187088743446741
 20
0.0
 10
3.187088743446741
 20
0.0487446659716557
 10
3.219585187427846
 20
0.0812411099527601
  0
LWPOLYLINE
  5
23
100
AcDbEntity
  8
USP-GEO
100
AcDbPolyline
 90
        2
 70
   129
 43
0.0
 10
3.625790737191643
 20
0.0
 10
3.43081207330502
 20
0.0
  0
LWPOLYLINE
  5
24
100
AcDbEntity
  8
USP-GEO
100
AcDbPolyline
 90
        4
 70
   128
 43
0.0
 10
3.333322741361708
 20
0.0974893319433115
 10
3.382067407333362
 20
0.0812411099527601
 10
3.414563851314468
 20
0.0487446659716557
 10
3.43081207330502
 20
0.0
  0
LWPOLYLINE
  5
25
100
AcDbEntity
  8
USP-GEO
100
AcDbPolyline
 90
        2
 70
   129
 43
0.0
 10
3.333322741361708
 20
0.0974893319433115
 10
3.268329853399499
 20
0.0974893319433115
  0
LWPOLYLINE
  5
26
100
AcDbEntity
  8
USP-GEO
100
AcDbPolyline
 90
        3
 70
   128
 43
0.0
 10
3.625790737191643
 20
0.0324964439811044
 10
3.625790737191643
 20
0.0162482219905513
 10
3.625790737191643
 20
0.0
  0
LWPOLYLINE
  5
27
100
AcDbEntity
  8
USP-GEO
100
AcDbPolyline
 90
        2
 70
   128
 43
0.0
 10
3.625790737191643
 20
0.0
 10
3.62660314829117
 20
0.0
  0
LWPOLYLINE
  5
28
100
AcDbEntity
  8
USP-GEO
100
AcDbPolyline
 90
        2
 70
   129
 43
0.0
 10
3.674535403163297
 20
0.0
 10
3.625790737191643
 20
0.0
  0
LWPOLYLINE
  5
29
100
AcDbEntity
  8
USP-GEO
100
AcDbPolyline
 90
        2
 70
   129
 43
0.0
 10
2.276375900876312
 20
2.910868969607362
 10
2.341368788838519
 20
2.910868969607362
  0
LWPOLYLINE
  5
2A
100
AcDbEntity
  8
USP-GEO
100
AcDbPolyline
 90
        3
 70
   128
 43
0.0
 10
1.935163239074723
 20
2.244691867994736
 10
2.00015612703693
 20
2.244691867994736
 10
2.00015612703693
 20
3.382879818432893
  0
LWPOLYLINE
  5
2B
100
AcDbEntity
  8
USP-GEO
100
AcDbPolyline
 90
        8
 70
   129
 43
0.0
 10
2.00015612703693
 20
1.740184575188102
 10
2.00015612703693
 20
1.577702355282584
 10
2.00015612703693
 20
1.317730803433754
 10
1.935163239074723
 20
1.317730803433754
 10
1.935163239074723
 20
1.577702355282584
 10
1.935163239074723
 20
1.740184575188102
 10
1.935163239074723
 20
1.788929241159758
 10
2.00015612703693
 20
1.788929241159758
  0
LWPOLYLINE
  5
2C
100
AcDbEntity
  8
USP-GEO
100
AcDbPolyline
 90
        5
 70
   128
 43
0.0
 10
1.935163239074723
 20
2.472166975862462
 10
1.853922129121963
 20
2.374677643919151
 10
1.805177463150307
 20
2.228443646004183
 10
1.821425685140861
 20
2.147202536051425
 10
1.822238096240388
 20
2.147202536051425
  0
LWPOLYLINE
  5
2D
100
AcDbEntity
  8
USP-GEO
100
AcDbPolyline
 90
        9
 70
   128
 43
0.0
 10
1.935163239074723
 20
1.967659683055828
 10
1.886418573103068
 20
2.00015612703693
 10
1.886418573103068
 20
2.016404349027483
 10
1.886418573103068
 20
2.032652571018035
 10
1.870170351112516
 20
2.048900793008586
 10
1.853922129121963
 20
2.08139723698969
 10
1.837673907131412
 20
2.113893680970793
 10
1.821425685140861
 20
2.130954314060874
 10
1.821425685140861
 20
2.147202536051425
  0
LWPOLYLINE
  5
2E
100
AcDbEntity
  8
USP-GEO
100
AcDbPolyline
 90
       11
 70
   128
 43
0.0
 10
2.00015612703693
 20
2.08139723698969
 10
2.00015612703693
 20
2.163450758041976
 10
2.00015612703693
 20
2.228443646004183
 10
2.00015612703693
 20
2.244691867994736
 10
1.935163239074723
 20
2.244691867994736
 10
1.935163239074723
 20
2.228443646004183
 10
1.935163239074723
 20
2.163450758041976
 10
1.935163239074723
 20
2.08139723698969
 10
2.00015612703693
 20
2.08139723698969
 10
2.00015612703693
 20
1.902666795093621
 10
2.00015612703693
 20
1.805177463150309
  0
LWPOLYLINE
  5
2F
100
AcDbEntity
  8
USP-GEO
100
AcDbPolyline
 90
        7
 70
   128
 43
0.0
 10
1.935163239074723
 20
2.08139723698969
 10
1.935163239074723
 20
1.902666795093621
 10
1.935163239074723
 20
1.805177463150309
 10
2.00015612703693
 20
1.805177463150309
 10
2.00015612703693
 20
1.788929241159758
 10
1.935163239074723
 20
1.788929241159758
 10
1.935163239074723
 20
1.805177463150309
  0
LWPOLYLINE
  5
30
100
AcDbEntity
  8
USP-GEO
100
AcDbPolyline
 90
        2
 70
   129
 43
0.0
 10
2.00015612703693
 20
3.009170712650201
 10
2.178886568933
 20
3.009170712650201
  0
LWPOLYLINE
  5
31
100
AcDbEntity
  8
USP-GEO
100
AcDbPolyline
 90
        4
 70
   128
 43
0.0
 10
2.276375900876312
 20
2.910868969607362
 10
2.227631234904656
 20
2.927117191597913
 10
2.195134790923551
 20
2.959613635579017
 10
2.178886568933
 20
3.009170712650201
  0
LWPOLYLINE
  5
32
100
AcDbEntity
  8
USP-GEO
100
AcDbPolyline
 90
        4
 70
   128
 43
0.0
 10
3.788272957097159
 20
2.147202536051425
 10
3.804521179087711
 20
2.228443646004183
 10
3.755776513116057
 20
2.374677643919151
 10
3.674535403163297
 20
2.472166975862462
  0
LWPOLYLINE
  5
33
100
AcDbEntity
  8
USP-GEO
100
AcDbPolyline
 90
       10
 70
   128
 43
0.0
 10
3.674535403163297
 20
1.967659683055828
 10
3.723280069134954
 20
2.00015612703693
 10
3.723280069134954
 20
2.016404349027483
 10
3.739528291125505
 20
2.032652571018035
 10
3.739528291125505
 20
2.048900793008586
 10
3.755776513116057
 20
2.08139723698969
 10
3.772024735106608
 20
2.113893680970793
 10
3.788272957097159
 20
2.130954314060874
 10
3.788272957097159
 20
2.147202536051425
 10
3.789085368196687
 20
2.147202536051425
  0
LWPOLYLINE
  5
34
100
AcDbEntity
  8
USP-GEO
100
AcDbPolyline
 90
        8
 70
   129
 43
0.0
 10
3.625790737191643
 20
2.228443646004183
 10
3.625790737191643
 20
2.163450758041976
 10
3.625790737191643
 20
2.08139723698969
 10
3.674535403163297
 20
2.08139723698969
 10
3.674535403163297
 20
2.163450758041976
 10
3.674535403163297
 20
2.228443646004183
 10
3.674535403163297
 20
2.244691867994736
 10
3.625790737191643
 20
2.244691867994736
  0
LWPOLYLINE
  5
35
100
AcDbEntity
  8
USP-GEO
100
AcDbPolyline
 90
        3
 70
   128
 43
0.0
 10
3.625790737191643
 20
2.08139723698969
 10
3.625790737191643
 20
1.902666795093621
 10
3.625790737191643
 20
1.805177463150309
  0
LWPOLYLINE
  5
36
100
AcDbEntity
  8
USP-GEO
100
AcDbPolyline
 90
        3
 70
   128
 43
0.0
 10
3.674535403163297
 20
1.805177463150309
 10
3.674535403163297
 20
1.902666795093621
 10
3.674535403163297
 20
2.08139723698969
  0
LWPOLYLINE
  5
37
100
AcDbEntity
  8
USP-GEO
100
AcDbPolyline
 90
        4
 70
   129
 43
0.0
 10
3.674535403163297
 20
1.788929241159758
 10
3.625790737191643
 20
1.788929241159758
 10
3.625790737191643
 20
1.805177463150309
 10
3.674535403163297
 20
1.805177463150309
  0
LWPOLYLINE
  5
38
100
AcDbEntity
  8
USP-GEO
100
AcDbPolyline
 90
        4
 70
   128
 43
0.0
 10
3.268329853399499
 20
2.910868969607362
 10
3.219585187427846
 20
2.927117191597913
 10
3.187088743446741
 20
2.959613635579017
 10
3.187088743446741
 20
3.009170712650201
  0
LWPOLYLINE
  5
39
100
AcDbEntity
  8
USP-GEO
100
AcDbPolyline
 90
        2
 70
   129
 43
0.0
 10
2.43885812078183
 20
3.009170712650201
 10
3.187088743446741
 20
3.009170712650201
  0
LWPOLYLINE
  5
3A
100
AcDbEntity
  8
USP-GEO
100
AcDbPolyline
 90
        4
 70
   128
 43
0.0
 10
2.43885812078183
 20
3.009170712650201
 10
2.422609898791279
 20
2.959613635579017
 10
2.390113454810174
 20
2.927117191597913
 10
2.341368788838519
 20
2.910868969607362
  0
LWPOLYLINE
  5
3B
100
AcDbEntity
  8
USP-GEO
100
AcDbPolyline
 90
        2
 70
   129
 43
0.0
 10
3.43081207330502
 20
3.009170712650201
 10
3.625790737191643
 20
3.009170712650201
  0
LWPOLYLINE
  5
3C
100
AcDbEntity
  8
USP-GEO
100
AcDbPolyline
 90
        4
 70
   128
 43
0.0
 10
3.43081207330502
 20
3.009170712650201
 10
3.414563851314468
 20
2.959613635579017
 10
3.382067407333362
 20
2.927117191597913
 10
3.333322741361708
 20
2.910868969607362
  0
LWPOLYLINE
  5
3D
100
AcDbEntity
  8
USP-GEO
100
AcDbPolyline
 90
        2
 70
   129
 43
0.0
 10
3.268329853399499
 20
2.910868969607362
 10
3.333322741361708
 20
2.910868969607362
  0
ENDBLK
  5
40
100
AcDbEntity
  8
0
100
AcDbBlockEnd
  0
BLOCK
  5
C8
100
AcDbEntity
  8
0
100
AcDbBlockBegin
  2
HUS210_F
 70
     0
 10
0.0
 20
0.0
 30
0.0
  3
HUS210_F
  1

  0
LWPOLYLINE
  5
43
100
AcDbEntity
  8
USP-GEO
100
AcDbPolyline
 90
       44
 70
   128
 43
0.0
 10
0.943209286551534
 20
1.740184575188102
 10
0.6669895127121528
 20
2.130141902961346
 10
0.5045072928066343
 20
2.569656307805773
 10
0.4557626268349786
 20
3.041667156631303
 10
0.4557626268349786
 20
4.00112466517339
 10
0.4232661828538742
 20
4.17985510706946
 10
0.3095286289200114
 20
4.326089104984427
 10
0.163294631005046
 20
4.407330214937186
 10
0.0820535210522859
 20
4.472323102899393
 10
0.0162482219905513
 20
4.553564212852153
 10
0.0
 20
4.651053544795464
 10
0.0
 20
5.757557462352044
 10
0.0162482219905513
 20
5.855046794295354
 10
0.0820535210522859
 20
5.936287904248114
 10
0.163294631005046
 20
5.98503257021977
 10
0.3420250729011158
 20
6.115018346144184
 10
0.4395144048444273
 20
6.293748788040254
 10
0.4395144048444273
 20
6.505788085016956
 10
0.3420250729011158
 20
6.684518526913025
 10
0.163294631005046
 20
6.814504302837441
 10
0.0820535210522859
 20
6.863248968809097
 10
0.0162482219905513
 20
6.944490078761855
 10
0.0
 20
7.041979410705167
 10
0.0
 20
7.481493815549594
 10
0.0162482219905513
 20
7.578983147492904
 10
0.0820535210522859
 20
7.660224257445664
 10
0.163294631005046
 20
7.725217145407871
 10
0.3420250729011158
 20
7.838954699341734
 10
0.4395144048444273
 20
8.017685141237803
 10
0.4395144048444273
 20
8.229724438214505
 10
0.3420250729011158
 20
8.424703102101128
 10
0.163294631005046
 20
8.538440656034991
 10
0.0820535210522859
 20
8.587185322006645
 10
0.0162482219905513
 20
8.668426431959405
 10
0.0
 20
8.765915763902716
 10
0.0
 20
9.254174834718799
 10
1.935163239074723
 20
9.254174834718799
 10
2.00015612703693
 20
9.254174834718799
 10
1.935163239074723
 20
9.254174834718799
 10
1.935163239074723
 20
8.765915763902716
 10
2.00015612703693
 20
8.765915763902716
 10
2.00015612703693
 20
8.668426431959405
 10
2.00015612703693
 20
8.587185322006645
 10
2.00015612703693
 20
8.538440656034991
  0
LWPOLYLINE
  5
44
100
AcDbEntity
  8
USP-GEO
100
AcDbPolyline
 90
        3
 70
   128
 43
0.0
 10
0.4232661828538742
 20
4.17985510706946
 10
0.4557626268349786
 20
4.00112466517339
 10
0.4557626268349786
 20
3.041667156631303
  0
LWPOLYLINE
  5
45
100
AcDbEntity
  8
USP-GEO
100
AcDbPolyline
 90
       52
 70
   128
 43
0.0
 10
0.0
 20
8.765915763902716
 10
0.0
 20
9.254174834718799
 10
1.935163239074723
 20
9.254174834718799
 10
1.935163239074723
 20
8.765915763902716
 10
1.935163239074723
 20
8.668426431959405
 10
1.935163239074723
 20
8.587185322006645
 10
1.935163239074723
 20
8.538440656034991
 10
1.935163239074723
 20
8.424703102101128
 10
1.935163239074723
 20
8.229724438214505
 10
1.935163239074723
 20
8.017685141237803
 10
1.935163239074723
 20
7.838954699341734
 10
1.935163239074723
 20
7.725217145407871
 10
1.935163239074723
 20
7.660224257445664
 10
1.935163239074723
 20
7.578983147492904
 10
1.935163239074723
 20
7.481493815549594
 10
1.935163239074723
 20
7.041979410705167
 10
1.935163239074723
 20
6.944490078761855
 10
1.935163239074723
 20
6.863248968809097
 10
1.935163239074723
 20
6.814504302837441
 10
1.935163239074723
 20
6.684518526913025
 10
1.935163239074723
 20
6.505788085016956
 10
1.935163239074723
 20
6.293748788040254
 10
1.935163239074723
 20
6.115018346144184
 10
1.935163239074723
 20
5.98503257021977
 10
1.935163239074723
 20
5.936287904248114
 10
1.935163239074723
 20
5.855046794295354
 10
1.935163239074723
 20
5.757557462352044
 10
1.935163239074723
 20
4.651053544795464
 10
1.935163239074723
 20
4.553564212852153
 10
1.935163239074723
 20
4.472323102899393
 10
1.935163239074723
 20
4.407330214937186
 10
1.935163239074723
 20
4.326089104984427
 10
1.935163239074723
 20
4.17985510706946
 10
1.935163239074723
 20
4.00112466517339
 10
1.935163239074723
 20
3.041667156631303
 10
1.935163239074723
 20
2.569656307805773
 10
1.935163239074723
 20
2.130141902961346
 10
1.935163239074723
 20
1.740184575188102
 10
1.935163239074723
 20
0.2274751078677273
 10
1.935163239074723
 20
0.2112268858771742
 10
1.935163239074723
 20
0.1787304418960716
 10
1.935163239074723
 20
0.1462339979149672
 10
1.935163239074723
 20
0.0
 10
2.178886568933
 20
0.0
 10
2.195134790923551
 20
0.0
 10
2.227631234904656
 20
0.0
 10
2.276375900876312
 20
0.0
 10
2.276375900876312
 20
0.0487446659716557
 10
2.227631234904656
 20
0.0487446659716557
 10
2.195134790923551
 20
0.0487446659716557
 10
2.178886568933
 20
0.0487446659716557
 10
2.178886568933
 20
0.0
  0
LWPOLYLINE
  5
46
100
AcDbEntity
  8
USP-GEO
100
AcDbPolyline
 90
        2
 70
   128
 43
0.0
 10
0.0
 20
7.481493815549594
 10
0.0
 20
7.041979410705167
  0
LWPOLYLINE
  5
47
100
AcDbEntity
  8
USP-GEO
100
AcDbPolyline
 90
        2
 70
   128
 43
0.0
 10
0.0
 20
5.757557462352044
 10
0.0
 20
4.651053544795464
  0
LWPOLYLINE
  5
48
100
AcDbEntity
  8
USP-GEO
100
AcDbPolyline
 90
        2
 70
   128
 43
0.0
 10
0.3420250729011158
 20
6.115018346144184
 10
0.163294631005046
 20
5.98503257021977
  0
LWPOLYLINE
  5
49
100
AcDbEntity
  8
USP-GEO
100
AcDbPolyline
 90
       12
 70
   129
 43
0.0
 10
0.2120392969767018
 20
5.220553725564306
 10
0.2282875189672531
 20
5.269298391535961
 10
0.2607839629483557
 20
5.301794835517064
 10
0.3095286289200114
 20
5.301794835517064
 10
0.3582732948916671
 20
5.301794835517064
 10
0.3907697388727715
 20
5.269298391535961
 10
0.3907697388727715
 20
5.220553725564306
 10
0.3907697388727715
 20
5.17180905959265
 10
0.3582732948916671
 20
5.139312615611546
 10
0.3095286289200114
 20
5.123064393620994
 10
0.2607839629483557
 20
5.139312615611546
 10
0.2282875189672531
 20
5.17180905959265
  0
LWPOLYLINE
  5
4A
100
AcDbEntity
  8
USP-GEO
100
AcDbPolyline
 90
       12
 70
   129
 43
0.0
 10
0.2282875189672531
 20
7.009482966724062
 10
0.2607839629483557
 20
7.041979410705167
 10
0.3095286289200114
 20
7.058227632695718
 10
0.3582732948916671
 20
7.041979410705167
 10
0.3907697388727715
 20
7.009482966724062
 10
0.3907697388727715
 20
6.97698652274296
 10
0.3907697388727715
 20
6.928241856771304
 10
0.3582732948916671
 20
6.8957454127902
 10
0.3095286289200114
 20
6.879497190799648
 10
0.2607839629483557
 20
6.8957454127902
 10
0.2282875189672531
 20
6.928241856771304
 10
0.2120392969767018
 20
6.97698652274296
  0
LWPOLYLINE
  5
4B
100
AcDbEntity
  8
USP-GEO
100
AcDbPolyline
 90
        2
 70
   128
 43
0.0
 10
0.2607839629483557
 20
7.041979410705167
 10
0.3095286289200114
 20
7.058227632695718
  0
LWPOLYLINE
  5
4C
100
AcDbEntity
  8
USP-GEO
100
AcDbPolyline
 90
        2
 70
   128
 43
0.0
 10
0.3420250729011158
 20
7.838954699341734
 10
0.163294631005046
 20
7.725217145407871
  0
LWPOLYLINE
  5
4D
100
AcDbEntity
  8
USP-GEO
100
AcDbPolyline
 90
        2
 70
   128
 43
0.0
 10
0.0820535210522859
 20
8.587185322006645
 10
0.163294631005046
 20
8.538440656034991
  0
LWPOLYLINE
  5
4E
100
AcDbEntity
  8
USP-GEO
100
AcDbPolyline
 90
       12
 70
   129
 43
0.0
 10
0.3095286289200114
 20
9.059196170832176
 10
0.3582732948916671
 20
9.042135537742097
 10
0.3907697388727715
 20
9.009639093760993
 10
0.3907697388727715
 20
8.97714264977989
 10
0.3907697388727715
 20
8.928397983808235
 10
0.3582732948916671
 20
8.89590153982713
 10
0.3095286289200114
 20
8.879653317836579
 10
0.2607839629483557
 20
8.89590153982713
 10
0.2282875189672531
 20
8.928397983808235
 10
0.2120392969767018
 20
8.97714264977989
 10
0.2282875189672531
 20
9.009639093760993
 10
0.2607839629483557
 20
9.042135537742097
  0
LWPOLYLINE
  5
4F
100
AcDbEntity
  8
USP-GEO
100
AcDbPolyline
 90
        2
 70
   128
 43
0.0
 10
0.2607839629483557
 20
9.042135537742097
 10
0.3095286289200114
 20
9.059196170832176
  0
LWPOLYLINE
  5
50
100
AcDbEntity
  8
USP-GEO
100
AcDbPolyline
 90
       39
 70
   128
 43
0.0
 10
2.00015612703693
 20
0.1462339979149672
 10
2.00015612703693
 20
0.1787304418960716
 10
2.00015612703693
 20
0.2112268858771742
 10
2.00015612703693
 20
0.2274751078677273
 10
2.00015612703693
 20
1.740184575188102
 10
2.00015612703693
 20
2.130141902961346
 10
2.00015612703693
 20
2.569656307805773
 10
2.00015612703693
 20
3.041667156631303
 10
2.00015612703693
 20
4.00112466517339
 10
2.00015612703693
 20
4.17985510706946
 10
2.00015612703693
 20
4.326089104984427
 10
2.00015612703693
 20
4.407330214937186
 10
2.00015612703693
 20
4.472323102899393
 10
2.00015612703693
 20
4.553564212852153
 10
2.00015612703693
 20
4.651053544795464
 10
2.00015612703693
 20
5.757557462352044
 10
2.00015612703693
 20
5.855046794295354
 10
2.00015612703693
 20
5.936287904248114
 10
2.00015612703693
 20
5.98503257021977
 10
2.00015612703693
 20
6.115018346144184
 10
2.00015612703693
 20
6.293748788040254
 10
2.00015612703693
 20
6.505788085016956
 10
2.00015612703693
 20
6.684518526913025
 10
2.00015612703693
 20
6.814504302837441
 10
2.00015612703693
 20
6.863248968809097
 10
2.00015612703693
 20
6.944490078761855
 10
2.00015612703693
 20
7.041979410705167
 10
2.00015612703693
 20
7.481493815549594
 10
2.00015612703693
 20
7.578983147492904
 10
2.00015612703693
 20
7.660224257445664
 10
2.00015612703693
 20
7.725217145407871
 10
2.00015612703693
 20
7.838954699341734
 10
2.00015612703693
 20
8.017685141237803
 10
2.00015612703693
 20
8.229724438214505
 10
2.00015612703693
 20
8.424703102101128
 10
2.00015612703693
 20
8.538440656034991
 10
2.00015612703693
 20
8.587185322006645
 10
2.00015612703693
 20
8.668426431959405
 10
2.00015612703693
 20
8.765915763902716
  0
LWPOLYLINE
  5
51
100
AcDbEntity
  8
USP-GEO
100
AcDbPolyline
 90
        6
 70
   128
 43
0.0
 10
2.00015612703693
 20
7.041979410705167
 10
2.00015612703693
 20
7.481493815549594
 10
1.935163239074723
 20
7.481493815549594
 10
1.935163239074723
 20
7.578983147492904
 10
1.935163239074723
 20
7.660224257445664
 10
1.935163239074723
 20
7.725217145407871
  0
LWPOLYLINE
  5
52
100
AcDbEntity
  8
USP-GEO
100
AcDbPolyline
 90
       61
 70
   128
 43
0.0
 10
3.674535403163297
 20
5.561766387365894
 10
3.674535403163297
 20
5.676316352399284
 10
3.674535403163297
 20
5.757557462352044
 10
3.674535403163297
 20
5.806302128323698
 10
3.674535403163297
 20
5.920039682257561
 10
3.674535403163297
 20
6.098770124153633
 10
3.674535403163297
 20
6.309997010030807
 10
3.674535403163297
 20
6.505788085016956
 10
3.674535403163297
 20
6.619525638950818
 10
3.674535403163297
 20
6.668270304922474
 10
3.674535403163297
 20
6.749511414875232
 10
3.674535403163297
 20
6.863248968809097
 10
3.674535403163297
 20
7.301950962553995
 10
3.674535403163297
 20
7.400252705596834
 10
3.674535403163297
 20
7.481493815549594
 10
3.674535403163297
 20
7.53023848152125
 10
3.674535403163297
 20
7.643976035455112
 10
3.674535403163297
 20
7.838954699341734
 10
3.674535403163297
 20
8.050181585218908
 10
3.674535403163297
 20
8.229724438214505
 10
3.674535403163297
 20
8.343461992148368
 10
3.674535403163297
 20
8.392206658120024
 10
3.674535403163297
 20
8.489695990063335
 10
3.674535403163297
 20
8.587185322006645
 10
3.674535403163297
 20
9.254174834718799
 10
5.609698642238022
 20
9.254174834718799
 10
5.609698642238022
 20
8.587185322006645
 10
5.593450420247467
 20
8.489695990063335
 10
5.528457532285262
 20
8.392206658120024
 10
5.447216422332502
 20
8.343461992148368
 10
5.267673569336903
 20
8.229724438214505
 10
5.170184237393595
 20
8.050181585218908
 10
5.170184237393595
 20
7.838954699341734
 10
5.267673569336903
 20
7.643976035455112
 10
5.447216422332502
 20
7.53023848152125
 10
5.528457532285262
 20
7.481493815549594
 10
5.593450420247467
 20
7.400252705596834
 10
5.609698642238022
 20
7.301950962553995
 10
5.609698642238022
 20
6.863248968809097
 10
5.593450420247467
 20
6.749511414875232
 10
5.528457532285262
 20
6.668270304922474
 10
5.447216422332502
 20
6.619525638950818
 10
5.267673569336903
 20
6.505788085016956
 10
5.170184237393595
 20
6.309997010030807
 10
5.170184237393595
 20
6.098770124153633
 10
5.267673569336903
 20
5.920039682257561
 10
5.447216422332502
 20
5.806302128323698
 10
5.528457532285262
 20
5.757557462352044
 10
5.593450420247467
 20
5.676316352399284
 10
5.609698642238022
 20
5.561766387365894
 10
5.609698642238022
 20
4.651053544795464
 10
5.593450420247467
 20
4.553564212852153
 10
5.528457532285262
 20
4.472323102899393
 10
5.447216422332502
 20
4.407330214937186
 10
5.300170013318009
 20
4.326089104984427
 10
5.186432459384146
 20
4.17985510706946
 10
5.15393601540304
 20
4.00112466517339
 10
5.15393601540304
 20
3.041667156631303
 10
5.105191349431386
 20
2.569656307805773
 10
4.942709129525869
 20
2.130141902961346
 10
4.682737577677038
 20
1.740184575188102
  0
LWPOLYLINE
  5
53
100
AcDbEntity
  8
USP-GEO
100
AcDbPolyline
 90
        8
 70
   128
 43
0.0
 10
3.674535403163297
 20
7.53023848152125
 10
3.674535403163297
 20
7.481493815549594
 10
3.674535403163297
 20
7.400252705596834
 10
3.674535403163297
 20
7.301950962553995
 10
3.625790737191643
 20
7.301950962553995
 10
3.625790737191643
 20
7.400252705596834
 10
3.625790737191643
 20
7.481493815549594
 10
3.625790737191643
 20
7.53023848152125
  0
LWPOLYLINE
  5
54
100
AcDbEntity
  8
USP-GEO
100
AcDbPolyline
 90
       42
 70
   128
 43
0.0
 10
3.674535403163297
 20
8.587185322006645
 10
3.674535403163297
 20
9.254174834718799
 10
3.625790737191643
 20
9.254174834718799
 10
3.625790737191643
 20
8.587185322006645
 10
3.625790737191643
 20
8.489695990063335
 10
3.625790737191643
 20
8.392206658120024
 10
3.625790737191643
 20
8.343461992148368
 10
3.625790737191643
 20
8.229724438214505
 10
3.625790737191643
 20
8.050181585218908
 10
3.625790737191643
 20
7.838954699341734
 10
3.625790737191643
 20
7.643976035455112
 10
3.625790737191643
 20
7.53023848152125
 10
3.625790737191643
 20
7.481493815549594
 10
3.625790737191643
 20
7.400252705596834
 10
3.625790737191643
 20
7.301950962553995
 10
3.625790737191643
 20
6.863248968809097
 10
3.625790737191643
 20
6.749511414875232
 10
3.625790737191643
 20
6.668270304922474
 10
3.625790737191643
 20
6.619525638950818
 10
3.625790737191643
 20
6.505788085016956
 10
3.625790737191643
 20
6.309997010030807
 10
3.625790737191643
 20
6.098770124153633
 10
3.625790737191643
 20
5.920039682257561
 10
3.625790737191643
 20
5.806302128323698
 10
3.625790737191643
 20
5.757557462352044
 10
3.625790737191643
 20
5.676316352399284
 10
3.625790737191643
 20
5.561766387365894
 10
3.625790737191643
 20
4.651053544795464
 10
3.625790737191643
 20
4.553564212852153
 10
3.625790737191643
 20
4.472323102899393
 10
3.625790737191643
 20
4.407330214937186
 10
3.625790737191643
 20
4.326089104984427
 10
3.625790737191643
 20
4.17985510706946
 10
3.625790737191643
 20
4.00112466517339
 10
3.625790737191643
 20
3.041667156631303
 10
3.625790737191643
 20
2.569656307805773
 10
3.625790737191643
 20
2.130141902961346
 10
3.625790737191643
 20
1.740184575188102
 10
3.625790737191643
 20
0.2274751078677273
 10
3.625790737191643
 20
0.2112268858771742
 10
3.625790737191643
 20
0.1787304418960716
 10
3.625790737191643
 20
0.1462339979149672
  0
LWPOLYLINE
  5
55
100
AcDbEntity
  8
USP-GEO
100
AcDbPolyline
 90
        6
 70
   128
 43
0.0
 10
2.00015612703693
 20
6.814504302837441
 10
2.00015612703693
 20
6.863248968809097
 10
2.00015612703693
 20
6.944490078761855
 10
2.00015612703693
 20
7.041979410705167
 10
1.935163239074723
 20
7.041979410705167
 10
1.935163239074723
 20
7.481493815549594
  0
TEXT
  5
56
100
AcDbEntity
  8
USP-TXT
100
AcDbText
 10
0.9340671821142866
 20
-0.8143243517028064
 30
0.0
 40
0.203125
  1
HUS210 - FRONT VIEW
 72
     1
 11
2.812973432114286
 21
-0.8143243517028064
 31
0.0
100
AcDbText
  0
LWPOLYLINE
  5
57
100
AcDbEntity
  8
USP-GEO
100
AcDbPolyline
 90
       12
 70
   129
 43
0.0
 10
4.081553364026621
 20
1.366475469405409
 10
4.031996286955436
 20
1.382723691395961
 10
3.999499842974334
 20
1.415220135377065
 10
3.999499842974334
 20
1.463964801348721
 10
3.999499842974334
 20
1.512709467320377
 10
4.031996286955436
 20
1.545205911301479
 10
4.081553364026621
 20
1.561454133292032
 10
4.130298029998275
 20
1.545205911301479
 10
4.162794473979378
 20
1.512709467320377
 10
4.179042695969933
 20
1.463964801348721
 10
4.162794473979378
 20
1.415220135377065
 10
4.130298029998275
 20
1.382723691395961
  0
LWPOLYLINE
  5
58
100
AcDbEntity
  8
USP-GEO
100
AcDbPolyline
 90
       12
 70
   129
 43
0.0
 10
3.999499842974334
 20
2.927117191597913
 10
3.999499842974334
 20
2.959613635579017
 10
3.999499842974334
 20
3.008358301550673
 10
4.031996286955436
 20
3.041667156631303
 10
4.081553364026621
 20
3.057915378621856
 10
4.130298029998275
 20
3.041667156631303
 10
4.162794473979378
 20
3.008358301550673
 10
4.179042695969933
 20
2.959613635579017
 10
4.162794473979378
 20
2.927117191597913
 10
4.130298029998275
 20
2.89462074761681
 10
4.081553364026621
 20
2.878372525626257
 10
4.031996286955436
 20
2.89462074761681
  0
LWPOLYLINE
  5
59
100
AcDbEntity
  8
USP-GEO
100
AcDbPolyline
 90
       12
 70
   129
 43
0.0
 10
3.999499842974334
 20
3.968628221192286
 10
3.999499842974334
 20
4.017372887163942
 10
4.031996286955436
 20
4.049869331145046
 10
4.081553364026621
 20
4.049869331145046
 10
4.130298029998275
 20
4.049869331145046
 10
4.162794473979378
 20
4.017372887163942
 10
4.179042695969933
 20
3.968628221192286
 10
4.162794473979378
 20
3.91988355522063
 10
4.130298029998275
 20
3.887387111239528
 10
4.081553364026621
 20
3.870326478149447
 10
4.031996286955436
 20
3.887387111239528
 10
3.999499842974334
 20
3.91988355522063
  0
LWPOLYLINE
  5
5A
100
AcDbEntity
  8
USP-GEO
100
AcDbPolyline
 90
       12
 70
   129
 43
0.0
 10
3.999499842974334
 20
4.960582173715476
 10
3.999499842974334
 20
5.009326839687131
 10
4.031996286955436
 20
5.041823283668236
 10
4.081553364026621
 20
5.058071505658787
 10
4.130298029998275
 20
5.041823283668236
 10
4.162794473979378
 20
5.009326839687131
 10
4.179042695969933
 20
4.960582173715476
 10
4.162794473979378
 20
4.928085729734373
 10
4.130298029998275
 20
4.895589285753269
 10
4.081553364026621
 20
4.879341063762717
 10
4.031996286955436
 20
4.895589285753269
 10
3.999499842974334
 20
4.928085729734373
  0
LWPOLYLINE
  5
5B
100
AcDbEntity
  8
USP-GEO
100
AcDbPolyline
 90
       12
 70
   129
 43
0.0
 10
3.999499842974334
 20
5.920039682257561
 10
3.999499842974334
 20
5.968784348229217
 10
3.999499842974334
 20
6.017529014200873
 10
4.031996286955436
 20
6.050025458181977
 10
4.081553364026621
 20
6.066273680172528
 10
4.130298029998275
 20
6.050025458181977
 10
4.162794473979378
 20
6.017529014200873
 10
4.179042695969933
 20
5.968784348229217
 10
4.162794473979378
 20
5.920039682257561
 10
4.130298029998275
 20
5.887543238276458
 10
4.081553364026621
 20
5.871295016285907
 10
4.031996286955436
 20
5.887543238276458
  0
LWPOLYLINE
  5
5C
100
AcDbEntity
  8
USP-GEO
100
AcDbPolyline
 90
       12
 70
   129
 43
0.0
 10
3.999499842974334
 20
6.97698652274296
 10
3.999499842974334
 20
7.009482966724062
 10
4.031996286955436
 20
7.041979410705167
 10
4.081553364026621
 20
7.058227632695718
 10
4.130298029998275
 20
7.041979410705167
 10
4.162794473979378
 20
7.009482966724062
 10
4.179042695969933
 20
6.97698652274296
 10
4.162794473979378
 20
6.928241856771304
 10
4.130298029998275
 20
6.8957454127902
 10
4.081553364026621
 20
6.879497190799648
 10
4.031996286955436
 20
6.8957454127902
 10
3.999499842974334
 20
6.928241856771304
  0
LWPOLYLINE
  5
5D
100
AcDbEntity
  8
USP-GEO
100
AcDbPolyline
 90
        2
 70
   129
 43
0.0
 10
4.682737577677038
 20
1.740184575188102
 10
3.772024735106608
 20
0.6669895127121528
  0
LWPOLYLINE
  5
5E
100
AcDbEntity
  8
USP-GEO
100
AcDbPolyline
 90
        6
 70
   128
 43
0.0
 10
2.00015612703693
 20
1.740184575188102
 10
2.00015612703693
 20
2.130141902961346
 10
2.00015612703693
 20
2.569656307805773
 10
2.00015612703693
 20
3.041667156631303
 10
1.935163239074723
 20
3.041667156631303
 10
1.935163239074723
 20
4.00112466517339
  0
LWPOLYLINE
  5
5F
100
AcDbEntity
  8
USP-GEO
100
AcDbPolyline
 90
        6
 70
   128
 43
0.0
 10
2.00015612703693
 20
0.2274751078677273
 10
2.00015612703693
 20
1.740184575188102
 10
1.935163239074723
 20
1.740184575188102
 10
1.935163239074723
 20
2.130141902961346
 10
1.935163239074723
 20
2.569656307805773
 10
1.935163239074723
 20
3.041667156631303
  0
LWPOLYLINE
  5
60
100
AcDbEntity
  8
USP-GEO
100
AcDbPolyline
 90
       12
 70
   128
 43
0.0
 10
3.674535403163297
 20
3.041667156631303
 10
3.674535403163297
 20
4.00112466517339
 10
3.625790737191643
 20
4.00112466517339
 10
3.625790737191643
 20
3.041667156631303
 10
3.625790737191643
 20
2.569656307805773
 10
3.625790737191643
 20
2.130141902961346
 10
3.625790737191643
 20
1.740184575188102
 10
3.625790737191643
 20
0.2274751078677273
 10
3.674535403163297
 20
0.2274751078677273
 10
3.674535403163297
 20
0.2112268858771742
 10
3.674535403163297
 20
0.1787304418960716
 10
3.674535403163297
 20
0.1462339979149672
  0
LWPOLYLINE
  5
61
100
AcDbEntity
  8
USP-GEO
100
AcDbPolyline
 90
        5
 70
   128
 43
0.0
 10
3.625790737191643
 20
3.041667156631303
 10
3.674535403163297
 20
3.041667156631303
 10
3.674535403163297
 20
2.569656307805773
 10
3.674535403163297
 20
2.130141902961346
 10
3.674535403163297
 20
1.740184575188102
  0
LWPOLYLINE
  5
62
100
AcDbEntity
  8
USP-GEO
100
AcDbPolyline
 90
       27
 70
   128
 43
0.0
 10
3.625790737191643
 20
0.2274751078677273
 10
3.625790737191643
 20
0.2112268858771742
 10
3.625790737191643
 20
0.1787304418960716
 10
3.625790737191643
 20
0.1462339979149672
 10
3.625790737191643
 20
0.0487446659716557
 10
3.625790737191643
 20
0.1462339979149672
 10
3.674535403163297
 20
0.1462339979149672
 10
3.674535403163297
 20
0.0
 10
3.674535403163297
 20
0.1462339979149672
 10
3.674535403163297
 20
0.1787304418960716
 10
3.674535403163297
 20
0.2112268858771742
 10
3.674535403163297
 20
0.2274751078677273
 10
3.674535403163297
 20
1.740184575188102
 10
3.674535403163297
 20
2.130141902961346
 10
3.674535403163297
 20
2.569656307805773
 10
3.674535403163297
 20
3.041667156631303
 10
3.674535403163297
 20
4.00112466517339
 10
3.674535403163297
 20
4.17985510706946
 10
3.674535403163297
 20
4.326089104984427
 10
3.674535403163297
 20
4.407330214937186
 10
3.674535403163297
 20
4.472323102899393
 10
3.674535403163297
 20
4.553564212852153
 10
3.674535403163297
 20
4.651053544795464
 10
3.674535403163297
 20
5.561766387365894
 10
3.674535403163297
 20
5.676316352399284
 10
3.674535403163297
 20
5.757557462352044
 10
3.674535403163297
 20
5.806302128323698
  0
LWPOLYLINE
  5
63
100
AcDbEntity
  8
USP-GEO
100
AcDbPolyline
 90
        5
 70
   128
 43
0.0
 10
3.674535403163297
 20
2.065149014999139
 10
3.755776513116057
 20
2.146390124951897
 10
3.804521179087711
 20
2.309684755956944
 10
3.755776513116057
 20
2.472166975862462
 10
3.674535403163297
 20
2.553408085815222
  0
LWPOLYLINE
  5
64
100
AcDbEntity
  8
USP-GEO
100
AcDbPolyline
 90
       16
 70
   129
 43
0.0
 10
3.739528291125505
 20
2.260940089985288
 10
3.723280069134954
 20
2.277188311975841
 10
3.723280069134954
 20
2.309684755956944
 10
3.723280069134954
 20
2.342181199938048
 10
3.739528291125505
 20
2.358429421928599
 10
3.739528291125505
 20
2.374677643919151
 10
3.755776513116057
 20
2.390925865909704
 10
3.772024735106608
 20
2.374677643919151
 10
3.788272957097159
 20
2.358429421928599
 10
3.788272957097159
 20
2.342181199938048
 10
3.788272957097159
 20
2.309684755956944
 10
3.788272957097159
 20
2.277188311975841
 10
3.788272957097159
 20
2.260940089985288
 10
3.772024735106608
 20
2.228443646004185
 10
3.755776513116057
 20
2.228443646004185
 10
3.739528291125505
 20
2.228443646004185
  0
LWPOLYLINE
  5
65
100
AcDbEntity
  8
USP-GEO
100
AcDbPolyline
 90
        4
 70
   128
 43
0.0
 10
2.276375900876312
 20
0.0
 10
2.341368788838519
 20
0.0
 10
2.341368788838519
 20
0.0487446659716557
 10
2.276375900876312
 20
0.0487446659716557
  0
LWPOLYLINE
  5
66
100
AcDbEntity
  8
USP-GEO
100
AcDbPolyline
 90
       17
 70
   128
 43
0.0
 10
2.178886568933
 20
0.0487446659716557
 10
2.00015612703693
 20
0.0487446659716557
 10
2.178886568933
 20
0.0487446659716557
 10
2.195134790923551
 20
0.0487446659716557
 10
2.227631234904656
 20
0.0487446659716557
 10
2.276375900876312
 20
0.0487446659716557
 10
2.341368788838519
 20
0.0487446659716557
 10
2.390113454810174
 20
0.0487446659716557
 10
2.422609898791279
 20
0.0487446659716557
 10
2.43885812078183
 20
0.0487446659716557
 10
3.187088743446741
 20
0.0487446659716557
 10
3.219585187427846
 20
0.0487446659716557
 10
3.268329853399499
 20
0.0487446659716557
 10
3.333322741361708
 20
0.0487446659716557
 10
3.382067407333362
 20
0.0487446659716557
 10
3.414563851314468
 20
0.0487446659716557
 10
3.43081207330502
 20
0.0487446659716557
  0
LWPOLYLINE
  5
67
100
AcDbEntity
  8
USP-GEO
100
AcDbPolyline
 90
       20
 70
   128
 43
0.0
 10
3.43081207330502
 20
0.0
 10
3.674535403163297
 20
0.0
 10
3.43081207330502
 20
0.0
 10
3.414563851314468
 20
0.0
 10
3.382067407333362
 20
0.0
 10
3.333322741361708
 20
0.0
 10
3.268329853399499
 20
0.0
 10
3.219585187427846
 20
0.0
 10
3.187088743446741
 20
0.0
 10
2.43885812078183
 20
0.0
 10
2.422609898791279
 20
0.0
 10
2.390113454810174
 20
0.0
 10
2.341368788838519
 20
0.0
 10
2.276375900876312
 20
0.0
 10
2.227631234904656
 20
0.0
 10
2.195134790923551
 20
0.0
 10
2.178886568933
 20
0.0
 10
1.935163239074723
 20
0.0
 10
1.935163239074723
 20
0.1462339979149672
 10
2.00015612703693
 20
0.1462339979149672
  0
LWPOLYLINE
  5
68
100
AcDbEntity
  8
USP-GEO
100
AcDbPolyline
 90
        2
 70
   129
 43
0.0
 10
1.935163239074723
 20
0.5695001807688432
 10
0.943209286551534
 20
1.740184575188102
  0
LWPOLYLINE
  5
69
100
AcDbEntity
  8
USP-GEO
100
AcDbPolyline
 90
        2
 70
   128
 43
0.0
 10
0.6669895127121528
 20
2.130141902961346
 10
0.943209286551534
 20
1.740184575188102
  0
LWPOLYLINE
  5
6A
100
AcDbEntity
  8
USP-GEO
100
AcDbPolyline
 90
        6
 70
   128
 43
0.0
 10
2.00015612703693
 20
0.1462339979149672
 10
2.00015612703693
 20
0.1787304418960716
 10
2.00015612703693
 20
0.2112268858771742
 10
2.00015612703693
 20
0.2274751078677273
 10
1.935163239074723
 20
0.2274751078677273
 10
1.935163239074723
 20
1.740184575188102
  0
LWPOLYLINE
  5
6B
100
AcDbEntity
  8
USP-GEO
100
AcDbPolyline
 90
        4
 70
   128
 43
0.0
 10
1.935163239074723
 20
1.251925504372019
 10
1.853922129121963
 20
1.154436172428708
 10
1.805177463150307
 20
0.9919539525231897
 10
1.853922129121963
 20
0.8457199546082243
  0
LWPOLYLINE
  5
6C
100
AcDbEntity
  8
USP-GEO
100
AcDbPolyline
 90
        7
 70
   128
 43
0.0
 10
1.870982762212044
 20
1.056946840485398
 10
1.870170351112516
 20
1.056946840485398
 10
1.870170351112516
 20
1.024450396504294
 10
1.870170351112516
 20
0.9919539525231897
 10
1.870170351112516
 20
0.9594575085420871
 10
1.870170351112516
 20
0.943209286551534
 10
1.870982762212044
 20
0.943209286551534
  0
LWPOLYLINE
  5
6D
100
AcDbEntity
  8
USP-GEO
100
AcDbPolyline
 90
       16
 70
   129
 43
0.0
 10
1.821425685140861
 20
0.9594575085420871
 10
1.821425685140861
 20
0.9919539525231897
 10
1.821425685140861
 20
1.024450396504294
 10
1.821425685140861
 20
1.056946840485398
 10
1.837673907131412
 20
1.073195062475949
 10
1.853922129121963
 20
1.073195062475949
 10
1.870170351112516
 20
1.073195062475949
 10
1.886418573103068
 20
1.056946840485398
 10
1.886418573103068
 20
1.024450396504294
 10
1.886418573103068
 20
0.9919539525231897
 10
1.886418573103068
 20
0.9594575085420871
 10
1.886418573103068
 20
0.943209286551534
 10
1.870170351112516
 20
0.9269610645609827
 10
1.853922129121963
 20
0.9107128425704313
 10
1.837673907131412
 20
0.9269610645609827
 10
1.821425685140861
 20
0.943209286551534
  0
LWPOLYLINE
  5
6E
100
AcDbEntity
  8
USP-GEO
100
AcDbPolyline
 90
        3
 70
   128
 43
0.0
 10
1.935163239074723
 20
0.748230622664913
 10
1.853922129121963
 20
0.8457199546082243
 10
1.821425685140861
 20
0.9594575085420871
  0
LWPOLYLINE
  5
6F
100
AcDbEntity
  8
USP-GEO
100
AcDbPolyline
 90
        4
 70
   128
 43
0.0
 10
1.935163239074723
 20
0.1462339979149672
 10
1.935163239074723
 20
0.1787304418960716
 10
1.935163239074723
 20
0.2112268858771742
 10
1.935163239074723
 20
0.2274751078677273
  0
LWPOLYLINE
  5
70
100
AcDbEntity
  8
USP-GEO
100
AcDbPolyline
 90
        2
 70
   129
 43
0.0
 10
2.00015612703693
 20
0.1462339979149672
 10
2.00015612703693
 20
0.0487446659716557
  0
LWPOLYLINE
  5
71
100
AcDbEntity
  8
USP-GEO
100
AcDbPolyline
 90
       12
 70
   129
 43
0.0
 10
1.447716579358168
 20
1.415220135377065
 10
1.431468357367617
 20
1.463964801348721
 10
1.447716579358168
 20
1.512709467320377
 10
1.48021302333927
 20
1.545205911301479
 10
1.528957689310926
 20
1.561454133292032
 10
1.577702355282582
 20
1.545205911301479
 10
1.610198799263686
 20
1.512709467320377
 10
1.610198799263686
 20
1.463964801348721
 10
1.610198799263686
 20
1.415220135377065
 10
1.577702355282582
 20
1.382723691395961
 10
1.528957689310926
 20
1.366475469405409
 10
1.48021302333927
 20
1.382723691395961
  0
LWPOLYLINE
  5
72
100
AcDbEntity
  8
USP-GEO
100
AcDbPolyline
 90
        8
 70
   128
 43
0.0
 10
3.187901154546269
 20
0.0487446659716557
 10
3.187088743446741
 20
0.0487446659716557
 10
3.219585187427846
 20
0.0487446659716557
 10
3.268329853399499
 20
0.0487446659716557
 10
3.268329853399499
 20
0.0
 10
3.219585187427846
 20
0.0
 10
3.187088743446741
 20
0.0
 10
3.187901154546269
 20
0.0
  0
LWPOLYLINE
  5
73
100
AcDbEntity
  8
USP-GEO
100
AcDbPolyline
 90
        4
 70
   128
 43
0.0
 10
2.43885812078183
 20
0.0
 10
3.187088743446741
 20
0.0
 10
3.187088743446741
 20
0.0487446659716557
 10
2.43885812078183
 20
0.0487446659716557
  0
LWPOLYLINE
  5
74
100
AcDbEntity
  8
USP-GEO
100
AcDbPolyline
 90
        8
 70
   128
 43
0.0
 10
2.341368788838519
 20
0.0
 10
2.390113454810174
 20
0.0
 10
2.422609898791279
 20
0.0
 10
2.43885812078183
 20
0.0
 10
2.43885812078183
 20
0.0487446659716557
 10
2.422609898791279
 20
0.0487446659716557
 10
2.390113454810174
 20
0.0487446659716557
 10
2.341368788838519
 20
0.0487446659716557
  0
LWPOLYLINE
  5
75
100
AcDbEntity
  8
USP-GEO
100
AcDbPolyline
 90
        3
 70
   128
 43
0.0
 10
3.674535403163297
 20
0.2274751078677273
 10
3.674535403163297
 20
1.740184575188102
 10
3.625790737191643
 20
1.740184575188102
  0
LWPOLYLINE
  5
76
100
AcDbEntity
  8
USP-GEO
100
AcDbPolyline
 90
        5
 70
   128
 43
0.0
 10
3.674535403163297
 20
0.5532519587782901
 10
3.755776513116057
 20
0.6507412907216015
 10
3.804521179087711
 20
0.8132235106271199
 10
3.755776513116057
 20
0.9594575085420871
 10
3.674535403163297
 20
1.056946840485398
  0
LWPOLYLINE
  5
77
100
AcDbEntity
  8
USP-GEO
100
AcDbPolyline
 90
        3
 70
   128
 43
0.0
 10
3.625790737191643
 20
0.0487446659716557
 10
3.43081207330502
 20
0.0487446659716557
 10
3.625790737191643
 20
0.0487446659716557
  0
LWPOLYLINE
  5
78
100
AcDbEntity
  8
USP-GEO
100
AcDbPolyline
 90
        4
 70
   128
 43
0.0
 10
3.268329853399499
 20
0.0
 10
3.333322741361708
 20
0.0
 10
3.333322741361708
 20
0.0487446659716557
 10
3.268329853399499
 20
0.0487446659716557
  0
LWPOLYLINE
  5
79
100
AcDbEntity
  8
USP-GEO
100
AcDbPolyline
 90
        8
 70
   128
 43
0.0
 10
3.333322741361708
 20
0.0
 10
3.382067407333362
 20
0.0
 10
3.414563851314468
 20
0.0
 10
3.43081207330502
 20
0.0
 10
3.43081207330502
 20
0.0487446659716557
 10
3.414563851314468
 20
0.0487446659716557
 10
3.382067407333362
 20
0.0487446659716557
 10
3.333322741361708
 20
0.0487446659716557
  0
LWPOLYLINE
  5
7A
100
AcDbEntity
  8
USP-GEO
100
AcDbPolyline
 90
        7
 70
   128
 43
0.0
 10
3.740340702225033
 20
0.748230622664913
 10
3.739528291125505
 20
0.748230622664913
 10
3.739528291125505
 20
0.7807270666460174
 10
3.739528291125505
 20
0.8132235106271199
 10
3.739528291125505
 20
0.8457199546082243
 10
3.739528291125505
 20
0.8619681765987756
 10
3.740340702225033
 20
0.8619681765987756
  0
LWPOLYLINE
  5
7B
100
AcDbEntity
  8
USP-GEO
100
AcDbPolyline
 90
       16
 70
   129
 43
0.0
 10
3.739528291125505
 20
0.748230622664913
 10
3.723280069134954
 20
0.7807270666460174
 10
3.723280069134954
 20
0.8132235106271199
 10
3.723280069134954
 20
0.8457199546082243
 10
3.739528291125505
 20
0.8619681765987756
 10
3.739528291125505
 20
0.8782163985893269
 10
3.755776513116057
 20
0.8782163985893269
 10
3.772024735106608
 20
0.8782163985893269
 10
3.788272957097159
 20
0.8619681765987756
 10
3.788272957097159
 20
0.8457199546082243
 10
3.788272957097159
 20
0.8132235106271199
 10
3.788272957097159
 20
0.7807270666460174
 10
3.788272957097159
 20
0.748230622664913
 10
3.772024735106608
 20
0.7319824006743616
 10
3.755776513116057
 20
0.7319824006743616
 10
3.739528291125505
 20
0.7319824006743616
  0
LWPOLYLINE
  5
7C
100
AcDbEntity
  8
USP-GEO
100
AcDbPolyline
 90
        4
 70
   129
 43
0.0
 10
2.00015612703693
 20
5.757557462352044
 10
2.00015612703693
 20
4.651053544795464
 10
1.935163239074723
 20
4.651053544795464
 10
1.935163239074723
 20
5.757557462352044
  0
LWPOLYLINE
  5
7D
100
AcDbEntity
  8
USP-GEO
100
AcDbPolyline
 90
       12
 70
   129
 43
0.0
 10
0.7319824006743599
 20
2.504663419843566
 10
0.7644788446554643
 20
2.537159863824669
 10
0.8132235106271181
 20
2.553408085815222
 10
0.8619681765987738
 20
2.537159863824669
 10
0.8944646205798783
 20
2.504663419843566
 10
0.9107128425704296
 20
2.472166975862462
 10
0.8944646205798783
 20
2.423422309890806
 10
0.8619681765987738
 20
2.390925865909704
 10
0.8132235106271181
 20
2.374677643919151
 10
0.7644788446554643
 20
2.390925865909704
 10
0.7319824006743599
 20
2.423422309890806
 10
0.7319824006743599
 20
2.472166975862462
  0
LWPOLYLINE
  5
7E
100
AcDbEntity
  8
USP-GEO
100
AcDbPolyline
 90
       12
 70
   129
 43
0.0
 10
0.7319824006743599
 20
4.423578436927737
 10
0.7319824006743599
 20
4.472323102899393
 10
0.7319824006743599
 20
4.504819546880497
 10
0.7644788446554643
 20
4.5373159908616
 10
0.8132235106271181
 20
4.553564212852153
 10
0.8619681765987738
 20
4.5373159908616
 10
0.8944646205798783
 20
4.504819546880497
 10
0.9107128425704296
 20
4.472323102899393
 10
0.8944646205798783
 20
4.423578436927737
 10
0.8619681765987738
 20
4.391081992946634
 10
0.8132235106271181
 20
4.374833770956083
 10
0.7644788446554643
 20
4.391081992946634
  0
LWPOLYLINE
  5
7F
100
AcDbEntity
  8
USP-GEO
100
AcDbPolyline
 90
        6
 70
   128
 43
0.0
 10
2.00015612703693
 20
3.041667156631303
 10
2.00015612703693
 20
4.00112466517339
 10
1.935163239074723
 20
4.00112466517339
 10
1.935163239074723
 20
4.17985510706946
 10
1.935163239074723
 20
4.326089104984427
 10
1.935163239074723
 20
4.407330214937186
  0
LWPOLYLINE
  5
80
100
AcDbEntity
  8
USP-GEO
100
AcDbPolyline
 90
        3
 70
   128
 43
0.0
 10
1.935163239074723
 20
2.244691867994736
 10
1.853922129121963
 20
2.342181199938048
 10
1.821425685140861
 20
2.472166975862462
  0
LWPOLYLINE
  5
81
100
AcDbEntity
  8
USP-GEO
100
AcDbPolyline
 90
        4
 70
   128
 43
0.0
 10
1.935163239074723
 20
2.748386749701843
 10
1.853922129121963
 20
2.650897417758532
 10
1.805177463150307
 20
2.488415197853013
 10
1.853922129121963
 20
2.342181199938048
  0
LWPOLYLINE
  5
82
100
AcDbEntity
  8
USP-GEO
100
AcDbPolyline
 90
       16
 70
   129
 43
0.0
 10
1.821425685140861
 20
2.472166975862462
 10
1.821425685140861
 20
2.488415197853013
 10
1.821425685140861
 20
2.520911641834118
 10
1.821425685140861
 20
2.553408085815222
 10
1.837673907131412
 20
2.569656307805773
 10
1.853922129121963
 20
2.569656307805773
 10
1.870170351112516
 20
2.569656307805773
 10
1.886418573103068
 20
2.553408085815222
 10
1.886418573103068
 20
2.520911641834118
 10
1.886418573103068
 20
2.488415197853013
 10
1.886418573103068
 20
2.472166975862462
 10
1.886418573103068
 20
2.439670531881359
 10
1.870170351112516
 20
2.423422309890806
 10
1.853922129121963
 20
2.423422309890806
 10
1.837673907131412
 20
2.423422309890806
 10
1.821425685140861
 20
2.439670531881359
  0
LWPOLYLINE
  5
83
100
AcDbEntity
  8
USP-GEO
100
AcDbPolyline
 90
       12
 70
   129
 43
0.0
 10
1.447716579358168
 20
2.927117191597913
 10
1.431468357367617
 20
2.959613635579017
 10
1.447716579358168
 20
3.008358301550673
 10
1.48021302333927
 20
3.041667156631303
 10
1.528957689310926
 20
3.057915378621856
 10
1.577702355282582
 20
3.041667156631303
 10
1.610198799263686
 20
3.008358301550673
 10
1.610198799263686
 20
2.959613635579017
 10
1.610198799263686
 20
2.927117191597913
 10
1.577702355282582
 20
2.89462074761681
 10
1.528957689310926
 20
2.878372525626257
 10
1.48021302333927
 20
2.89462074761681
  0
LWPOLYLINE
  5
84
100
AcDbEntity
  8
USP-GEO
100
AcDbPolyline
 90
        7
 70
   128
 43
0.0
 10
1.870982762212044
 20
2.553408085815222
 10
1.870170351112516
 20
2.553408085815222
 10
1.870170351112516
 20
2.520911641834118
 10
1.870170351112516
 20
2.488415197853013
 10
1.870170351112516
 20
2.472166975862462
 10
1.870170351112516
 20
2.439670531881359
 10
1.870982762212044
 20
2.439670531881359
  0
LWPOLYLINE
  5
85
100
AcDbEntity
  8
USP-GEO
100
AcDbPolyline
 90
        3
 70
   128
 43
0.0
 10
1.935163239074723
 20
3.756588924215584
 10
1.853922129121963
 20
3.854078256158896
 10
1.821425685140861
 20
3.968628221192286
  0
LWPOLYLINE
  5
86
100
AcDbEntity
  8
USP-GEO
100
AcDbPolyline
 90
        4
 70
   128
 43
0.0
 10
1.935163239074723
 20
4.244847995031667
 10
1.853922129121963
 20
4.163606885078909
 10
1.805177463150307
 20
4.00112466517339
 10
1.853922129121963
 20
3.854078256158896
  0
LWPOLYLINE
  5
87
100
AcDbEntity
  8
USP-GEO
100
AcDbPolyline
 90
       16
 70
   129
 43
0.0
 10
1.821425685140861
 20
3.968628221192286
 10
1.821425685140861
 20
4.00112466517339
 10
1.821425685140861
 20
4.033621109154493
 10
1.821425685140861
 20
4.066117553135597
 10
1.837673907131412
 20
4.082365775126149
 10
1.853922129121963
 20
4.082365775126149
 10
1.870170351112516
 20
4.082365775126149
 10
1.886418573103068
 20
4.066117553135597
 10
1.886418573103068
 20
4.033621109154493
 10
1.886418573103068
 20
4.00112466517339
 10
1.886418573103068
 20
3.968628221192286
 10
1.886418573103068
 20
3.952379999201735
 10
1.870170351112516
 20
3.936131777211183
 10
1.853922129121963
 20
3.936131777211183
 10
1.837673907131412
 20
3.936131777211183
 10
1.821425685140861
 20
3.952379999201735
  0
LWPOLYLINE
  5
88
100
AcDbEntity
  8
USP-GEO
100
AcDbPolyline
 90
       12
 70
   129
 43
0.0
 10
1.447716579358168
 20
3.91988355522063
 10
1.431468357367617
 20
3.968628221192286
 10
1.447716579358168
 20
4.017372887163942
 10
1.48021302333927
 20
4.049869331145046
 10
1.528957689310926
 20
4.049869331145046
 10
1.577702355282582
 20
4.049869331145046
 10
1.610198799263686
 20
4.017372887163942
 10
1.610198799263686
 20
3.968628221192286
 10
1.610198799263686
 20
3.91988355522063
 10
1.577702355282582
 20
3.887387111239528
 10
1.528957689310926
 20
3.870326478149447
 10
1.48021302333927
 20
3.887387111239528
  0
LWPOLYLINE
  5
89
100
AcDbEntity
  8
USP-GEO
100
AcDbPolyline
 90
        8
 70
   128
 43
0.0
 10
1.935163239074723
 20
4.651053544795464
 10
1.935163239074723
 20
4.553564212852153
 10
1.935163239074723
 20
4.472323102899393
 10
1.935163239074723
 20
4.407330214937186
 10
2.00015612703693
 20
4.407330214937186
 10
2.00015612703693
 20
4.326089104984427
 10
2.00015612703693
 20
4.17985510706946
 10
2.00015612703693
 20
4.00112466517339
  0
LWPOLYLINE
  5
8A
100
AcDbEntity
  8
USP-GEO
100
AcDbPolyline
 90
        7
 70
   128
 43
0.0
 10
1.870982762212044
 20
4.066117553135597
 10
1.870170351112516
 20
4.066117553135597
 10
1.870170351112516
 20
4.033621109154493
 10
1.870170351112516
 20
4.00112466517339
 10
1.870170351112516
 20
3.968628221192286
 10
1.870170351112516
 20
3.952379999201735
 10
1.870982762212044
 20
3.952379999201735
  0
LWPOLYLINE
  5
8B
100
AcDbEntity
  8
USP-GEO
100
AcDbPolyline
 90
        4
 70
   128
 43
0.0
 10
2.00015612703693
 20
4.407330214937186
 10
2.00015612703693
 20
4.472323102899393
 10
2.00015612703693
 20
4.553564212852153
 10
2.00015612703693
 20
4.651053544795464
  0
LWPOLYLINE
  5
8C
100
AcDbEntity
  8
USP-GEO
100
AcDbPolyline
 90
       12
 70
   129
 43
0.0
 10
0.7319824006743599
 20
6.180011234106391
 10
0.7319824006743599
 20
6.228755900078047
 10
0.7644788446554643
 20
6.261252344059151
 10
0.8132235106271181
 20
6.277500566049702
 10
0.8619681765987738
 20
6.261252344059151
 10
0.8944646205798783
 20
6.228755900078047
 10
0.9107128425704296
 20
6.180011234106391
 10
0.8944646205798783
 20
6.147514790125288
 10
0.8619681765987738
 20
6.115018346144184
 10
0.8132235106271181
 20
6.098770124153633
 10
0.7644788446554643
 20
6.115018346144184
 10
0.7319824006743599
 20
6.147514790125288
  0
LWPOLYLINE
  5
8D
100
AcDbEntity
  8
USP-GEO
100
AcDbPolyline
 90
        2
 70
   128
 43
0.0
 10
0.7644788446554643
 20
6.261252344059151
 10
0.8132235106271181
 20
6.277500566049702
  0
LWPOLYLINE
  5
8E
100
AcDbEntity
  8
USP-GEO
100
AcDbPolyline
 90
       12
 70
   129
 43
0.0
 10
1.447716579358168
 20
5.920039682257561
 10
1.431468357367617
 20
5.968784348229217
 10
1.447716579358168
 20
6.017529014200873
 10
1.48021302333927
 20
6.050025458181977
 10
1.528957689310926
 20
6.066273680172528
 10
1.577702355282582
 20
6.050025458181977
 10
1.610198799263686
 20
6.017529014200873
 10
1.610198799263686
 20
5.968784348229217
 10
1.610198799263686
 20
5.920039682257561
 10
1.577702355282582
 20
5.887543238276458
 10
1.528957689310926
 20
5.871295016285907
 10
1.48021302333927
 20
5.887543238276458
  0
LWPOLYLINE
  5
8F
100
AcDbEntity
  8
USP-GEO
100
AcDbPolyline
 90
       10
 70
   128
 43
0.0
 10
2.00015612703693
 20
5.98503257021977
 10
2.00015612703693
 20
6.115018346144184
 10
2.00015612703693
 20
6.293748788040254
 10
2.00015612703693
 20
6.505788085016956
 10
2.00015612703693
 20
6.684518526913025
 10
2.00015612703693
 20
6.814504302837441
 10
1.935163239074723
 20
6.814504302837441
 10
1.935163239074723
 20
6.863248968809097
 10
1.935163239074723
 20
6.944490078761855
 10
1.935163239074723
 20
7.041979410705167
  0
LWPOLYLINE
  5
90
100
AcDbEntity
  8
USP-GEO
100
AcDbPolyline
 90
       10
 70
   128
 43
0.0
 10
1.935163239074723
 20
6.814504302837441
 10
1.935163239074723
 20
6.684518526913025
 10
1.935163239074723
 20
6.505788085016956
 10
1.935163239074723
 20
6.293748788040254
 10
1.935163239074723
 20
6.115018346144184
 10
1.935163239074723
 20
5.98503257021977
 10
2.00015612703693
 20
5.98503257021977
 10
2.00015612703693
 20
5.936287904248114
 10
2.00015612703693
 20
5.855046794295354
 10
2.00015612703693
 20
5.757557462352044
  0
LWPOLYLINE
  5
91
100
AcDbEntity
  8
USP-GEO
100
AcDbPolyline
 90
       12
 70
   129
 43
0.0
 10
1.447716579358168
 20
4.928085729734373
 10
1.431468357367617
 20
4.960582173715476
 10
1.447716579358168
 20
5.009326839687131
 10
1.48021302333927
 20
5.041823283668236
 10
1.528957689310926
 20
5.058071505658787
 10
1.577702355282582
 20
5.041823283668236
 10
1.610198799263686
 20
5.009326839687131
 10
1.610198799263686
 20
4.960582173715476
 10
1.610198799263686
 20
4.928085729734373
 10
1.577702355282582
 20
4.895589285753269
 10
1.528957689310926
 20
4.879341063762717
 10
1.48021302333927
 20
4.895589285753269
  0
LWPOLYLINE
  5
92
100
AcDbEntity
  8
USP-GEO
100
AcDbPolyline
 90
        4
 70
   128
 43
0.0
 10
1.935163239074723
 20
5.757557462352044
 10
1.935163239074723
 20
5.855046794295354
 10
1.935163239074723
 20
5.936287904248114
 10
1.935163239074723
 20
5.98503257021977
  0
LWPOLYLINE
  5
93
100
AcDbEntity
  8
USP-GEO
100
AcDbPolyline
 90
        3
 70
   128
 43
0.0
 10
1.935163239074723
 20
6.147514790125288
 10
1.853922129121963
 20
6.245004122068598
 10
1.821425685140861
 20
6.374989897993014
  0
LWPOLYLINE
  5
94
100
AcDbEntity
  8
USP-GEO
100
AcDbPolyline
 90
        4
 70
   128
 43
0.0
 10
1.935163239074723
 20
6.652022082931923
 10
1.853922129121963
 20
6.554532750988611
 10
1.805177463150307
 20
6.391238119983565
 10
1.853922129121963
 20
6.245004122068598
  0
LWPOLYLINE
  5
95
100
AcDbEntity
  8
USP-GEO
100
AcDbPolyline
 90
       16
 70
   129
 43
0.0
 10
1.821425685140861
 20
6.374989897993014
 10
1.821425685140861
 20
6.391238119983565
 10
1.821425685140861
 20
6.42373456396467
 10
1.821425685140861
 20
6.456231007945772
 10
1.837673907131412
 20
6.473291641035851
 10
1.853922129121963
 20
6.473291641035851
 10
1.870170351112516
 20
6.473291641035851
 10
1.886418573103068
 20
6.456231007945772
 10
1.886418573103068
 20
6.42373456396467
 10
1.886418573103068
 20
6.391238119983565
 10
1.886418573103068
 20
6.374989897993014
 10
1.886418573103068
 20
6.34249345401191
 10
1.870170351112516
 20
6.326245232021358
 10
1.853922129121963
 20
6.326245232021358
 10
1.837673907131412
 20
6.326245232021358
 10
1.821425685140861
 20
6.34249345401191
  0
LWPOLYLINE
  5
96
100
AcDbEntity
  8
USP-GEO
100
AcDbPolyline
 90
       12
 70
   129
 43
0.0
 10
1.447716579358168
 20
6.928241856771304
 10
1.431468357367617
 20
6.97698652274296
 10
1.447716579358168
 20
7.009482966724062
 10
1.48021302333927
 20
7.041979410705167
 10
1.528957689310926
 20
7.058227632695718
 10
1.577702355282582
 20
7.041979410705167
 10
1.610198799263686
 20
7.009482966724062
 10
1.610198799263686
 20
6.97698652274296
 10
1.610198799263686
 20
6.928241856771304
 10
1.577702355282582
 20
6.8957454127902
 10
1.528957689310926
 20
6.879497190799648
 10
1.48021302333927
 20
6.8957454127902
  0
LWPOLYLINE
  5
97
100
AcDbEntity
  8
USP-GEO
100
AcDbPolyline
 90
        2
 70
   128
 43
0.0
 10
1.48021302333927
 20
7.041979410705167
 10
1.528957689310926
 20
7.058227632695718
  0
LWPOLYLINE
  5
98
100
AcDbEntity
  8
USP-GEO
100
AcDbPolyline
 90
        7
 70
   128
 43
0.0
 10
1.870982762212044
 20
6.456231007945772
 10
1.870170351112516
 20
6.456231007945772
 10
1.870170351112516
 20
6.42373456396467
 10
1.870170351112516
 20
6.391238119983565
 10
1.870170351112516
 20
6.374989897993014
 10
1.870170351112516
 20
6.34249345401191
 10
1.870982762212044
 20
6.34249345401191
  0
LWPOLYLINE
  5
99
100
AcDbEntity
  8
USP-GEO
100
AcDbPolyline
 90
       11
 70
   128
 43
0.0
 10
3.674535403163297
 20
4.651053544795464
 10
3.674535403163297
 20
5.561766387365894
 10
3.625790737191643
 20
5.561766387365894
 10
3.625790737191643
 20
4.651053544795464
 10
3.625790737191643
 20
4.553564212852153
 10
3.625790737191643
 20
4.472323102899393
 10
3.625790737191643
 20
4.407330214937186
 10
3.674535403163297
 20
4.407330214937186
 10
3.674535403163297
 20
4.326089104984427
 10
3.674535403163297
 20
4.17985510706946
 10
3.674535403163297
 20
4.00112466517339
  0
LWPOLYLINE
  5
9A
100
AcDbEntity
  8
USP-GEO
100
AcDbPolyline
 90
        7
 70
   128
 43
0.0
 10
3.740340702225033
 20
2.244691867994736
 10
3.739528291125505
 20
2.244691867994736
 10
3.739528291125505
 20
2.277188311975841
 10
3.739528291125505
 20
2.309684755956944
 10
3.739528291125505
 20
2.342181199938048
 10
3.739528291125505
 20
2.358429421928599
 10
3.740340702225033
 20
2.358429421928599
  0
LWPOLYLINE
  5
9B
100
AcDbEntity
  8
USP-GEO
100
AcDbPolyline
 90
        5
 70
   128
 43
0.0
 10
3.674535403163297
 20
3.561610260328963
 10
3.755776513116057
 20
3.659099592272275
 10
3.804521179087711
 20
3.80533359018724
 10
3.755776513116057
 20
3.968628221192286
 10
3.674535403163297
 20
4.066117553135597
  0
LWPOLYLINE
  5
9C
100
AcDbEntity
  8
USP-GEO
100
AcDbPolyline
 90
        4
 70
   128
 43
0.0
 10
3.625790737191643
 20
4.407330214937186
 10
3.625790737191643
 20
4.326089104984427
 10
3.625790737191643
 20
4.17985510706946
 10
3.625790737191643
 20
4.00112466517339
  0
LWPOLYLINE
  5
9D
100
AcDbEntity
  8
USP-GEO
100
AcDbPolyline
 90
        5
 70
   128
 43
0.0
 10
3.625790737191643
 20
4.651053544795464
 10
3.674535403163297
 20
4.651053544795464
 10
3.674535403163297
 20
4.553564212852153
 10
3.674535403163297
 20
4.472323102899393
 10
3.674535403163297
 20
4.407330214937186
  0
LWPOLYLINE
  5
9E
100
AcDbEntity
  8
USP-GEO
100
AcDbPolyline
 90
        7
 70
   128
 43
0.0
 10
3.740340702225033
 20
3.756588924215584
 10
3.739528291125505
 20
3.756588924215584
 10
3.739528291125505
 20
3.772837146206137
 10
3.739528291125505
 20
3.80533359018724
 10
3.739528291125505
 20
3.837830034168344
 10
3.739528291125505
 20
3.870326478149447
 10
3.740340702225033
 20
3.870326478149447
  0
LWPOLYLINE
  5
9F
100
AcDbEntity
  8
USP-GEO
100
AcDbPolyline
 90
       16
 70
   129
 43
0.0
 10
3.739528291125505
 20
3.756588924215584
 10
3.723280069134954
 20
3.772837146206137
 10
3.723280069134954
 20
3.80533359018724
 10
3.723280069134954
 20
3.837830034168344
 10
3.739528291125505
 20
3.870326478149447
 10
3.739528291125505
 20
3.887387111239528
 10
3.755776513116057
 20
3.887387111239528
 10
3.772024735106608
 20
3.887387111239528
 10
3.788272957097159
 20
3.870326478149447
 10
3.788272957097159
 20
3.837830034168344
 10
3.788272957097159
 20
3.80533359018724
 10
3.788272957097159
 20
3.772837146206137
 10
3.788272957097159
 20
3.756588924215584
 10
3.772024735106608
 20
3.740340702225033
 10
3.755776513116057
 20
3.724092480234482
 10
3.739528291125505
 20
3.740340702225033
  0
LWPOLYLINE
  5
A0
100
AcDbEntity
  8
USP-GEO
100
AcDbPolyline
 90
       12
 70
   128
 43
0.0
 10
3.625790737191643
 20
6.619525638950818
 10
3.625790737191643
 20
6.505788085016956
 10
3.625790737191643
 20
6.309997010030807
 10
3.625790737191643
 20
6.098770124153633
 10
3.625790737191643
 20
5.920039682257561
 10
3.625790737191643
 20
5.806302128323698
 10
3.674535403163297
 20
5.806302128323698
 10
3.674535403163297
 20
5.920039682257561
 10
3.674535403163297
 20
6.098770124153633
 10
3.674535403163297
 20
6.309997010030807
 10
3.674535403163297
 20
6.505788085016956
 10
3.674535403163297
 20
6.619525638950818
  0
LWPOLYLINE
  5
A1
100
AcDbEntity
  8
USP-GEO
100
AcDbPolyline
 90
        5
 70
   128
 43
0.0
 10
3.674535403163297
 20
5.968784348229217
 10
3.755776513116057
 20
6.050025458181977
 10
3.804521179087711
 20
6.212507678087495
 10
3.755776513116057
 20
6.374989897993014
 10
3.674535403163297
 20
6.456231007945772
  0
LWPOLYLINE
  5
A2
100
AcDbEntity
  8
USP-GEO
100
AcDbPolyline
 90
        4
 70
   128
 43
0.0
 10
3.625790737191643
 20
5.806302128323698
 10
3.625790737191643
 20
5.757557462352044
 10
3.625790737191643
 20
5.676316352399284
 10
3.625790737191643
 20
5.561766387365894
  0
LWPOLYLINE
  5
A3
100
AcDbEntity
  8
USP-GEO
100
AcDbPolyline
 90
        8
 70
   129
 43
0.0
 10
3.625790737191643
 20
6.668270304922474
 10
3.625790737191643
 20
6.619525638950818
 10
3.674535403163297
 20
6.619525638950818
 10
3.674535403163297
 20
6.668270304922474
 10
3.674535403163297
 20
6.749511414875232
 10
3.674535403163297
 20
6.863248968809097
 10
3.625790737191643
 20
6.863248968809097
 10
3.625790737191643
 20
6.749511414875232
  0
LWPOLYLINE
  5
A4
100
AcDbEntity
  8
USP-GEO
100
AcDbPolyline
 90
        2
 70
   128
 43
0.0
 10
3.625790737191643
 20
7.301950962553995
 10
3.625790737191643
 20
6.863248968809097
  0
LWPOLYLINE
  5
A5
100
AcDbEntity
  8
USP-GEO
100
AcDbPolyline
 90
        2
 70
   128
 43
0.0
 10
3.674535403163297
 20
6.863248968809097
 10
3.674535403163297
 20
7.301950962553995
  0
LWPOLYLINE
  5
A6
100
AcDbEntity
  8
USP-GEO
100
AcDbPolyline
 90
        7
 70
   128
 43
0.0
 10
3.740340702225033
 20
6.147514790125288
 10
3.739528291125505
 20
6.147514790125288
 10
3.739528291125505
 20
6.180011234106391
 10
3.739528291125505
 20
6.212507678087495
 10
3.739528291125505
 20
6.245004122068598
 10
3.739528291125505
 20
6.261252344059151
 10
3.740340702225033
 20
6.261252344059151
  0
LWPOLYLINE
  5
A7
100
AcDbEntity
  8
USP-GEO
100
AcDbPolyline
 90
       16
 70
   129
 43
0.0
 10
3.739528291125505
 20
6.16376301211584
 10
3.723280069134954
 20
6.180011234106391
 10
3.723280069134954
 20
6.212507678087495
 10
3.723280069134954
 20
6.245004122068598
 10
3.739528291125505
 20
6.261252344059151
 10
3.739528291125505
 20
6.277500566049702
 10
3.755776513116057
 20
6.293748788040254
 10
3.772024735106608
 20
6.277500566049702
 10
3.788272957097159
 20
6.261252344059151
 10
3.788272957097159
 20
6.245004122068598
 10
3.788272957097159
 20
6.212507678087495
 10
3.788272957097159
 20
6.180011234106391
 10
3.788272957097159
 20
6.16376301211584
 10
3.772024735106608
 20
6.131266568134735
 10
3.755776513116057
 20
6.131266568134735
 10
3.739528291125505
 20
6.131266568134735
  0
LWPOLYLINE
  5
A8
100
AcDbEntity
  8
USP-GEO
100
AcDbPolyline
 90
        2
 70
   128
 43
0.0
 10
5.609698642238022
 20
4.651053544795464
 10
5.609698642238022
 20
5.561766387365894
  0
LWPOLYLINE
  5
A9
100
AcDbEntity
  8
USP-GEO
100
AcDbPolyline
 90
        3
 70
   128
 43
0.0
 10
5.105191349431386
 20
2.569656307805773
 10
5.15393601540304
 20
3.041667156631303
 10
5.15393601540304
 20
4.00112466517339
  0
LWPOLYLINE
  5
AA
100
AcDbEntity
  8
USP-GEO
100
AcDbPolyline
 90
       12
 70
   129
 43
0.0
 10
4.71523402165814
 20
2.504663419843566
 10
4.747730465639246
 20
2.537159863824669
 10
4.7964751316109
 20
2.553408085815222
 10
4.845219797582558
 20
2.537159863824669
 10
4.877716241563661
 20
2.504663419843566
 10
4.877716241563661
 20
2.472166975862462
 10
4.877716241563661
 20
2.423422309890806
 10
4.845219797582558
 20
2.390925865909704
 10
4.7964751316109
 20
2.374677643919151
 10
4.747730465639246
 20
2.390925865909704
 10
4.71523402165814
 20
2.423422309890806
 10
4.698985799667589
 20
2.472166975862462
  0
LWPOLYLINE
  5
AB
100
AcDbEntity
  8
USP-GEO
100
AcDbPolyline
 90
       12
 70
   129
 43
0.0
 10
4.698985799667589
 20
4.472323102899393
 10
4.71523402165814
 20
4.504819546880497
 10
4.747730465639246
 20
4.5373159908616
 10
4.7964751316109
 20
4.553564212852153
 10
4.845219797582558
 20
4.5373159908616
 10
4.877716241563661
 20
4.504819546880497
 10
4.877716241563661
 20
4.472323102899393
 10
4.877716241563661
 20
4.423578436927737
 10
4.845219797582558
 20
4.391081992946634
 10
4.7964751316109
 20
4.374833770956083
 10
4.747730465639246
 20
4.391081992946634
 10
4.71523402165814
 20
4.423578436927737
  0
LWPOLYLINE
  5
AC
100
AcDbEntity
  8
USP-GEO
100
AcDbPolyline
 90
        2
 70
   128
 43
0.0
 10
5.300170013318009
 20
4.326089104984427
 10
5.447216422332502
 20
4.407330214937186
  0
LWPOLYLINE
  5
AD
100
AcDbEntity
  8
USP-GEO
100
AcDbPolyline
 90
       12
 70
   129
 43
0.0
 10
4.698985799667589
 20
6.180011234106391
 10
4.71523402165814
 20
6.228755900078047
 10
4.747730465639246
 20
6.261252344059151
 10
4.7964751316109
 20
6.277500566049702
 10
4.845219797582558
 20
6.261252344059151
 10
4.877716241563661
 20
6.228755900078047
 10
4.877716241563661
 20
6.180011234106391
 10
4.877716241563661
 20
6.147514790125288
 10
4.845219797582558
 20
6.115018346144184
 10
4.7964751316109
 20
6.098770124153633
 10
4.747730465639246
 20
6.115018346144184
 10
4.71523402165814
 20
6.147514790125288
  0
LWPOLYLINE
  5
AE
100
AcDbEntity
  8
USP-GEO
100
AcDbPolyline
 90
       12
 70
   129
 43
0.0
 10
5.218928903365249
 20
5.269298391535961
 10
5.251425347346351
 20
5.301794835517064
 10
5.300170013318009
 20
5.301794835517064
 10
5.348914679289663
 20
5.301794835517064
 10
5.381411123270769
 20
5.269298391535961
 10
5.39765934526132
 20
5.220553725564306
 10
5.381411123270769
 20
5.17180905959265
 10
5.348914679289663
 20
5.139312615611546
 10
5.300170013318009
 20
5.123064393620994
 10
5.251425347346351
 20
5.139312615611546
 10
5.218928903365249
 20
5.17180905959265
 10
5.218928903365249
 20
5.220553725564306
  0
LWPOLYLINE
  5
AF
100
AcDbEntity
  8
USP-GEO
100
AcDbPolyline
 90
       12
 70
   129
 43
0.0
 10
5.218928903365249
 20
6.97698652274296
 10
5.218928903365249
 20
7.009482966724062
 10
5.251425347346351
 20
7.041979410705167
 10
5.300170013318009
 20
7.058227632695718
 10
5.348914679289663
 20
7.041979410705167
 10
5.381411123270769
 20
7.009482966724062
 10
5.39765934526132
 20
6.97698652274296
 10
5.381411123270769
 20
6.928241856771304
 10
5.348914679289663
 20
6.8957454127902
 10
5.300170013318009
 20
6.879497190799648
 10
5.251425347346351
 20
6.8957454127902
 10
5.218928903365249
 20
6.928241856771304
  0
LWPOLYLINE
  5
B0
100
AcDbEntity
  8
USP-GEO
100
AcDbPolyline
 90
        2
 70
   128
 43
0.0
 10
5.609698642238022
 20
6.863248968809097
 10
5.609698642238022
 20
7.301950962553995
  0
LWPOLYLINE
  5
B1
100
AcDbEntity
  8
USP-GEO
100
AcDbPolyline
 90
       12
 70
   129
 43
0.0
 10
3.999499842974334
 20
7.968940475266149
 10
3.999499842974334
 20
8.017685141237803
 10
4.031996286955436
 20
8.050181585218908
 10
4.081553364026621
 20
8.066429807209461
 10
4.130298029998275
 20
8.050181585218908
 10
4.162794473979378
 20
8.017685141237803
 10
4.179042695969933
 20
7.968940475266149
 10
4.162794473979378
 20
7.920195809294492
 10
4.130298029998275
 20
7.887699365313389
 10
4.081553364026621
 20
7.887699365313389
 10
4.031996286955436
 20
7.887699365313389
 10
3.999499842974334
 20
7.920195809294492
  0
LWPOLYLINE
  5
B2
100
AcDbEntity
  8
USP-GEO
100
AcDbPolyline
 90
       12
 70
   129
 43
0.0
 10
3.999499842974334
 20
8.97714264977989
 10
3.999499842974334
 20
9.009639093760993
 10
4.031996286955436
 20
9.042135537742097
 10
4.081553364026621
 20
9.059196170832176
 10
4.130298029998275
 20
9.042135537742097
 10
4.162794473979378
 20
9.009639093760993
 10
4.179042695969933
 20
8.97714264977989
 10
4.162794473979378
 20
8.928397983808235
 10
4.130298029998275
 20
8.89590153982713
 10
4.081553364026621
 20
8.879653317836579
 10
4.031996286955436
 20
8.89590153982713
 10
3.999499842974334
 20
8.928397983808235
  0
LWPOLYLINE
  5
B3
100
AcDbEntity
  8
USP-GEO
100
AcDbPolyline
 90
        6
 70
   128
 43
0.0
 10
5.593450420247467
 20
8.489695990063335
 10
5.609698642238022
 20
8.587185322006645
 10
5.609698642238022
 20
9.254174834718799
 10
3.674535403163297
 20
9.254174834718799
 10
3.625790737191643
 20
9.254174834718799
 10
3.625790737191643
 20
8.587185322006645
  0
LWPOLYLINE
  5
B4
100
AcDbEntity
  8
USP-GEO
100
AcDbPolyline
 90
       12
 70
   129
 43
0.0
 10
0.7319824006743599
 20
8.229724438214505
 10
0.7644788446554643
 20
8.26222088219561
 10
0.8132235106271181
 20
8.278469104186161
 10
0.8619681765987738
 20
8.26222088219561
 10
0.8944646205798783
 20
8.229724438214505
 10
0.9107128425704296
 20
8.197227994233402
 10
0.8944646205798783
 20
8.147670917162217
 10
0.8619681765987738
 20
8.115174473181115
 10
0.8132235106271181
 20
8.098926251190563
 10
0.7644788446554643
 20
8.115174473181115
 10
0.7319824006743599
 20
8.147670917162217
 10
0.7319824006743599
 20
8.197227994233402
  0
LWPOLYLINE
  5
B5
100
AcDbEntity
  8
USP-GEO
100
AcDbPolyline
 90
        2
 70
   128
 43
0.0
 10
0.7644788446554643
 20
8.26222088219561
 10
0.8132235106271181
 20
8.278469104186161
  0
LWPOLYLINE
  5
B6
100
AcDbEntity
  8
USP-GEO
100
AcDbPolyline
 90
       10
 70
   128
 43
0.0
 10
2.00015612703693
 20
7.725217145407871
 10
2.00015612703693
 20
7.838954699341734
 10
2.00015612703693
 20
8.017685141237803
 10
2.00015612703693
 20
8.229724438214505
 10
2.00015612703693
 20
8.424703102101128
 10
2.00015612703693
 20
8.538440656034991
 10
1.935163239074723
 20
8.538440656034991
 10
1.935163239074723
 20
8.587185322006645
 10
1.935163239074723
 20
8.668426431959405
 10
1.935163239074723
 20
8.765915763902716
  0
LWPOLYLINE
  5
B7
100
AcDbEntity
  8
USP-GEO
100
AcDbPolyline
 90
        3
 70
   128
 43
0.0
 10
1.935163239074723
 20
7.871451143322838
 10
1.853922129121963
 20
7.968940475266149
 10
1.821425685140861
 20
8.098926251190563
  0
LWPOLYLINE
  5
B8
100
AcDbEntity
  8
USP-GEO
100
AcDbPolyline
 90
        4
 70
   128
 43
0.0
 10
1.935163239074723
 20
8.375958436129472
 10
1.853922129121963
 20
8.278469104186161
 10
1.805177463150307
 20
8.131422695171666
 10
1.853922129121963
 20
7.968940475266149
  0
LWPOLYLINE
  5
B9
100
AcDbEntity
  8
USP-GEO
100
AcDbPolyline
 90
       16
 70
   129
 43
0.0
 10
1.821425685140861
 20
8.098926251190563
 10
1.821425685140861
 20
8.131422695171666
 10
1.821425685140861
 20
8.163919139152771
 10
1.821425685140861
 20
8.180167361143324
 10
1.837673907131412
 20
8.197227994233402
 10
1.853922129121963
 20
8.197227994233402
 10
1.870170351112516
 20
8.197227994233402
 10
1.886418573103068
 20
8.180167361143324
 10
1.886418573103068
 20
8.163919139152771
 10
1.886418573103068
 20
8.131422695171666
 10
1.886418573103068
 20
8.098926251190563
 10
1.886418573103068
 20
8.066429807209461
 10
1.870170351112516
 20
8.050181585218908
 10
1.853922129121963
 20
8.050181585218908
 10
1.837673907131412
 20
8.050181585218908
 10
1.821425685140861
 20
8.066429807209461
  0
LWPOLYLINE
  5
BA
100
AcDbEntity
  8
USP-GEO
100
AcDbPolyline
 90
       12
 70
   129
 43
0.0
 10
1.447716579358168
 20
7.920195809294492
 10
1.431468357367617
 20
7.968940475266149
 10
1.447716579358168
 20
8.017685141237803
 10
1.48021302333927
 20
8.050181585218908
 10
1.528957689310926
 20
8.066429807209461
 10
1.577702355282582
 20
8.050181585218908
 10
1.610198799263686
 20
8.017685141237803
 10
1.610198799263686
 20
7.968940475266149
 10
1.610198799263686
 20
7.920195809294492
 10
1.577702355282582
 20
7.887699365313389
 10
1.528957689310926
 20
7.887699365313389
 10
1.48021302333927
 20
7.887699365313389
  0
LWPOLYLINE
  5
BB
100
AcDbEntity
  8
USP-GEO
100
AcDbPolyline
 90
        2
 70
   128
 43
0.0
 10
1.48021302333927
 20
8.050181585218908
 10
1.528957689310926
 20
8.066429807209461
  0
LWPOLYLINE
  5
BC
100
AcDbEntity
  8
USP-GEO
100
AcDbPolyline
 90
       10
 70
   128
 43
0.0
 10
1.935163239074723
 20
8.538440656034991
 10
1.935163239074723
 20
8.424703102101128
 10
1.935163239074723
 20
8.229724438214505
 10
1.935163239074723
 20
8.017685141237803
 10
1.935163239074723
 20
7.838954699341734
 10
1.935163239074723
 20
7.725217145407871
 10
2.00015612703693
 20
7.725217145407871
 10
2.00015612703693
 20
7.660224257445664
 10
2.00015612703693
 20
7.578983147492904
 10
2.00015612703693
 20
7.481493815549594
  0
LWPOLYLINE
  5
BD
100
AcDbEntity
  8
USP-GEO
100
AcDbPolyline
 90
        7
 70
   128
 43
0.0
 10
1.870982762212044
 20
8.180167361143324
 10
1.870170351112516
 20
8.180167361143324
 10
1.870170351112516
 20
8.163919139152771
 10
1.870170351112516
 20
8.131422695171666
 10
1.870170351112516
 20
8.098926251190563
 10
1.870170351112516
 20
8.066429807209461
 10
1.870982762212044
 20
8.066429807209461
  0
LWPOLYLINE
  5
BE
100
AcDbEntity
  8
USP-GEO
100
AcDbPolyline
 90
       12
 70
   129
 43
0.0
 10
1.447716579358168
 20
9.009639093760993
 10
1.48021302333927
 20
9.042135537742097
 10
1.528957689310926
 20
9.059196170832176
 10
1.577702355282582
 20
9.042135537742097
 10
1.610198799263686
 20
9.009639093760993
 10
1.610198799263686
 20
8.97714264977989
 10
1.610198799263686
 20
8.928397983808235
 10
1.577702355282582
 20
8.89590153982713
 10
1.528957689310926
 20
8.879653317836579
 10
1.48021302333927
 20
8.89590153982713
 10
1.447716579358168
 20
8.928397983808235
 10
1.431468357367617
 20
8.97714264977989
  0
LWPOLYLINE
  5
BF
100
AcDbEntity
  8
USP-GEO
100
AcDbPolyline
 90
        2
 70
   128
 43
0.0
 10
1.48021302333927
 20
9.042135537742097
 10
1.528957689310926
 20
9.059196170832176
  0
LWPOLYLINE
  5
C0
100
AcDbEntity
  8
USP-GEO
100
AcDbPolyline
 90
        2
 70
   129
 43
0.0
 10
2.00015612703693
 20
9.254174834718799
 10
2.00015612703693
 20
8.765915763902716
  0
LWPOLYLINE
  5
C1
100
AcDbEntity
  8
USP-GEO
100
AcDbPolyline
 90
        5
 70
   128
 43
0.0
 10
3.674535403163297
 20
7.692720701426766
 10
3.755776513116057
 20
7.790210033370078
 10
3.804521179087711
 20
7.936444031285045
 10
3.755776513116057
 20
8.098926251190563
 10
3.674535403163297
 20
8.197227994233402
  0
LWPOLYLINE
  5
C2
100
AcDbEntity
  8
USP-GEO
100
AcDbPolyline
 90
       12
 70
   128
 43
0.0
 10
3.625790737191643
 20
8.343461992148368
 10
3.625790737191643
 20
8.229724438214505
 10
3.625790737191643
 20
8.050181585218908
 10
3.625790737191643
 20
7.838954699341734
 10
3.625790737191643
 20
7.643976035455112
 10
3.625790737191643
 20
7.53023848152125
 10
3.674535403163297
 20
7.53023848152125
 10
3.674535403163297
 20
7.643976035455112
 10
3.674535403163297
 20
7.838954699341734
 10
3.674535403163297
 20
8.050181585218908
 10
3.674535403163297
 20
8.229724438214505
 10
3.674535403163297
 20
8.343461992148368
  0
LWPOLYLINE
  5
C3
100
AcDbEntity
  8
USP-GEO
100
AcDbPolyline
 90
        8
 70
   129
 43
0.0
 10
3.674535403163297
 20
8.489695990063335
 10
3.674535403163297
 20
8.587185322006645
 10
3.625790737191643
 20
8.587185322006645
 10
3.625790737191643
 20
8.489695990063335
 10
3.625790737191643
 20
8.392206658120024
 10
3.625790737191643
 20
8.343461992148368
 10
3.674535403163297
 20
8.343461992148368
 10
3.674535403163297
 20
8.392206658120024
  0
LWPOLYLINE
  5
C4
100
AcDbEntity
  8
USP-GEO
100
AcDbPolyline
 90
        5
 70
   128
 43
0.0
 10
3.739528291125505
 20
7.887699365313389
 10
3.739528291125505
 20
7.903947587303941
 10
3.739528291125505
 20
7.936444031285045
 10
3.739528291125505
 20
7.968940475266149
 10
3.739528291125505
 20
8.001436919247252
  0
LWPOLYLINE
  5
C5
100
AcDbEntity
  8
USP-GEO
100
AcDbPolyline
 90
       16
 70
   129
 43
0.0
 10
3.723280069134954
 20
7.968940475266149
 10
3.739528291125505
 20
8.001436919247252
 10
3.739528291125505
 20
8.017685141237803
 10
3.755776513116057
 20
8.017685141237803
 10
3.772024735106608
 20
8.017685141237803
 10
3.788272957097159
 20
8.001436919247252
 10
3.788272957097159
 20
7.968940475266149
 10
3.788272957097159
 20
7.936444031285045
 10
3.788272957097159
 20
7.903947587303941
 10
3.788272957097159
 20
7.887699365313389
 10
3.772024735106608
 20
7.871451143322838
 10
3.755776513116057
 20
7.855202921332287
 10
3.739528291125505
 20
7.871451143322838
 10
3.739528291125505
 20
7.887699365313389
 10
3.723280069134954
 20
7.903947587303941
 10
3.723280069134954
 20
7.936444031285045
  0
LWPOLYLINE
  5
C6
100
AcDbEntity
  8
USP-GEO
100
AcDbPolyline
 90
       12
 70
   129
 43
0.0
 10
4.71523402165814
 20
8.147670917162217
 10
4.698985799667589
 20
8.197227994233402
 10
4.71523402165814
 20
8.229724438214505
 10
4.747730465639246
 20
8.26222088219561
 10
4.7964751316109
 20
8.278469104186161
 10
4.845219797582558
 20
8.26222088219561
 10
4.877716241563661
 20
8.229724438214505
 10
4.877716241563661
 20
8.197227994233402
 10
4.877716241563661
 20
8.147670917162217
 10
4.845219797582558
 20
8.115174473181115
 10
4.7964751316109
 20
8.098926251190563
 10
4.747730465639246
 20
8.115174473181115
  0
LWPOLYLINE
  5
C7
100
AcDbEntity
  8
USP-GEO
100
AcDbPolyline
 90
       12
 70
   129
 43
0.0
 10
5.218928903365249
 20
9.009639093760993
 10
5.251425347346351
 20
9.042135537742097
 10
5.300170013318009
 20
9.059196170832176
 10
5.348914679289663
 20
9.042135537742097
 10
5.381411123270769
 20
9.009639093760993
 10
5.39765934526132
 20
8.97714264977989
 10
5.381411123270769
 20
8.928397983808235
 10
5.348914679289663
 20
8.89590153982713
 10
5.300170013318009
 20
8.879653317836579
 10
5.251425347346351
 20
8.89590153982713
 10
5.218928903365249
 20
8.928397983808235
 10
5.218928903365249
 20
8.97714264977989
  0
ENDBLK
  5
C9
100
AcDbEntity
  8
0
100
AcDbBlockEnd
  0
BLOCK
  5
110
100
AcDbEntity
  8
0
100
AcDbBlockBegin
  2
HUS210_S
 70
     0
 10
0.0
 20
0.0
 30
0.0
  3
HUS210_S
  1

  0
LWPOLYLINE
  5
CC
100
AcDbEntity
  8
USP-GEO
100
AcDbPolyline
 90
        2
 70
   128
 43
0.0
 10
0.0487446659716548
 20
7.041979410705167
 10
0.0487446659716548
 20
7.481493815549594
  0
LWPOLYLINE
  5
CD
100
AcDbEntity
  8
USP-GEO
100
AcDbPolyline
 90
       77
 70
   128
 43
0.0
 10
0.0487446659716548
 20
8.765915763902716
 10
0.0487446659716548
 20
9.254174834718799
 10
0.0487446659716548
 20
8.765915763902716
 10
0.0487446659716548
 20
8.668426431959405
 10
0.0487446659716548
 20
8.587185322006645
 10
0.0487446659716548
 20
8.538440656034991
 10
0.0487446659716548
 20
8.424703102101128
 10
0.0487446659716548
 20
8.229724438214505
 10
0.0487446659716548
 20
8.017685141237803
 10
0.0487446659716548
 20
7.838954699341734
 10
0.0487446659716548
 20
7.725217145407871
 10
0.0487446659716548
 20
7.660224257445664
 10
0.0487446659716548
 20
7.578983147492904
 10
0.0487446659716548
 20
7.481493815549594
 10
0.0487446659716548
 20
7.041979410705167
 10
0.0487446659716548
 20
6.944490078761855
 10
0.0487446659716548
 20
6.863248968809097
 10
0.0487446659716548
 20
6.814504302837441
 10
0.0487446659716548
 20
6.684518526913025
 10
0.0487446659716548
 20
6.505788085016956
 10
0.0487446659716548
 20
6.293748788040254
 10
0.0487446659716548
 20
6.115018346144184
 10
0.0487446659716548
 20
5.98503257021977
 10
0.0487446659716548
 20
5.936287904248114
 10
0.0487446659716548
 20
5.855046794295354
 10
0.0487446659716548
 20
5.757557462352044
 10
0.0487446659716548
 20
4.651053544795464
 10
0.0487446659716548
 20
4.553564212852153
 10
0.0487446659716548
 20
4.472323102899393
 10
0.0487446659716548
 20
4.407330214937186
 10
0.0487446659716548
 20
4.326089104984427
 10
0.0487446659716548
 20
4.17985510706946
 10
0.0487446659716548
 20
4.00112466517339
 10
0.0487446659716548
 20
3.041667156631303
 10
0.0487446659716548
 20
2.569656307805773
 10
0.0487446659716548
 20
2.130141902961346
 10
0.0487446659716548
 20
1.740184575188102
 10
0.0487446659716548
 20
0.5695001807688432
 10
0.0
 20
0.5695001807688432
 10
0.0
 20
1.740184575188102
 10
0.0
 20
2.130141902961346
 10
0.0
 20
2.569656307805773
 10
0.0
 20
3.041667156631303
 10
0.0
 20
4.00112466517339
 10
0.0
 20
4.17985510706946
 10
0.0
 20
4.326089104984427
 10
0.0
 20
4.407330214937186
 10
0.0
 20
4.472323102899393
 10
0.0
 20
4.553564212852153
 10
0.0
 20
4.651053544795464
 10
0.0
 20
5.757557462352044
 10
0.0
 20
5.855046794295354
 10
0.0
 20
5.936287904248114
 10
0.0
 20
5.98503257021977
 10
0.0
 20
6.115018346144184
 10
0.0
 20
6.293748788040254
 10
0.0
 20
6.505788085016956
 10
0.0
 20
6.684518526913025
 10
0.0
 20
6.814504302837441
 10
0.0
 20
6.863248968809097
 10
0.0
 20
6.944490078761855
 10
0.0
 20
7.041979410705167
 10
0.0
 20
7.481493815549594
 10
0.0
 20
7.578983147492904
 10
0.0
 20
7.660224257445664
 10
0.0
 20
7.725217145407871
 10
0.0
 20
7.838954699341734
 10
0.0
 20
8.017685141237803
 10
0.0
 20
8.229724438214505
 10
0.0
 20
8.424703102101128
 10
0.0
 20
8.538440656034991
 10
0.0
 20
8.587185322006645
 10
0.0
 20
8.668426431959405
 10
0.0
 20
8.765915763902716
 10
0.0
 20
9.254174834718799
 10
0.0487446659716548
 20
9.254174834718799
 10
1.121939728447604
 20
9.254174834718799
  0
LWPOLYLINE
  5
CE
100
AcDbEntity
  8
USP-GEO
100
AcDbPolyline
 90
        7
 70
   128
 43
0.0
 10
1.560641722192504
 20
8.017685141237803
 10
1.560641722192504
 20
7.838954699341734
 10
1.463152390249192
 20
7.643976035455112
 10
1.284421948353123
 20
7.53023848152125
 10
1.203180838400363
 20
7.481493815549594
 10
1.138187950438156
 20
7.400252705596834
 10
1.121939728447604
 20
7.301950962553995
  0
LWPOLYLINE
  5
CF
100
AcDbEntity
  8
USP-GEO
100
AcDbPolyline
 90
       10
 70
   128
 43
0.0
 10
0.0487446659716548
 20
7.725217145407871
 10
0.0487446659716548
 20
7.660224257445664
 10
0.0487446659716548
 20
7.578983147492904
 10
0.0487446659716548
 20
7.481493815549594
 10
0.0
 20
7.481493815549594
 10
0.0
 20
7.041979410705167
 10
0.0487446659716548
 20
7.041979410705167
 10
0.0487446659716548
 20
6.944490078761855
 10
0.0487446659716548
 20
6.863248968809097
 10
0.0487446659716548
 20
6.814504302837441
  0
LWPOLYLINE
  5
D0
100
AcDbEntity
  8
USP-GEO
100
AcDbPolyline
 90
        2
 70
   129
 43
0.0
 10
1.121939728447604
 20
7.481493815549594
 10
1.121939728447604
 20
7.041979410705167
  0
LWPOLYLINE
  5
D1
100
AcDbEntity
  8
USP-GEO
100
AcDbPolyline
 90
        6
 70
   128
 43
0.0
 10
3.365006774243284
 20
0.0
 10
0.3737091057826918
 20
0.0
 10
0.3737091057826918
 20
0.1462339979149672
 10
0.3574608837921405
 20
0.1787304418960716
 10
0.3574608837921405
 20
0.2112268858771742
 10
0.3412126618015874
 20
0.2274751078677273
  0
LWPOLYLINE
  5
D2
100
AcDbEntity
  8
USP-GEO
100
AcDbPolyline
 90
        3
 70
   128
 43
0.0
 10
0.3737091057826918
 20
0.1462339979149672
 10
0.3737091057826918
 20
0.0
 10
3.365006774243284
 20
0.0
  0
LWPOLYLINE
  5
D3
100
AcDbEntity
  8
USP-GEO
100
AcDbPolyline
 90
        5
 70
   128
 43
0.0
 10
3.332510330262182
 20
0.2274751078677273
 10
2.048088381909058
 20
1.740184575188102
 10
1.788116830060229
 20
2.130141902961346
 10
1.625634610154711
 20
2.569656307805773
 10
1.576889944183055
 20
3.041667156631303
  0
LWPOLYLINE
  5
D4
100
AcDbEntity
  8
USP-GEO
100
AcDbPolyline
 90
        2
 70
   128
 43
0.0
 10
1.625634610154711
 20
2.569656307805773
 10
1.576889944183055
 20
3.041667156631303
  0
LWPOLYLINE
  5
D5
100
AcDbEntity
  8
USP-GEO
100
AcDbPolyline
 90
        2
 70
   128
 43
0.0
 10
3.365006774243284
 20
0.0487446659716557
 10
0.3737091057826918
 20
0.0487446659716557
  0
TEXT
  5
D6
100
AcDbEntity
  8
USP-TXT
100
AcDbText
 10
-0.6235061701837639
 20
-0.8143243517028064
 30
0.0
 40
0.203125
  1
HUS210 - LEFT SIDE VIEW
 72
     1
 11
1.627795913149569
 21
-0.8143243517028064
 31
0.0
100
AcDbText
  0
LWPOLYLINE
  5
D7
100
AcDbEntity
  8
USP-GEO
100
AcDbPolyline
 90
        4
 70
   128
 43
0.0
 10
0.0
 20
3.041667156631303
 10
0.0
 20
2.569656307805773
 10
0.0
 20
2.130141902961346
 10
0.0
 20
1.740184575188102
  0
LWPOLYLINE
  5
D8
100
AcDbEntity
  8
USP-GEO
100
AcDbPolyline
 90
        4
 70
   128
 43
0.0
 10
0.0487446659716548
 20
1.740184575188102
 10
0.0487446659716548
 20
2.130141902961346
 10
0.0487446659716548
 20
2.569656307805773
 10
0.0487446659716548
 20
3.041667156631303
  0
LWPOLYLINE
  5
D9
100
AcDbEntity
  8
USP-GEO
100
AcDbPolyline
 90
        4
 70
   129
 43
0.0
 10
0.0487446659716548
 20
0.5695001807688432
 10
0.0487446659716548
 20
1.740184575188102
 10
0.0
 20
1.740184575188102
 10
0.0
 20
0.5695001807688432
  0
LWPOLYLINE
  5
DA
100
AcDbEntity
  8
USP-GEO
100
AcDbPolyline
 90
        2
 70
   129
 43
0.0
 10
0.3412126618015874
 20
0.2274751078677273
 10
0.0487446659716548
 20
0.5695001807688432
  0
LWPOLYLINE
  5
DB
100
AcDbEntity
  8
USP-GEO
100
AcDbPolyline
 90
       12
 70
   129
 43
0.0
 10
1.26817372636257
 20
0.9269610645609827
 10
1.300670170343674
 20
0.943209286551534
 10
1.316918392334225
 20
0.9594575085420871
 10
1.316918392334225
 20
0.9919539525231897
 10
1.316918392334225
 20
1.024450396504294
 10
1.300670170343674
 20
1.056946840485398
 10
1.26817372636257
 20
1.073195062475949
 10
1.235677282381467
 20
1.056946840485398
 10
1.219429060390914
 20
1.024450396504294
 10
1.219429060390914
 20
0.9919539525231897
 10
1.219429060390914
 20
0.9594575085420871
 10
1.235677282381467
 20
0.943209286551534
  0
LWPOLYLINE
  5
DC
100
AcDbEntity
  8
USP-GEO
100
AcDbPolyline
 90
       13
 70
   128
 43
0.0
 10
1.268986137462097
 20
0.9269610645609827
 10
1.26817372636257
 20
0.9269610645609827
 10
1.284421948353123
 20
0.9107128425704313
 10
1.316918392334225
 20
0.9269610645609827
 10
1.333166614324777
 20
0.943209286551534
 10
1.34941483631533
 20
0.9594575085420871
 10
1.365663058305881
 20
0.9919539525231897
 10
1.34941483631533
 20
1.024450396504294
 10
1.333166614324777
 20
1.056946840485398
 10
1.316918392334225
 20
1.073195062475949
 10
1.284421948353123
 20
1.073195062475949
 10
1.26817372636257
 20
1.073195062475949
 10
1.268986137462097
 20
1.073195062475949
  0
LWPOLYLINE
  5
DD
100
AcDbEntity
  8
USP-GEO
100
AcDbPolyline
 90
        3
 70
   128
 43
0.0
 10
1.300670170343674
 20
0.943209286551534
 10
1.251925504372018
 20
0.9919539525231897
 10
1.219429060390914
 20
1.008202174513742
  0
LWPOLYLINE
  5
DE
100
AcDbEntity
  8
USP-GEO
100
AcDbPolyline
 90
       12
 70
   129
 43
0.0
 10
0.8936522094803498
 20
0.9919539525231897
 10
0.9269610645609818
 20
1.121939728447605
 10
1.024450396504293
 20
1.219429060390915
 10
1.154436172428707
 20
1.251925504372019
 10
1.26817372636257
 20
1.219429060390915
 10
1.365663058305881
 20
1.121939728447605
 10
1.398159502286985
 20
0.9919539525231897
 10
1.365663058305881
 20
0.8619681765987756
 10
1.26817372636257
 20
0.7807270666460174
 10
1.154436172428707
 20
0.748230622664913
 10
1.024450396504293
 20
0.7807270666460174
 10
0.9269610645609818
 20
0.8619681765987756
  0
LWPOLYLINE
  5
DF
100
AcDbEntity
  8
USP-GEO
100
AcDbPolyline
 90
        4
 70
   128
 43
0.0
 10
0.0
 20
5.757557462352044
 10
0.0
 20
4.651053544795464
 10
0.0487446659716548
 20
4.651053544795464
 10
0.0487446659716548
 20
5.757557462352044
  0
LWPOLYLINE
  5
E0
100
AcDbEntity
  8
USP-GEO
100
AcDbPolyline
 90
        2
 70
   129
 43
0.0
 10
1.121939728447604
 20
5.757557462352044
 10
1.121939728447604
 20
4.651053544795464
  0
LWPOLYLINE
  5
E1
100
AcDbEntity
  8
USP-GEO
100
AcDbPolyline
 90
        4
 70
   128
 43
0.0
 10
0.0
 20
4.00112466517339
 10
0.0
 20
3.041667156631303
 10
0.0487446659716548
 20
3.041667156631303
 10
0.0487446659716548
 20
4.00112466517339
  0
LWPOLYLINE
  5
E2
100
AcDbEntity
  8
USP-GEO
100
AcDbPolyline
 90
        8
 70
   128
 43
0.0
 10
0.0
 20
4.407330214937186
 10
0.0
 20
4.326089104984427
 10
0.0
 20
4.17985510706946
 10
0.0
 20
4.00112466517339
 10
0.0487446659716548
 20
4.00112466517339
 10
0.0487446659716548
 20
4.17985510706946
 10
0.0487446659716548
 20
4.326089104984427
 10
0.0487446659716548
 20
4.407330214937186
  0
LWPOLYLINE
  5
E3
100
AcDbEntity
  8
USP-GEO
100
AcDbPolyline
 90
        8
 70
   128
 43
0.0
 10
0.0
 20
4.651053544795464
 10
0.0
 20
4.553564212852153
 10
0.0
 20
4.472323102899393
 10
0.0
 20
4.407330214937186
 10
0.0487446659716548
 20
4.407330214937186
 10
0.0487446659716548
 20
4.472323102899393
 10
0.0487446659716548
 20
4.553564212852153
 10
0.0487446659716548
 20
4.651053544795464
  0
LWPOLYLINE
  5
E4
100
AcDbEntity
  8
USP-GEO
100
AcDbPolyline
 90
        2
 70
   129
 43
0.0
 10
1.576889944183055
 20
4.00112466517339
 10
1.576889944183055
 20
3.041667156631303
  0
LWPOLYLINE
  5
E5
100
AcDbEntity
  8
USP-GEO
100
AcDbPolyline
 90
       12
 70
   129
 43
0.0
 10
1.024450396504293
 20
2.277188311975841
 10
0.9269610645609818
 20
2.374677643919151
 10
0.8936522094803498
 20
2.488415197853013
 10
0.9269610645609818
 20
2.618400973777429
 10
1.024450396504293
 20
2.715890305720741
 10
1.154436172428707
 20
2.748386749701843
 10
1.26817372636257
 20
2.715890305720741
 10
1.365663058305881
 20
2.618400973777429
 10
1.398159502286985
 20
2.488415197853013
 10
1.365663058305881
 20
2.374677643919151
 10
1.26817372636257
 20
2.277188311975841
 10
1.154436172428707
 20
2.244691867994736
  0
LWPOLYLINE
  5
E6
100
AcDbEntity
  8
USP-GEO
100
AcDbPolyline
 90
       12
 70
   129
 43
0.0
 10
1.26817372636257
 20
2.423422309890806
 10
1.300670170343674
 20
2.439670531881359
 10
1.316918392334225
 20
2.472166975862462
 10
1.316918392334225
 20
2.488415197853013
 10
1.316918392334225
 20
2.520911641834118
 10
1.300670170343674
 20
2.553408085815222
 10
1.26817372636257
 20
2.569656307805773
 10
1.235677282381467
 20
2.553408085815222
 10
1.219429060390914
 20
2.520911641834118
 10
1.219429060390914
 20
2.488415197853013
 10
1.219429060390914
 20
2.472166975862462
 10
1.235677282381467
 20
2.439670531881359
  0
LWPOLYLINE
  5
E7
100
AcDbEntity
  8
USP-GEO
100
AcDbPolyline
 90
       13
 70
   128
 43
0.0
 10
1.268986137462097
 20
2.423422309890806
 10
1.26817372636257
 20
2.423422309890806
 10
1.284421948353123
 20
2.423422309890806
 10
1.316918392334225
 20
2.423422309890806
 10
1.333166614324777
 20
2.439670531881359
 10
1.34941483631533
 20
2.472166975862462
 10
1.365663058305881
 20
2.488415197853013
 10
1.34941483631533
 20
2.520911641834118
 10
1.333166614324777
 20
2.553408085815222
 10
1.316918392334225
 20
2.569656307805773
 10
1.284421948353123
 20
2.569656307805773
 10
1.26817372636257
 20
2.569656307805773
 10
1.268986137462097
 20
2.569656307805773
  0
LWPOLYLINE
  5
E8
100
AcDbEntity
  8
USP-GEO
100
AcDbPolyline
 90
        3
 70
   128
 43
0.0
 10
1.300670170343674
 20
2.455918753871911
 10
1.251925504372018
 20
2.504663419843566
 10
1.219429060390914
 20
2.504663419843566
  0
LWPOLYLINE
  5
E9
100
AcDbEntity
  8
USP-GEO
100
AcDbPolyline
 90
        4
 70
   128
 43
0.0
 10
1.284421948353123
 20
4.407330214937186
 10
1.203180838400363
 20
4.472323102899393
 10
1.138187950438156
 20
4.553564212852153
 10
1.121939728447604
 20
4.651053544795464
  0
LWPOLYLINE
  5
EA
100
AcDbEntity
  8
USP-GEO
100
AcDbPolyline
 90
       14
 70
   129
 43
0.0
 10
0.8936522094803498
 20
4.00112466517339
 10
0.9269610645609818
 20
3.887387111239528
 10
0.9919539525231888
 20
3.80533359018724
 10
1.0894432844665
 20
3.756588924215584
 10
1.203180838400363
 20
3.756588924215584
 10
1.300670170343674
 20
3.80533359018724
 10
1.381911280296432
 20
3.887387111239528
 10
1.398159502286985
 20
4.00112466517339
 10
1.381911280296432
 20
4.114862219107253
 10
1.300670170343674
 20
4.196103329060012
 10
1.203180838400363
 20
4.244847995031667
 10
1.0894432844665
 20
4.244847995031667
 10
0.9919539525231888
 20
4.196103329060012
 10
0.9269610645609818
 20
4.114862219107253
  0
LWPOLYLINE
  5
EB
100
AcDbEntity
  8
USP-GEO
100
AcDbPolyline
 90
        7
 70
   128
 43
0.0
 10
0.8936522094803498
 20
4.00112466517339
 10
0.9269610645609818
 20
3.870326478149447
 10
1.024450396504293
 20
3.789085368196689
 10
1.154436172428707
 20
3.756588924215584
 10
1.26817372636257
 20
3.789085368196689
 10
1.365663058305881
 20
3.870326478149447
 10
1.398159502286985
 20
4.00112466517339
  0
LWPOLYLINE
  5
EC
100
AcDbEntity
  8
USP-GEO
100
AcDbPolyline
 90
        2
 70
   128
 43
0.0
 10
0.9432092865515331
 20
3.854078256158896
 10
0.9432092865515331
 20
3.870326478149447
  0
LWPOLYLINE
  5
ED
100
AcDbEntity
  8
USP-GEO
100
AcDbPolyline
 90
        3
 70
   128
 43
0.0
 10
1.430655946268088
 20
4.326089104984427
 10
1.544393500201951
 20
4.17985510706946
 10
1.576889944183055
 20
4.00112466517339
  0
LWPOLYLINE
  5
EE
100
AcDbEntity
  8
USP-GEO
100
AcDbPolyline
 90
        2
 70
   128
 43
0.0
 10
1.186932616409811
 20
3.756588924215584
 10
1.170684394419258
 20
3.756588924215584
  0
LWPOLYLINE
  5
EF
100
AcDbEntity
  8
USP-GEO
100
AcDbPolyline
 90
        2
 70
   128
 43
0.0
 10
1.235677282381467
 20
3.756588924215584
 10
1.219429060390914
 20
3.772837146206137
  0
LWPOLYLINE
  5
F0
100
AcDbEntity
  8
USP-GEO
100
AcDbPolyline
 90
        2
 70
   128
 43
0.0
 10
1.316918392334225
 20
3.821581812177793
 10
1.317730803433753
 20
3.821581812177793
  0
LWPOLYLINE
  5
F1
100
AcDbEntity
  8
USP-GEO
100
AcDbPolyline
 90
       12
 70
   129
 43
0.0
 10
1.26817372636257
 20
4.082365775126149
 10
1.235677282381467
 20
4.066117553135597
 10
1.219429060390914
 20
4.033621109154493
 10
1.219429060390914
 20
4.00112466517339
 10
1.219429060390914
 20
3.968628221192286
 10
1.235677282381467
 20
3.952379999201735
 10
1.26817372636257
 20
3.936131777211183
 10
1.300670170343674
 20
3.952379999201735
 10
1.316918392334225
 20
3.968628221192286
 10
1.316918392334225
 20
4.00112466517339
 10
1.316918392334225
 20
4.033621109154493
 10
1.300670170343674
 20
4.066117553135597
  0
LWPOLYLINE
  5
F2
100
AcDbEntity
  8
USP-GEO
100
AcDbPolyline
 90
        3
 70
   128
 43
0.0
 10
1.300670170343674
 20
3.952379999201735
 10
1.251925504372018
 20
4.00112466517339
 10
1.219429060390914
 20
4.00112466517339
  0
LWPOLYLINE
  5
F3
100
AcDbEntity
  8
USP-GEO
100
AcDbPolyline
 90
       13
 70
   128
 43
0.0
 10
1.268986137462097
 20
3.936131777211183
 10
1.26817372636257
 20
3.936131777211183
 10
1.284421948353123
 20
3.936131777211183
 10
1.316918392334225
 20
3.936131777211183
 10
1.333166614324777
 20
3.952379999201735
 10
1.34941483631533
 20
3.968628221192286
 10
1.365663058305881
 20
4.00112466517339
 10
1.34941483631533
 20
4.033621109154493
 10
1.333166614324777
 20
4.066117553135597
 10
1.316918392334225
 20
4.082365775126149
 10
1.284421948353123
 20
4.082365775126149
 10
1.26817372636257
 20
4.082365775126149
 10
1.268986137462097
 20
4.082365775126149
  0
LWPOLYLINE
  5
F4
100
AcDbEntity
  8
USP-GEO
100
AcDbPolyline
 90
        2
 70
   128
 43
0.0
 10
1.34941483631533
 20
3.854078256158896
 10
1.34941483631533
 20
3.870326478149447
  0
LWPOLYLINE
  5
F5
100
AcDbEntity
  8
USP-GEO
100
AcDbPolyline
 90
        2
 70
   129
 43
0.0
 10
1.284421948353123
 20
4.407330214937186
 10
1.430655946268088
 20
4.326089104984427
  0
LWPOLYLINE
  5
F6
100
AcDbEntity
  8
USP-GEO
100
AcDbPolyline
 90
        8
 70
   128
 43
0.0
 10
0.0
 20
6.814504302837441
 10
0.0487446659716548
 20
6.814504302837441
 10
0.0487446659716548
 20
6.684518526913025
 10
0.0487446659716548
 20
6.505788085016956
 10
0.0487446659716548
 20
6.293748788040254
 10
0.0487446659716548
 20
6.115018346144184
 10
0.0487446659716548
 20
5.98503257021977
 10
0.0
 20
5.98503257021977
  0
LWPOLYLINE
  5
F7
100
AcDbEntity
  8
USP-GEO
100
AcDbPolyline
 90
       16
 70
   128
 43
0.0
 10
0.0
 20
7.041979410705167
 10
0.0
 20
6.944490078761855
 10
0.0
 20
6.863248968809097
 10
0.0
 20
6.814504302837441
 10
0.0
 20
6.684518526913025
 10
0.0
 20
6.505788085016956
 10
0.0
 20
6.293748788040254
 10
0.0
 20
6.115018346144184
 10
0.0
 20
5.98503257021977
 10
0.0
 20
5.936287904248114
 10
0.0
 20
5.855046794295354
 10
0.0
 20
5.757557462352044
 10
0.0487446659716548
 20
5.757557462352044
 10
0.0487446659716548
 20
5.855046794295354
 10
0.0487446659716548
 20
5.936287904248114
 10
0.0487446659716548
 20
5.98503257021977
  0
LWPOLYLINE
  5
F8
100
AcDbEntity
  8
USP-GEO
100
AcDbPolyline
 90
       12
 70
   129
 43
0.0
 10
0.2274751078677246
 20
4.99307861769658
 10
0.1624822199055176
 20
5.041823283668236
 10
0.1462339979149663
 20
5.123064393620994
 10
0.1624822199055176
 20
5.204305503573754
 10
0.2274751078677246
 20
5.253050169545408
 10
0.3087162178204847
 20
5.285546613526513
 10
0.3737091057826918
 20
5.253050169545408
 10
0.4387019937448989
 20
5.204305503573754
 10
0.454950215735452
 20
5.123064393620994
 10
0.4387019937448989
 20
5.041823283668236
 10
0.3737091057826918
 20
4.99307861769658
 10
0.3087162178204847
 20
4.960582173715476
  0
LWPOLYLINE
  5
F9
100
AcDbEntity
  8
USP-GEO
100
AcDbPolyline
 90
        7
 70
   128
 43
0.0
 10
1.560641722192504
 20
6.293748788040254
 10
1.560641722192504
 20
6.098770124153633
 10
1.463152390249192
 20
5.920039682257561
 10
1.284421948353123
 20
5.806302128323698
 10
1.203180838400363
 20
5.757557462352044
 10
1.138187950438156
 20
5.676316352399284
 10
1.121939728447604
 20
5.561766387365894
  0
LWPOLYLINE
  5
FA
100
AcDbEntity
  8
USP-GEO
100
AcDbPolyline
 90
        8
 70
   128
 43
0.0
 10
1.463152390249192
 20
6.684518526913025
 10
1.560641722192504
 20
6.505788085016956
 10
1.560641722192504
 20
6.293748788040254
 10
1.463152390249192
 20
6.115018346144184
 10
1.284421948353123
 20
5.98503257021977
 10
1.203180838400363
 20
5.936287904248114
 10
1.138187950438156
 20
5.855046794295354
 10
1.121939728447604
 20
5.757557462352044
  0
LWPOLYLINE
  5
FB
100
AcDbEntity
  8
USP-GEO
100
AcDbPolyline
 90
        4
 70
   128
 43
0.0
 10
1.284421948353123
 20
6.814504302837441
 10
1.203180838400363
 20
6.863248968809097
 10
1.138187950438156
 20
6.944490078761855
 10
1.121939728447604
 20
7.041979410705167
  0
LWPOLYLINE
  5
FC
100
AcDbEntity
  8
USP-GEO
100
AcDbPolyline
 90
       12
 70
   129
 43
0.0
 10
0.8936522094803498
 20
6.391238119983565
 10
0.9269610645609818
 20
6.277500566049702
 10
1.024450396504293
 20
6.180011234106391
 10
1.154436172428707
 20
6.147514790125288
 10
1.26817372636257
 20
6.180011234106391
 10
1.365663058305881
 20
6.277500566049702
 10
1.398159502286985
 20
6.391238119983565
 10
1.365663058305881
 20
6.522036307007507
 10
1.26817372636257
 20
6.619525638950818
 10
1.154436172428707
 20
6.652022082931923
 10
1.024450396504293
 20
6.619525638950818
 10
0.9269610645609818
 20
6.522036307007507
  0
LWPOLYLINE
  5
FD
100
AcDbEntity
  8
USP-GEO
100
AcDbPolyline
 90
        2
 70
   129
 43
0.0
 10
1.284421948353123
 20
6.814504302837441
 10
1.463152390249192
 20
6.684518526913025
  0
LWPOLYLINE
  5
FE
100
AcDbEntity
  8
USP-GEO
100
AcDbPolyline
 90
       12
 70
   129
 43
0.0
 10
1.26817372636257
 20
6.326245232021358
 10
1.300670170343674
 20
6.34249345401191
 10
1.316918392334225
 20
6.374989897993014
 10
1.316918392334225
 20
6.391238119983565
 10
1.316918392334225
 20
6.42373456396467
 10
1.300670170343674
 20
6.456231007945772
 10
1.26817372636257
 20
6.473291641035851
 10
1.235677282381467
 20
6.456231007945772
 10
1.219429060390914
 20
6.42373456396467
 10
1.219429060390914
 20
6.391238119983565
 10
1.219429060390914
 20
6.374989897993014
 10
1.235677282381467
 20
6.34249345401191
  0
LWPOLYLINE
  5
FF
100
AcDbEntity
  8
USP-GEO
100
AcDbPolyline
 90
       13
 70
   128
 43
0.0
 10
1.268986137462097
 20
6.326245232021358
 10
1.26817372636257
 20
6.326245232021358
 10
1.284421948353123
 20
6.326245232021358
 10
1.316918392334225
 20
6.326245232021358
 10
1.333166614324777
 20
6.34249345401191
 10
1.34941483631533
 20
6.374989897993014
 10
1.365663058305881
 20
6.391238119983565
 10
1.34941483631533
 20
6.42373456396467
 10
1.333166614324777
 20
6.456231007945772
 10
1.316918392334225
 20
6.473291641035851
 10
1.284421948353123
 20
6.473291641035851
 10
1.26817372636257
 20
6.473291641035851
 10
1.268986137462097
 20
6.473291641035851
  0
LWPOLYLINE
  5
100
100
AcDbEntity
  8
USP-GEO
100
AcDbPolyline
 90
        3
 70
   128
 43
0.0
 10
1.300670170343674
 20
6.358741676002461
 10
1.251925504372018
 20
6.407486341974117
 10
1.219429060390914
 20
6.407486341974117
  0
LWPOLYLINE
  5
101
100
AcDbEntity
  8
USP-GEO
100
AcDbPolyline
 90
        2
 70
   128
 43
0.0
 10
3.332510330262182
 20
0.2274751078677273
 10
2.048088381909058
 20
1.740184575188102
  0
LWPOLYLINE
  5
102
100
AcDbEntity
  8
USP-GEO
100
AcDbPolyline
 90
        2
 70
   129
 43
0.0
 10
3.365006774243284
 20
0.1462339979149672
 10
3.365006774243284
 20
0.0
  0
LWPOLYLINE
  5
103
100
AcDbEntity
  8
USP-GEO
100
AcDbPolyline
 90
        2
 70
   129
 43
0.0
 10
3.332510330262182
 20
0.2274751078677273
 10
3.348758552252733
 20
0.2112268858771742
  0
LWPOLYLINE
  5
104
100
AcDbEntity
  8
USP-GEO
100
AcDbPolyline
 90
        3
 70
   128
 43
0.0
 10
3.348758552252733
 20
0.2112268858771742
 10
3.365006774243284
 20
0.1787304418960716
 10
3.365006774243284
 20
0.1462339979149672
  0
LWPOLYLINE
  5
105
100
AcDbEntity
  8
USP-GEO
100
AcDbPolyline
 90
       22
 70
   128
 43
0.0
 10
1.121939728447604
 20
9.254174834718799
 10
0.0487446659716548
 20
9.254174834718799
 10
0.0
 20
9.254174834718799
 10
0.0
 20
8.765915763902716
 10
0.0
 20
8.668426431959405
 10
0.0
 20
8.587185322006645
 10
0.0
 20
8.538440656034991
 10
0.0
 20
8.424703102101128
 10
0.0
 20
8.229724438214505
 10
0.0
 20
8.017685141237803
 10
0.0
 20
7.838954699341734
 10
0.0
 20
7.725217145407871
 10
0.0487446659716548
 20
7.725217145407871
 10
0.0487446659716548
 20
7.838954699341734
 10
0.0487446659716548
 20
8.017685141237803
 10
0.0487446659716548
 20
8.229724438214505
 10
0.0487446659716548
 20
8.424703102101128
 10
0.0487446659716548
 20
8.538440656034991
 10
0.0487446659716548
 20
8.587185322006645
 10
0.0487446659716548
 20
8.668426431959405
 10
0.0487446659716548
 20
8.765915763902716
 10
0.0
 20
8.765915763902716
  0
LWPOLYLINE
  5
106
100
AcDbEntity
  8
USP-GEO
100
AcDbPolyline
 90
        4
 70
   128
 43
0.0
 10
0.0
 20
7.725217145407871
 10
0.0
 20
7.660224257445664
 10
0.0
 20
7.578983147492904
 10
0.0
 20
7.481493815549594
  0
LWPOLYLINE
  5
107
100
AcDbEntity
  8
USP-GEO
100
AcDbPolyline
 90
        2
 70
   128
 43
0.0
 10
0.0487446659716548
 20
8.538440656034991
 10
0.0
 20
8.538440656034991
  0
LWPOLYLINE
  5
108
100
AcDbEntity
  8
USP-GEO
100
AcDbPolyline
 90
        4
 70
   128
 43
0.0
 10
1.284421948353123
 20
8.538440656034991
 10
1.203180838400363
 20
8.587185322006645
 10
1.138187950438156
 20
8.668426431959405
 10
1.121939728447604
 20
8.765915763902716
  0
LWPOLYLINE
  5
109
100
AcDbEntity
  8
USP-GEO
100
AcDbPolyline
 90
        8
 70
   128
 43
0.0
 10
1.463152390249192
 20
8.424703102101128
 10
1.560641722192504
 20
8.229724438214505
 10
1.560641722192504
 20
8.017685141237803
 10
1.463152390249192
 20
7.838954699341734
 10
1.284421948353123
 20
7.725217145407871
 10
1.203180838400363
 20
7.660224257445664
 10
1.138187950438156
 20
7.578983147492904
 10
1.121939728447604
 20
7.481493815549594
  0
LWPOLYLINE
  5
10A
100
AcDbEntity
  8
USP-GEO
100
AcDbPolyline
 90
       12
 70
   129
 43
0.0
 10
0.8936522094803498
 20
8.131422695171666
 10
0.9269610645609818
 20
8.001436919247252
 10
1.024450396504293
 20
7.903947587303941
 10
1.154436172428707
 20
7.871451143322838
 10
1.26817372636257
 20
7.903947587303941
 10
1.365663058305881
 20
8.001436919247252
 10
1.398159502286985
 20
8.131422695171666
 10
1.365663058305881
 20
8.245972660205056
 10
1.26817372636257
 20
8.343461992148368
 10
1.154436172428707
 20
8.375958436129472
 10
1.024450396504293
 20
8.343461992148368
 10
0.9269610645609818
 20
8.245972660205056
  0
LWPOLYLINE
  5
10B
100
AcDbEntity
  8
USP-GEO
100
AcDbPolyline
 90
        2
 70
   129
 43
0.0
 10
1.284421948353123
 20
8.538440656034991
 10
1.463152390249192
 20
8.424703102101128
  0
LWPOLYLINE
  5
10C
100
AcDbEntity
  8
USP-GEO
100
AcDbPolyline
 90
       12
 70
   129
 43
0.0
 10
1.26817372636257
 20
8.197227994233402
 10
1.300670170343674
 20
8.180167361143324
 10
1.316918392334225
 20
8.163919139152771
 10
1.316918392334225
 20
8.131422695171666
 10
1.316918392334225
 20
8.098926251190563
 10
1.300670170343674
 20
8.066429807209461
 10
1.26817372636257
 20
8.050181585218908
 10
1.235677282381467
 20
8.066429807209461
 10
1.219429060390914
 20
8.098926251190563
 10
1.219429060390914
 20
8.131422695171666
 10
1.219429060390914
 20
8.163919139152771
 10
1.235677282381467
 20
8.180167361143324
  0
LWPOLYLINE
  5
10D
100
AcDbEntity
  8
USP-GEO
100
AcDbPolyline
 90
        3
 70
   128
 43
0.0
 10
1.300670170343674
 20
8.082678029200012
 10
1.251925504372018
 20
8.131422695171666
 10
1.219429060390914
 20
8.131422695171666
  0
LWPOLYLINE
  5
10E
100
AcDbEntity
  8
USP-GEO
100
AcDbPolyline
 90
       13
 70
   128
 43
0.0
 10
1.268986137462097
 20
8.050181585218908
 10
1.26817372636257
 20
8.050181585218908
 10
1.284421948353123
 20
8.050181585218908
 10
1.316918392334225
 20
8.050181585218908
 10
1.333166614324777
 20
8.066429807209461
 10
1.34941483631533
 20
8.098926251190563
 10
1.365663058305881
 20
8.131422695171666
 10
1.34941483631533
 20
8.163919139152771
 10
1.333166614324777
 20
8.180167361143324
 10
1.316918392334225
 20
8.197227994233402
 10
1.284421948353123
 20
8.197227994233402
 10
1.26817372636257
 20
8.197227994233402
 10
1.268986137462097
 20
8.197227994233402
  0
LWPOLYLINE
  5
10F
100
AcDbEntity
  8
USP-GEO
100
AcDbPolyline
 90
        2
 70
   129
 43
0.0
 10
1.121939728447604
 20
9.254174834718799
 10
1.121939728447604
 20
8.765915763902716
  0
ENDBLK
  5
111
100
AcDbEntity
  8
0
100
AcDbBlockEnd
  0
ENDSEC
  0
SECTION
  2
ENTITIES
  0
INSERT
  5
3
100
AcDbEntity
  8
USP
100
AcDbBlockReference
  2
HUS210_T
 10
5.576258528025686
 20
12.9173265026058
 30
0.0
  0
INSERT
  5
41
100
AcDbEntity
  8
USP
100
AcDbBlockReference
  2
HUS210_F
 10
5.576258528025686
 20
0.8172755862418537
 30
0.0
  0
INSERT
  5
CA
100
AcDbEntity
  8
USP
100
AcDbBlockReference
  2
HUS210_S
 10
0.6343618095993451
 20
0.8172755862418537
 30
0.0
  0
ENDSEC
  0
SECTION
  2
OBJECTS
  0
DICTIONARY
  5
12A
102
{ACAD_XDICTIONARY
360
12B
102
}
100
AcDbDictionary
  3
ACAD_GROUP
350
128
  3
ACAD_MLINESTYLE
350
129
  0
DICTIONARY
  5
9
100
AcDbDictionary
280
     1
  3
ACAD_XREC_ROUNDTRIP
360
A
  0
DICTIONARY
  5
E
100
AcDbDictionary
280
     1
  3
ACAD_XREC_ROUNDTRIP
360
F
  0
DICTIONARY
  5
112
100
AcDbDictionary
280
     1
  3
ACAD_LAYOUTSELFREF
360
113
  0
DICTIONARY
  5
117
100
AcDbDictionary
280
     1
  3
ACAD_LAYOUTSELFREF
360
118
  0
DICTIONARY
  5
12B
100
AcDbDictionary
280
     1
  3
ACAD_XREC_ROUNDTRIP
360
12C
  0
DICTIONARY
  5
128
102
{ACAD_REACTORS
330
12A
102
}
100
AcDbDictionary
  0
DICTIONARY
  5
129
102
{ACAD_REACTORS
330
12A
102
}
100
AcDbDictionary
  3
STANDARD
350
12D
  0
XRECORD
  5
A
102
{ACAD_REACTORS
330
9
102
}
100
AcDbXrecord
102
EXTNAMES
  1
USP-GEO
  2
USP-Geo
  0
XRECORD
  5
F
102
{ACAD_REACTORS
330
E
102
}
100
AcDbXrecord
102
EXTNAMES
  1
USP-TXT
  2
USP-Txt
  0
XRECORD
  5
113
102
{ACAD_REACTORS
330
112
102
}
100
AcDbXrecord
340
18
  0
XRECORD
  5
118
102
{ACAD_REACTORS
330
117
102
}
100
AcDbXrecord
340
15
  0
XRECORD
  5
12C
102
{ACAD_REACTORS
330
12B
102
}
100
AcDbXrecord
102
EXTNAMES
  1
ACDBVARIABLEDICTIONARY
  2
AcDbVariableDictionary
  0
MLINESTYLE
  5
12D
102
{ACAD_REACTORS
330
129
102
}
100
AcDbMlineStyle
  2
STANDARD
 70
     0
  3

 62
     0
 51
90.0
 52
90.0
 71
     2
 49
0.5
 62
   256
  6
BYLAYER
 49
-0.5
 62
   256
  6
BYLAYER
  0
ENDSEC
  0
EOF
